  0
SECTION
  2
HEADER
  9
$ACADVER
  1
AC1009
  9
$DWGCODEPAGE
  3
ansi_1252
  9
$INSBASE
 10
0.0
 20
0.0
 30
0.0
  9
$EXTMIN
 10
-24.48434616723944
 20
80.29717168115984
 30
-0.0000000000000711
  9
$EXTMAX
 10
360.5115505103411
 20
270.2971716811599
 30
0.0000000000000711
  9
$LIMMIN
 10
0.0
 20
0.0
  9
$LIMMAX
 10
12.0
 20
9.0
  9
$ORTHOMODE
 70
     0
  9
$REGENMODE
 70
     1
  9
$FILLMODE
 70
     1
  9
$QTEXTMODE
 70
     0
  9
$MIRRTEXT
 70
     1
  9
$DRAGMODE
 70
     2
  9
$LTSCALE
 40
1.0
  9
$OSMODE
 70
    37
  9
$ATTMODE
 70
     1
  9
$TEXTSIZE
 40
0.2
  9
$TRACEWID
 40
0.05
  9
$TEXTSTYLE
  7
STANDARD
  9
$CLAYER
  8
DEFAULT
  9
$CELTYPE
  6
BYLAYER
  9
$CECOLOR
 62
   256
  9
$DIMSCALE
 40
1.0
  9
$DIMASZ
 40
0.18
  9
$DIMEXO
 40
0.0625
  9
$DIMDLI
 40
0.38
  9
$DIMRND
 40
0.0
  9
$DIMDLE
 40
0.0
  9
$DIMEXE
 40
0.18
  9
$DIMTP
 40
0.0
  9
$DIMTM
 40
0.0
  9
$DIMTXT
 40
0.18
  9
$DIMCEN
 40
0.09
  9
$DIMTSZ
 40
0.0
  9
$DIMTOL
 70
     0
  9
$DIMLIM
 70
     0
  9
$DIMTIH
 70
     1
  9
$DIMTOH
 70
     1
  9
$DIMSE1
 70
     0
  9
$DIMSE2
 70
     0
  9
$DIMTAD
 70
     0
  9
$DIMZIN
 70
     0
  9
$DIMBLK
  1

  9
$DIMASO
 70
     1
  9
$DIMSHO
 70
     1
  9
$DIMPOST
  1

  9
$DIMAPOST
  1

  9
$DIMALT
 70
     0
  9
$DIMALTD
 70
     2
  9
$DIMALTF
 40
25.4
  9
$DIMLFAC
 40
1.0
  9
$DIMTOFL
 70
     0
  9
$DIMTVP
 40
0.0
  9
$DIMTIX
 70
     0
  9
$DIMSOXD
 70
     0
  9
$DIMSAH
 70
     0
  9
$DIMBLK1
  1

  9
$DIMBLK2
  1

  9
$DIMSTYLE
  2
STANDARD
  9
$DIMCLRD
 70
     0
  9
$DIMCLRE
 70
     0
  9
$DIMCLRT
 70
     0
  9
$DIMTFAC
 40
1.0
  9
$DIMGAP
 40
0.09
  9
$LUNITS
 70
     2
  9
$LUPREC
 70
     4
  9
$SKETCHINC
 40
0.1
  9
$FILLETRAD
 40
0.5
  9
$AUNITS
 70
     0
  9
$AUPREC
 70
     0
  9
$MENU
  1
.
  9
$ELEVATION
 40
0.0
  9
$PELEVATION
 40
0.0
  9
$THICKNESS
 40
0.0
  9
$LIMCHECK
 70
     0
  9
$CHAMFERA
 40
0.0
  9
$CHAMFERB
 40
0.0
  9
$SKPOLY
 70
     0
  9
$TDCREATE
 40
2457919.992171562
  9
$TDUPDATE
 40
2457919.992193553
  9
$TDINDWG
 40
0.0000000116
  9
$TDUSRTIMER
 40
0.0000000116
  9
$USRTIMER
 70
     1
  9
$ANGBASE
 50
0.0
  9
$ANGDIR
 70
     0
  9
$PDMODE
 70
     0
  9
$PDSIZE
 40
0.0
  9
$PLINEWID
 40
0.0
  9
$COORDS
 70
     1
  9
$SPLFRAME
 70
     0
  9
$SPLINETYPE
 70
     6
  9
$SPLINESEGS
 70
     8
  9
$ATTDIA
 70
     0
  9
$ATTREQ
 70
     1
  9
$HANDLING
 70
     1
  9
$HANDSEED
  5
1F0
  9
$SURFTAB1
 70
     6
  9
$SURFTAB2
 70
     6
  9
$SURFTYPE
 70
     6
  9
$SURFU
 70
     6
  9
$SURFV
 70
     6
  9
$UCSNAME
  2

  9
$UCSORG
 10
0.0
 20
0.0
 30
0.0
  9
$UCSXDIR
 10
1.0
 20
0.0
 30
0.0
  9
$UCSYDIR
 10
0.0
 20
1.0
 30
0.0
  9
$PUCSNAME
  2

  9
$PUCSORG
 10
0.0
 20
0.0
 30
0.0
  9
$PUCSXDIR
 10
1.0
 20
0.0
 30
0.0
  9
$PUCSYDIR
 10
0.0
 20
1.0
 30
0.0
  9
$USERI1
 70
     0
  9
$USERI2
 70
     0
  9
$USERI3
 70
     0
  9
$USERI4
 70
     0
  9
$USERI5
 70
     0
  9
$USERR1
 40
0.0
  9
$USERR2
 40
0.0
  9
$USERR3
 40
0.0
  9
$USERR4
 40
0.0
  9
$USERR5
 40
0.0
  9
$WORLDVIEW
 70
     1
  9
$SHADEDGE
 70
     3
  9
$SHADEDIF
 70
    70
  9
$TILEMODE
 70
     1
  9
$MAXACTVP
 70
    64
  9
$PLIMCHECK
 70
     0
  9
$PEXTMIN
 10
1.000000000000000E+20
 20
1.000000000000000E+20
 30
1.000000000000000E+20
  9
$PEXTMAX
 10
-1.000000000000000E+20
 20
-1.000000000000000E+20
 30
-1.000000000000000E+20
  9
$PLIMMIN
 10
0.0
 20
0.0
  9
$PLIMMAX
 10
12.0
 20
9.0
  9
$UNITMODE
 70
     0
  9
$VISRETAIN
 70
     1
  9
$PLINEGEN
 70
     0
  9
$PSLTSCALE
 70
     1
  0
ENDSEC
  0
SECTION
  2
TABLES
  0
TABLE
  2
VPORT
 70
     1
  0
VPORT
  2
*ACTIVE
 70
     0
 10
0.0
 20
0.0
 11
1.0
 21
1.0
 12
168.0136021715508
 22
175.2971716811599
 13
0.0
 23
0.0
 14
0.5
 24
0.5
 15
0.5
 25
0.5
 16
0.0
 26
0.0
 36
1.0
 17
0.0
 27
0.0
 37
0.0
 40
193.8
 41
2.026294193039897
 42
50.0
 43
0.0
 44
0.0
 50
0.0
 51
0.0
 71
     0
 72
   100
 73
     1
 74
     3
 75
     0
 76
     0
 77
     0
 78
     0
  0
ENDTAB
  0
TABLE
  2
LTYPE
 70
     1
  0
LTYPE
  2
CONTINUOUS
 70
     0
  3
Solid line
 72
    65
 73
     0
 40
0.0
  0
ENDTAB
  0
TABLE
  2
LAYER
 70
     4
  0
LAYER
  2
0
 70
     0
 62
     7
  6
CONTINUOUS
  0
LAYER
  2
HOLES
 70
     0
 62
     1
  6
CONTINUOUS
  0
LAYER
  2
DEFAULT
 70
     0
 62
     7
  6
CONTINUOUS
  0
LAYER
  2
POCKET2
 70
     0
 62
     3
  6
CONTINUOUS
  0
ENDTAB
  0
TABLE
  2
STYLE
 70
     1
  0
STYLE
  2
STANDARD
 70
     0
 40
0.0
 41
1.0
 50
0.0
 71
     0
 42
0.2
  3
txt
  4

  0
ENDTAB
  0
TABLE
  2
VIEW
 70
     0
  0
ENDTAB
  0
TABLE
  2
UCS
 70
     0
  0
ENDTAB
  0
TABLE
  2
APPID
 70
     1
  0
APPID
  2
ACAD
 70
     0
  0
ENDTAB
  0
TABLE
  2
DIMSTYLE
 70
     1
  0
DIMSTYLE
  2
STANDARD
 70
     0
  3

  4

  5

  6

  7

 40
1.0
 41
0.18
 42
0.0625
 43
0.38
 44
0.18
 45
0.0
 46
0.0
 47
0.0
 48
0.0
140
0.18
141
0.09
142
0.0
143
25.4
144
1.0
145
0.0
146
1.0
147
0.09
 71
     0
 72
     0
 73
     1
 74
     1
 75
     0
 76
     0
 77
     0
 78
     0
170
     0
171
     2
172
     0
173
     0
174
     0
175
     0
176
     0
177
     0
178
     0
  0
ENDTAB
  0
ENDSEC
  0
SECTION
  2
BLOCKS
  0
BLOCK
  8
0
  2
$MODEL_SPACE
 70
     0
 10
0.0
 20
0.0
 30
0.0
  3
$MODEL_SPACE
  1

  0
ENDBLK
  5
21
  8
0
  0
BLOCK
 67
     1
  8
0
  2
$PAPER_SPACE
 70
     0
 10
0.0
 20
0.0
 30
0.0
  3
$PAPER_SPACE
  1

  0
ENDBLK
  5
1D
 67
     1
  8
0
  0
ENDSEC
  0
SECTION
  2
ENTITIES
  0
CIRCLE
  5
6F
  8
HOLES
 10
188.7390689964473
 20
99.04717168115982
 30
0.0000000000000711
 40
2.249999999999996
  0
CIRCLE
  5
70
  8
HOLES
 10
342.2840320242349
 20
136.5471716811599
 30
0.0
 40
2.249999999999996
  0
CIRCLE
  5
71
  8
HOLES
 10
188.7390689964473
 20
136.5471716811599
 30
0.0
 40
2.249999999999996
  0
CIRCLE
  5
72
  8
HOLES
 10
342.2840320242349
 20
99.04717168115982
 30
0.0
 40
2.249999999999996
  0
CIRCLE
  5
73
  8
HOLES
 10
241.7615505103411
 20
255.2971716811599
 30
0.0000000000000711
 40
2.250000000000014
  0
CIRCLE
  5
74
  8
HOLES
 10
289.2615505103412
 20
255.2971716811599
 30
0.0000000000000711
 40
2.250000000000014
  0
CIRCLE
  5
75
  8
HOLES
 10
94.26565383276068
 20
255.2971716811599
 30
0.0
 40
2.250000000000014
  0
CIRCLE
  5
76
  8
HOLES
 10
46.76565383276056
 20
255.2971716811599
 30
0.0
 40
2.250000000000014
  0
CIRCLE
  5
77
  8
HOLES
 10
147.2881353466544
 20
99.04717168115982
 30
-0.0000000000000711
 40
2.249999999999996
  0
CIRCLE
  5
78
  8
HOLES
 10
-6.256827681133245
 20
136.5471716811599
 30
-0.0000000000000711
 40
2.249999999999996
  0
CIRCLE
  5
79
  8
HOLES
 10
147.2881353466544
 20
136.5471716811599
 30
-0.0000000000000711
 40
2.249999999999996
  0
CIRCLE
  5
7A
  8
HOLES
 10
-6.256827681133245
 20
99.04717168115982
 30
0.0
 40
2.249999999999996
  0
LINE
  5
7C
  8
DEFAULT
 10
170.5115505103411
 20
185.3842872905218
 30
0.0000000000000711
 11
170.5115505103411
 21
80.29717168115985
 31
0.0
  0
LINE
  5
7D
  8
DEFAULT
 10
170.5115505103411
 20
80.29717168115985
 30
0.0
 11
360.5115505103411
 21
80.29717168115984
 31
0.0
  0
LINE
  5
7E
  8
DEFAULT
 10
360.5115505103411
 20
80.29717168115984
 30
0.0
 11
360.5115505103411
 21
185.3842872905219
 31
0.0000000000000355
  0
LINE
  5
7F
  8
DEFAULT
 10
360.5115505103411
 20
185.3842872905219
 30
0.0000000000000711
 11
360.4065132276007
 21
186.0278334736066
 31
0.0000000000000711
  0
LINE
  5
80
  8
DEFAULT
 10
360.4065132276007
 20
186.0278334736066
 30
0.0000000000000711
 11
360.2873472710802
 21
186.6606257826508
 31
0.0000000000000711
  0
LINE
  5
81
  8
DEFAULT
 10
360.2873472710802
 20
186.6606257826508
 30
0.0000000000000711
 11
360.1540473713551
 21
187.2826623236579
 31
0.0000000000000711
  0
LINE
  5
82
  8
DEFAULT
 10
360.1540473713551
 20
187.2826623236579
 30
0.0000000000000711
 11
360.0066118699599
 21
187.8939442414912
 31
0.0000000000000711
  0
LINE
  5
83
  8
DEFAULT
 10
360.0066118699599
 20
187.8939442414912
 30
0.0000000000000711
 11
359.8244785252234
 21
188.566609322009
 31
0.0000000000000711
  0
LINE
  5
84
  8
DEFAULT
 10
359.8244785252234
 20
188.566609322009
 30
0.0000000000000711
 11
359.6245849060692
 21
189.2257698149515
 31
0.0000000000000711
  0
LINE
  5
85
  8
DEFAULT
 10
359.6245849060692
 20
189.2257698149515
 30
0.0000000000000711
 11
359.4069496449222
 21
189.8714447765506
 31
0.0000000000000711
  0
LINE
  5
86
  8
DEFAULT
 10
359.4069496449222
 20
189.8714447765506
 30
0.0000000000000711
 11
359.1716004687483
 21
190.5036607674862
 31
0.0000000000000711
  0
LINE
  5
87
  8
DEFAULT
 10
359.1716004687483
 20
190.5036607674862
 30
0.0000000000000711
 11
358.9185750900414
 21
191.1224525622411
 31
0.0000000000000711
  0
LINE
  5
88
  8
DEFAULT
 10
358.9185750900414
 20
191.1224525622411
 30
0.0000000000000711
 11
358.6479220978112
 21
191.7278638584562
 31
0.0000000000000711
  0
LINE
  5
89
  8
DEFAULT
 10
358.6479220978112
 20
191.7278638584562
 30
0.0000000000000711
 11
358.3597018485716
 21
192.3199479862848
 31
0.0000000000000711
  0
LINE
  5
8A
  8
DEFAULT
 10
358.3597018485716
 20
192.3199479862848
 30
0.0000000000000711
 11
358.0539873573276
 21
192.8987686177477
 31
0.0000000000000711
  0
LINE
  5
8B
  8
DEFAULT
 10
358.0539873573276
 20
192.8987686177477
 30
0.0000000000000711
 11
357.7308651917623
 21
193.4644004786149
 31
0.0000000000000711
  0
LINE
  5
8C
  8
DEFAULT
 10
357.7308651917623
 20
193.4644004786149
 30
0.0000000000000711
 11
357.3904364495617
 21
194.0169301260454
 31
0.0000000000000711
  0
LINE
  5
8D
  8
DEFAULT
 10
357.3904364495617
 20
194.0169301260454
 30
0.0000000000000711
 11
357.0328179468019
 21
194.5564568931189
 31
0.0000000000000711
  0
LINE
  5
8E
  8
DEFAULT
 10
357.0328179468019
 20
194.5564568931189
 30
0.0000000000000711
 11
356.658143489475
 21
195.0830938991265
 31
0.0000000000000711
  0
LINE
  5
8F
  8
DEFAULT
 10
356.658143489475
 20
195.0830938991265
 30
0.0000000000000711
 11
356.2665651482131
 21
195.5969690623873
 31
0.0000000000000711
  0
LINE
  5
90
  8
DEFAULT
 10
356.2665651482131
 20
195.5969690623873
 30
0.0000000000000711
 11
355.8582545330125
 21
196.0982261130656
 31
0.0000000000000711
  0
LINE
  5
91
  8
DEFAULT
 10
355.8582545330125
 20
196.0982261130656
 30
0.0000000000000711
 11
355.4334040679591
 21
196.5870256059879
 31
0.0000000000000711
  0
LINE
  5
92
  8
DEFAULT
 10
355.4334040679591
 20
196.5870256059879
 30
0.0000000000000711
 11
354.9922282659518
 21
197.0635459334602
 31
0.0000000000000711
  0
LINE
  5
93
  8
DEFAULT
 10
354.9922282659518
 20
197.0635459334602
 30
0.0000000000000711
 11
354.5349649982332
 21
197.527984333914
 31
0.0000000000000711
  0
LINE
  5
94
  8
DEFAULT
 10
354.5349649982332
 20
197.527984333914
 30
0.0000000000000711
 11
354.0618766288663
 21
197.9805577921259
 31
0.0000000000000711
  0
LINE
  5
95
  8
DEFAULT
 10
354.0618766288663
 20
197.9805577921259
 30
0.0000000000000711
 11
353.5732508063836
 21
198.4215036641949
 31
0.0000000000000711
  0
LINE
  5
96
  8
DEFAULT
 10
353.5732508063836
 20
198.4215036641949
 30
0.0000000000000711
 11
353.0694011203828
 21
198.851080194093
 31
0.0000000000000711
  0
LINE
  5
97
  8
DEFAULT
 10
353.0694011203828
 20
198.851080194093
 30
0.0000000000000711
 11
352.5506677529285
 21
199.2695670260452
 31
0.0000000000000711
  0
LINE
  5
98
  8
DEFAULT
 10
352.5506677529285
 20
199.2695670260452
 30
0.0000000000000711
 11
352.0174181299531
 21
199.6772657169089
 31
0.0000000000000711
  0
LINE
  5
99
  8
DEFAULT
 10
352.0174181299531
 20
199.6772657169089
 30
0.0000000000000711
 11
351.4700475726593
 21
200.0745002485537
 31
0.0000000000000711
  0
LINE
  5
9A
  8
DEFAULT
 10
351.4700475726593
 20
200.0745002485537
 30
0.0000000000000711
 11
350.9089799489205
 21
200.4616175402418
 31
0.0000000000000711
  0
LINE
  5
9B
  8
DEFAULT
 10
350.9089799489205
 20
200.4616175402418
 30
0.0000000000000711
 11
350.3346683039366
 21
200.8389879444276
 31
0.0000000000000711
  0
LINE
  5
9C
  8
DEFAULT
 10
350.3346683039366
 20
200.8389879444276
 30
0.0000000000000711
 11
349.7475949514801
 21
201.2070053114919
 31
0.0000000000000711
  0
LINE
  5
9D
  8
DEFAULT
 10
349.7475949514801
 20
201.2070053114919
 30
0.0000000000000711
 11
349.1482701958783
 21
201.5660859602295
 31
0.0000000000000711
  0
LINE
  5
9E
  8
DEFAULT
 10
349.1482701958783
 20
201.5660859602295
 30
0.0000000000000711
 11
348.5372305145855
 21
201.9166672172699
 31
0.0000000000000711
  0
LINE
  5
9F
  8
DEFAULT
 10
348.5372305145855
 20
201.9166672172699
 30
0.0000000000000711
 11
347.2822721213392
 21
202.5941770390016
 31
0.0000000000000711
  0
LINE
  5
A0
  8
DEFAULT
 10
347.2822721213392
 20
202.5941770390016
 30
0.0000000000000711
 11
345.9874652033292
 21
203.2433974144006
 31
0.0000000000000711
  0
LINE
  5
A1
  8
DEFAULT
 10
345.9874652033292
 20
203.2433974144006
 30
0.0000000000000711
 11
344.6578564518044
 21
203.8684326730736
 31
0.0000000000000711
  0
LINE
  5
A2
  8
DEFAULT
 10
344.6578564518044
 20
203.8684326730736
 30
0.0000000000000711
 11
343.2987385798564
 21
204.4735843936324
 31
0.0000000000000711
  0
LINE
  5
A3
  8
DEFAULT
 10
343.2987385798564
 20
204.4735843936324
 30
0.0000000000000711
 11
334.8404313872195
 21
207.9435480837242
 31
0.0000000000000711
  0
LINE
  5
A4
  8
DEFAULT
 10
334.8404313872195
 20
207.9435480837242
 30
0.0000000000000711
 11
332.0443768974912
 21
209.1516446402401
 31
0.0000000000000711
  0
LINE
  5
A5
  8
DEFAULT
 10
332.0443768974912
 20
209.1516446402401
 30
0.0000000000000711
 11
330.6763445841135
 21
209.786086248818
 31
0.0000000000000711
  0
LINE
  5
A6
  8
DEFAULT
 10
330.6763445841135
 20
209.786086248818
 30
0.0000000000000711
 11
329.3354187291523
 21
210.4465424541479
 31
0.0000000000000711
  0
LINE
  5
A7
  8
DEFAULT
 10
329.3354187291523
 20
210.4465424541479
 30
0.0000000000000711
 11
328.0266217273838
 21
211.1370729623581
 31
0.0000000000000711
  0
LINE
  5
A8
  8
DEFAULT
 10
328.0266217273838
 20
211.1370729623581
 30
0.0000000000000711
 11
326.7546715477628
 21
211.8614877507081
 31
0.0000000000000711
  0
LINE
  5
A9
  8
DEFAULT
 10
326.7546715477628
 20
211.8614877507081
 30
0.0000000000000711
 11
326.1338940563235
 21
212.2375150255583
 31
0.0000000000000711
  0
LINE
  5
AA
  8
DEFAULT
 10
326.1338940563235
 20
212.2375150255583
 30
0.0000000000000711
 11
325.5239367784343
 21
212.6233103312016
 31
0.0000000000000711
  0
LINE
  5
AB
  8
DEFAULT
 10
325.5239367784343
 20
212.6233103312016
 30
0.0000000000000711
 11
324.925283947673
 21
213.0192634198442
 31
0.0000000000000711
  0
LINE
  5
AC
  8
DEFAULT
 10
324.925283947673
 20
213.0192634198442
 30
0.0000000000000711
 11
324.3383924397956
 21
213.4257416254397
 31
0.0000000000000711
  0
LINE
  5
AD
  8
DEFAULT
 10
324.3383924397956
 20
213.4257416254397
 30
0.0000000000000711
 11
323.7636904145747
 21
213.8430887534327
 31
0.0000000000000711
  0
LINE
  5
AE
  8
DEFAULT
 10
323.7636904145747
 20
213.8430887534327
 30
0.0000000000000711
 11
323.2015765233739
 21
214.2716244363706
 31
0.0000000000000711
  0
LINE
  5
AF
  8
DEFAULT
 10
323.2015765233739
 20
214.2716244363706
 30
0.0000000000000711
 11
322.6524205527904
 21
214.7116446721258
 31
0.0000000000000711
  0
LINE
  5
B0
  8
DEFAULT
 10
322.6524205527904
 20
214.7116446721258
 30
0.0000000000000711
 11
322.1165646340336
 21
215.1634228279863
 31
0.0000000000000711
  0
LINE
  5
B1
  8
DEFAULT
 10
322.1165646340336
 20
215.1634228279863
 30
0.0000000000000711
 11
321.5943244740622
 21
215.6272106626664
 31
0.0000000000000711
  0
LINE
  5
B2
  8
DEFAULT
 10
321.5943244740622
 20
215.6272106626664
 30
0.0000000000000711
 11
321.0859905867188
 21
216.1032393483166
 31
0.0000000000000711
  0
LINE
  5
B3
  8
DEFAULT
 10
321.0859905867188
 20
216.1032393483166
 30
0.0000000000000711
 11
320.591829523867
 21
216.591720492534
 31
0.0000000000000711
  0
LINE
  5
B4
  8
DEFAULT
 10
320.591829523867
 20
216.591720492534
 30
0.0000000000000711
 11
320.112085106526
 21
217.0928471603725
 31
0.0000000000000711
  0
LINE
  5
B5
  8
DEFAULT
 10
320.112085106526
 20
217.0928471603725
 30
0.0000000000000711
 11
319.6469796533219
 21
217.6067948941104
 31
0.0000000000000711
  0
LINE
  5
B6
  8
DEFAULT
 10
319.6469796533219
 20
217.6067948941104
 30
0.0000000000000711
 11
319.1967151390567
 21
218.1337226747673
 31
0.0000000000000711
  0
LINE
  5
B7
  8
DEFAULT
 10
319.1967151390567
 20
218.1337226747673
 30
0.0000000000000711
 11
318.7614741759155
 21
218.6737737357217
 31
0.0000000000000711
  0
LINE
  5
B8
  8
DEFAULT
 10
318.7614741759155
 20
218.6737737357217
 30
0.0000000000000711
 11
318.3414209247937
 21
219.2270763180788
 31
0.0000000000000711
  0
LINE
  5
B9
  8
DEFAULT
 10
318.3414209247937
 20
219.2270763180788
 30
0.0000000000000711
 11
317.9367020039375
 21
219.7937444237945
 31
0.0000000000000711
  0
LINE
  5
BA
  8
DEFAULT
 10
317.9367020039375
 20
219.7937444237945
 30
0.0000000000000711
 11
317.5474473975851
 21
220.3738785688003
 31
0.0000000000000711
  0
LINE
  5
BB
  8
DEFAULT
 10
317.5474473975851
 20
220.3738785688003
 30
0.0000000000000711
 11
317.1737713646076
 21
220.9675665361272
 31
0.0000000000000711
  0
LINE
  5
BC
  8
DEFAULT
 10
317.1737713646076
 20
220.9675665361272
 30
0.0000000000000711
 11
316.81577334715
 21
221.5748841290309
 31
0.0000000000000711
  0
LINE
  5
BD
  8
DEFAULT
 10
316.81577334715
 20
221.5748841290309
 30
0.0000000000000711
 11
316.4735388789763
 21
222.1958959238495
 31
0.0000000000000711
  0
LINE
  5
BE
  8
DEFAULT
 10
316.4735388789763
 20
222.1958959238495
 30
0.0000000000000711
 11
316.1471404861282
 21
222.8306560159324
 31
0.0000000000000711
  0
LINE
  5
BF
  8
DEFAULT
 10
316.1471404861282
 20
222.8306560159324
 30
0.0000000000000711
 11
315.8366385680689
 21
223.479208747982
 31
0.0000000000000711
  0
LINE
  5
C0
  8
DEFAULT
 10
315.8366385680689
 20
223.479208747982
 30
0.0000000000000711
 11
315.5420822711413
 21
224.1415894314649
 31
0.0000000000000711
  0
LINE
  5
C1
  8
DEFAULT
 10
315.5420822711413
 20
224.1415894314649
 30
0.0000000000000711
 11
315.2635103617292
 21
224.8178250677582
 31
0.0000000000000711
  0
LINE
  5
C2
  8
DEFAULT
 10
315.2635103617292
 20
224.8178250677582
 30
0.0000000000000711
 11
315.0009520994197
 21
225.5079350692946
 31
0.0000000000000711
  0
LINE
  5
C3
  8
DEFAULT
 10
315.0009520994197
 20
225.5079350692946
 30
0.0000000000000711
 11
314.7544281101642
 21
226.2119319807084
 31
0.0000000000000711
  0
LINE
  5
C4
  8
DEFAULT
 10
314.7544281101642
 20
226.2119319807084
 30
0.0000000000000711
 11
314.5239512594413
 21
226.9298221999808
 31
0.0000000000000711
  0
LINE
  5
C5
  8
DEFAULT
 10
314.5239512594413
 20
226.9298221999808
 30
0.0000000000000711
 11
314.3095275243465
 21
227.6616066986818
 31
0.0000000000000711
  0
LINE
  5
C6
  8
DEFAULT
 10
314.3095275243465
 20
227.6616066986818
 30
0.0000000000000711
 11
314.1111568378348
 21
228.4072817187088
 31
0.0000000000000711
  0
LINE
  5
C7
  8
DEFAULT
 10
314.1111568378348
 20
228.4072817187088
 30
0.0000000000000711
 11
313.9288338622712
 21
229.166839409364
 31
0.0000000000000711
  0
LINE
  5
C8
  8
DEFAULT
 10
313.9288338622712
 20
229.166839409364
 30
0.0000000000000711
 11
313.7625487351323
 21
229.9402684409296
 31
0.0000000000000711
  0
LINE
  5
C9
  8
DEFAULT
 10
313.7625487351323
 20
229.9402684409296
 30
0.0000000000000711
 11
313.6122878136373
 21
230.7275546173379
 31
0.0000000000000711
  0
LINE
  5
CA
  8
DEFAULT
 10
313.6122878136373
 20
230.7275546173379
 30
0.0000000000000711
 11
313.4780344193787
 21
231.5286814888423
 31
0.0000000000000711
  0
LINE
  5
CB
  8
DEFAULT
 10
313.4780344193787
 20
231.5286814888423
 30
0.0000000000000711
 11
313.3597695829528
 21
232.3436309646879
 31
0.0000000000000711
  0
LINE
  5
CC
  8
DEFAULT
 10
313.3597695829528
 20
232.3436309646879
 30
0.0000000000000711
 11
313.2574727885909
 21
233.1723839257822
 31
0.0000000000000711
  0
LINE
  5
CD
  8
DEFAULT
 10
313.2574727885909
 20
233.1723839257822
 30
0.0000000000000711
 11
313.1711227183316
 21
234.0149208369724
 31
0.0000000000000711
  0
LINE
  5
CE
  8
DEFAULT
 10
313.1711227183316
 20
234.0149208369724
 30
0.0000000000000711
 11
313.1006979842998
 21
234.8712223489993
 31
0.000000000000071
  0
LINE
  5
CF
  8
DEFAULT
 10
313.1006979842998
 20
234.8712223489993
 30
0.000000000000071
 11
313.0461778307857
 21
235.7412698742953
 31
0.0000000000000708
  0
LINE
  5
D0
  8
DEFAULT
 10
313.0461778307857
 20
235.7412698742953
 30
0.0000000000000708
 11
313.0075428244296
 21
236.6250461524594
 31
0.0000000000000699
  0
LINE
  5
D1
  8
DEFAULT
 10
313.0075428244296
 20
236.6250461524594
 30
0.0000000000000699
 11
312.9847755439483
 21
237.5225358153385
 31
0.0000000000000677
  0
LINE
  5
D2
  8
DEFAULT
 10
312.9847755439483
 20
237.5225358153385
 30
0.0000000000000677
 11
312.9778612698626
 21
238.4337259521084
 31
0.0000000000000626
  0
LINE
  5
D3
  8
DEFAULT
 10
312.9778612698626
 20
238.4337259521084
 30
0.0000000000000626
 11
313.0115505103412
 21
240.2971716811599
 31
0.0000000000000355
  0
LINE
  5
D4
  8
DEFAULT
 10
313.0115505103412
 20
240.2971716811599
 30
0.0000000000000355
 11
313.0115505103411
 21
270.2971716811599
 31
0.0000000000000355
  0
LINE
  5
D5
  8
DEFAULT
 10
313.0115505103411
 20
270.2971716811599
 30
0.0000000000000355
 11
218.0115505103411
 21
270.2971716811599
 31
0.0000000000000355
  0
LINE
  5
D6
  8
DEFAULT
 10
218.0115505103411
 20
270.2971716811599
 30
0.0000000000000355
 11
218.0115505103411
 21
240.29717168116
 31
0.0000000000000711
  0
LINE
  5
D7
  8
DEFAULT
 10
218.0115505103411
 20
240.29717168116
 30
0.0000000000000711
 11
218.0452397508197
 21
238.4337259521109
 31
0.0000000000000711
  0
LINE
  5
D8
  8
DEFAULT
 10
218.0452397508197
 20
238.4337259521109
 30
0.0000000000000711
 11
218.0383254767341
 21
237.5225358153432
 31
0.0000000000000711
  0
LINE
  5
D9
  8
DEFAULT
 10
218.0383254767341
 20
237.5225358153432
 30
0.0000000000000711
 11
218.015558196253
 21
236.6250461524669
 31
0.0000000000000711
  0
LINE
  5
DA
  8
DEFAULT
 10
218.015558196253
 20
236.6250461524669
 30
0.0000000000000711
 11
217.9769231898971
 21
235.7412698743056
 31
0.0000000000000711
  0
LINE
  5
DB
  8
DEFAULT
 10
217.9769231898971
 20
235.7412698743056
 30
0.0000000000000711
 11
217.9224030363835
 21
234.8712223490124
 31
0.0000000000000711
  0
LINE
  5
DC
  8
DEFAULT
 10
217.9224030363835
 20
234.8712223490124
 30
0.0000000000000711
 11
217.8519783023522
 21
234.0149208369884
 31
0.0000000000000711
  0
LINE
  5
DD
  8
DEFAULT
 10
217.8519783023522
 20
234.0149208369884
 30
0.0000000000000711
 11
217.7656282320935
 21
233.1723839258011
 31
0.0000000000000711
  0
LINE
  5
DE
  8
DEFAULT
 10
217.7656282320935
 20
233.1723839258011
 30
0.0000000000000711
 11
217.6633314377315
 21
232.3436309647039
 31
0.0000000000000711
  0
LINE
  5
DF
  8
DEFAULT
 10
217.6633314377315
 20
232.3436309647039
 30
0.0000000000000711
 11
217.5450666013056
 21
231.5286814888556
 31
0.0000000000000711
  0
LINE
  5
E0
  8
DEFAULT
 10
217.5450666013056
 20
231.5286814888556
 30
0.0000000000000711
 11
217.4108132070468
 21
230.7275546173486
 31
0.0000000000000711
  0
LINE
  5
E1
  8
DEFAULT
 10
217.4108132070468
 20
230.7275546173486
 30
0.0000000000000711
 11
217.2605522855517
 21
229.9402684409378
 31
0.0000000000000711
  0
LINE
  5
E2
  8
DEFAULT
 10
217.2605522855517
 20
229.9402684409378
 30
0.0000000000000711
 11
217.0942671584124
 21
229.1668394093698
 31
0.0000000000000711
  0
LINE
  5
E3
  8
DEFAULT
 10
217.0942671584124
 20
229.1668394093698
 30
0.0000000000000711
 11
216.9119441828483
 21
228.4072817187123
 31
0.0000000000000711
  0
LINE
  5
E4
  8
DEFAULT
 10
216.9119441828483
 20
228.4072817187123
 30
0.0000000000000711
 11
216.7135734963359
 21
227.6616066986831
 31
0.0000000000000711
  0
LINE
  5
E5
  8
DEFAULT
 10
216.7135734963359
 20
227.6616066986831
 30
0.0000000000000711
 11
216.4991497612403
 21
226.92982219998
 31
0.0000000000000711
  0
LINE
  5
E6
  8
DEFAULT
 10
216.4991497612403
 20
226.92982219998
 30
0.0000000000000711
 11
216.2686729105174
 21
226.2119319807079
 31
0.0000000000000711
  0
LINE
  5
E7
  8
DEFAULT
 10
216.2686729105174
 20
226.2119319807079
 30
0.0000000000000711
 11
216.0221489212621
 21
225.5079350692944
 31
0.0000000000000711
  0
LINE
  5
E8
  8
DEFAULT
 10
216.0221489212621
 20
225.5079350692944
 30
0.0000000000000711
 11
215.7595906589527
 21
224.8178250677583
 31
0.0000000000000711
  0
LINE
  5
E9
  8
DEFAULT
 10
215.7595906589527
 20
224.8178250677583
 30
0.0000000000000711
 11
215.4810187495407
 21
224.1415894314653
 31
0.0000000000000711
  0
LINE
  5
EA
  8
DEFAULT
 10
215.4810187495407
 20
224.1415894314653
 30
0.0000000000000711
 11
215.1864624526132
 21
223.4792087479827
 31
0.0000000000000711
  0
LINE
  5
EB
  8
DEFAULT
 10
215.1864624526132
 20
223.4792087479827
 30
0.0000000000000711
 11
214.8759605345542
 21
222.8306560159334
 31
0.0000000000000711
  0
LINE
  5
EC
  8
DEFAULT
 10
214.8759605345542
 20
222.8306560159334
 30
0.0000000000000711
 11
214.5495621417063
 21
222.1958959238507
 31
0.0000000000000711
  0
LINE
  5
ED
  8
DEFAULT
 10
214.5495621417063
 20
222.1958959238507
 30
0.0000000000000711
 11
214.207327673533
 21
221.5748841290325
 31
0.0000000000000711
  0
LINE
  5
EE
  8
DEFAULT
 10
214.207327673533
 20
221.5748841290325
 30
0.0000000000000711
 11
213.8493296560745
 21
220.9675665361271
 31
0.0000000000000711
  0
LINE
  5
EF
  8
DEFAULT
 10
213.8493296560745
 20
220.9675665361271
 30
0.0000000000000711
 11
213.475653623096
 21
220.3738785687986
 31
0.0000000000000711
  0
LINE
  5
F0
  8
DEFAULT
 10
213.475653623096
 20
220.3738785687986
 30
0.0000000000000711
 11
213.0863990167426
 21
219.7937444237915
 31
0.0000000000000711
  0
LINE
  5
F1
  8
DEFAULT
 10
213.0863990167426
 20
219.7937444237915
 30
0.0000000000000711
 11
212.6816800958854
 21
219.2270763180744
 31
0.0000000000000711
  0
LINE
  5
F2
  8
DEFAULT
 10
212.6816800958854
 20
219.2270763180744
 30
0.0000000000000711
 11
212.2616268447624
 21
218.6737737357161
 31
0.0000000000000711
  0
LINE
  5
F3
  8
DEFAULT
 10
212.2616268447624
 20
218.6737737357161
 30
0.0000000000000711
 11
211.82638588162
 21
218.1337226747605
 31
0.0000000000000711
  0
LINE
  5
F4
  8
DEFAULT
 10
211.82638588162
 20
218.1337226747605
 30
0.0000000000000711
 11
211.3761213673535
 21
217.6067948941026
 31
0.0000000000000711
  0
LINE
  5
F5
  8
DEFAULT
 10
211.3761213673535
 20
217.6067948941026
 30
0.0000000000000711
 11
210.9110159141481
 21
217.0928471603635
 31
0.0000000000000711
  0
LINE
  5
F6
  8
DEFAULT
 10
210.9110159141481
 20
217.0928471603635
 30
0.0000000000000711
 11
210.4312714968091
 21
216.5917204925275
 31
0.0000000000000711
  0
LINE
  5
F7
  8
DEFAULT
 10
210.4312714968091
 20
216.5917204925275
 30
0.0000000000000711
 11
209.9371104339591
 21
216.1032393483124
 31
0.0000000000000711
  0
LINE
  5
F8
  8
DEFAULT
 10
209.9371104339591
 20
216.1032393483124
 30
0.0000000000000711
 11
209.4287765466179
 21
215.6272106626643
 31
0.0000000000000711
  0
LINE
  5
F9
  8
DEFAULT
 10
209.4287765466179
 20
215.6272106626643
 30
0.0000000000000711
 11
208.9065363866487
 21
215.1634228279863
 31
0.0000000000000711
  0
LINE
  5
FA
  8
DEFAULT
 10
208.9065363866487
 20
215.1634228279863
 30
0.0000000000000711
 11
208.3706804678943
 21
214.7116446721277
 31
0.0000000000000711
  0
LINE
  5
FB
  8
DEFAULT
 10
208.3706804678943
 20
214.7116446721277
 30
0.0000000000000711
 11
207.8215244973132
 21
214.2716244363744
 31
0.0000000000000711
  0
LINE
  5
FC
  8
DEFAULT
 10
207.8215244973132
 20
214.2716244363744
 30
0.0000000000000711
 11
207.259410606115
 21
213.8430887534383
 31
0.0000000000000711
  0
LINE
  5
FD
  8
DEFAULT
 10
207.259410606115
 20
213.8430887534383
 30
0.0000000000000711
 11
206.6847085808969
 21
213.4257416254468
 31
0.0000000000000711
  0
LINE
  5
FE
  8
DEFAULT
 10
206.6847085808969
 20
213.4257416254468
 30
0.0000000000000711
 11
206.0978170730182
 21
213.0192634198502
 31
0.0000000000000711
  0
LINE
  5
FF
  8
DEFAULT
 10
206.0978170730182
 20
213.0192634198502
 30
0.0000000000000711
 11
205.4991642422556
 21
212.6233103312065
 31
0.0000000000000711
  0
LINE
  5
100
  8
DEFAULT
 10
205.4991642422556
 20
212.6233103312065
 30
0.0000000000000711
 11
204.889206964365
 21
212.2375150255622
 31
0.0000000000000711
  0
LINE
  5
101
  8
DEFAULT
 10
204.889206964365
 20
212.2375150255622
 30
0.0000000000000711
 11
204.2684294729244
 21
211.8614877507111
 31
0.0000000000000711
  0
LINE
  5
102
  8
DEFAULT
 10
204.2684294729244
 20
211.8614877507111
 30
0.0000000000000711
 11
202.9964792933002
 21
211.1370729623592
 31
0.0000000000000711
  0
LINE
  5
103
  8
DEFAULT
 10
202.9964792933002
 20
211.1370729623592
 30
0.0000000000000711
 11
201.6876822915283
 21
210.4465424541472
 31
0.0000000000000711
  0
LINE
  5
104
  8
DEFAULT
 10
201.6876822915283
 20
210.4465424541472
 30
0.0000000000000711
 11
200.3467564365677
 21
209.7860862488177
 31
0.0000000000000711
  0
LINE
  5
105
  8
DEFAULT
 10
200.3467564365677
 20
209.7860862488177
 30
0.0000000000000711
 11
198.9787241231907
 21
209.1516446402401
 31
0.0000000000000711
  0
LINE
  5
106
  8
DEFAULT
 10
198.9787241231907
 20
209.1516446402401
 30
0.0000000000000711
 11
196.1826696334635
 21
207.9435480837246
 31
0.0000000000000711
  0
LINE
  5
107
  8
DEFAULT
 10
196.1826696334635
 20
207.9435480837246
 30
0.0000000000000711
 11
187.724362440822
 21
204.4735843936309
 31
0.0000000000000711
  0
LINE
  5
108
  8
DEFAULT
 10
187.724362440822
 20
204.4735843936309
 30
0.0000000000000711
 11
186.3652445688796
 21
203.8684326730745
 31
0.0000000000000711
  0
LINE
  5
109
  8
DEFAULT
 10
186.3652445688796
 20
203.8684326730745
 30
0.0000000000000711
 11
185.03563581736
 21
203.2433974144042
 31
0.0000000000000711
  0
LINE
  5
10A
  8
DEFAULT
 10
185.03563581736
 20
203.2433974144042
 30
0.0000000000000711
 11
183.7408288993505
 21
202.5941770390058
 31
0.0000000000000711
  0
LINE
  5
10B
  8
DEFAULT
 10
183.7408288993505
 20
202.5941770390058
 30
0.0000000000000711
 11
182.4858705061048
 21
201.9166672172747
 31
0.0000000000000711
  0
LINE
  5
10C
  8
DEFAULT
 10
182.4858705061048
 20
201.9166672172747
 30
0.0000000000000711
 11
181.8748308248122
 21
201.5660859602346
 31
0.0000000000000711
  0
LINE
  5
10D
  8
DEFAULT
 10
181.8748308248122
 20
201.5660859602346
 30
0.0000000000000711
 11
181.2755060692105
 21
201.2070053114973
 31
0.0000000000000711
  0
LINE
  5
10E
  8
DEFAULT
 10
181.2755060692105
 20
201.2070053114973
 30
0.0000000000000711
 11
180.6884327167542
 21
200.8389879444332
 31
0.0000000000000711
  0
LINE
  5
10F
  8
DEFAULT
 10
180.6884327167542
 20
200.8389879444332
 30
0.0000000000000711
 11
180.1141210717702
 21
200.4616175402476
 31
0.0000000000000711
  0
LINE
  5
110
  8
DEFAULT
 10
180.1141210717702
 20
200.4616175402476
 30
0.0000000000000711
 11
179.5530534480297
 21
200.0745002485585
 31
0.0000000000000711
  0
LINE
  5
111
  8
DEFAULT
 10
179.5530534480297
 20
200.0745002485585
 30
0.0000000000000711
 11
179.0056828907341
 21
199.6772657169125
 31
0.0000000000000711
  0
LINE
  5
112
  8
DEFAULT
 10
179.0056828907341
 20
199.6772657169125
 30
0.0000000000000711
 11
178.4724332677571
 21
199.2695670260476
 31
0.0000000000000711
  0
LINE
  5
113
  8
DEFAULT
 10
178.4724332677571
 20
199.2695670260476
 30
0.0000000000000711
 11
177.953699900301
 21
198.8510801940941
 31
0.0000000000000711
  0
LINE
  5
114
  8
DEFAULT
 10
177.953699900301
 20
198.8510801940941
 30
0.0000000000000711
 11
177.4498502142987
 21
198.4215036641946
 31
0.0000000000000711
  0
LINE
  5
115
  8
DEFAULT
 10
177.4498502142987
 20
198.4215036641946
 30
0.0000000000000711
 11
176.9612243918145
 21
197.9805577921242
 31
0.0000000000000711
  0
LINE
  5
116
  8
DEFAULT
 10
176.9612243918145
 20
197.9805577921242
 30
0.0000000000000711
 11
176.4881360224462
 21
197.5279843339109
 31
0.0000000000000711
  0
LINE
  5
117
  8
DEFAULT
 10
176.4881360224462
 20
197.5279843339109
 30
0.0000000000000711
 11
176.0308727547264
 21
197.0635459334556
 31
0.0000000000000711
  0
LINE
  5
118
  8
DEFAULT
 10
176.0308727547264
 20
197.0635459334556
 30
0.0000000000000711
 11
175.5896969527194
 21
196.5870256059835
 31
0.0000000000000711
  0
LINE
  5
119
  8
DEFAULT
 10
175.5896969527194
 20
196.5870256059835
 30
0.0000000000000711
 11
175.1648464876662
 21
196.0982261130612
 31
0.0000000000000711
  0
LINE
  5
11A
  8
DEFAULT
 10
175.1648464876662
 20
196.0982261130612
 30
0.0000000000000711
 11
174.7565358724661
 21
195.5969690623831
 31
0.0000000000000711
  0
LINE
  5
11B
  8
DEFAULT
 10
174.7565358724661
 20
195.5969690623831
 30
0.0000000000000711
 11
174.3649575312044
 21
195.0830938991226
 31
0.0000000000000711
  0
LINE
  5
11C
  8
DEFAULT
 10
174.3649575312044
 20
195.0830938991226
 30
0.0000000000000711
 11
173.9902830738779
 21
194.5564568931153
 31
0.0000000000000711
  0
LINE
  5
11D
  8
DEFAULT
 10
173.9902830738779
 20
194.5564568931153
 30
0.0000000000000711
 11
173.6326645711185
 21
194.016930126042
 31
0.0000000000000711
  0
LINE
  5
11E
  8
DEFAULT
 10
173.6326645711185
 20
194.016930126042
 30
0.0000000000000711
 11
173.2922358289181
 21
193.4644004786119
 31
0.0000000000000711
  0
LINE
  5
11F
  8
DEFAULT
 10
173.2922358289181
 20
193.4644004786119
 30
0.0000000000000711
 11
172.969113663353
 21
192.898768617745
 31
0.0000000000000711
  0
LINE
  5
120
  8
DEFAULT
 10
172.969113663353
 20
192.898768617745
 30
0.0000000000000711
 11
172.6633991721092
 21
192.3199479862825
 31
0.0000000000000711
  0
LINE
  5
121
  8
DEFAULT
 10
172.6633991721092
 20
192.3199479862825
 30
0.0000000000000711
 11
172.3751789228699
 21
191.7278638584542
 31
0.0000000000000711
  0
LINE
  5
122
  8
DEFAULT
 10
172.3751789228699
 20
191.7278638584542
 30
0.0000000000000711
 11
172.10452593064
 21
191.1224525622395
 31
0.0000000000000711
  0
LINE
  5
123
  8
DEFAULT
 10
172.10452593064
 20
191.1224525622395
 30
0.0000000000000711
 11
171.8515005519332
 21
190.5036607674848
 31
0.0000000000000711
  0
LINE
  5
124
  8
DEFAULT
 10
171.8515005519332
 20
190.5036607674848
 30
0.0000000000000711
 11
171.6161513757594
 21
189.8714447765495
 31
0.0000000000000711
  0
LINE
  5
125
  8
DEFAULT
 10
171.6161513757594
 20
189.8714447765495
 30
0.0000000000000711
 11
171.3985161146126
 21
189.2257698149506
 31
0.0000000000000711
  0
LINE
  5
126
  8
DEFAULT
 10
171.3985161146126
 20
189.2257698149506
 30
0.0000000000000711
 11
171.1986224954585
 21
188.5666093220082
 31
0.0000000000000711
  0
LINE
  5
127
  8
DEFAULT
 10
171.1986224954585
 20
188.5666093220082
 30
0.0000000000000711
 11
171.0164891507221
 21
187.8939442414904
 31
0.0000000000000711
  0
LINE
  5
128
  8
DEFAULT
 10
171.0164891507221
 20
187.8939442414904
 30
0.0000000000000711
 11
170.869053682702
 21
187.2826624700759
 31
0.0000000000000711
  0
LINE
  5
129
  8
DEFAULT
 10
170.869053682702
 20
187.2826624700759
 30
0.0000000000000711
 11
170.7357538068743
 21
186.6606260624856
 31
0.0000000000000711
  0
LINE
  5
12A
  8
DEFAULT
 10
170.7357538068743
 20
186.6606260624856
 30
0.0000000000000711
 11
170.616587851089
 21
186.0278337832027
 31
0.0000000000000711
  0
LINE
  5
12B
  8
DEFAULT
 10
170.616587851089
 20
186.0278337832027
 30
0.0000000000000711
 11
170.5115505103411
 21
185.3842872905218
 31
0.0000000000000711
  0
LINE
  5
12C
  8
DEFAULT
 10
165.5156538327606
 20
80.29717168115984
 30
-0.0000000000000711
 11
165.5156538327606
 21
185.3842872905219
 31
-0.0000000000000355
  0
LINE
  5
12D
  8
DEFAULT
 10
165.5156538327606
 20
185.3842872905219
 30
0.0
 11
165.4106165500201
 21
186.0278334736068
 31
0.0
  0
LINE
  5
12E
  8
DEFAULT
 10
165.4106165500201
 20
186.0278334736068
 30
0.0
 11
165.2914505934995
 21
186.6606257826516
 31
0.0
  0
LINE
  5
12F
  8
DEFAULT
 10
165.2914505934995
 20
186.6606257826516
 30
0.0
 11
165.1581506937743
 21
187.2826623236593
 31
0.0
  0
LINE
  5
130
  8
DEFAULT
 10
165.1581506937743
 20
187.2826623236593
 30
0.0
 11
165.010715192379
 21
187.893944241493
 31
0.0
  0
LINE
  5
131
  8
DEFAULT
 10
165.010715192379
 20
187.893944241493
 30
0.0
 11
164.8285818476427
 21
188.5666093220102
 31
0.0
  0
LINE
  5
132
  8
DEFAULT
 10
164.8285818476427
 20
188.5666093220102
 30
0.0
 11
164.6286882284886
 21
189.2257698149519
 31
0.0
  0
LINE
  5
133
  8
DEFAULT
 10
164.6286882284886
 20
189.2257698149519
 30
0.0
 11
164.411052967342
 21
189.8714447765502
 31
0.0
  0
LINE
  5
134
  8
DEFAULT
 10
164.411052967342
 20
189.8714447765502
 30
0.0
 11
164.1757037911684
 21
190.5036607674849
 31
0.0
  0
LINE
  5
135
  8
DEFAULT
 10
164.1757037911684
 20
190.5036607674849
 30
0.0
 11
163.9226784124618
 21
191.1224525622389
 31
0.0
  0
LINE
  5
136
  8
DEFAULT
 10
163.9226784124618
 20
191.1224525622389
 30
0.0
 11
163.6520254202322
 21
191.7278638584532
 31
0.0
  0
LINE
  5
137
  8
DEFAULT
 10
163.6520254202322
 20
191.7278638584532
 30
0.0
 11
163.3638051709932
 21
192.3199479862809
 31
0.0
  0
LINE
  5
138
  8
DEFAULT
 10
163.3638051709932
 20
192.3199479862809
 30
0.0
 11
163.0580906797498
 21
192.898768617743
 31
0.0
  0
LINE
  5
139
  8
DEFAULT
 10
163.0580906797498
 20
192.898768617743
 30
0.0
 11
162.7349685141845
 21
193.4644004786104
 31
0.0
  0
LINE
  5
13A
  8
DEFAULT
 10
162.7349685141845
 20
193.4644004786104
 30
0.0
 11
162.3945397719839
 21
194.016930126041
 31
0.0
  0
LINE
  5
13B
  8
DEFAULT
 10
162.3945397719839
 20
194.016930126041
 30
0.0
 11
162.0369212692243
 21
194.5564568931147
 31
0.0
  0
LINE
  5
13C
  8
DEFAULT
 10
162.0369212692243
 20
194.5564568931147
 30
0.0
 11
161.6622468118975
 21
195.0830938991223
 31
0.0
  0
LINE
  5
13D
  8
DEFAULT
 10
161.6622468118975
 20
195.0830938991223
 30
0.0
 11
161.2706684706357
 21
195.5969690623832
 31
0.0
  0
LINE
  5
13E
  8
DEFAULT
 10
161.2706684706357
 20
195.5969690623832
 30
0.0
 11
160.8623578554352
 21
196.0982261130617
 31
0.0
  0
LINE
  5
13F
  8
DEFAULT
 10
160.8623578554352
 20
196.0982261130617
 30
0.0
 11
160.4375073903818
 21
196.5870256059842
 31
0.0
  0
LINE
  5
140
  8
DEFAULT
 10
160.4375073903818
 20
196.5870256059842
 30
0.0
 11
159.9963315883745
 21
197.0635459334566
 31
0.0
  0
LINE
  5
141
  8
DEFAULT
 10
159.9963315883745
 20
197.0635459334566
 30
0.0
 11
159.5390683206552
 21
197.5279843339113
 31
0.0
  0
LINE
  5
142
  8
DEFAULT
 10
159.5390683206552
 20
197.5279843339113
 30
0.0
 11
159.0659799512875
 21
197.9805577921241
 31
0.0
  0
LINE
  5
143
  8
DEFAULT
 10
159.0659799512875
 20
197.9805577921241
 30
0.0
 11
158.5773541288039
 21
198.4215036641939
 31
0.0
  0
LINE
  5
144
  8
DEFAULT
 10
158.5773541288039
 20
198.4215036641939
 30
0.0
 11
158.0735044428021
 21
198.8510801940929
 31
0.0
  0
LINE
  5
145
  8
DEFAULT
 10
158.0735044428021
 20
198.8510801940929
 30
0.0
 11
157.5547710753467
 21
199.2695670260459
 31
0.0
  0
LINE
  5
146
  8
DEFAULT
 10
157.5547710753467
 20
199.2695670260459
 30
0.0
 11
157.0215214523705
 21
199.6772657169103
 31
0.0
  0
LINE
  5
147
  8
DEFAULT
 10
157.0215214523705
 20
199.6772657169103
 30
0.0
 11
156.4741508950756
 21
200.0745002485558
 31
0.0
  0
LINE
  5
148
  8
DEFAULT
 10
156.4741508950756
 20
200.0745002485558
 30
0.0
 11
155.9130832713357
 21
200.4616175402446
 31
0.0
  0
LINE
  5
149
  8
DEFAULT
 10
155.9130832713357
 20
200.4616175402446
 30
0.0
 11
155.3387716263516
 21
200.8389879444304
 31
0.0
  0
LINE
  5
14A
  8
DEFAULT
 10
155.3387716263516
 20
200.8389879444304
 30
0.0
 11
154.751698273895
 21
201.2070053114948
 31
0.0
  0
LINE
  5
14B
  8
DEFAULT
 10
154.751698273895
 20
201.2070053114948
 30
0.0
 11
154.1523735182931
 21
201.5660859602323
 31
0.0
  0
LINE
  5
14C
  8
DEFAULT
 10
154.1523735182931
 20
201.5660859602323
 30
0.0
 11
153.5413338370002
 21
201.9166672172727
 31
0.0
  0
LINE
  5
14D
  8
DEFAULT
 10
153.5413338370002
 20
201.9166672172727
 30
0.0
 11
152.2863754437539
 21
202.5941770390042
 31
0.0
  0
LINE
  5
14E
  8
DEFAULT
 10
152.2863754437539
 20
202.5941770390042
 30
0.0
 11
150.9915685257438
 21
203.2433974144031
 31
0.0
  0
LINE
  5
14F
  8
DEFAULT
 10
150.9915685257438
 20
203.2433974144031
 30
0.0
 11
149.6619597742214
 21
203.8684326730748
 31
0.0
  0
LINE
  5
150
  8
DEFAULT
 10
149.6619597742214
 20
203.8684326730748
 30
0.0
 11
148.302841902276
 21
204.4735843936325
 31
0.0
  0
LINE
  5
151
  8
DEFAULT
 10
148.302841902276
 20
204.4735843936325
 30
0.0
 11
139.8445347096444
 21
207.943548083722
 31
0.0
  0
LINE
  5
152
  8
DEFAULT
 10
139.8445347096444
 20
207.943548083722
 30
0.0
 11
137.0484802199107
 21
209.1516446402401
 31
0.0
  0
LINE
  5
153
  8
DEFAULT
 10
137.0484802199107
 20
209.1516446402401
 30
0.0
 11
135.6804479065305
 21
209.7860862488193
 31
0.0
  0
LINE
  5
154
  8
DEFAULT
 10
135.6804479065305
 20
209.7860862488193
 30
0.0
 11
134.3395220515668
 21
210.4465424541505
 31
0.0
  0
LINE
  5
155
  8
DEFAULT
 10
134.3395220515668
 20
210.4465424541505
 30
0.0
 11
133.0307250497984
 21
211.1370729623609
 31
0.0
  0
LINE
  5
156
  8
DEFAULT
 10
133.0307250497984
 20
211.1370729623609
 30
0.0
 11
131.7587748701774
 21
211.8614877507111
 31
0.0
  0
LINE
  5
157
  8
DEFAULT
 10
131.7587748701774
 20
211.8614877507111
 30
0.0
 11
131.1379973787382
 21
212.2375150255612
 31
0.0
  0
LINE
  5
158
  8
DEFAULT
 10
131.1379973787382
 20
212.2375150255612
 30
0.0
 11
130.5280401008491
 21
212.6233103312046
 31
0.0
  0
LINE
  5
159
  8
DEFAULT
 10
130.5280401008491
 20
212.6233103312046
 30
0.0
 11
129.9293872700879
 21
213.0192634198472
 31
0.0
  0
LINE
  5
15A
  8
DEFAULT
 10
129.9293872700879
 20
213.0192634198472
 30
0.0
 11
129.3424957622106
 21
213.4257416254427
 31
0.0
  0
LINE
  5
15B
  8
DEFAULT
 10
129.3424957622106
 20
213.4257416254427
 30
0.0
 11
128.7677937369909
 21
213.843088753435
 31
0.0
  0
LINE
  5
15C
  8
DEFAULT
 10
128.7677937369909
 20
213.843088753435
 30
0.0
 11
128.2056798457912
 21
214.2716244363722
 31
0.0
  0
LINE
  5
15D
  8
DEFAULT
 10
128.2056798457912
 20
214.2716244363722
 30
0.0
 11
127.6565238752087
 21
214.7116446721265
 31
0.0
  0
LINE
  5
15E
  8
DEFAULT
 10
127.6565238752087
 20
214.7116446721265
 30
0.0
 11
127.120667956453
 21
215.1634228279861
 31
0.0
  0
LINE
  5
15F
  8
DEFAULT
 10
127.120667956453
 20
215.1634228279861
 30
0.0
 11
126.5984277964825
 21
215.6272106626653
 31
0.0
  0
LINE
  5
160
  8
DEFAULT
 10
126.5984277964825
 20
215.6272106626653
 30
0.0
 11
126.0900939091401
 21
216.1032393483146
 31
0.0
  0
LINE
  5
161
  8
DEFAULT
 10
126.0900939091401
 20
216.1032393483146
 30
0.0
 11
125.595932846289
 21
216.5917204925311
 31
0.0
  0
LINE
  5
162
  8
DEFAULT
 10
125.595932846289
 20
216.5917204925311
 30
0.0
 11
125.1161884289489
 21
217.0928471603685
 31
0.0
  0
LINE
  5
163
  8
DEFAULT
 10
125.1161884289489
 20
217.0928471603685
 30
0.0
 11
124.6510829757448
 21
217.6067948941064
 31
0.0
  0
LINE
  5
164
  8
DEFAULT
 10
124.6510829757448
 20
217.6067948941064
 30
0.0
 11
124.2008184614795
 21
218.1337226747631
 31
0.0
  0
LINE
  5
165
  8
DEFAULT
 10
124.2008184614795
 20
218.1337226747631
 30
0.0
 11
123.7655774983383
 21
218.6737737357174
 31
0.0
  0
LINE
  5
166
  8
DEFAULT
 10
123.7655774983383
 20
218.6737737357174
 30
0.0
 11
123.3455242472165
 21
219.2270763180744
 31
0.0
  0
LINE
  5
167
  8
DEFAULT
 10
123.3455242472165
 20
219.2270763180744
 30
0.0
 11
122.9408053263601
 21
219.79374442379
 31
0.0
  0
LINE
  5
168
  8
DEFAULT
 10
122.9408053263601
 20
219.79374442379
 30
0.0
 11
122.5515507200076
 21
220.3738785687958
 31
0.0
  0
LINE
  5
169
  8
DEFAULT
 10
122.5515507200076
 20
220.3738785687958
 30
0.0
 11
122.17787468703
 21
220.9675665361227
 31
0.0
  0
LINE
  5
16A
  8
DEFAULT
 10
122.17787468703
 20
220.9675665361227
 30
0.0
 11
121.8198766695722
 21
221.5748841290264
 31
0.0
  0
LINE
  5
16B
  8
DEFAULT
 10
121.8198766695722
 20
221.5748841290264
 30
0.0
 11
121.4776422013979
 21
222.195895923846
 31
0.0
  0
LINE
  5
16C
  8
DEFAULT
 10
121.4776422013979
 20
222.195895923846
 30
0.0
 11
121.1512438085491
 21
222.8306560159301
 31
0.0
  0
LINE
  5
16D
  8
DEFAULT
 10
121.1512438085491
 20
222.8306560159301
 30
0.0
 11
120.8407418904892
 21
223.4792087479809
 31
0.0
  0
LINE
  5
16E
  8
DEFAULT
 10
120.8407418904892
 20
223.4792087479809
 30
0.0
 11
120.546185593561
 21
224.1415894314651
 31
0.0
  0
LINE
  5
16F
  8
DEFAULT
 10
120.546185593561
 20
224.1415894314651
 30
0.0
 11
120.2676136841484
 21
224.8178250677596
 31
0.0
  0
LINE
  5
170
  8
DEFAULT
 10
120.2676136841484
 20
224.8178250677596
 30
0.0
 11
120.0050554218384
 21
225.5079350692974
 31
0.0
  0
LINE
  5
171
  8
DEFAULT
 10
120.0050554218384
 20
225.5079350692974
 30
0.0
 11
119.7585314325826
 21
226.2119319807126
 31
0.0
  0
LINE
  5
172
  8
DEFAULT
 10
119.7585314325826
 20
226.2119319807126
 30
0.0
 11
119.5280545818594
 21
226.9298221999864
 31
0.0
  0
LINE
  5
173
  8
DEFAULT
 10
119.5280545818594
 20
226.9298221999864
 30
0.0
 11
119.3136308467645
 21
227.6616066986876
 31
0.0
  0
LINE
  5
174
  8
DEFAULT
 10
119.3136308467645
 20
227.6616066986876
 30
0.0
 11
119.1152601602528
 21
228.4072817187148
 31
0.0
  0
LINE
  5
175
  8
DEFAULT
 10
119.1152601602528
 20
228.4072817187148
 30
0.0
 11
118.9329371846892
 21
229.1668394093702
 31
0.0
  0
LINE
  5
176
  8
DEFAULT
 10
118.9329371846892
 20
229.1668394093702
 30
0.0
 11
118.7666520575505
 21
229.9402684409359
 31
0.0
  0
LINE
  5
177
  8
DEFAULT
 10
118.7666520575505
 20
229.9402684409359
 30
0.0
 11
118.6163911360557
 21
230.7275546173444
 31
0.0
  0
LINE
  5
178
  8
DEFAULT
 10
118.6163911360557
 20
230.7275546173444
 30
0.0
 11
118.4821377417972
 21
231.5286814888489
 31
0.0
  0
LINE
  5
179
  8
DEFAULT
 10
118.4821377417972
 20
231.5286814888489
 30
0.0
 11
118.3638729053714
 21
232.3436309646946
 31
0.0
  0
LINE
  5
17A
  8
DEFAULT
 10
118.3638729053714
 20
232.3436309646946
 30
0.0
 11
118.2615761110095
 21
233.1723839257892
 31
0.0
  0
LINE
  5
17B
  8
DEFAULT
 10
118.2615761110095
 20
233.1723839257892
 30
0.0
 11
118.1752260407504
 21
234.0149208369781
 31
0.0
  0
LINE
  5
17C
  8
DEFAULT
 10
118.1752260407504
 20
234.0149208369781
 30
0.0
 11
118.1048013067189
 21
234.8712223490038
 31
0.0
  0
LINE
  5
17D
  8
DEFAULT
 10
118.1048013067189
 20
234.8712223490038
 30
0.0
 11
118.050281153205
 21
235.7412698742987
 31
-0.0000000000000003
  0
LINE
  5
17E
  8
DEFAULT
 10
118.050281153205
 20
235.7412698742987
 30
-0.0000000000000003
 11
118.0116461468489
 21
236.6250461524618
 31
-0.0000000000000011
  0
LINE
  5
17F
  8
DEFAULT
 10
118.0116461468489
 20
236.6250461524618
 30
-0.0000000000000011
 11
117.9888788663677
 21
237.5225358153399
 31
-0.0000000000000034
  0
LINE
  5
180
  8
DEFAULT
 10
117.9888788663677
 20
237.5225358153399
 30
-0.0000000000000034
 11
117.9819645922821
 21
238.4337259521091
 31
-0.0000000000000084
  0
LINE
  5
181
  8
DEFAULT
 10
117.9819645922821
 20
238.4337259521091
 30
-0.0000000000000084
 11
118.0156538327607
 21
240.2971716811599
 31
-0.0000000000000355
  0
LINE
  5
182
  8
DEFAULT
 10
118.0156538327607
 20
240.2971716811599
 30
-0.0000000000000355
 11
118.0156538327606
 21
270.2971716811599
 31
-0.0000000000000355
  0
LINE
  5
183
  8
DEFAULT
 10
118.0156538327606
 20
270.2971716811599
 30
-0.0000000000000355
 11
23.01565383276062
 21
270.2971716811599
 31
-0.0000000000000355
  0
LINE
  5
184
  8
DEFAULT
 10
23.01565383276062
 20
270.2971716811599
 30
-0.0000000000000355
 11
23.01565383276062
 21
240.29717168116
 31
0.0
  0
LINE
  5
185
  8
DEFAULT
 10
23.01565383276062
 20
240.29717168116
 30
0.0
 11
23.04934307323918
 21
238.4337259521097
 31
0.0
  0
LINE
  5
186
  8
DEFAULT
 10
23.04934307323918
 20
238.4337259521097
 30
0.0
 11
23.04242879915357
 21
237.522535815341
 31
0.0
  0
LINE
  5
187
  8
DEFAULT
 10
23.04242879915357
 20
237.522535815341
 30
0.0
 11
23.01966151867237
 21
236.6250461524635
 31
0.0
  0
LINE
  5
188
  8
DEFAULT
 10
23.01966151867237
 20
236.6250461524635
 30
0.0
 11
22.98102651231635
 21
235.7412698743011
 31
0.0
  0
LINE
  5
189
  8
DEFAULT
 10
22.98102651231635
 20
235.7412698743011
 30
0.0
 11
22.92650635880255
 21
234.8712223490067
 31
0.0
  0
LINE
  5
18A
  8
DEFAULT
 10
22.92650635880255
 20
234.8712223490067
 30
0.0
 11
22.8560816247711
 21
234.0149208369816
 31
0.0
  0
LINE
  5
18B
  8
DEFAULT
 10
22.8560816247711
 20
234.0149208369816
 30
0.0
 11
22.76973155451216
 21
233.1723839257932
 31
0.0
  0
LINE
  5
18C
  8
DEFAULT
 10
22.76973155451216
 20
233.1723839257932
 30
0.0
 11
22.66743476015021
 21
232.3436309646978
 31
0.0
  0
LINE
  5
18D
  8
DEFAULT
 10
22.66743476015021
 20
232.3436309646978
 30
0.0
 11
22.54916992372439
 21
231.5286814888512
 31
0.0
  0
LINE
  5
18E
  8
DEFAULT
 10
22.54916992372439
 20
231.5286814888512
 30
0.0
 11
22.41491652946582
 21
230.7275546173458
 31
0.0
  0
LINE
  5
18F
  8
DEFAULT
 10
22.41491652946582
 20
230.7275546173458
 30
0.0
 11
22.26465560797089
 21
229.9402684409366
 31
0.0
  0
LINE
  5
190
  8
DEFAULT
 10
22.26465560797089
 20
229.9402684409366
 30
0.0
 11
22.09837048083197
 21
229.1668394093701
 31
0.0
  0
LINE
  5
191
  8
DEFAULT
 10
22.09837048083197
 20
229.1668394093701
 30
0.0
 11
21.91604750526822
 21
228.4072817187139
 31
0.0
  0
LINE
  5
192
  8
DEFAULT
 10
21.91604750526822
 20
228.4072817187139
 30
0.0
 11
21.7176768187563
 21
227.6616066986861
 31
0.0
  0
LINE
  5
193
  8
DEFAULT
 10
21.7176768187563
 20
227.6616066986861
 30
0.0
 11
21.5032530836612
 21
226.9298221999843
 31
0.0
  0
LINE
  5
194
  8
DEFAULT
 10
21.5032530836612
 20
226.9298221999843
 30
0.0
 11
21.27277623293807
 21
226.211931980711
 31
0.0
  0
LINE
  5
195
  8
DEFAULT
 10
21.27277623293807
 20
226.211931980711
 30
0.0
 11
21.02625224368245
 21
225.5079350692965
 31
0.0
  0
LINE
  5
196
  8
DEFAULT
 10
21.02625224368245
 20
225.5079350692965
 30
0.0
 11
20.76369398137261
 21
224.8178250677592
 31
0.0
  0
LINE
  5
197
  8
DEFAULT
 10
20.76369398137261
 20
224.8178250677592
 30
0.0
 11
20.48512207196025
 21
224.1415894314651
 31
0.0
  0
LINE
  5
198
  8
DEFAULT
 10
20.48512207196025
 20
224.1415894314651
 30
0.0
 11
20.1905657750323
 21
223.4792087479815
 31
0.0
  0
LINE
  5
199
  8
DEFAULT
 10
20.1905657750323
 20
223.4792087479815
 30
0.0
 11
19.88006385697269
 21
222.8306560159313
 31
0.0
  0
LINE
  5
19A
  8
DEFAULT
 10
19.88006385697269
 20
222.8306560159313
 30
0.0
 11
19.5536654641242
 21
222.1958959238476
 31
0.0
  0
LINE
  5
19B
  8
DEFAULT
 10
19.5536654641242
 20
222.1958959238476
 30
0.0
 11
19.21143099595021
 21
221.5748841290285
 31
0.0
  0
LINE
  5
19C
  8
DEFAULT
 10
19.21143099595021
 20
221.5748841290285
 30
0.0
 11
18.85343297849218
 21
220.9675665361242
 31
0.0
  0
LINE
  5
19D
  8
DEFAULT
 10
18.85343297849218
 20
220.9675665361242
 30
0.0
 11
18.47975694551425
 21
220.3738785687967
 31
0.0
  0
LINE
  5
19E
  8
DEFAULT
 10
18.47975694551425
 20
220.3738785687967
 30
0.0
 11
18.09050233916141
 21
219.7937444237905
 31
0.0
  0
LINE
  5
19F
  8
DEFAULT
 10
18.09050233916141
 20
219.7937444237905
 30
0.0
 11
17.68578341830477
 21
219.2270763180744
 31
0.0
  0
LINE
  5
1A0
  8
DEFAULT
 10
17.68578341830477
 20
219.2270763180744
 30
0.0
 11
17.26573016718253
 21
218.673773735717
 31
0.0
  0
LINE
  5
1A1
  8
DEFAULT
 10
17.26573016718253
 20
218.673773735717
 30
0.0
 11
16.83048920404093
 21
218.1337226747622
 31
0.0
  0
LINE
  5
1A2
  8
DEFAULT
 10
16.83048920404093
 20
218.1337226747622
 30
0.0
 11
16.38022468977525
 21
217.6067948941051
 31
0.0
  0
LINE
  5
1A3
  8
DEFAULT
 10
16.38022468977525
 20
217.6067948941051
 30
0.0
 11
15.91511923657072
 21
217.0928471603669
 31
0.0
  0
LINE
  5
1A4
  8
DEFAULT
 10
15.91511923657072
 20
217.0928471603669
 30
0.0
 11
15.43537481923095
 21
216.5917204925299
 31
0.0
  0
LINE
  5
1A5
  8
DEFAULT
 10
15.43537481923095
 20
216.5917204925299
 30
0.0
 11
14.94121375638028
 21
216.1032393483139
 31
0.0
  0
LINE
  5
1A6
  8
DEFAULT
 10
14.94121375638028
 20
216.1032393483139
 30
0.0
 11
14.43287986903828
 21
215.627210662665
 31
0.0
  0
LINE
  5
1A7
  8
DEFAULT
 10
14.43287986903828
 20
215.627210662665
 30
0.0
 11
13.91063970906821
 21
215.1634228279862
 31
0.0
  0
LINE
  5
1A8
  8
DEFAULT
 10
13.91063970906821
 20
215.1634228279862
 30
0.0
 11
13.37478379031295
 21
214.7116446721269
 31
0.0
  0
LINE
  5
1A9
  8
DEFAULT
 10
13.37478379031295
 20
214.7116446721269
 30
0.0
 11
12.82562781973086
 21
214.2716244363729
 31
0.0
  0
LINE
  5
1AA
  8
DEFAULT
 10
12.82562781973086
 20
214.2716244363729
 30
0.0
 11
12.26351392853169
 21
213.8430887534361
 31
0.0
  0
LINE
  5
1AB
  8
DEFAULT
 10
12.26351392853169
 20
213.8430887534361
 30
0.0
 11
11.68881190331251
 21
213.4257416254441
 31
0.0
  0
LINE
  5
1AC
  8
DEFAULT
 10
11.68881190331251
 20
213.4257416254441
 30
0.0
 11
11.10192039543482
 21
213.0192634198482
 31
0.0
  0
LINE
  5
1AD
  8
DEFAULT
 10
11.10192039543482
 20
213.0192634198482
 30
0.0
 11
10.50326756467311
 21
212.6233103312053
 31
0.0
  0
LINE
  5
1AE
  8
DEFAULT
 10
10.50326756467311
 20
212.6233103312053
 30
0.0
 11
9.893310286783525
 21
212.2375150255615
 31
0.0
  0
LINE
  5
1AF
  8
DEFAULT
 10
9.893310286783525
 20
212.2375150255615
 30
0.0
 11
9.27253279534387
 21
211.8614877507111
 31
0.0
  0
LINE
  5
1B0
  8
DEFAULT
 10
9.27253279534387
 20
211.8614877507111
 30
0.0
 11
8.000582615721795
 21
211.1370729623603
 31
0.0
  0
LINE
  5
1B1
  8
DEFAULT
 10
8.000582615721795
 20
211.1370729623603
 30
0.0
 11
6.691785613952171
 21
210.4465424541495
 31
0.0
  0
LINE
  5
1B2
  8
DEFAULT
 10
6.691785613952171
 20
210.4465424541495
 30
0.0
 11
5.350859758989538
 21
209.7860862488189
 31
0.0
  0
LINE
  5
1B3
  8
DEFAULT
 10
5.350859758989538
 20
209.7860862488189
 30
0.0
 11
3.98282744561034
 21
209.1516446402402
 31
0.0
  0
LINE
  5
1B4
  8
DEFAULT
 10
3.98282744561034
 20
209.1516446402402
 30
0.0
 11
1.186772955878752
 21
207.9435480837229
 31
0.0
  0
LINE
  5
1B5
  8
DEFAULT
 10
1.186772955878752
 20
207.9435480837229
 30
0.0
 11
-7.271534236756648
 21
204.4735843936317
 31
0.0
  0
LINE
  5
1B6
  8
DEFAULT
 10
-7.271534236756648
 20
204.4735843936317
 30
0.0
 11
-8.630652108701138
 21
203.8684326730744
 31
0.0
  0
LINE
  5
1B7
  8
DEFAULT
 10
-8.630652108701138
 20
203.8684326730744
 30
0.0
 11
-9.960260860222625
 21
203.2433974144031
 31
0.0
  0
LINE
  5
1B8
  8
DEFAULT
 10
-9.960260860222625
 20
203.2433974144031
 30
0.0
 11
-11.25506777823184
 21
202.5941770390047
 31
0.0
  0
LINE
  5
1B9
  8
DEFAULT
 10
-11.25506777823184
 20
202.5941770390047
 30
0.0
 11
-12.51002617147736
 21
201.9166672172737
 31
0.0
  0
LINE
  5
1BA
  8
DEFAULT
 10
-12.51002617147736
 20
201.9166672172737
 30
0.0
 11
-13.12106585276987
 21
201.5660859602336
 31
0.0
  0
LINE
  5
1BB
  8
DEFAULT
 10
-13.12106585276987
 20
201.5660859602336
 30
0.0
 11
-13.72039060837137
 21
201.2070053114963
 31
0.0
  0
LINE
  5
1BC
  8
DEFAULT
 10
-13.72039060837137
 20
201.2070053114963
 30
0.0
 11
-14.3074639608276
 21
200.8389879444322
 31
0.0
  0
LINE
  5
1BD
  8
DEFAULT
 10
-14.3074639608276
 20
200.8389879444322
 30
0.0
 11
-14.88177560581146
 21
200.4616175402467
 31
0.0
  0
LINE
  5
1BE
  8
DEFAULT
 10
-14.88177560581146
 20
200.4616175402467
 30
0.0
 11
-15.44284322955194
 21
200.0745002485577
 31
0.0
  0
LINE
  5
1BF
  8
DEFAULT
 10
-15.44284322955194
 20
200.0745002485577
 30
0.0
 11
-15.9902137868474
 21
199.6772657169117
 31
0.0
  0
LINE
  5
1C0
  8
DEFAULT
 10
-15.9902137868474
 20
199.6772657169117
 30
0.0
 11
-16.52346340982429
 21
199.269567026047
 31
0.0
  0
LINE
  5
1C1
  8
DEFAULT
 10
-16.52346340982429
 20
199.269567026047
 30
0.0
 11
-17.04219677728023
 21
198.8510801940936
 31
0.0
  0
LINE
  5
1C2
  8
DEFAULT
 10
-17.04219677728023
 20
198.8510801940936
 30
0.0
 11
-17.54604646328249
 21
198.4215036641941
 31
0.0
  0
LINE
  5
1C3
  8
DEFAULT
 10
-17.54604646328249
 20
198.4215036641941
 30
0.0
 11
-18.03467228576657
 21
197.9805577921238
 31
0.0
  0
LINE
  5
1C4
  8
DEFAULT
 10
-18.03467228576657
 20
197.9805577921238
 30
0.0
 11
-18.50776065513472
 21
197.5279843339106
 31
0.0
  0
LINE
  5
1C5
  8
DEFAULT
 10
-18.50776065513472
 20
197.5279843339106
 30
0.0
 11
-18.96502392285448
 21
197.0635459334553
 31
0.0
  0
LINE
  5
1C6
  8
DEFAULT
 10
-18.96502392285448
 20
197.0635459334553
 30
0.0
 11
-19.40619972486141
 21
196.5870256059832
 31
0.0
  0
LINE
  5
1C7
  8
DEFAULT
 10
-19.40619972486141
 20
196.5870256059832
 30
0.0
 11
-19.83105018991446
 21
196.0982261130611
 31
0.0
  0
LINE
  5
1C8
  8
DEFAULT
 10
-19.83105018991446
 20
196.0982261130611
 30
0.0
 11
-20.23936080511457
 21
195.596969062383
 31
0.0
  0
LINE
  5
1C9
  8
DEFAULT
 10
-20.23936080511457
 20
195.596969062383
 30
0.0
 11
-20.63093914637616
 21
195.0830938991225
 31
0.0
  0
LINE
  5
1CA
  8
DEFAULT
 10
-20.63093914637616
 20
195.0830938991225
 30
0.0
 11
-21.00561360370264
 21
194.5564568931153
 31
0.0
  0
LINE
  5
1CB
  8
DEFAULT
 10
-21.00561360370264
 20
194.5564568931153
 30
0.0
 11
-21.36323210646201
 21
194.016930126042
 31
0.0
  0
LINE
  5
1CC
  8
DEFAULT
 10
-21.36323210646201
 20
194.016930126042
 30
0.0
 11
-21.70366084866239
 21
193.4644004786119
 31
0.0
  0
LINE
  5
1CD
  8
DEFAULT
 10
-21.70366084866239
 20
193.4644004786119
 30
0.0
 11
-22.02678301422754
 21
192.898768617745
 31
0.0
  0
LINE
  5
1CE
  8
DEFAULT
 10
-22.02678301422754
 20
192.898768617745
 30
0.0
 11
-22.33249750547127
 21
192.3199479862825
 31
0.0
  0
LINE
  5
1CF
  8
DEFAULT
 10
-22.33249750547127
 20
192.3199479862825
 30
0.0
 11
-22.62071775471058
 21
191.7278638584542
 31
0.0
  0
LINE
  5
1D0
  8
DEFAULT
 10
-22.62071775471058
 20
191.7278638584542
 30
0.0
 11
-22.89137074694045
 21
191.1224525622395
 31
0.0
  0
LINE
  5
1D1
  8
DEFAULT
 10
-22.89137074694045
 20
191.1224525622395
 30
0.0
 11
-23.14439612564725
 21
190.5036607674848
 31
0.0
  0
LINE
  5
1D2
  8
DEFAULT
 10
-23.14439612564725
 20
190.5036607674848
 30
0.0
 11
-23.37974530182104
 21
189.8714447765495
 31
0.0
  0
LINE
  5
1D3
  8
DEFAULT
 10
-23.37974530182104
 20
189.8714447765495
 30
0.0
 11
-23.59738056296786
 21
189.2257698149506
 31
0.0
  0
LINE
  5
1D4
  8
DEFAULT
 10
-23.59738056296786
 20
189.2257698149506
 30
0.0
 11
-23.79727418212201
 21
188.5666093220082
 31
0.0
  0
LINE
  5
1D5
  8
DEFAULT
 10
-23.79727418212201
 20
188.5666093220082
 30
0.0
 11
-23.97940752685845
 21
187.8939442414904
 31
0.0
  0
LINE
  5
1D6
  8
DEFAULT
 10
-23.97940752685845
 20
187.8939442414904
 30
0.0
 11
-24.12684299487857
 21
187.2826624700759
 31
0.0
  0
LINE
  5
1D7
  8
DEFAULT
 10
-24.12684299487857
 20
187.2826624700759
 30
0.0
 11
-24.26014287070621
 21
186.6606260624856
 31
0.0
  0
LINE
  5
1D8
  8
DEFAULT
 10
-24.26014287070621
 20
186.6606260624856
 30
0.0
 11
-24.37930882649145
 21
186.0278337832027
 31
0.0
  0
LINE
  5
1D9
  8
DEFAULT
 10
-24.37930882649145
 20
186.0278337832027
 30
0.0
 11
-24.48434616723938
 21
185.3842872905218
 31
0.0
  0
LINE
  5
1DA
  8
DEFAULT
 10
-24.48434616723938
 20
185.3842872905218
 30
0.0
 11
-24.48434616723944
 21
80.29717168115985
 31
-0.0000000000000711
  0
LINE
  5
1DB
  8
DEFAULT
 10
-24.48434616723944
 20
80.29717168115985
 30
-0.0000000000000711
 11
165.5156538327606
 21
80.29717168115984
 31
-0.0000000000000711
  0
ARC
  5
1DD
  8
POCKET2
 10
-21.87005212385831
 20
238.3287811810468
 30
0.0
 40
44.92884552695508
 50
349.7022910583945
 51
2.511005501661102
  0
ARC
  5
1DE
  8
POCKET2
 10
162.9013597893666
 20
238.3287811810459
 30
-0.000000000002723
 40
44.92884552694208
 50
177.4889944983369
 51
190.297708941615
  0
ARC
  5
1DF
  8
POCKET2
 10
173.1258445537128
 20
238.3287811810473
 30
0.0000000000000711
 40
44.92884552696447
 50
349.7022910584049
 51
2.511005501659924
  0
ARC
  5
1E0
  8
POCKET2
 10
357.8972564669582
 20
238.328781181047
 30
-0.0000000000026519
 40
44.92884552695316
 50
177.4889944983391
 51
190.2977089416221
  0
LINE
  5
1E1
  8
POCKET2
 10
118.6962197123894
 20
230.2971716811599
 30
0.0000000000000711
 11
22.33508795313178
 21
230.2971716811599
 31
0.0000000000000711
  0
LINE
  5
1E2
  8
POCKET2
 10
313.6921163899701
 20
230.2971716811599
 30
0.0000000000000711
 11
217.3309846307123
 21
230.2971716811599
 31
0.0000000000000711
  0
LINE
  5
1E3
  8
POCKET2
 10
313.0115505103412
 20
240.2971716811599
 30
0.0000000000000355
 11
313.0115505103411
 21
270.2971716811599
 31
0.0000000000000355
  0
LINE
  5
1E4
  8
POCKET2
 10
218.0115505103411
 20
270.2971716811599
 30
0.0000000000000355
 11
218.0115505103411
 21
240.2971716811599
 31
0.0000000000000711
  0
LINE
  5
1E5
  8
POCKET2
 10
313.0115505103411
 20
270.2971716811599
 30
0.0000000000000355
 11
218.0115505103411
 21
270.2971716811599
 31
0.0000000000000355
  0
LINE
  5
1E6
  8
POCKET2
 10
23.01565383276062
 20
270.2971716811599
 30
-0.0000000000000355
 11
23.01565383276062
 21
240.2971716811599
 31
0.0
  0
LINE
  5
1E7
  8
POCKET2
 10
118.0156538327606
 20
270.2971716811599
 30
-0.0000000000000355
 11
23.01565383276062
 21
270.2971716811599
 31
-0.0000000000000355
  0
LINE
  5
1E8
  8
POCKET2
 10
118.0156538327607
 20
240.2971716811599
 30
-0.0000000000000355
 11
118.0156538327606
 21
270.2971716811599
 31
-0.0000000000000355
  0
ENDSEC
  0
EOF
