  0
SECTION
  2
HEADER
  9
$ACADVER
  1
AC1009
  9
$DWGCODEPAGE
  3
ansi_1252
  9
$INSBASE
 10
0.0
 20
0.0
 30
0.0
  9
$EXTMIN
 10
-331.8845717828908
 20
-125.0765742631254
 30
0.0
  9
$EXTMAX
 10
38.11542821710925
 20
34.41666429465286
 30
0.0
  9
$LIMMIN
 10
0.0
 20
0.0
  9
$LIMMAX
 10
12.0
 20
9.0
  9
$ORTHOMODE
 70
     0
  9
$REGENMODE
 70
     1
  9
$FILLMODE
 70
     1
  9
$QTEXTMODE
 70
     0
  9
$MIRRTEXT
 70
     1
  9
$DRAGMODE
 70
     2
  9
$LTSCALE
 40
1.0
  9
$OSMODE
 70
    37
  9
$ATTMODE
 70
     1
  9
$TEXTSIZE
 40
0.2
  9
$TRACEWID
 40
0.05
  9
$TEXTSTYLE
  7
STANDARD
  9
$CLAYER
  8
DEFAULT
  9
$CELTYPE
  6
BYLAYER
  9
$CECOLOR
 62
   256
  9
$DIMSCALE
 40
1.0
  9
$DIMASZ
 40
0.18
  9
$DIMEXO
 40
0.0625
  9
$DIMDLI
 40
0.38
  9
$DIMRND
 40
0.0
  9
$DIMDLE
 40
0.0
  9
$DIMEXE
 40
0.18
  9
$DIMTP
 40
0.0
  9
$DIMTM
 40
0.0
  9
$DIMTXT
 40
0.18
  9
$DIMCEN
 40
0.09
  9
$DIMTSZ
 40
0.0
  9
$DIMTOL
 70
     0
  9
$DIMLIM
 70
     0
  9
$DIMTIH
 70
     1
  9
$DIMTOH
 70
     1
  9
$DIMSE1
 70
     0
  9
$DIMSE2
 70
     0
  9
$DIMTAD
 70
     0
  9
$DIMZIN
 70
     0
  9
$DIMBLK
  1

  9
$DIMASO
 70
     1
  9
$DIMSHO
 70
     1
  9
$DIMPOST
  1

  9
$DIMAPOST
  1

  9
$DIMALT
 70
     0
  9
$DIMALTD
 70
     2
  9
$DIMALTF
 40
25.4
  9
$DIMLFAC
 40
1.0
  9
$DIMTOFL
 70
     0
  9
$DIMTVP
 40
0.0
  9
$DIMTIX
 70
     0
  9
$DIMSOXD
 70
     0
  9
$DIMSAH
 70
     0
  9
$DIMBLK1
  1

  9
$DIMBLK2
  1

  9
$DIMSTYLE
  2
STANDARD
  9
$DIMCLRD
 70
     0
  9
$DIMCLRE
 70
     0
  9
$DIMCLRT
 70
     0
  9
$DIMTFAC
 40
1.0
  9
$DIMGAP
 40
0.09
  9
$LUNITS
 70
     2
  9
$LUPREC
 70
     2
  9
$SKETCHINC
 40
0.1
  9
$FILLETRAD
 40
0.5
  9
$AUNITS
 70
     0
  9
$AUPREC
 70
     0
  9
$MENU
  1
.
  9
$ELEVATION
 40
0.0
  9
$PELEVATION
 40
0.0
  9
$THICKNESS
 40
0.0
  9
$LIMCHECK
 70
     0
  9
$CHAMFERA
 40
0.0
  9
$CHAMFERB
 40
0.0
  9
$SKPOLY
 70
     0
  9
$TDCREATE
 40
2457850.419127546
  9
$TDUPDATE
 40
2457850.419150093
  9
$TDINDWG
 40
0.0000000116
  9
$TDUSRTIMER
 40
0.0000000116
  9
$USRTIMER
 70
     1
  9
$ANGBASE
 50
0.0
  9
$ANGDIR
 70
     0
  9
$PDMODE
 70
     0
  9
$PDSIZE
 40
0.0
  9
$PLINEWID
 40
0.0
  9
$COORDS
 70
     1
  9
$SPLFRAME
 70
     0
  9
$SPLINETYPE
 70
     6
  9
$SPLINESEGS
 70
     8
  9
$ATTDIA
 70
     0
  9
$ATTREQ
 70
     1
  9
$HANDLING
 70
     1
  9
$HANDSEED
  5
DE
  9
$SURFTAB1
 70
     6
  9
$SURFTAB2
 70
     6
  9
$SURFTYPE
 70
     6
  9
$SURFU
 70
     6
  9
$SURFV
 70
     6
  9
$UCSNAME
  2

  9
$UCSORG
 10
0.0
 20
0.0
 30
0.0
  9
$UCSXDIR
 10
1.0
 20
0.0
 30
0.0
  9
$UCSYDIR
 10
0.0
 20
1.0
 30
0.0
  9
$PUCSNAME
  2

  9
$PUCSORG
 10
0.0
 20
0.0
 30
0.0
  9
$PUCSXDIR
 10
1.0
 20
0.0
 30
0.0
  9
$PUCSYDIR
 10
0.0
 20
1.0
 30
0.0
  9
$USERI1
 70
     0
  9
$USERI2
 70
     0
  9
$USERI3
 70
     0
  9
$USERI4
 70
     0
  9
$USERI5
 70
     0
  9
$USERR1
 40
0.0
  9
$USERR2
 40
0.0
  9
$USERR3
 40
0.0
  9
$USERR4
 40
0.0
  9
$USERR5
 40
0.0
  9
$WORLDVIEW
 70
     1
  9
$SHADEDGE
 70
     3
  9
$SHADEDIF
 70
    70
  9
$TILEMODE
 70
     1
  9
$MAXACTVP
 70
    64
  9
$PLIMCHECK
 70
     0
  9
$PEXTMIN
 10
1.000000000000000E+20
 20
1.000000000000000E+20
 30
1.000000000000000E+20
  9
$PEXTMAX
 10
-1.000000000000000E+20
 20
-1.000000000000000E+20
 30
-1.000000000000000E+20
  9
$PLIMMIN
 10
0.0
 20
0.0
  9
$PLIMMAX
 10
12.0
 20
9.0
  9
$UNITMODE
 70
     0
  9
$VISRETAIN
 70
     1
  9
$PLINEGEN
 70
     0
  9
$PSLTSCALE
 70
     1
  0
ENDSEC
  0
SECTION
  2
TABLES
  0
TABLE
  2
VPORT
 70
     1
  0
VPORT
  2
*ACTIVE
 70
     0
 10
0.0
 20
0.0
 11
1.0
 21
1.0
 12
-146.8845717828908
 22
-45.32995498423625
 13
0.0
 23
0.0
 14
0.5
 24
0.5
 15
0.5
 25
0.5
 16
0.0
 26
0.0
 36
1.0
 17
0.0
 27
0.0
 37
0.0
 40
162.6831033289338
 41
2.3198475580892
 42
50.0
 43
0.0
 44
0.0
 50
0.0
 51
0.0
 71
     0
 72
   100
 73
     1
 74
     3
 75
     0
 76
     0
 77
     0
 78
     0
  0
ENDTAB
  0
TABLE
  2
LTYPE
 70
     1
  0
LTYPE
  2
CONTINUOUS
 70
     0
  3
Solid line
 72
    65
 73
     0
 40
0.0
  0
ENDTAB
  0
TABLE
  2
LAYER
 70
     2
  0
LAYER
  2
0
 70
     0
 62
     7
  6
CONTINUOUS
  0
LAYER
  2
DEFAULT
 70
     0
 62
     7
  6
CONTINUOUS
  0
ENDTAB
  0
TABLE
  2
STYLE
 70
     1
  0
STYLE
  2
STANDARD
 70
     0
 40
0.0
 41
1.0
 50
0.0
 71
     0
 42
0.2
  3
txt
  4

  0
ENDTAB
  0
TABLE
  2
VIEW
 70
     0
  0
ENDTAB
  0
TABLE
  2
UCS
 70
     0
  0
ENDTAB
  0
TABLE
  2
APPID
 70
     1
  0
APPID
  2
ACAD
 70
     0
  0
ENDTAB
  0
TABLE
  2
DIMSTYLE
 70
     1
  0
DIMSTYLE
  2
STANDARD
 70
     0
  3

  4

  5

  6

  7

 40
1.0
 41
0.18
 42
0.0625
 43
0.38
 44
0.18
 45
0.0
 46
0.0
 47
0.0
 48
0.0
140
0.18
141
0.09
142
0.0
143
25.4
144
1.0
145
0.0
146
1.0
147
0.09
 71
     0
 72
     0
 73
     1
 74
     1
 75
     0
 76
     0
 77
     0
 78
     0
170
     0
171
     2
172
     0
173
     0
174
     0
175
     0
176
     0
177
     0
178
     0
  0
ENDTAB
  0
ENDSEC
  0
SECTION
  2
BLOCKS
  0
BLOCK
  8
0
  2
$MODEL_SPACE
 70
     0
 10
0.0
 20
0.0
 30
0.0
  3
$MODEL_SPACE
  1

  0
ENDBLK
  5
21
  8
0
  0
BLOCK
 67
     1
  8
0
  2
$PAPER_SPACE
 70
     0
 10
0.0
 20
0.0
 30
0.0
  3
$PAPER_SPACE
  1

  0
ENDBLK
  5
1D
 67
     1
  8
0
  0
ENDSEC
  0
SECTION
  2
ENTITIES
  0
LINE
  5
6E
  8
0
 62
     7
 10
-298.5244675968892
 20
-95.07657426312537
 30
0.0
 11
5.475532403110861
 21
-95.07657426312537
 31
0.0
  0
LINE
  5
6F
  8
0
 62
     7
 10
5.475532403110861
 20
-95.07657426312537
 30
0.0
 11
5.475532403110861
 21
-102.5765742631254
 31
0.0
  0
LINE
  5
70
  8
0
 62
     7
 10
5.475532403110861
 20
-102.5765742631254
 30
0.0
 11
23.47553240311083
 21
-102.5765742631254
 31
0.0
  0
LINE
  5
71
  8
0
 62
     7
 10
23.47553240311083
 20
-102.5765742631254
 30
0.0
 11
23.47553240311083
 21
-117.5765742631254
 31
0.0
  0
LINE
  5
72
  8
0
 62
     7
 10
23.47553240311083
 20
-117.5765742631254
 30
0.0
 11
5.475532403110861
 21
-117.5765742631254
 31
0.0
  0
LINE
  5
73
  8
0
 62
     7
 10
5.475532403110861
 20
-117.5765742631254
 30
0.0
 11
5.475532403110861
 21
-125.0765742631254
 31
0.0
  0
LINE
  5
74
  8
0
 62
     7
 10
5.475532403110861
 20
-125.0765742631254
 30
0.0
 11
-298.5244675968892
 21
-125.0765742631254
 31
0.0
  0
LINE
  5
75
  8
0
 62
     7
 10
-298.5244675968892
 20
-125.0765742631254
 30
0.0
 11
-298.5244675968892
 21
-117.5765742631254
 31
0.0
  0
LINE
  5
76
  8
0
 62
     7
 10
-298.5244675968892
 20
-117.5765742631254
 30
0.0
 11
-316.5244675968892
 21
-117.5765742631254
 31
0.0
  0
LINE
  5
77
  8
0
 62
     7
 10
-316.5244675968892
 20
-117.5765742631254
 30
0.0
 11
-316.5244675968892
 21
-102.5765742631254
 31
0.0
  0
LINE
  5
78
  8
0
 62
     7
 10
-316.5244675968892
 20
-102.5765742631254
 30
0.0
 11
-298.5244675968892
 21
-102.5765742631254
 31
0.0
  0
LINE
  5
79
  8
0
 62
     7
 10
-298.5244675968892
 20
-102.5765742631254
 30
0.0
 11
-298.5244675968892
 21
-95.07657426312537
 31
0.0
  0
LINE
  5
7A
  8
0
 62
     7
 10
-304.5244675968892
 20
-114.5765742631254
 30
0.0
 11
-304.5244675968892
 21
-105.5765695394573
 31
0.0
  0
LINE
  5
7B
  8
0
 62
     7
 10
-304.5244675968892
 20
-105.5765695394573
 30
0.0
 11
-310.5244826321592
 21
-105.5765726885772
 31
0.0
  0
LINE
  5
7C
  8
0
 62
     7
 10
-310.5244826321592
 20
-105.5765726885772
 30
0.0
 11
-310.5244779084927
 21
-114.5765696735677
 31
0.0
  0
LINE
  5
7D
  8
0
 62
     7
 10
-310.5244779084927
 20
-114.5765696735677
 30
0.0
 11
-304.5244675968892
 21
-114.5765742631254
 31
0.0
  0
LINE
  5
7E
  8
0
 62
     7
 10
11.4755324031108
 20
-105.5765695394573
 30
0.0
 11
11.4755324031108
 21
-114.5765742631254
 31
0.0
  0
LINE
  5
7F
  8
0
 62
     7
 10
11.4755324031108
 20
-114.5765742631254
 30
0.0
 11
17.47554271471441
 21
-114.5765696735677
 31
0.0
  0
LINE
  5
80
  8
0
 62
     7
 10
17.47554271471441
 20
-114.5765696735677
 30
0.0
 11
17.47554743838091
 21
-105.5765726885772
 31
0.0
  0
LINE
  5
81
  8
0
 62
     7
 10
17.47554743838091
 20
-105.5765726885772
 30
0.0
 11
11.4755324031108
 21
-105.5765695394573
 31
0.0
  0
LINE
  5
83
  8
DEFAULT
 10
16.96229919064481
 20
-15.53944360102687
 30
0.0
 11
15.96229919064481
 21
-15.53944360102687
 31
0.0
  0
LINE
  5
84
  8
DEFAULT
 10
15.96229919064481
 20
-15.53944360102687
 30
0.0
 11
9.9622991906448
 21
-15.53944360102687
 31
0.0
  0
LINE
  5
85
  8
DEFAULT
 10
9.9622991906448
 20
-15.53944360102687
 30
0.0
 11
8.9622991906448
 21
-15.53944360102687
 31
0.0
  0
LINE
  5
86
  8
DEFAULT
 10
8.9622991906448
 20
-15.53944360102687
 30
0.0
 11
8.9622991906448
 21
-30.53944360102687
 31
0.0
  0
LINE
  5
87
  8
DEFAULT
 10
8.9622991906448
 20
-30.53944360102687
 30
0.0
 11
9.962299190644803
 21
-30.53944360102687
 31
0.0
  0
LINE
  5
88
  8
DEFAULT
 10
9.962299190644803
 20
-30.53944360102687
 30
0.0
 11
15.96229919064482
 21
-30.53944360102687
 31
0.0
  0
LINE
  5
89
  8
DEFAULT
 10
15.96229919064482
 20
-30.53944360102687
 30
0.0
 11
16.96229919064481
 21
-30.53944360102687
 31
0.0
  0
LINE
  5
8A
  8
DEFAULT
 10
16.96229919064481
 20
-15.53944360102687
 30
0.0
 11
17.56229919064481
 21
-15.53944360102687
 31
0.0
  0
LINE
  5
8B
  8
DEFAULT
 10
17.56229919064481
 20
-15.53944360102687
 30
0.0
 11
17.56229919064481
 21
-30.53944360102687
 31
0.0
  0
LINE
  5
8C
  8
DEFAULT
 10
17.56229919064481
 20
-30.53944360102687
 30
0.0
 11
16.96229919064481
 21
-30.53944360102687
 31
0.0
  0
LINE
  5
8D
  8
0
 62
     7
 10
-301.8845717828907
 20
-15.53944360102673
 30
0.0
 11
-307.8845717828908
 21
-15.53944360102673
 31
0.0
  0
LINE
  5
8E
  8
0
 62
     7
 10
-307.8845717828908
 20
-15.53944360102673
 30
0.0
 11
-308.8845717828908
 21
-15.53944360102673
 31
0.0
  0
LINE
  5
8F
  8
0
 62
     7
 10
-308.8845717828908
 20
-15.53944360102673
 30
0.0
 11
-308.8845717828908
 21
-30.53944360102673
 31
0.0
  0
LINE
  5
90
  8
0
 62
     7
 10
-308.8845717828908
 20
-30.53944360102673
 30
0.0
 11
-307.8845717828908
 21
-30.53944360102673
 31
0.0
  0
LINE
  5
91
  8
0
 62
     7
 10
-307.8845717828908
 20
-30.53944360102673
 30
0.0
 11
-301.8845717828907
 21
-30.53944360102673
 31
0.0
  0
LINE
  5
92
  8
0
 62
     7
 10
-301.8845717828907
 20
-30.53944360102673
 30
0.0
 11
-300.8845717828907
 21
-30.53944360102673
 31
0.0
  0
LINE
  5
93
  8
0
 62
     7
 10
-300.8845717828907
 20
-30.53944360102673
 30
0.0
 11
-300.8845717828907
 21
-15.53944360102673
 31
0.0
  0
LINE
  5
94
  8
0
 62
     7
 10
-300.8845717828907
 20
-15.53944360102673
 30
0.0
 11
-301.8845717828907
 21
-15.53944360102673
 31
0.0
  0
LINE
  5
95
  8
DEFAULT
 10
-151.1705827924723
 20
-25.03944360102669
 30
0.0
 11
-142.5976506062275
 21
-25.03944360102669
 31
0.0
  0
LINE
  5
96
  8
DEFAULT
 10
-142.5976506062275
 20
-25.03944360102669
 30
0.0
 11
-26.8845717828907
 21
-25.03944360102666
 31
0.0
  0
LINE
  5
97
  8
DEFAULT
 10
-26.8845717828907
 20
-25.03944360102666
 30
0.0
 11
-26.88457178289071
 21
-21.03944360102668
 31
0.0
  0
LINE
  5
98
  8
DEFAULT
 10
-26.88457178289071
 20
-21.03944360102668
 30
0.0
 11
-142.5983361442125
 21
-21.03944360102669
 31
0.0
  0
LINE
  5
99
  8
DEFAULT
 10
-142.5983361442125
 20
-21.03944360102669
 30
0.0
 11
-151.1719538684421
 21
-21.03944360102669
 31
0.0
  0
LINE
  5
9A
  8
DEFAULT
 10
-151.1719538684421
 20
-21.03944360102669
 30
0.0
 11
-266.8845717828907
 21
-21.03944360102672
 31
0.0
  0
LINE
  5
9B
  8
DEFAULT
 10
-266.8845717828907
 20
-21.03944360102672
 30
0.0
 11
-266.8845717828907
 21
-25.03944360102672
 31
0.0
  0
LINE
  5
9C
  8
DEFAULT
 10
-266.8845717828907
 20
-25.03944360102672
 30
0.0
 11
-151.1705827924723
 21
-25.03944360102669
 31
0.0
  0
LINE
  5
9D
  8
DEFAULT
 10
-331.8845717828908
 20
-38.03944360102675
 30
0.0
 11
-331.8845717828908
 21
-48.03944360102675
 31
0.0
  0
LINE
  5
9E
  8
DEFAULT
 10
-331.8845717828908
 20
-48.03944360102675
 30
0.0
 11
38.11542821710925
 21
-48.03944360102675
 31
0.0
  0
LINE
  5
9F
  8
DEFAULT
 10
38.11542821710925
 20
-48.03944360102675
 30
0.0
 11
38.11542821710925
 21
-38.03944360102666
 31
0.0
  0
LINE
  5
A0
  8
0
 62
     7
 10
-331.8845717828908
 20
-38.03944360102675
 30
0.0
 11
-331.8845717828908
 21
-8.03944360102674
 31
0.0
  0
LINE
  5
A1
  8
0
 62
     7
 10
-331.8845717828908
 20
-8.03944360102674
 30
0.0
 11
38.11542821710925
 21
-8.039443601026662
 31
0.0
  0
LINE
  5
A2
  8
0
 62
     7
 10
38.11542821710925
 20
-8.039443601026662
 30
0.0
 11
38.11542821710925
 21
-38.03944360102666
 31
0.0
  0
CIRCLE
  5
A3
  8
DEFAULT
 10
-146.8843442411203
 20
-36.53944360102672
 30
0.0
 40
3.25
  0
CIRCLE
  5
A4
  8
DEFAULT
 10
-146.8843442411203
 20
5.916664294652804
 30
0.0
 40
3.25
  0
LINE
  5
A5
  8
0
 62
     7
 10
-331.8845717828908
 20
4.416664294652783
 30
0.0
 11
-331.8845717828908
 21
34.41666429465278
 31
0.0
  0
LINE
  5
A6
  8
0
 62
     7
 10
-331.8845717828908
 20
34.41666429465278
 30
0.0
 11
38.11542821710925
 21
34.41666429465286
 31
0.0
  0
LINE
  5
A7
  8
0
 62
     7
 10
38.11542821710925
 20
34.41666429465286
 30
0.0
 11
38.11542821710925
 21
4.416664294652861
 31
0.0
  0
LINE
  5
A8
  8
DEFAULT
 10
-331.8845717828908
 20
4.416664294652783
 30
0.0
 11
-331.8845717828908
 21
-5.583335705347217
 31
0.0
  0
LINE
  5
A9
  8
DEFAULT
 10
-331.8845717828908
 20
-5.583335705347217
 30
0.0
 11
38.11542821710925
 21
-5.583335705347217
 31
0.0
  0
LINE
  5
AA
  8
DEFAULT
 10
38.11542821710925
 20
-5.583335705347217
 30
0.0
 11
38.11542821710925
 21
4.416664294652861
 31
0.0
  0
LINE
  5
AB
  8
DEFAULT
 10
-151.1705827924723
 20
17.41666429465283
 30
0.0
 11
-142.5976506062275
 21
17.41666429465283
 31
0.0
  0
LINE
  5
AC
  8
DEFAULT
 10
-142.5976506062275
 20
17.41666429465283
 30
0.0
 11
-26.8845717828907
 21
17.41666429465286
 31
0.0
  0
LINE
  5
AD
  8
DEFAULT
 10
-26.8845717828907
 20
17.41666429465286
 30
0.0
 11
-26.88457178289071
 21
21.41666429465285
 31
0.0
  0
LINE
  5
AE
  8
DEFAULT
 10
-26.88457178289071
 20
21.41666429465285
 30
0.0
 11
-142.5983361442125
 21
21.41666429465283
 31
0.0
  0
LINE
  5
AF
  8
DEFAULT
 10
-142.5983361442125
 20
21.41666429465283
 30
0.0
 11
-151.1719538684421
 21
21.41666429465283
 31
0.0
  0
LINE
  5
B0
  8
DEFAULT
 10
-151.1719538684421
 20
21.41666429465283
 30
0.0
 11
-266.8845717828907
 21
21.4166642946528
 31
0.0
  0
LINE
  5
B1
  8
DEFAULT
 10
-266.8845717828907
 20
21.4166642946528
 30
0.0
 11
-266.8845717828907
 21
17.4166642946528
 31
0.0
  0
LINE
  5
B2
  8
DEFAULT
 10
-266.8845717828907
 20
17.4166642946528
 30
0.0
 11
-151.1705827924723
 21
17.41666429465283
 31
0.0
  0
LINE
  5
B3
  8
0
 62
     7
 10
-301.8845717828907
 20
26.91666429465279
 30
0.0
 11
-307.8845717828908
 21
26.91666429465279
 31
0.0
  0
LINE
  5
B4
  8
0
 62
     7
 10
-307.8845717828908
 20
26.91666429465279
 30
0.0
 11
-308.8845717828908
 21
26.91666429465279
 31
0.0
  0
LINE
  5
B5
  8
0
 62
     7
 10
-308.8845717828908
 20
26.91666429465279
 30
0.0
 11
-308.8845717828908
 21
11.91666429465279
 31
0.0
  0
LINE
  5
B6
  8
0
 62
     7
 10
-308.8845717828908
 20
11.91666429465279
 30
0.0
 11
-307.8845717828908
 21
11.91666429465279
 31
0.0
  0
LINE
  5
B7
  8
0
 62
     7
 10
-307.8845717828908
 20
11.91666429465279
 30
0.0
 11
-301.8845717828907
 21
11.91666429465279
 31
0.0
  0
LINE
  5
B8
  8
0
 62
     7
 10
-301.8845717828907
 20
11.91666429465279
 30
0.0
 11
-300.8845717828907
 21
11.91666429465279
 31
0.0
  0
LINE
  5
B9
  8
0
 62
     7
 10
-300.8845717828907
 20
11.91666429465279
 30
0.0
 11
-300.8845717828907
 21
26.91666429465279
 31
0.0
  0
LINE
  5
BA
  8
0
 62
     7
 10
-300.8845717828907
 20
26.91666429465279
 30
0.0
 11
-301.8845717828907
 21
26.91666429465279
 31
0.0
  0
LINE
  5
BB
  8
DEFAULT
 10
9.9622991906448
 20
26.91666429465264
 30
0.0
 11
8.9622991906448
 21
26.91666429465264
 31
0.0
  0
LINE
  5
BC
  8
DEFAULT
 10
8.9622991906448
 20
26.91666429465264
 30
0.0
 11
8.9622991906448
 21
11.91666429465265
 31
0.0
  0
LINE
  5
BD
  8
DEFAULT
 10
8.9622991906448
 20
11.91666429465265
 30
0.0
 11
9.962299190644803
 21
11.91666429465265
 31
0.0
  0
LINE
  5
BE
  8
DEFAULT
 10
9.962299190644803
 20
11.91666429465265
 30
0.0
 11
15.96229919064482
 21
11.91666429465265
 31
0.0
  0
LINE
  5
BF
  8
DEFAULT
 10
15.96229919064482
 20
11.91666429465265
 30
0.0
 11
16.96229919064481
 21
11.91666429465265
 31
0.0
  0
LINE
  5
C0
  8
DEFAULT
 10
16.96229919064481
 20
11.91666429465265
 30
0.0
 11
16.96229919064481
 21
26.91666429465265
 31
0.0
  0
LINE
  5
C1
  8
DEFAULT
 10
16.96229919064481
 20
26.91666429465265
 30
0.0
 11
15.96229919064481
 21
26.91666429465265
 31
0.0
  0
LINE
  5
C2
  8
DEFAULT
 10
15.96229919064481
 20
26.91666429465265
 30
0.0
 11
9.9622991906448
 21
26.91666429465264
 31
0.0
  0
LINE
  5
C3
  8
0
 62
     7
 10
22.00000000000003
 20
-82.5
 30
0.0
 11
4.000000000000057
 21
-82.5
 31
0.0
  0
LINE
  5
C4
  8
0
 62
     7
 10
4.000000000000057
 20
-82.5
 30
0.0
 11
4.000000000000057
 21
-90.0
 31
0.0
  0
LINE
  5
C5
  8
0
 62
     7
 10
4.000000000000057
 20
-90.0
 30
0.0
 11
-300.0
 21
-90.0
 31
0.0
  0
LINE
  5
C6
  8
0
 62
     7
 10
-300.0
 20
-90.0
 30
0.0
 11
-300.0
 21
-82.5
 31
0.0
  0
LINE
  5
C7
  8
0
 62
     7
 10
-300.0
 20
-82.5
 30
0.0
 11
-318.0
 21
-82.5
 31
0.0
  0
LINE
  5
C8
  8
0
 62
     7
 10
-318.0
 20
-82.5
 30
0.0
 11
-318.0
 21
-67.5
 31
0.0
  0
LINE
  5
C9
  8
0
 62
     7
 10
-318.0
 20
-67.5
 30
0.0
 11
-300.0
 21
-67.5
 31
0.0
  0
LINE
  5
CA
  8
0
 62
     7
 10
-300.0
 20
-67.5
 30
0.0
 11
-300.0
 21
-60.0
 31
0.0
  0
LINE
  5
CB
  8
0
 62
     7
 10
-300.0
 20
-60.0
 30
0.0
 11
4.000000000000057
 21
-60.0
 31
0.0
  0
LINE
  5
CC
  8
0
 62
     7
 10
4.000000000000057
 20
-60.0
 30
0.0
 11
4.000000000000057
 21
-67.5
 31
0.0
  0
LINE
  5
CD
  8
0
 62
     7
 10
4.000000000000057
 20
-67.5
 30
0.0
 11
22.00000000000003
 21
-67.5
 31
0.0
  0
LINE
  5
CE
  8
0
 62
     7
 10
22.00000000000003
 20
-67.5
 30
0.0
 11
22.00000000000003
 21
-82.5
 31
0.0
  0
LINE
  5
CF
  8
0
 62
     7
 10
-305.9999999999999
 20
-79.5
 30
0.0
 11
-305.9999999999999
 21
-70.4999952763319
 31
0.0
  0
LINE
  5
D0
  8
0
 62
     7
 10
-305.9999999999999
 20
-70.4999952763319
 30
0.0
 11
-312.0000150352701
 21
-70.49999842545188
 31
0.0
  0
LINE
  5
D1
  8
0
 62
     7
 10
-312.0000150352701
 20
-70.49999842545188
 30
0.0
 11
-312.0000103116035
 21
-79.49999541044235
 31
0.0
  0
LINE
  5
D2
  8
0
 62
     7
 10
-312.0000103116035
 20
-79.49999541044235
 30
0.0
 11
-305.9999999999999
 21
-79.5
 31
0.0
  0
LINE
  5
D3
  8
0
 62
     7
 10
10.0
 20
-79.5
 30
0.0
 11
16.0000103116036
 21
-79.49999541044235
 31
0.0
  0
LINE
  5
D4
  8
0
 62
     7
 10
16.0000103116036
 20
-79.49999541044235
 30
0.0
 11
16.00001503527011
 21
-70.49999842545188
 31
0.0
  0
LINE
  5
D5
  8
0
 62
     7
 10
16.00001503527011
 20
-70.49999842545188
 30
0.0
 11
10.0
 21
-70.4999952763319
 31
0.0
  0
LINE
  5
D6
  8
0
 62
     7
 10
10.0
 20
-70.4999952763319
 30
0.0
 11
10.0
 21
-79.5
 31
0.0
  0
ENDSEC
  0
EOF
