0
SECTION
2
HEADER
9
$INSUNITS
70
4
9
$ACADVER
1
AC1014
9
$HANDSEED
5
FFFF
0
ENDSEC
0
SECTION
2
TABLES
0
TABLE
2
VPORT
5
8
100
AcDbSymbolTable
0
ENDTAB
0
TABLE
2
LTYPE
5
5
100
AcDbSymbolTable
0
LTYPE
5
14
100
AcDbSymbolTableRecord
100
AcDbLinetypeTableRecord
2
BYBLOCK
70
0
0
LTYPE
5
15
100
AcDbSymbolTableRecord
100
AcDbLinetypeTableRecord
2
BYLAYER
70
0
0
ENDTAB
0
TABLE
2
LAYER
5
2
100
AcDbSymbolTable
70
2
0
LAYER
5
50
100
AcDbSymbolTableRecord
100
AcDbLayerTableRecord
2
0
70
0
6
CONTINUOUS
0
ENDTAB
0
TABLE
2
STYLE
5
3
100
AcDbSymbolTable
70
1
0
STYLE
5
11
100
AcDbSymbolTableRecord
100
AcDbTextStyleTableRecord
2
STANDARD
70
0
0
ENDTAB
0
TABLE
2
VIEW
5
6
100
AcDbSymbolTable
70
0
0
ENDTAB
0
TABLE
2
UCS
5
7
100
AcDbSymbolTable
70
0
0
ENDTAB
0
TABLE
2
APPID
5
9
100
AcDbSymbolTable
70
2
0
APPID
5
12
100
AcDbSymbolTableRecord
100
AcDbRegAppTableRecord
2
ACAD
70
0
0
ENDTAB
0
TABLE
2
DIMSTYLE
5
A
100
AcDbSymbolTable
70
1
0
ENDTAB
0
TABLE
2
BLOCK_RECORD
5
1
100
AcDbSymbolTable
70
1
0
BLOCK_RECORD
5
1F
100
AcDbSymbolTableRecord
100
AcDbBlockTableRecord
2
*MODEL_SPACE
0
BLOCK_RECORD
5
1B
100
AcDbSymbolTableRecord
100
AcDbBlockTableRecord
2
*PAPER_SPACE
0
ENDTAB
0
ENDSEC
0
SECTION
2
BLOCKS
0
BLOCK
5
20
100
AcDbEntity
100
AcDbBlockBegin
2
*MODEL_SPACE
0
ENDBLK
5
21
100
AcDbEntity
100
AcDbBlockEnd
0
BLOCK
5
1C
100
AcDbEntity
100
AcDbBlockBegin
2
*PAPER_SPACE
0
ENDBLK
5
1D
100
AcDbEntity
100
AcDbBlockEnd
0
ENDSEC
0
SECTION
2
ENTITIES
0
LWPOLYLINE
5
100
100
AcDbEntity
8
0
100
AcDbPolyline
90
16
70
1
43
0.0
10
750
20
-898.50000000000034
10
750
20
-578.50000000000023
10
703
20
-578.50000000000023
42
-2.4142135623730949
10
700
20
-575.50000000000045
10
700
20
-560.50000000000045
10
550
20
-560.50000000000045
10
550
20
-575.50000000000023
42
-2.4142135623730949
10
547
20
-578.50000000000023
10
500
20
-578.50000000000023
10
500
20
-898.50000000000034
10
547
20
-898.50000000000034
42
-2.4142135623730949
10
550
20
-901.50000000000034
10
550
20
-916.50000000000034
10
700
20
-916.50000000000034
10
700
20
-901.50000000000034
42
-2.4142135623730949
10
703
20
-898.50000000000034
0
LWPOLYLINE
5
101
100
AcDbEntity
8
0
100
AcDbPolyline
90
8
70
1
43
0.0
10
-747
20
-68
42
-2.4142135623730949
10
-750
20
-65
10
-750
20
-52.999999999999972
42
-2.4142135623730949
10
-747
20
-50
10
-603
20
-50
42
-2.4142135623730949
10
-600
20
-53
10
-600
20
-65.000000000000028
42
-2.4142135623730949
10
-603
20
-68
0
LWPOLYLINE
5
102
100
AcDbEntity
8
0
100
AcDbPolyline
90
8
70
1
43
0.0
10
-570
20
0
10
-780
20
0
42
0.41421356237309537
10
-800
20
-20
10
-800
20
-980
42
0.41421356237309503
10
-780
20
-1000
10
-570
20
-1000
42
0.41421356237309503
10
-550
20
-980
10
-550
20
-19.999999999999993
42
0.41421356237309515
0
LWPOLYLINE
5
103
100
AcDbEntity
8
0
100
AcDbPolyline
90
8
70
1
43
0.0
10
-603
20
-308
10
-747
20
-308
42
2.4142135623730949
10
-750
20
-311
10
-750
20
-323
42
2.4142135623730949
10
-747
20
-326
10
-603
20
-326
42
2.4142135623730949
10
-600
20
-323.00000000000006
10
-600
20
-311
42
2.4142135623730949
0
LWPOLYLINE
5
104
100
AcDbEntity
8
0
100
AcDbPolyline
90
8
70
1
43
0.0
10
-603
20
-950
10
-747
20
-950
42
-2.4142135623730949
10
-750
20
-947
10
-750
20
-935
42
-2.4142135623730949
10
-747
20
-932
10
-603
20
-932
42
-2.4142135623730949
10
-600
20
-935
10
-600
20
-946.99999999999989
42
-2.4142135623730949
0
LWPOLYLINE
5
105
100
AcDbEntity
8
0
100
AcDbPolyline
90
8
70
1
43
0.0
10
-600
20
-677.00000000000023
10
-600
20
-689
42
-2.4142135623730949
10
-603
20
-692
10
-747
20
-692
42
-2.4142135623730949
10
-750
20
-689
10
-750
20
-677
42
-2.4142135623730949
10
-747
20
-674
10
-603.00000000000011
20
-674
42
-2.4142135623730949
0
LWPOLYLINE
5
106
100
AcDbEntity
8
0
100
AcDbPolyline
90
16
70
1
43
0.0
10
1025
20
-560.50000000000045
10
875
20
-560.50000000000045
10
875
20
-575.50000000000011
42
-2.4142135623730949
10
871.99999999999989
20
-578.50000000000023
10
825
20
-578.50000000000023
10
825
20
-898.50000000000034
10
871.99999999999989
20
-898.50000000000034
42
-2.4142135623730949
10
875
20
-901.50000000000034
10
875
20
-916.50000000000034
10
1025
20
-916.50000000000034
10
1025
20
-901.50000000000034
42
-2.4142135623730949
10
1028
20
-898.50000000000034
10
1075
20
-898.50000000000034
10
1075
20
-578.50000000000023
10
1028
20
-578.50000000000023
42
-2.4142135623730949
10
1025
20
-575.50000000000045
0
LWPOLYLINE
5
107
100
AcDbEntity
8
0
100
AcDbPolyline
90
16
70
1
43
0.0
10
1350
20
-560.50000000000045
10
1200
20
-560.50000000000045
10
1200
20
-575.50000000000011
42
-2.4142135623730949
10
1197
20
-578.50000000000023
10
1150
20
-578.50000000000023
10
1150
20
-898.50000000000034
10
1197
20
-898.50000000000034
42
-2.4142135623730949
10
1200
20
-901.50000000000034
10
1200
20
-916.50000000000034
10
1350
20
-916.50000000000034
10
1350
20
-901.50000000000045
42
-2.4142135623730949
10
1353
20
-898.50000000000034
10
1400
20
-898.50000000000034
10
1400
20
-578.50000000000023
10
1353
20
-578.50000000000023
42
-2.4142135623730949
10
1350
20
-575.50000000000045
0
LWPOLYLINE
5
108
100
AcDbEntity
8
0
100
AcDbPolyline
90
16
70
1
43
0.0
10
700
20
-1060.5000000000009
10
550
20
-1060.5000000000009
10
550
20
-1075.5000000000007
42
-2.4142135623730949
10
547
20
-1078.5000000000009
10
500
20
-1078.5000000000009
10
500
20
-1398.5000000000009
10
546.99999999999989
20
-1398.5000000000009
42
-2.4142135623730949
10
550
20
-1401.5000000000009
10
550
20
-1416.5000000000009
10
700
20
-1416.5000000000009
10
700
20
-1401.5000000000009
42
-2.4142135623730949
10
703
20
-1398.5000000000009
10
750
20
-1398.5000000000009
10
750
20
-1078.5000000000009
10
703
20
-1078.5000000000009
42
-2.4142135623730949
10
700
20
-1075.5000000000009
0
LWPOLYLINE
5
109
100
AcDbEntity
8
0
100
AcDbPolyline
90
16
70
1
43
0.0
10
1050
20
-1060.5000000000009
10
900
20
-1060.5000000000009
10
900
20
-1075.5000000000007
42
-2.4142135623730949
10
896.99999999999989
20
-1078.5000000000009
10
850
20
-1078.5000000000009
10
850
20
-1398.5000000000009
10
896.99999999999989
20
-1398.5000000000009
42
-2.4142135623730949
10
900
20
-1401.5000000000009
10
900
20
-1416.5000000000009
10
1050
20
-1416.5000000000009
10
1050
20
-1401.5000000000009
42
-2.4142135623730949
10
1053
20
-1398.5000000000009
10
1100
20
-1398.5000000000009
10
1100
20
-1078.5000000000009
10
1053
20
-1078.5000000000009
42
-2.4142135623730949
10
1050
20
-1075.5000000000009
0
LWPOLYLINE
5
110
100
AcDbEntity
8
0
100
AcDbPolyline
90
16
70
1
43
0.0
10
1250
20
-1060.5000000000009
10
1250
20
-1075.5000000000007
42
-2.4142135623730949
10
1247
20
-1078.5000000000009
10
1200
20
-1078.5000000000009
10
1200
20
-1398.5000000000009
10
1247
20
-1398.5000000000009
42
-2.4142135623730949
10
1250
20
-1401.5000000000009
10
1250
20
-1416.5000000000009
10
1400
20
-1416.5000000000009
10
1400
20
-1401.5000000000009
42
-2.4142135623730949
10
1403
20
-1398.5000000000009
10
1450
20
-1398.5000000000009
10
1450
20
-1078.5000000000009
10
1403
20
-1078.5000000000009
42
-2.4142135623730949
10
1400
20
-1075.5000000000009
10
1400
20
-1060.5000000000009
0
LWPOLYLINE
5
111
100
AcDbEntity
8
0
100
AcDbPolyline
90
16
70
1
43
0.0
10
750
20
-1560.5000000000009
10
750
20
-1575.5000000000009
42
-2.4142135623730949
10
746.99999999999989
20
-1578.5000000000011
10
700
20
-1578.5000000000011
10
700
20
-1898.5000000000011
10
746.99999999999989
20
-1898.5000000000011
42
-2.4142135623730949
10
750
20
-1901.5000000000011
10
750
20
-1916.5000000000011
10
900
20
-1916.5000000000011
10
900
20
-1901.5000000000011
42
-2.4142135623730949
10
903
20
-1898.5000000000011
10
950
20
-1898.5000000000011
10
950
20
-1578.5000000000011
10
903
20
-1578.5000000000011
42
-2.4142135623730949
10
900
20
-1575.5000000000009
10
900
20
-1560.5000000000009
0
LWPOLYLINE
5
112
100
AcDbEntity
8
0
100
AcDbPolyline
90
16
70
1
43
0.0
10
1303
20
-1578.5000000000011
42
-2.4142135623730949
10
1300
20
-1575.5000000000009
10
1300
20
-1560.5000000000009
10
1150
20
-1560.5000000000009
10
1150
20
-1575.5000000000009
42
-2.4142135623730949
10
1147
20
-1578.5000000000011
10
1100
20
-1578.5000000000011
10
1100
20
-1898.5000000000011
10
1147
20
-1898.5000000000011
42
-2.4142135623730949
10
1150
20
-1901.5000000000011
10
1150
20
-1916.5000000000011
10
1300
20
-1916.5000000000011
10
1300
20
-1901.5000000000011
42
-2.4142135623730949
10
1303
20
-1898.5000000000011
10
1350
20
-1898.5000000000011
10
1350
20
-1578.5000000000011
0
LWPOLYLINE
5
113
100
AcDbEntity
8
0
100
AcDbPolyline
90
8
70
1
43
0.0
10
-350
20
-947
10
-350
20
-935
42
-2.4142135623730949
10
-347
20
-932
10
-202.99999999999997
20
-932
42
-2.4142135623730949
10
-200
20
-935
10
-200
20
-946.99999999999989
42
-2.4142135623730949
10
-203.00000000000006
20
-950
10
-347
20
-950
42
-2.4142135623730949
0
LWPOLYLINE
5
114
100
AcDbEntity
8
0
100
AcDbPolyline
90
8
70
1
43
0.0
10
-202.99999999999997
20
-50
10
-347
20
-50
42
2.4142135623730949
10
-350
20
-53
10
-350
20
-65
42
2.4142135623730949
10
-347
20
-68
10
-202.99999999999997
20
-68
42
2.4142135623730949
10
-200
20
-65
10
-200
20
-53
42
2.4142135623730949
0
LWPOLYLINE
5
115
100
AcDbEntity
8
0
100
AcDbPolyline
90
8
70
1
43
0.0
10
-170
20
0
10
-380
20
0
42
0.41421356237309537
10
-400
20
-20
10
-400
20
-980
42
0.41421356237309503
10
-380
20
-1000
10
-170
20
-1000
42
0.41421356237309503
10
-150
20
-980
10
-150
20
-19.999999999999993
42
0.41421356237309515
0
LWPOLYLINE
5
116
100
AcDbEntity
8
0
100
AcDbPolyline
90
8
70
1
43
0.0
10
-350
20
-689
10
-350
20
-677
42
-2.4142135623730949
10
-347
20
-674
10
-203.00000000000011
20
-674
42
-2.4142135623730949
10
-200
20
-677.00000000000023
10
-200
20
-689
42
-2.4142135623730949
10
-202.99999999999997
20
-692
10
-347
20
-692
42
-2.4142135623730949
0
LWPOLYLINE
5
117
100
AcDbEntity
8
0
100
AcDbPolyline
90
8
70
1
43
0.0
10
-350
20
-311
42
-2.4142135623730949
10
-347
20
-308
10
-203
20
-308
42
-2.4142135623730949
10
-200
20
-311
10
-200
20
-323.00000000000006
42
-2.4142135623730949
10
-202.99999999999997
20
-326
10
-346.99999999999994
20
-326
42
-2.4142135623730949
10
-350
20
-323
0
LWPOLYLINE
5
118
100
AcDbEntity
8
0
100
AcDbPolyline
90
8
70
1
43
0.0
10
50
20
-947
10
50
20
-935
42
-2.4142135623730949
10
52.999999999999972
20
-932
10
197.00000000000003
20
-932
42
-2.4142135623730949
10
200
20
-935
10
200
20
-946.99999999999989
42
-2.4142135623730949
10
196.99999999999994
20
-950
10
52.999999999999972
20
-950
42
-2.4142135623730949
0
LWPOLYLINE
5
119
100
AcDbEntity
8
0
100
AcDbPolyline
90
8
70
1
43
0.0
10
197.00000000000003
20
-50
10
52.999999999999972
20
-50
42
2.4142135623730949
10
50
20
-53
10
50
20
-65
42
2.4142135623730949
10
52.999999999999972
20
-68
10
197.00000000000003
20
-68
42
2.4142135623730949
10
200
20
-65
10
200
20
-53
42
2.4142135623730949
0
LWPOLYLINE
5
120
100
AcDbEntity
8
0
100
AcDbPolyline
90
8
70
1
43
0.0
10
230
20
0
10
20
20
0
42
0.41421356237309537
10
0
20
-20
10
0
20
-980
42
0.41421356237309503
10
20
20
-1000
10
230
20
-1000
42
0.41421356237309503
10
250
20
-980
10
250
20
-19.999999999999993
42
0.41421356237309515
0
LWPOLYLINE
5
121
100
AcDbEntity
8
0
100
AcDbPolyline
90
8
70
1
43
0.0
10
50
20
-689
10
50
20
-677
42
-2.4142135623730949
10
52.999999999999972
20
-674
10
196.99999999999989
20
-674
42
-2.4142135623730949
10
200
20
-677.00000000000023
10
200
20
-689
42
-2.4142135623730949
10
197.00000000000003
20
-692
10
52.999999999999972
20
-692
42
-2.4142135623730949
0
LWPOLYLINE
5
122
100
AcDbEntity
8
0
100
AcDbPolyline
90
8
70
1
43
0.0
10
50
20
-311
42
-2.4142135623730949
10
52.999999999999972
20
-308
10
197
20
-308
42
-2.4142135623730949
10
200
20
-311
10
200
20
-323.00000000000006
42
-2.4142135623730949
10
197.00000000000003
20
-326
10
53.000000000000043
20
-326
42
-2.4142135623730949
10
50
20
-323
0
LWPOLYLINE
5
123
100
AcDbEntity
8
0
100
AcDbPolyline
90
8
70
1
43
0.0
10
-570
20
-1200
10
-780
20
-1200
42
0.41421356237309503
10
-800
20
-1220
10
-800
20
-2180
42
0.41421356237309503
10
-780
20
-2200
10
-570
20
-2200
42
0.41421356237309503
10
-550
20
-2180
10
-550
20
-1220
42
0.41421356237309503
0
LWPOLYLINE
5
124
100
AcDbEntity
8
0
100
AcDbPolyline
90
8
70
1
43
0.0
10
-750
20
-1889
10
-750
20
-1877
42
-2.4142135623730949
10
-747
20
-1874
10
-603.00000000000011
20
-1874
42
-2.4142135623730949
10
-600
20
-1877.0000000000002
10
-600
20
-1888.9999999999998
42
-2.4142135623730949
10
-603
20
-1892
10
-747.00000000000023
20
-1892
42
-2.4142135623730949
0
LWPOLYLINE
5
125
100
AcDbEntity
8
0
100
AcDbPolyline
90
8
70
1
43
0.0
10
-750
20
-1511.0000000000002
42
-2.4142135623730949
10
-747
20
-1508
10
-602.99999999999977
20
-1508
42
-2.4142135623730949
10
-600
20
-1511
10
-600
20
-1523
42
-2.4142135623730949
10
-603
20
-1526
10
-747.00000000000023
20
-1526
42
-2.4142135623730949
10
-750
20
-1523
0
LWPOLYLINE
5
126
100
AcDbEntity
8
0
100
AcDbPolyline
90
8
70
1
43
0.0
10
-103.00000000000004
20
-2150
10
-246.99999999999989
20
-2150
42
-2.4142135623730949
10
-250
20
-2147
10
-250
20
-2135
42
-2.4142135623730949
10
-247.00000000000003
20
-2132
10
-103.00000000000011
20
-2132
42
-2.4142135623730949
10
-100
20
-2135
10
-100
20
-2147
42
-2.4142135623730949
0
LWPOLYLINE
5
127
100
AcDbEntity
8
0
100
AcDbPolyline
90
8
70
1
43
0.0
10
-50
20
-2180
10
-50
20
-1220
42
0.41421356237309503
10
-70
20
-1200
10
-280
20
-1200
42
0.41421356237309503
10
-300
20
-1220
10
-300
20
-2180
42
0.41421356237309503
10
-280
20
-2200
10
-70
20
-2200
42
0.41421356237309503
0
LWPOLYLINE
5
128
100
AcDbEntity
8
0
100
AcDbPolyline
90
8
70
1
43
0.0
10
-102.99999999999997
20
-1250
10
-247.00000000000003
20
-1250
42
2.4142135623730949
10
-250
20
-1253
10
-250
20
-1265
42
2.4142135623730949
10
-247.00000000000003
20
-1268
10
-102.99999999999997
20
-1268
42
2.4142135623730949
10
-100
20
-1265
10
-100
20
-1253
42
2.4142135623730949
0
ENDSEC
0
SECTION
2
OBJECTS
0
DICTIONARY
5
C
100
AcDbDictionary
3
ACAD_GROUP
350
D
3
ACAD_MLINESTYLE
350
17
0
DICTIONARY
5
D
100
AcDbDictionary
0
DICTIONARY
5
1A
330
C
100
AcDbDictionary
0
DICTIONARY
5
17
100
AcDbDictionary
0
ENDSEC
0
EOF
