  0
SECTION
  2
HEADER
  9
$ACADVER
  1
AC1009
  9
$DWGCODEPAGE
  3
ansi_1252
  9
$INSBASE
 10
0.0
 20
0.0
 30
0.0
  9
$EXTMIN
 10
-18004.38901260081
 20
4162.323477464701
 30
0.0
  9
$EXTMAX
 10
-16004.38901260081
 20
5412.323477464701
 30
0.0
  9
$LIMMIN
 10
0.0
 20
0.0
  9
$LIMMAX
 10
12.0
 20
9.0
  9
$ORTHOMODE
 70
     0
  9
$REGENMODE
 70
     1
  9
$FILLMODE
 70
     1
  9
$QTEXTMODE
 70
     0
  9
$MIRRTEXT
 70
     1
  9
$DRAGMODE
 70
     2
  9
$LTSCALE
 40
1.0
  9
$OSMODE
 70
    37
  9
$ATTMODE
 70
     1
  9
$TEXTSIZE
 40
0.2
  9
$TRACEWID
 40
0.05
  9
$TEXTSTYLE
  7
STANDARD
  9
$CLAYER
  8
DEFAULT
  9
$CELTYPE
  6
BYLAYER
  9
$CECOLOR
 62
   256
  9
$DIMSCALE
 40
1.0
  9
$DIMASZ
 40
0.18
  9
$DIMEXO
 40
0.0625
  9
$DIMDLI
 40
0.38
  9
$DIMRND
 40
0.0
  9
$DIMDLE
 40
0.0
  9
$DIMEXE
 40
0.18
  9
$DIMTP
 40
0.0
  9
$DIMTM
 40
0.0
  9
$DIMTXT
 40
0.18
  9
$DIMCEN
 40
0.09
  9
$DIMTSZ
 40
0.0
  9
$DIMTOL
 70
     0
  9
$DIMLIM
 70
     0
  9
$DIMTIH
 70
     1
  9
$DIMTOH
 70
     1
  9
$DIMSE1
 70
     0
  9
$DIMSE2
 70
     0
  9
$DIMTAD
 70
     0
  9
$DIMZIN
 70
     0
  9
$DIMBLK
  1

  9
$DIMASO
 70
     1
  9
$DIMSHO
 70
     1
  9
$DIMPOST
  1

  9
$DIMAPOST
  1

  9
$DIMALT
 70
     0
  9
$DIMALTD
 70
     2
  9
$DIMALTF
 40
25.4
  9
$DIMLFAC
 40
1.0
  9
$DIMTOFL
 70
     0
  9
$DIMTVP
 40
0.0
  9
$DIMTIX
 70
     0
  9
$DIMSOXD
 70
     0
  9
$DIMSAH
 70
     0
  9
$DIMBLK1
  1

  9
$DIMBLK2
  1

  9
$DIMSTYLE
  2
STANDARD
  9
$DIMCLRD
 70
     0
  9
$DIMCLRE
 70
     0
  9
$DIMCLRT
 70
     0
  9
$DIMTFAC
 40
1.0
  9
$DIMGAP
 40
0.09
  9
$LUNITS
 70
     2
  9
$LUPREC
 70
     4
  9
$SKETCHINC
 40
0.1
  9
$FILLETRAD
 40
0.5
  9
$AUNITS
 70
     0
  9
$AUPREC
 70
     0
  9
$MENU
  1
.
  9
$ELEVATION
 40
0.0
  9
$PELEVATION
 40
0.0
  9
$THICKNESS
 40
0.0
  9
$LIMCHECK
 70
     0
  9
$CHAMFERA
 40
0.0
  9
$CHAMFERB
 40
0.0
  9
$SKPOLY
 70
     0
  9
$TDCREATE
 40
2457826.745064838
  9
$TDUPDATE
 40
2457826.745082535
  9
$TDINDWG
 40
0.0000000116
  9
$TDUSRTIMER
 40
0.0000000116
  9
$USRTIMER
 70
     1
  9
$ANGBASE
 50
0.0
  9
$ANGDIR
 70
     0
  9
$PDMODE
 70
     0
  9
$PDSIZE
 40
0.0
  9
$PLINEWID
 40
0.0
  9
$COORDS
 70
     1
  9
$SPLFRAME
 70
     0
  9
$SPLINETYPE
 70
     6
  9
$SPLINESEGS
 70
     8
  9
$ATTDIA
 70
     0
  9
$ATTREQ
 70
     1
  9
$HANDLING
 70
     1
  9
$HANDSEED
  5
1C7
  9
$SURFTAB1
 70
     6
  9
$SURFTAB2
 70
     6
  9
$SURFTYPE
 70
     6
  9
$SURFU
 70
     6
  9
$SURFV
 70
     6
  9
$UCSNAME
  2

  9
$UCSORG
 10
0.0
 20
0.0
 30
0.0
  9
$UCSXDIR
 10
1.0
 20
0.0
 30
0.0
  9
$UCSYDIR
 10
0.0
 20
1.0
 30
0.0
  9
$PUCSNAME
  2

  9
$PUCSORG
 10
0.0
 20
0.0
 30
0.0
  9
$PUCSXDIR
 10
1.0
 20
0.0
 30
0.0
  9
$PUCSYDIR
 10
0.0
 20
1.0
 30
0.0
  9
$USERI1
 70
     0
  9
$USERI2
 70
     0
  9
$USERI3
 70
     0
  9
$USERI4
 70
     0
  9
$USERI5
 70
     0
  9
$USERR1
 40
0.0
  9
$USERR2
 40
0.0
  9
$USERR3
 40
0.0
  9
$USERR4
 40
0.0
  9
$USERR5
 40
0.0
  9
$WORLDVIEW
 70
     1
  9
$SHADEDGE
 70
     3
  9
$SHADEDIF
 70
    70
  9
$TILEMODE
 70
     1
  9
$MAXACTVP
 70
    64
  9
$PLIMCHECK
 70
     0
  9
$PEXTMIN
 10
1.000000000000000E+20
 20
1.000000000000000E+20
 30
1.000000000000000E+20
  9
$PEXTMAX
 10
-1.000000000000000E+20
 20
-1.000000000000000E+20
 30
-1.000000000000000E+20
  9
$PLIMMIN
 10
0.0
 20
0.0
  9
$PLIMMAX
 10
12.0
 20
9.0
  9
$UNITMODE
 70
     0
  9
$VISRETAIN
 70
     1
  9
$PLINEGEN
 70
     0
  9
$PSLTSCALE
 70
     1
  0
ENDSEC
  0
SECTION
  2
TABLES
  0
TABLE
  2
VPORT
 70
     1
  0
VPORT
  2
*ACTIVE
 70
     0
 10
0.0
 20
0.0
 11
1.0
 21
1.0
 12
-17004.38901260081
 22
4787.323477464701
 13
0.0
 23
0.0
 14
0.5
 24
0.5
 15
0.5
 25
0.5
 16
0.0
 26
0.0
 36
1.0
 17
0.0
 27
0.0
 37
0.0
 40
1275.0
 41
1.6
 42
50.0
 43
0.0
 44
0.0
 50
0.0
 51
0.0
 71
     0
 72
   100
 73
     1
 74
     3
 75
     0
 76
     0
 77
     0
 78
     0
  0
ENDTAB
  0
TABLE
  2
LTYPE
 70
     1
  0
LTYPE
  2
CONTINUOUS
 70
     0
  3
Solid line
 72
    65
 73
     0
 40
0.0
  0
ENDTAB
  0
TABLE
  2
LAYER
 70
     6
  0
LAYER
  2
0
 70
     0
 62
     7
  6
CONTINUOUS
  0
LAYER
  2
LAYER_01
 70
     0
 62
     1
  6
CONTINUOUS
  0
LAYER
  2
DEFAULT
 70
     0
 62
     7
  6
CONTINUOUS
  0
LAYER
  2
LAYER_03
 70
     0
 62
     5
  6
CONTINUOUS
  0
LAYER
  2
LAYER_02
 70
     0
 62
     3
  6
CONTINUOUS
  0
LAYER
  2
LAYER_04
 70
     0
 62
     2
  6
CONTINUOUS
  0
ENDTAB
  0
TABLE
  2
STYLE
 70
     1
  0
STYLE
  2
STANDARD
 70
     0
 40
0.0
 41
1.0
 50
0.0
 71
     0
 42
0.2
  3
txt
  4

  0
ENDTAB
  0
TABLE
  2
VIEW
 70
     0
  0
ENDTAB
  0
TABLE
  2
UCS
 70
     0
  0
ENDTAB
  0
TABLE
  2
APPID
 70
     1
  0
APPID
  2
ACAD
 70
     0
  0
ENDTAB
  0
TABLE
  2
DIMSTYLE
 70
     1
  0
DIMSTYLE
  2
STANDARD
 70
     0
  3

  4

  5

  6

  7

 40
1.0
 41
0.18
 42
0.0625
 43
0.38
 44
0.18
 45
0.0
 46
0.0
 47
0.0
 48
0.0
140
0.18
141
0.09
142
0.0
143
25.4
144
1.0
145
0.0
146
1.0
147
0.09
 71
     0
 72
     0
 73
     1
 74
     1
 75
     0
 76
     0
 77
     0
 78
     0
170
     0
171
     2
172
     0
173
     0
174
     0
175
     0
176
     0
177
     0
178
     0
  0
ENDTAB
  0
ENDSEC
  0
SECTION
  2
BLOCKS
  0
BLOCK
  8
0
  2
$MODEL_SPACE
 70
     0
 10
0.0
 20
0.0
 30
0.0
  3
$MODEL_SPACE
  1

  0
ENDBLK
  5
21
  8
0
  0
BLOCK
 67
     1
  8
0
  2
$PAPER_SPACE
 70
     0
 10
0.0
 20
0.0
 30
0.0
  3
$PAPER_SPACE
  1

  0
ENDBLK
  5
1D
 67
     1
  8
0
  0
ENDSEC
  0
SECTION
  2
ENTITIES
  0
LINE
  5
6F
  8
LAYER_01
 10
-17101.34497611196
 20
4586.814394697883
 30
0.0
 11
-17119.34497611196
 21
4586.814394697883
 31
0.0
  0
LINE
  5
70
  8
LAYER_01
 10
-17119.34497611196
 20
4586.814394697883
 30
0.0
 11
-17119.34497611196
 21
4536.814394697887
 31
0.0
  0
LINE
  5
71
  8
LAYER_01
 10
-17119.34497611196
 20
4536.814394697887
 30
0.0
 11
-17101.34497611206
 21
4536.814394697887
 31
0.0
  0
LINE
  5
72
  8
LAYER_01
 10
-17101.34497611206
 20
4536.814394697887
 30
0.0
 11
-17101.34497611206
 21
4511.814394698084
 31
0.0
  0
LINE
  5
73
  8
LAYER_01
 10
-17101.34497611206
 20
4511.814394698084
 30
0.0
 11
-16427.74497611206
 21
4511.814394698084
 31
0.0
  0
LINE
  5
74
  8
LAYER_01
 10
-16427.74497611206
 20
4511.814394698084
 30
0.0
 11
-16427.74497611206
 21
4536.814394698084
 31
0.0
  0
LINE
  5
75
  8
LAYER_01
 10
-16427.74497611206
 20
4536.814394698084
 30
0.0
 11
-16409.74497611207
 21
4536.814394698084
 31
0.0
  0
LINE
  5
76
  8
LAYER_01
 10
-16409.74497611207
 20
4536.814394698084
 30
0.0
 11
-16409.74497611207
 21
4586.814394698084
 31
0.0
  0
LINE
  5
77
  8
LAYER_01
 10
-16409.74497611207
 20
4586.814394698084
 30
0.0
 11
-16427.74497611196
 21
4586.814394698084
 31
0.0
  0
LINE
  5
78
  8
LAYER_01
 10
-16427.74497611196
 20
4586.814394698084
 30
0.0
 11
-16427.74497611196
 21
4611.814394698084
 31
0.0
  0
LINE
  5
79
  8
LAYER_01
 10
-16427.74497611196
 20
4611.814394698084
 30
0.0
 11
-17101.34497611196
 21
4611.814394698084
 31
0.0
  0
LINE
  5
7A
  8
LAYER_01
 10
-17101.34497611196
 20
4611.814394698084
 30
0.0
 11
-17101.34497611196
 21
4586.814394697883
 31
0.0
  0
LINE
  5
7B
  8
LAYER_01
 10
-16349.63449669842
 20
4583.655870928767
 30
0.0
 11
-16367.63449669842
 21
4583.655870928767
 31
0.0
  0
LINE
  5
7C
  8
LAYER_01
 10
-16367.63449669842
 20
4583.655870928767
 30
0.0
 11
-16367.63449669842
 21
4565.855870928764
 31
0.0
  0
LINE
  5
7D
  8
LAYER_01
 10
-16367.63449669842
 20
4565.855870928764
 30
0.0
 11
-16349.63449669842
 21
4565.855870928764
 31
0.0
  0
LINE
  5
7E
  8
LAYER_01
 10
-16349.63449669842
 20
4565.855870928764
 30
0.0
 11
-16349.63449669842
 21
4562.355870929157
 31
0.0
  0
LINE
  5
7F
  8
LAYER_01
 10
-16349.63449669842
 20
4562.355870929157
 30
0.0
 11
-16099.63449669842
 21
4562.355870929157
 31
0.0
  0
LINE
  5
80
  8
LAYER_01
 10
-16099.63449669842
 20
4562.355870929157
 30
0.0
 11
-16099.63449669842
 21
4565.855870929157
 31
0.0
  0
LINE
  5
81
  8
LAYER_01
 10
-16099.63449669842
 20
4565.855870929157
 30
0.0
 11
-16081.63449669842
 21
4565.855870929157
 31
0.0
  0
LINE
  5
82
  8
LAYER_01
 10
-16081.63449669842
 20
4565.855870929157
 30
0.0
 11
-16081.63449669842
 21
4583.655870929168
 31
0.0
  0
LINE
  5
83
  8
LAYER_01
 10
-16081.63449669842
 20
4583.655870929168
 30
0.0
 11
-16099.63449669842
 21
4583.655870929168
 31
0.0
  0
LINE
  5
84
  8
LAYER_01
 10
-16099.63449669842
 20
4583.655870929168
 30
0.0
 11
-16099.63449669842
 21
4587.355870929157
 31
0.0
  0
LINE
  5
85
  8
LAYER_01
 10
-16099.63449669842
 20
4587.355870929157
 30
0.0
 11
-16349.63449669842
 21
4587.355870929157
 31
0.0
  0
LINE
  5
86
  8
LAYER_01
 10
-16349.63449669842
 20
4587.355870929157
 30
0.0
 11
-16349.63449669842
 21
4583.655870928767
 31
0.0
  0
LINE
  5
88
  8
DEFAULT
 10
-16004.38901260081
 20
5412.323477464701
 30
0.0
 11
-16004.38901260081
 21
4162.323477464701
 31
0.0
  0
LINE
  5
89
  8
DEFAULT
 10
-16004.38901260081
 20
4162.323477464701
 30
0.0
 11
-18004.38901260081
 21
4162.323477464701
 31
0.0
  0
LINE
  5
8A
  8
DEFAULT
 10
-18004.38901260081
 20
4162.323477464701
 30
0.0
 11
-18004.38901260081
 21
5412.323477464701
 31
0.0
  0
LINE
  5
8B
  8
DEFAULT
 10
-18004.38901260081
 20
5412.323477464701
 30
0.0
 11
-16004.38901260081
 21
5412.323477464701
 31
0.0
  0
LINE
  5
8C
  8
LAYER_01
 10
-17110.72523147756
 20
4741.167332046147
 30
0.0
 11
-17092.92523147756
 21
4741.167332046147
 31
0.0
  0
LINE
  5
8D
  8
LAYER_01
 10
-17092.92523147756
 20
4741.167332046147
 30
0.0
 11
-17092.92523147756
 21
4759.167332046147
 31
0.0
  0
LINE
  5
8E
  8
LAYER_01
 10
-17092.92523147756
 20
4759.167332046147
 30
0.0
 11
-17089.42523147795
 21
4759.167332046147
 31
0.0
  0
LINE
  5
8F
  8
LAYER_01
 10
-17089.42523147795
 20
4759.167332046147
 30
0.0
 11
-17089.42523147795
 21
5009.167332046147
 31
0.0
  0
LINE
  5
90
  8
LAYER_01
 10
-17089.42523147795
 20
5009.167332046147
 30
0.0
 11
-17092.92523147795
 21
5009.167332046147
 31
0.0
  0
LINE
  5
91
  8
LAYER_01
 10
-17092.92523147795
 20
5009.167332046147
 30
0.0
 11
-17092.92523147795
 21
5027.167332046147
 31
0.0
  0
LINE
  5
92
  8
LAYER_01
 10
-17092.92523147795
 20
5027.167332046147
 30
0.0
 11
-17110.72523147796
 21
5027.167332046147
 31
0.0
  0
LINE
  5
93
  8
LAYER_01
 10
-17110.72523147796
 20
5027.167332046147
 30
0.0
 11
-17110.72523147796
 21
5009.167332046147
 31
0.0
  0
LINE
  5
94
  8
LAYER_01
 10
-17110.72523147796
 20
5009.167332046147
 30
0.0
 11
-17114.42523147795
 21
5009.167332046147
 31
0.0
  0
LINE
  5
95
  8
LAYER_01
 10
-17114.42523147795
 20
5009.167332046147
 30
0.0
 11
-17114.42523147795
 21
4759.167332046147
 31
0.0
  0
LINE
  5
96
  8
LAYER_01
 10
-17114.42523147795
 20
4759.167332046147
 30
0.0
 11
-17110.72523147756
 21
4759.167332046147
 31
0.0
  0
LINE
  5
97
  8
LAYER_01
 10
-17110.72523147756
 20
4759.167332046147
 30
0.0
 11
-17110.72523147756
 21
4741.167332046147
 31
0.0
  0
LINE
  5
98
  8
LAYER_01
 10
-17110.72523147756
 20
5055.581979587139
 30
0.0
 11
-17092.92523147756
 21
5055.581979587139
 31
0.0
  0
LINE
  5
99
  8
LAYER_01
 10
-17092.92523147756
 20
5055.581979587139
 30
0.0
 11
-17092.92523147756
 21
5073.581979587139
 31
0.0
  0
LINE
  5
9A
  8
LAYER_01
 10
-17092.92523147756
 20
5073.581979587139
 30
0.0
 11
-17089.42523147795
 21
5073.581979587139
 31
0.0
  0
LINE
  5
9B
  8
LAYER_01
 10
-17089.42523147795
 20
5073.581979587139
 30
0.0
 11
-17089.42523147795
 21
5323.581979587139
 31
0.0
  0
LINE
  5
9C
  8
LAYER_01
 10
-17089.42523147795
 20
5323.581979587139
 30
0.0
 11
-17092.92523147795
 21
5323.581979587139
 31
0.0
  0
LINE
  5
9D
  8
LAYER_01
 10
-17092.92523147795
 20
5323.581979587139
 30
0.0
 11
-17092.92523147795
 21
5341.581979587139
 31
0.0
  0
LINE
  5
9E
  8
LAYER_01
 10
-17092.92523147795
 20
5341.581979587139
 30
0.0
 11
-17110.72523147796
 21
5341.581979587139
 31
0.0
  0
LINE
  5
9F
  8
LAYER_01
 10
-17110.72523147796
 20
5341.581979587139
 30
0.0
 11
-17110.72523147796
 21
5323.581979587139
 31
0.0
  0
LINE
  5
A0
  8
LAYER_01
 10
-17110.72523147796
 20
5323.581979587139
 30
0.0
 11
-17114.42523147795
 21
5323.581979587139
 31
0.0
  0
LINE
  5
A1
  8
LAYER_01
 10
-17114.42523147795
 20
5323.581979587139
 30
0.0
 11
-17114.42523147795
 21
5073.581979587139
 31
0.0
  0
LINE
  5
A2
  8
LAYER_01
 10
-17114.42523147795
 20
5073.581979587139
 30
0.0
 11
-17110.72523147756
 21
5073.581979587139
 31
0.0
  0
LINE
  5
A3
  8
LAYER_01
 10
-17110.72523147756
 20
5073.581979587139
 30
0.0
 11
-17110.72523147756
 21
5055.581979587139
 31
0.0
  0
LINE
  5
A4
  8
LAYER_01
 10
-16829.10516542251
 20
4681.651133886386
 30
0.0
 11
-16817.10516542261
 21
4681.651133886378
 31
0.0
  0
ARC
  5
A5
  8
LAYER_01
 10
-16814.10516542242
 20
4681.651133886195
 30
0.0
 40
3.000000000188265
 50
179.9999999964913
 51
90.00000000132012
  0
LINE
  5
A6
  8
LAYER_01
 10
-16814.10516542249
 20
4684.651133886384
 30
0.0
 11
-16814.10516542252
 21
4728.651133886387
 31
0.0
  0
ARC
  5
A7
  8
LAYER_01
 10
-16814.10516542252
 20
4731.651133886387
 30
0.0
 40
2.999999999999942
 50
270.0
 51
180.0
  0
LINE
  5
A8
  8
LAYER_01
 10
-16817.10516542252
 20
4731.651133886387
 30
0.0
 11
-16829.10516542252
 21
4731.651133886387
 31
0.0
  0
ARC
  5
A9
  8
LAYER_01
 10
-16832.10516542252
 20
4731.651133886387
 30
0.0
 40
2.999999999998749
 50
0.0000000000173701
 51
269.9999999999305
  0
LINE
  5
AA
  8
LAYER_01
 10
-16832.10516542252
 20
4728.651133886389
 30
0.0
 11
-16832.10516542252
 21
4684.651133886395
 31
0.0
  0
ARC
  5
AB
  8
LAYER_01
 10
-16832.10516542252
 20
4681.651133886389
 30
0.0
 40
3.000000000005457
 50
89.99999999993052
 51
359.9999999999305
  0
LINE
  5
AC
  8
LAYER_01
 10
-16623.2051654221
 20
5109.551133886793
 30
0.0
 11
-16623.20516542211
 21
5203.75780797735
 31
0.0
  0
ARC
  5
AD
  8
LAYER_01
 10
-16623.00516542242
 20
5206.75113388679
 30
0.0
 40
2.999999999999411
 50
266.1774462766293
 51
180.0000000135313
  0
LINE
  5
AE
  8
LAYER_01
 10
-16626.00516542242
 20
5206.75113388608
 30
0.0
 11
-16638.20516542242
 21
5206.751133886126
 31
0.0
  0
ARC
  5
AF
  8
LAYER_01
 10
-16641.20516542242
 20
5206.751133886088
 30
0.0
 40
3.000000000002672
 50
0.0000000007121728
 51
270.0000000063227
  0
LINE
  5
B0
  8
LAYER_01
 10
-16641.20516542209
 20
5203.751133886086
 30
0.0
 11
-16641.20516542213
 21
5109.551133886092
 31
0.0
  0
ARC
  5
B1
  8
LAYER_01
 10
-16641.20516541972
 20
5106.551133886091
 30
0.0
 40
3.000000000002182
 50
90.00000004606544
 51
3.822553728973382
  0
LINE
  5
B2
  8
LAYER_01
 10
-16638.2118395103
 20
5106.751133886077
 30
0.0
 11
-16626.19849133289
 21
5106.751133886077
 31
0.0
  0
ARC
  5
B3
  8
LAYER_01
 10
-16623.20516542342
 20
5106.551133886791
 30
0.0
 40
3.00000000000273
 50
176.1774462843974
 51
89.9999999749871
  0
ARC
  5
B4
  8
LAYER_01
 10
-16823.10516542252
 20
5306.651133886391
 30
0.0
 40
3.000000000004547
 50
359.9999999999305
 51
269.999999999861
  0
LINE
  5
B5
  8
LAYER_01
 10
-16823.10516542253
 20
5303.651133886387
 30
0.0
 11
-16823.10516542253
 21
5291.451133886389
 31
0.0
  0
ARC
  5
B6
  8
LAYER_01
 10
-16823.10516542252
 20
5288.451133886387
 30
0.0
 40
3.000000000000987
 50
90.00000000020843
 51
3.822553729233353
  0
LINE
  5
B7
  8
LAYER_01
 10
-16820.1118395131
 20
5288.651133886386
 30
0.0
 11
-16725.89849133194
 21
5288.651133886389
 31
0.0
  0
ARC
  5
B8
  8
LAYER_01
 10
-16722.90516542251
 20
5288.451133886392
 30
0.0
 40
3.00000000000314
 50
176.1774462707886
 51
93.82255372956266
  0
LINE
  5
B9
  8
LAYER_01
 10
-16723.10516542253
 20
5291.444459795814
 30
0.0
 11
-16723.10516542253
 21
5303.657807976966
 31
0.0
  0
ARC
  5
BA
  8
LAYER_01
 10
-16722.90516542251
 20
5306.651133886387
 30
0.0
 40
3.000000000003594
 50
266.1774462704373
 51
180.0
  0
LINE
  5
BB
  8
LAYER_01
 10
-16725.90516542252
 20
5306.651133886389
 30
0.0
 11
-16820.10516542252
 21
5306.651133886387
 31
0.0
  0
LINE
  5
BC
  8
LAYER_01
 10
-16873.10516542252
 20
4953.651133886387
 30
0.0
 11
-16898.10516542252
 21
4953.651133886387
 31
0.0
  0
ARC
  5
BD
  8
LAYER_01
 10
-16898.10516542252
 20
5003.651133886387
 30
0.0
 40
50.0
 50
180.0
 51
270.0
  0
LINE
  5
BE
  8
LAYER_01
 10
-16948.10516542252
 20
5003.651133886387
 30
0.0
 11
-16948.10516542252
 21
5153.651133886387
 31
0.0
  0
ARC
  5
BF
  8
LAYER_01
 10
-16898.10516542252
 20
5153.651133886387
 30
0.0
 40
50.0
 50
90.0
 51
180.0
  0
LINE
  5
C0
  8
LAYER_01
 10
-16898.10516542252
 20
5203.651133886387
 30
0.0
 11
-16873.10516542252
 21
5203.651133886387
 31
0.0
  0
LINE
  5
C1
  8
LAYER_01
 10
-16873.10516542252
 20
5203.651133886387
 30
0.0
 11
-16873.10516542252
 21
5221.651133886387
 31
0.0
  0
LINE
  5
C2
  8
LAYER_01
 10
-16873.10516542252
 20
5221.651133886387
 30
0.0
 11
-16773.10516542252
 21
5221.651133886387
 31
0.0
  0
LINE
  5
C3
  8
LAYER_01
 10
-16773.10516542252
 20
5221.651133886387
 30
0.0
 11
-16773.10516542252
 21
5203.651133886387
 31
0.0
  0
LINE
  5
C4
  8
LAYER_01
 10
-16773.10516542252
 20
5203.651133886387
 30
0.0
 11
-16748.10516542252
 21
5203.651133886387
 31
0.0
  0
ARC
  5
C5
  8
LAYER_01
 10
-16748.10516542252
 20
5153.651133886387
 30
0.0
 40
50.0
 50
0.0
 51
90.0
  0
LINE
  5
C6
  8
LAYER_01
 10
-16698.10516542252
 20
5153.651133886387
 30
0.0
 11
-16698.10516542252
 21
5003.651133886387
 31
0.0
  0
ARC
  5
C7
  8
LAYER_01
 10
-16748.10516542252
 20
5003.651133886387
 30
0.0
 40
50.0
 50
270.0
 51
0.0
  0
LINE
  5
C8
  8
LAYER_01
 10
-16748.10516542252
 20
4953.651133886387
 30
0.0
 11
-16773.10516542252
 21
4953.651133886387
 31
0.0
  0
LINE
  5
C9
  8
LAYER_01
 10
-16773.10516542252
 20
4953.651133886387
 30
0.0
 11
-16773.10516542252
 21
4935.651133886387
 31
0.0
  0
LINE
  5
CA
  8
LAYER_01
 10
-16773.10516542252
 20
4935.651133886387
 30
0.0
 11
-16873.10516542252
 21
4935.651133886387
 31
0.0
  0
LINE
  5
CB
  8
LAYER_01
 10
-16873.10516542252
 20
4935.651133886387
 30
0.0
 11
-16873.10516542252
 21
4953.651133886387
 31
0.0
  0
LINE
  5
CC
  8
LAYER_01
 10
-16943.07189686823
 20
4871.04899359248
 30
0.0
 11
-16914.78762562082
 21
4899.333264840016
 31
0.0
  0
LINE
  5
CD
  8
LAYER_01
 10
-16914.78762562082
 20
4899.333264840016
 30
0.0
 11
-16902.05970355942
 21
4886.60534277859
 31
0.0
  0
LINE
  5
CE
  8
LAYER_01
 10
-16902.05970355942
 20
4886.60534277859
 30
0.0
 11
-16894.98863574756
 21
4893.676410590449
 31
0.0
  0
ARC
  5
CF
  8
LAYER_01
 10
-16823.00516542252
 20
4965.659880915484
 30
0.0
 40
101.8000000003486
 50
224.9999999999989
 51
315.0000000000011
  0
LINE
  5
D0
  8
LAYER_01
 10
-16751.02169509748
 20
4893.676410590449
 30
0.0
 11
-16743.95062728562
 21
4886.60534277859
 31
0.0
  0
LINE
  5
D1
  8
LAYER_01
 10
-16743.95062728562
 20
4886.60534277859
 30
0.0
 11
-16731.22270522412
 21
4899.333264840099
 31
0.0
  0
LINE
  5
D2
  8
LAYER_01
 10
-16731.22270522412
 20
4899.333264840099
 30
0.0
 11
-16702.93843397659
 21
4871.048993592694
 31
0.0
  0
LINE
  5
D3
  8
LAYER_01
 10
-16702.93843397659
 20
4871.048993592694
 30
0.0
 11
-16715.66635603812
 21
4858.321071531189
 31
0.0
  0
LINE
  5
D4
  8
LAYER_01
 10
-16715.66635603812
 20
4858.321071531189
 30
0.0
 11
-16708.59528822629
 21
4851.250003719253
 31
0.0
  0
ARC
  5
D5
  8
LAYER_01
 10
-16823.00516542252
 20
4965.659880915488
 30
0.0
 40
161.8000000003548
 50
225.0000000000012
 51
314.9999999999998
  0
LINE
  5
D6
  8
LAYER_01
 10
-16937.41504261875
 20
4851.250003719253
 30
0.0
 11
-16930.34397480692
 21
4858.321071531189
 31
0.0
  0
LINE
  5
D7
  8
LAYER_01
 10
-16930.34397480692
 20
4858.321071531189
 30
0.0
 11
-16943.07189686823
 21
4871.04899359248
 31
0.0
  0
LINE
  5
D9
  8
LAYER_03
 10
-16573.00516542252
 20
4706.651133886386
 30
0.0
 11
-16573.00516542251
 21
5306.651133886386
 31
0.0
  0
ARC
  5
DA
  8
LAYER_03
 10
-16623.00516542252
 20
5306.651133886386
 30
0.0
 40
50.00000000000728
 50
0.0
 51
90.0
  0
LINE
  5
DB
  8
LAYER_03
 10
-16623.00516542252
 20
5356.651133886393
 30
0.0
 11
-17023.00516542252
 21
5356.651133886398
 31
0.0
  0
ARC
  5
DC
  8
LAYER_03
 10
-17023.00516542252
 20
5306.651133886391
 30
0.0
 40
50.00000000000716
 50
90.0
 51
180.0000000000041
  0
LINE
  5
DD
  8
LAYER_03
 10
-17073.00516542252
 20
5306.651133886387
 30
0.0
 11
-17073.00516542252
 21
4706.651133886387
 31
0.0
  0
ARC
  5
DE
  8
LAYER_03
 10
-17023.00516542252
 20
4706.651133886391
 30
0.0
 40
50.00000000000222
 50
180.0000000000021
 51
270.0
  0
LINE
  5
DF
  8
LAYER_03
 10
-17023.00516542252
 20
4656.651133886389
 30
0.0
 11
-16973.00516542252
 21
4656.651133886387
 31
0.0
  0
LINE
  5
E0
  8
LAYER_03
 10
-16973.00516542252
 20
4656.651133886387
 30
0.0
 11
-16973.00516542252
 21
4638.651133886588
 31
0.0
  0
LINE
  5
E1
  8
LAYER_03
 10
-16973.00516542252
 20
4638.651133886588
 30
0.0
 11
-16673.00516542252
 21
4638.651133886588
 31
0.0
  0
LINE
  5
E2
  8
LAYER_03
 10
-16673.00516542252
 20
4638.651133886588
 30
0.0
 11
-16673.00516542252
 21
4656.651133886387
 31
0.0
  0
LINE
  5
E3
  8
LAYER_03
 10
-16673.00516542252
 20
4656.651133886387
 30
0.0
 11
-16623.00516542252
 21
4656.651133886386
 31
0.0
  0
ARC
  5
E4
  8
LAYER_03
 10
-16623.00516542252
 20
4706.651133886386
 30
0.0
 40
50.0
 50
270.0
 51
0.0
  0
LINE
  5
E6
  8
LAYER_02
 10
-16958.00516542252
 20
5221.651133886397
 30
0.0
 11
-16958.00516542252
 21
4791.651133886799
 31
0.0
  0
ARC
  5
E7
  8
LAYER_02
 10
-16948.00516542251
 20
4791.651133886799
 30
0.0
 40
10.00000000000364
 50
180.0
 51
269.9999999999791
  0
LINE
  5
E8
  8
LAYER_02
 10
-16948.00516542252
 20
4781.651133886795
 30
0.0
 11
-16698.00516542251
 21
4781.651133886793
 31
0.0
  0
ARC
  5
E9
  8
LAYER_02
 10
-16698.00516542251
 20
4791.651133886795
 30
0.0
 40
10.00000000000159
 50
270.0
 51
359.9999999999895
  0
LINE
  5
EA
  8
LAYER_02
 10
-16688.00516542251
 20
4791.651133886795
 30
0.0
 11
-16688.00516542251
 21
5221.651133886387
 31
0.0
  0
ARC
  5
EB
  8
LAYER_02
 10
-16698.00516542252
 20
5221.651133886387
 30
0.0
 40
10.00000000000819
 50
0.000000000005211
 51
90.0
  0
LINE
  5
EC
  8
LAYER_02
 10
-16698.00516542252
 20
5231.651133886395
 30
0.0
 11
-16948.00516542252
 21
5231.651133886397
 31
0.0
  0
ARC
  5
ED
  8
LAYER_02
 10
-16948.00516542252
 20
5221.651133886395
 30
0.0
 40
10.00000000000182
 50
90.0
 51
179.9999999999896
  0
ARC
  5
EE
  8
LAYER_01
 10
-16290.23052974081
 20
4736.160404657427
 30
0.0
 40
3.000000000001819
 50
270.0
 51
180.0000000000347
  0
LINE
  5
EF
  8
LAYER_01
 10
-16293.23052974081
 20
4736.160404657425
 30
0.0
 11
-16305.23052974081
 21
4736.160404657427
 31
0.0
  0
ARC
  5
F0
  8
LAYER_01
 10
-16308.23052974081
 20
4736.160404657427
 30
0.0
 40
3.000000000001819
 50
0.0
 51
270.0
  0
LINE
  5
F1
  8
LAYER_01
 10
-16308.23052974081
 20
4733.160404657425
 30
0.0
 11
-16308.23052974081
 21
4689.160404657421
 31
0.0
  0
ARC
  5
F2
  8
LAYER_01
 10
-16308.23052974081
 20
4686.160404657421
 30
0.0
 40
2.999999999999203
 50
90.00000000003475
 51
0.0000000000521102
  0
LINE
  5
F3
  8
LAYER_01
 10
-16305.23052974081
 20
4686.160404657425
 30
0.0
 11
-16293.23052974081
 21
4686.160404657423
 31
0.0
  0
ARC
  5
F4
  8
LAYER_01
 10
-16290.23052974081
 20
4686.160404657421
 30
0.0
 40
2.999999999998919
 50
179.9999999999479
 51
89.99999999996527
  0
LINE
  5
F5
  8
LAYER_01
 10
-16290.23052974081
 20
4689.160404657419
 30
0.0
 11
-16290.23052974081
 21
4733.160404657425
 31
0.0
  0
ARC
  5
F6
  8
LAYER_01
 10
-16392.88052974071
 20
4856.935422763721
 30
0.0
 40
2.999999999999221
 50
315.000000000172
 51
225.0000000000491
  0
LINE
  5
F7
  8
LAYER_01
 10
-16390.75920939715
 20
4854.814102420169
 30
0.0
 11
-16382.13250666656
 21
4846.187399689596
 31
0.0
  0
ARC
  5
F8
  8
LAYER_01
 10
-16380.01118632301
 20
4844.066079346019
 30
0.0
 40
2.999999999999863
 50
221.1774462667555
 51
134.9999999995333
  0
LINE
  5
F9
  8
LAYER_01
 10
-16382.26920872824
 20
4842.09089965356
 30
0.0
 11
-16390.76392869179
 21
4833.59617969001
 31
0.0
  0
ARC
  5
FA
  8
LAYER_01
 10
-16392.73910838441
 20
4831.338157284925
 30
0.0
 40
2.99999999999818
 50
135.0000000041146
 51
48.82255372917088
  0
LINE
  5
FB
  8
LAYER_01
 10
-16394.86042872812
 20
4833.45947762833
 30
0.0
 11
-16403.49185075322
 21
4842.090899653516
 31
0.0
  0
ARC
  5
FC
  8
LAYER_01
 10
-16405.74987315831
 20
4844.066079346125
 30
0.0
 40
2.999999999998021
 50
44.99999999998771
 51
318.8225537293817
  0
LINE
  5
FD
  8
LAYER_01
 10
-16403.62855281475
 20
4846.187399689679
 30
0.0
 11
-16395.00185008427
 21
4854.81410242016
 31
0.0
  0
ARC
  5
FE
  8
LAYER_01
 10
-16267.87344090651
 20
4831.47248980692
 30
0.0
 40
2.999999999997934
 50
134.9999999997544
 51
45.19146615125403
  0
LINE
  5
FF
  8
LAYER_01
 10
-16265.75922124167
 20
4833.600887140314
 30
0.0
 11
-16257.2692087282
 21
4842.090899653809
 31
0.0
  0
ARC
  5
100
  8
LAYER_01
 10
-16255.01118632311
 20
4844.066079346421
 30
0.0
 40
3.000000000003924
 50
221.177446270602
 51
135.0000000038321
  0
LINE
  5
101
  8
LAYER_01
 10
-16257.13250666681
 20
4846.187399689839
 30
0.0
 11
-16265.75920939724
 21
4854.814102420365
 31
0.0
  0
ARC
  5
102
  8
LAYER_01
 10
-16267.88052974081
 20
4856.93542276392
 30
0.0
 40
3.000000000002758
 50
315.0000000001965
 51
224.9999999999877
  0
LINE
  5
103
  8
LAYER_01
 10
-16270.00185008437
 20
4854.814102420358
 30
0.0
 11
-16278.63327210956
 21
4846.182680395155
 31
0.0
  0
ARC
  5
104
  8
LAYER_01
 10
-16280.60845180201
 20
4843.924657989923
 30
0.0
 40
3.000000000000159
 50
48.82255373344063
 51
318.8225537293033
  0
LINE
  5
105
  8
LAYER_01
 10
-16278.35042939692
 20
4841.949478297309
 30
0.0
 11
-16269.99476125006
 21
4833.593810150487
 31
0.0
  0
ARC
  5
106
  8
LAYER_01
 10
-16249.13052973842
 20
5094.966079346315
 30
0.0
 40
2.999999999996362
 50
270.0000000000348
 51
179.9999999999305
  0
LINE
  5
107
  8
LAYER_01
 10
-16249.13052973841
 20
5091.966079346319
 30
0.0
 11
-16249.13052973841
 21
5079.766079346226
 31
0.0
  0
ARC
  5
108
  8
LAYER_01
 10
-16249.13052973841
 20
5076.766079346222
 30
0.0
 40
3.000000000003638
 50
176.1774462692889
 51
89.99999999996527
  0
LINE
  5
109
  8
LAYER_01
 10
-16252.12385564783
 20
5076.966079346297
 30
0.0
 11
-16346.13720382899
 21
5076.966079346319
 31
0.0
  0
ARC
  5
10A
  8
LAYER_01
 10
-16349.13052973841
 20
5076.766079346326
 30
0.0
 40
2.999999999998978
 50
90.0
 51
3.822553729151327
  0
LINE
  5
10B
  8
LAYER_01
 10
-16349.13052973841
 20
5079.766079346324
 30
0.0
 11
-16349.13052973841
 21
5091.966079346319
 31
0.0
  0
ARC
  5
10C
  8
LAYER_01
 10
-16349.13052973841
 20
5094.966079346319
 30
0.0
 40
2.999999999999545
 50
0.0
 51
270.0
  0
LINE
  5
10D
  8
LAYER_01
 10
-16346.13052973841
 20
5094.966079346319
 30
0.0
 11
-16252.13052973841
 21
5094.966079346319
 31
0.0
  0
ARC
  5
10E
  8
LAYER_01
 10
-16343.24987315921
 20
4844.066079347123
 30
0.0
 40
3.00000000000115
 50
44.99999997833368
 51
318.8225537292183
  0
LINE
  5
10F
  8
LAYER_01
 10
-16340.99185075413
 20
4842.090899654508
 30
0.0
 11
-16332.35570943427
 21
4833.454758334588
 31
0.0
  0
ARC
  5
110
  8
LAYER_01
 10
-16330.38052974151
 20
4831.196735929621
 30
0.0
 40
3.000000000001329
 50
131.1774462742917
 51
48.8225537293637
  0
LINE
  5
111
  8
LAYER_01
 10
-16328.4053500489
 20
4833.454758334716
 30
0.0
 11
-16319.76920872929
 21
4842.090899654308
 31
0.0
  0
ARC
  5
112
  8
LAYER_01
 10
-16317.51118632421
 20
4844.066079346925
 30
0.0
 40
2.999999999991957
 50
221.177446270932
 51
134.9999999974084
  0
LINE
  5
113
  8
LAYER_01
 10
-16319.63250666767
 20
4846.187399690574
 30
0.0
 11
-16328.2592093973
 21
4854.814102420305
 31
0.0
  0
ARC
  5
114
  8
LAYER_01
 10
-16330.38052974081
 20
4856.935422763923
 30
0.0
 40
3.000000000004446
 50
314.9999999985015
 51
224.999999999435
  0
LINE
  5
115
  8
LAYER_01
 10
-16332.50185008439
 20
4854.814102420381
 30
0.0
 11
-16341.12855281485
 21
4846.187399689881
 31
0.0
  0
ARC
  5
116
  8
LAYER_01
 10
-16205.38052974011
 20
4831.196735927826
 30
0.0
 40
3.000000000003349
 50
131.1774462676476
 51
48.82255375000652
  0
LINE
  5
117
  8
LAYER_01
 10
-16203.40535004831
 20
4833.454758333632
 30
0.0
 11
-16194.76920872828
 21
4842.090899653685
 31
0.0
  0
ARC
  5
118
  8
LAYER_01
 10
-16192.51118632322
 20
4844.066079346321
 30
0.0
 40
2.999999999992796
 50
221.1774462713765
 51
134.9999999912672
  0
LINE
  5
119
  8
LAYER_01
 10
-16194.63250666645
 20
4846.1873996902
 30
0.0
 11
-16203.25920939693
 21
4854.8141024207
 31
0.0
  0
ARC
  5
11A
  8
LAYER_01
 10
-16205.38052974081
 20
4856.93542276392
 30
0.0
 40
2.999999999983464
 50
315.000000008868
 51
225.0000000004667
  0
LINE
  5
11B
  8
LAYER_01
 10
-16207.50185008434
 20
4854.814102420354
 30
0.0
 11
-16215.98714330302
 21
4846.328809201663
 31
0.0
  0
ARC
  5
11C
  8
LAYER_01
 10
-16218.11554063582
 20
4844.214589536219
 30
0.0
 40
2.999999999999542
 50
44.80853386500815
 51
314.9999999998649
  0
LINE
  5
11D
  8
LAYER_01
 10
-16215.99422029226
 20
4842.093269192655
 30
0.0
 11
-16207.35570943261
 21
4833.454758333024
 31
0.0
  0
ARC
  5
11E
  8
LAYER_03
 10
-16424.13052974081
 20
5226.160404657427
 30
0.0
 40
10.00000000000364
 50
90.0
 51
179.9999999999896
  0
LINE
  5
11F
  8
LAYER_03
 10
-16434.13052974082
 20
5226.160404657428
 30
0.0
 11
-16434.13052974081
 21
4796.160404657621
 31
0.0
  0
ARC
  5
120
  8
LAYER_03
 10
-16424.13052974081
 20
4796.160404657619
 30
0.0
 40
10.00000000000273
 50
179.9999999999896
 51
270.0000000000417
  0
LINE
  5
121
  8
LAYER_03
 10
-16424.13052974081
 20
4786.160404657616
 30
0.0
 11
-16174.13052974081
 21
4786.160404657721
 31
0.0
  0
ARC
  5
122
  8
LAYER_03
 10
-16174.13052974081
 20
4796.160404657723
 30
0.0
 40
10.00000000000244
 50
270.0000000000313
 51
0.000000000010422
  0
LINE
  5
123
  8
LAYER_03
 10
-16164.13052974081
 20
4796.160404657725
 30
0.0
 11
-16164.13052974081
 21
5226.160404657428
 31
0.0
  0
ARC
  5
124
  8
LAYER_03
 10
-16174.13052974081
 20
5226.160404657428
 30
0.0
 40
10.0
 50
0.0
 51
90.0
  0
LINE
  5
125
  8
LAYER_03
 10
-16174.13052974081
 20
5236.160404657428
 30
0.0
 11
-16424.13052974081
 21
5236.16040465743
 31
0.0
  0
LINE
  5
126
  8
LAYER_02
 10
-16424.13052974085
 20
4824.966079346319
 30
0.0
 11
-16424.13052974081
 21
5064.966079346319
 31
0.0
  0
ARC
  5
127
  8
LAYER_02
 10
-16374.13052974081
 20
5064.966079346317
 30
0.0
 40
50.00000000000182
 50
90.0
 51
179.9999999999979
  0
LINE
  5
128
  8
LAYER_02
 10
-16374.13052974081
 20
5114.966079346321
 30
0.0
 11
-16184.13052974081
 21
5114.966079346317
 31
0.0
  0
ARC
  5
129
  8
LAYER_02
 10
-16184.13052974081
 20
5104.966079346321
 30
0.0
 40
9.999999999996362
 50
359.9999999995936
 51
90.0
  0
LINE
  5
12A
  8
LAYER_02
 10
-16174.13052974081
 20
5104.96607934625
 30
0.0
 11
-16174.13052974077
 21
4839.966079346319
 31
0.0
  0
ARC
  5
12B
  8
LAYER_02
 10
-16199.13052974081
 20
4839.966079346319
 30
0.0
 40
25.00000000004093
 50
270.0
 51
0.0
  0
LINE
  5
12C
  8
LAYER_02
 10
-16199.13052974081
 20
4814.966079346277
 30
0.0
 11
-16414.13052974081
 21
4814.966079346281
 31
0.0
  0
ARC
  5
12D
  8
LAYER_02
 10
-16414.13052974081
 20
4824.966079346317
 30
0.0
 40
10.00000000003638
 50
179.9999999999896
 51
270.0
  0
ARC
  5
12E
  8
LAYER_01
 10
-16099.33052974081
 20
5111.060404657423
 30
0.0
 40
3.00000000000426
 50
176.1774462821373
 51
90.0000000016328
  0
LINE
  5
12F
  8
LAYER_01
 10
-16099.3305297409
 20
5114.060404657423
 30
0.0
 11
-16099.33052974094
 21
5208.267078748009
 31
0.0
  0
ARC
  5
130
  8
LAYER_01
 10
-16099.13052974081
 20
5211.260404657427
 30
0.0
 40
3.000000000007211
 50
266.177446268249
 51
180.0000000114642
  0
LINE
  5
131
  8
LAYER_01
 10
-16102.13052974081
 20
5211.260404656827
 30
0.0
 11
-16114.33052974091
 21
5211.26040465685
 31
0.0
  0
ARC
  5
132
  8
LAYER_01
 10
-16117.33052974091
 20
5211.260404656819
 30
0.0
 40
3.000000000004603
 50
0.0000000006079524
 51
269.999999998923
  0
LINE
  5
133
  8
LAYER_01
 10
-16117.33052974097
 20
5208.260404656814
 30
0.0
 11
-16117.33052974091
 21
5114.060404656924
 31
0.0
  0
ARC
  5
134
  8
LAYER_01
 10
-16117.33052974311
 20
5111.060404656924
 30
0.0
 40
2.999999999999935
 50
89.99999995789496
 51
3.822553728800067
  0
LINE
  5
135
  8
LAYER_01
 10
-16114.33720383369
 20
5111.260404656899
 30
0.0
 11
-16102.32385565027
 21
5111.260404656827
 31
0.0
  0
LINE
  5
136
  8
LAYER_01
 10
-16296.23053196216
 20
5310.959910966591
 30
0.0
 11
-16202.03053196217
 21
5310.959910966591
 31
0.0
  0
ARC
  5
137
  8
LAYER_01
 10
-16199.03053196216
 20
5310.959910966589
 30
0.0
 40
3.000000000003638
 50
266.1774462704385
 51
179.9999999999653
  0
LINE
  5
138
  8
LAYER_01
 10
-16199.23053196218
 20
5307.966585057169
 30
0.0
 11
-16199.23053196218
 21
5295.753236876015
 31
0.0
  0
ARC
  5
139
  8
LAYER_01
 10
-16199.03053196216
 20
5292.759910966597
 30
0.0
 40
2.999999999998904
 50
176.1774462708487
 51
93.8225537294991
  0
LINE
  5
13A
  8
LAYER_01
 10
-16202.02385787158
 20
5292.959910966591
 30
0.0
 11
-16296.23720605274
 21
5292.959910966591
 31
0.0
  0
ARC
  5
13B
  8
LAYER_01
 10
-16299.23053196216
 20
5292.759910966593
 30
0.0
 40
3.000000000000158
 50
90.00000000024319
 51
3.822553729218338
  0
LINE
  5
13C
  8
LAYER_01
 10
-16299.23053196217
 20
5295.759910966593
 30
0.0
 11
-16299.23053196217
 21
5307.959910966594
 31
0.0
  0
ARC
  5
13D
  8
LAYER_01
 10
-16299.23053196216
 20
5310.959910966592
 30
0.0
 40
2.999999999998181
 50
359.9999999999652
 51
269.9999999997568
  0
ARC
  5
13F
  8
LAYER_04
 10
-16099.13052974081
 20
4711.160404657423
 30
0.0
 40
49.99999999999818
 50
270.0
 51
0.0
  0
LINE
  5
140
  8
LAYER_04
 10
-16049.13052974081
 20
4711.160404657423
 30
0.0
 11
-16049.13052974081
 21
5311.160404657423
 31
0.0
  0
ARC
  5
141
  8
LAYER_04
 10
-16099.13052974081
 20
5311.160404657423
 30
0.0
 40
50.0
 50
0.0
 51
89.99999999999791
  0
LINE
  5
142
  8
LAYER_04
 10
-16099.13052974081
 20
5361.160404657425
 30
0.0
 11
-16499.13052974081
 21
5361.160404657427
 31
0.0
  0
ARC
  5
143
  8
LAYER_04
 10
-16499.13052974081
 20
5311.160404657425
 30
0.0
 40
50.00000000000222
 50
90.00000000000418
 51
180.0000000000011
  0
LINE
  5
144
  8
LAYER_04
 10
-16549.13052974081
 20
5311.160404657423
 30
0.0
 11
-16549.13052974081
 21
4711.160404657425
 31
0.0
  0
ARC
  5
145
  8
LAYER_04
 10
-16499.13052974081
 20
4711.160404657425
 30
0.0
 40
49.99999999999994
 50
180.0
 51
270.0
  0
LINE
  5
146
  8
LAYER_04
 10
-16499.13052974081
 20
4661.160404657425
 30
0.0
 11
-16449.13052974061
 21
4661.160404657425
 31
0.0
  0
LINE
  5
147
  8
LAYER_04
 10
-16449.13052974061
 20
4661.160404657425
 30
0.0
 11
-16449.13052974061
 21
4643.160404657523
 31
0.0
  0
LINE
  5
148
  8
LAYER_04
 10
-16449.13052974061
 20
4643.160404657523
 30
0.0
 11
-16149.13052974061
 21
4643.160404657523
 31
0.0
  0
LINE
  5
149
  8
LAYER_04
 10
-16149.13052974061
 20
4643.160404657523
 30
0.0
 11
-16149.13052974061
 21
4661.160404657425
 31
0.0
  0
LINE
  5
14A
  8
LAYER_04
 10
-16149.13052974061
 20
4661.160404657425
 30
0.0
 11
-16099.13052974081
 21
4661.160404657425
 31
0.0
  0
LINE
  5
14B
  8
LAYER_01
 10
-17936.97376795001
 20
4598.637714902017
 30
0.0
 11
-17954.97376795001
 21
4598.637714902017
 31
0.0
  0
LINE
  5
14C
  8
LAYER_01
 10
-17954.97376795001
 20
4598.637714902017
 30
0.0
 11
-17954.97376795001
 21
4580.837714902014
 31
0.0
  0
LINE
  5
14D
  8
LAYER_01
 10
-17954.97376795001
 20
4580.837714902014
 30
0.0
 11
-17936.97376795001
 21
4580.837714902014
 31
0.0
  0
LINE
  5
14E
  8
LAYER_01
 10
-17936.97376795001
 20
4580.837714902014
 30
0.0
 11
-17936.97376795001
 21
4577.337714902407
 31
0.0
  0
LINE
  5
14F
  8
LAYER_01
 10
-17936.97376795001
 20
4577.337714902407
 30
0.0
 11
-17686.97376795001
 21
4577.337714902407
 31
0.0
  0
LINE
  5
150
  8
LAYER_01
 10
-17686.97376795001
 20
4577.337714902407
 30
0.0
 11
-17686.97376795001
 21
4580.837714902407
 31
0.0
  0
LINE
  5
151
  8
LAYER_01
 10
-17686.97376795001
 20
4580.837714902407
 30
0.0
 11
-17668.97376795001
 21
4580.837714902407
 31
0.0
  0
LINE
  5
152
  8
LAYER_01
 10
-17668.97376795001
 20
4580.837714902407
 30
0.0
 11
-17668.97376795001
 21
4598.637714902417
 31
0.0
  0
LINE
  5
153
  8
LAYER_01
 10
-17668.97376795001
 20
4598.637714902417
 30
0.0
 11
-17686.97376795001
 21
4598.637714902417
 31
0.0
  0
LINE
  5
154
  8
LAYER_01
 10
-17686.97376795001
 20
4598.637714902417
 30
0.0
 11
-17686.97376795001
 21
4602.337714902407
 31
0.0
  0
LINE
  5
155
  8
LAYER_01
 10
-17686.97376795001
 20
4602.337714902407
 30
0.0
 11
-17936.97376795001
 21
4602.337714902407
 31
0.0
  0
LINE
  5
156
  8
LAYER_01
 10
-17936.97376795001
 20
4602.337714902407
 30
0.0
 11
-17936.97376795001
 21
4598.637714902017
 31
0.0
  0
LINE
  5
157
  8
LAYER_02
 10
-17928.61546174869
 20
5346.599162091445
 30
0.0
 11
-17928.61546174869
 21
5328.599162091041
 31
0.0
  0
LINE
  5
158
  8
LAYER_02
 10
-17928.61546174869
 20
5328.599162091041
 30
0.0
 11
-17953.6154617486
 21
5328.599162091041
 31
0.0
  0
LINE
  5
159
  8
LAYER_02
 10
-17953.6154617486
 20
5328.599162091041
 30
0.0
 11
-17953.6154617486
 21
4654.999162091039
 31
0.0
  0
LINE
  5
15A
  8
LAYER_02
 10
-17953.6154617486
 20
4654.999162091039
 30
0.0
 11
-17928.6154617486
 21
4654.999162091039
 31
0.0
  0
LINE
  5
15B
  8
LAYER_02
 10
-17928.6154617486
 20
4654.999162091039
 30
0.0
 11
-17928.6154617486
 21
4636.999162091039
 31
0.0
  0
LINE
  5
15C
  8
LAYER_02
 10
-17928.6154617486
 20
4636.999162091039
 30
0.0
 11
-17828.6154617486
 21
4636.999162091039
 31
0.0
  0
LINE
  5
15D
  8
LAYER_02
 10
-17828.6154617486
 20
4636.999162091039
 30
0.0
 11
-17828.6154617486
 21
4654.999162091039
 31
0.0
  0
LINE
  5
15E
  8
LAYER_02
 10
-17828.6154617486
 20
4654.999162091039
 30
0.0
 11
-17803.6154617486
 21
4654.999162091039
 31
0.0
  0
LINE
  5
15F
  8
LAYER_02
 10
-17803.6154617486
 20
4654.999162091039
 30
0.0
 11
-17803.6154617486
 21
5328.599162091041
 31
0.0
  0
LINE
  5
160
  8
LAYER_02
 10
-17803.6154617486
 20
5328.599162091041
 30
0.0
 11
-17828.6154617486
 21
5328.599162091041
 31
0.0
  0
LINE
  5
161
  8
LAYER_02
 10
-17828.6154617486
 20
5328.599162091041
 30
0.0
 11
-17828.6154617486
 21
5346.599162091445
 31
0.0
  0
LINE
  5
162
  8
LAYER_02
 10
-17828.6154617486
 20
5346.599162091445
 30
0.0
 11
-17928.61546174869
 21
5346.599162091445
 31
0.0
  0
LINE
  5
163
  8
LAYER_01
 10
-17861.51546174859
 20
5000.699162091039
 30
0.0
 11
-17895.71546174859
 21
5000.699162091043
 31
0.0
  0
ARC
  5
164
  8
LAYER_01
 10
-17898.71546174859
 20
5000.699162091043
 30
0.0
 40
3.000000000001819
 50
359.9999999999652
 51
273.8225537293559
  0
LINE
  5
165
  8
LAYER_01
 10
-17898.51546174859
 20
4997.705836181622
 30
0.0
 11
-17898.51546174859
 21
4985.699162091038
 31
0.0
  0
ARC
  5
166
  8
LAYER_01
 10
-17898.51546174859
 20
4982.699162091036
 30
0.0
 40
3.000000000000568
 50
89.99999999993052
 51
0.0
  0
LINE
  5
167
  8
LAYER_01
 10
-17895.51546174859
 20
4982.699162091036
 30
0.0
 11
-17861.51546174859
 21
4982.699162091039
 31
0.0
  0
ARC
  5
168
  8
LAYER_01
 10
-17858.51546174859
 20
4982.699162091039
 30
0.0
 40
2.999999999999772
 50
180.0
 51
89.99999999993052
  0
LINE
  5
169
  8
LAYER_01
 10
-17858.51546174859
 20
4985.699162091039
 30
0.0
 11
-17858.51546174859
 21
4997.699162091039
 31
0.0
  0
ARC
  5
16A
  8
LAYER_01
 10
-17858.51546174859
 20
5000.699162091041
 30
0.0
 40
3.000000000000909
 50
270.0
 51
180.0000000000347
  0
LINE
  5
16B
  8
LAYER_02
 10
-17766.23006889049
 20
5347.095544307938
 30
0.0
 11
-17766.23006889059
 21
5329.095544307342
 31
0.0
  0
LINE
  5
16C
  8
LAYER_02
 10
-17766.23006889059
 20
5329.095544307342
 30
0.0
 11
-17791.23006889039
 21
5329.095544307342
 31
0.0
  0
LINE
  5
16D
  8
LAYER_02
 10
-17791.23006889039
 20
5329.095544307342
 30
0.0
 11
-17791.23006889039
 21
4655.495544307245
 31
0.0
  0
LINE
  5
16E
  8
LAYER_02
 10
-17791.23006889039
 20
4655.495544307245
 30
0.0
 11
-17766.23006889039
 21
4655.495544307245
 31
0.0
  0
LINE
  5
16F
  8
LAYER_02
 10
-17766.23006889039
 20
4655.495544307245
 30
0.0
 11
-17766.23006889039
 21
4637.495544307241
 31
0.0
  0
LINE
  5
170
  8
LAYER_02
 10
-17766.23006889039
 20
4637.495544307241
 30
0.0
 11
-17666.23006889039
 21
4637.495544307241
 31
0.0
  0
LINE
  5
171
  8
LAYER_02
 10
-17666.23006889039
 20
4637.495544307241
 30
0.0
 11
-17666.23006889039
 21
4655.495544307245
 31
0.0
  0
LINE
  5
172
  8
LAYER_02
 10
-17666.23006889039
 20
4655.495544307245
 30
0.0
 11
-17641.23006889039
 21
4655.495544307245
 31
0.0
  0
LINE
  5
173
  8
LAYER_02
 10
-17641.23006889039
 20
4655.495544307245
 30
0.0
 11
-17641.23006889039
 21
5329.295544307241
 31
0.0
  0
LINE
  5
174
  8
LAYER_02
 10
-17641.23006889039
 20
5329.295544307241
 30
0.0
 11
-17666.23006889039
 21
5329.295544307241
 31
0.0
  0
LINE
  5
175
  8
LAYER_02
 10
-17666.23006889039
 20
5329.295544307241
 30
0.0
 11
-17666.23006889039
 21
5347.095544307938
 31
0.0
  0
LINE
  5
176
  8
LAYER_02
 10
-17666.23006889039
 20
5347.095544307938
 30
0.0
 11
-17766.23006889049
 21
5347.095544307938
 31
0.0
  0
ARC
  5
177
  8
LAYER_01
 10
-17696.13006889039
 20
5001.195544307344
 30
0.0
 40
2.999999999998181
 50
270.0
 51
180.0000000000347
  0
LINE
  5
178
  8
LAYER_01
 10
-17699.13006889039
 20
5001.195544307344
 30
0.0
 11
-17733.13674298097
 21
5001.195544307333
 31
0.0
  0
ARC
  5
179
  8
LAYER_01
 10
-17736.13006889039
 20
5001.395544307345
 30
0.0
 40
3.000000000006648
 50
356.1774462705113
 51
270.0000000000695
  0
LINE
  5
17A
  8
LAYER_01
 10
-17736.13006889039
 20
4998.395544307341
 30
0.0
 11
-17736.13006889039
 21
4986.19554430734
 31
0.0
  0
ARC
  5
17B
  8
LAYER_01
 10
-17736.13006889039
 20
4983.19554430734
 30
0.0
 40
3.000000000000453
 50
89.99999999986105
 51
359.9999999999479
  0
LINE
  5
17C
  8
LAYER_01
 10
-17733.13006889039
 20
4983.195544307338
 30
0.0
 11
-17699.13006889039
 21
4983.19554430734
 31
0.0
  0
ARC
  5
17D
  8
LAYER_01
 10
-17696.13006889039
 20
4983.19554430734
 30
0.0
 40
2.999999999999772
 50
180.0
 51
89.99999999993052
  0
LINE
  5
17E
  8
LAYER_01
 10
-17696.13006889039
 20
4986.19554430734
 30
0.0
 11
-17696.13006889039
 21
4998.195544307348
 31
0.0
  0
CIRCLE
  5
17F
  8
LAYER_01
 10
-17166.62111679301
 20
4945.472762332938
 30
0.0
 40
15.69649999786001
  0
LINE
  5
180
  8
LAYER_01
 10
-17531.31618318487
 20
5297.472762332927
 30
0.0
 11
-17531.31618318489
 21
5285.272762332936
 31
0.0
  0
ARC
  5
181
  8
LAYER_01
 10
-17531.31618318051
 20
5282.272762332936
 30
0.0
 40
3.0
 50
90.00000008372375
 51
3.822553729671271
  0
LINE
  5
182
  8
LAYER_01
 10
-17528.32285727109
 20
5282.472762332956
 30
0.0
 11
-17234.10950909833
 21
5282.472762332927
 31
0.0
  0
ARC
  5
183
  8
LAYER_01
 10
-17231.11618318891
 20
5282.272762332939
 30
0.0
 40
2.999999999997813
 50
176.1774462709527
 51
93.82255365297203
  0
LINE
  5
184
  8
LAYER_01
 10
-17231.31618318493
 20
5285.266088242619
 30
0.0
 11
-17231.31618318487
 21
5297.479436423508
 31
0.0
  0
ARC
  5
185
  8
LAYER_01
 10
-17231.11618318501
 20
5300.472762332935
 30
0.0
 40
2.999999999997396
 50
266.1774462734242
 51
179.9999999999479
  0
LINE
  5
186
  8
LAYER_01
 10
-17234.11618318501
 20
5300.472762332936
 30
0.0
 11
-17528.316183185
 21
5300.472762332938
 31
0.0
  0
ARC
  5
187
  8
LAYER_01
 10
-17531.31618318501
 20
5300.472762332933
 30
0.0
 40
3.000000000004547
 50
0.0000000001042204
 51
270.0000000027097
  0
LINE
  5
188
  8
LAYER_01
 10
-17306.21618318502
 20
4797.472762332933
 30
0.0
 11
-17306.2161831851
 21
4785.272762332934
 31
0.0
  0
ARC
  5
189
  8
LAYER_01
 10
-17306.2161831863
 20
4782.272762332936
 30
0.0
 40
2.999999999998181
 50
89.99999997700203
 51
3.822553729324642
  0
LINE
  5
18A
  8
LAYER_01
 10
-17303.22285727689
 20
4782.472762332938
 30
0.0
 11
-17209.20950909772
 21
4782.472762332938
 31
0.0
  0
ARC
  5
18B
  8
LAYER_01
 10
-17206.21618318831
 20
4782.272762332932
 30
0.0
 40
2.999999999998118
 50
176.177446270606
 51
89.99999993684243
  0
LINE
  5
18C
  8
LAYER_01
 10
-17206.216183185
 20
4785.272762332934
 30
0.0
 11
-17206.21618318507
 21
4797.472762332938
 31
0.0
  0
ARC
  5
18D
  8
LAYER_01
 10
-17206.21618318501
 20
4800.472762332935
 30
0.0
 40
2.999999999996816
 50
269.9999999988189
 51
180.0
  0
LINE
  5
18E
  8
LAYER_01
 10
-17209.21618318501
 20
4800.472762332933
 30
0.0
 11
-17303.21618318501
 21
4800.472762332933
 31
0.0
  0
ARC
  5
18F
  8
LAYER_01
 10
-17306.21618318501
 20
4800.472762332933
 30
0.0
 40
3.000000000000455
 50
0.0
 51
269.999999999861
  0
LINE
  5
190
  8
LAYER_01
 10
-17531.31618318467
 20
4605.672762332933
 30
0.0
 11
-17531.31618318464
 21
4593.472762332938
 31
0.0
  0
ARC
  5
191
  8
LAYER_01
 10
-17531.31618318011
 20
4590.472762332936
 30
0.0
 40
3.000000000001819
 50
90.00000008671138
 51
3.822553729389335
  0
LINE
  5
192
  8
LAYER_01
 10
-17528.32285727069
 20
4590.672762332943
 30
0.0
 11
-17234.10950908953
 21
4590.672762332915
 31
0.0
  0
ARC
  5
193
  8
LAYER_01
 10
-17231.11618318011
 20
4590.47276233294
 30
0.0
 40
3.00000000000014
 50
176.1774462711999
 51
93.8225538171681
  0
LINE
  5
194
  8
LAYER_01
 10
-17231.3161831847
 20
4593.466088242054
 30
0.0
 11
-17231.31618318468
 21
4605.679436423507
 31
0.0
  0
ARC
  5
195
  8
LAYER_01
 10
-17231.11618318481
 20
4608.672762332935
 30
0.0
 40
3.000000000000074
 50
266.1774462732185
 51
180.0000000000521
  0
LINE
  5
196
  8
LAYER_01
 10
-17234.11618318481
 20
4608.672762332932
 30
0.0
 11
-17528.3161831848
 21
4608.672762332933
 31
0.0
  0
ARC
  5
197
  8
LAYER_01
 10
-17531.3161831848
 20
4608.672762332933
 30
0.0
 40
3.0
 50
0.0
 51
270.0000000026403
  0
ARC
  5
198
  8
LAYER_01
 10
-17162.46618318481
 20
4536.703418915336
 30
0.0
 40
3.000000000001882
 50
131.177445532595
 51
48.82255305728195
  0
LINE
  5
199
  8
LAYER_01
 10
-17164.44136284833
 20
4538.961441345873
 30
0.0
 11
-17173.07750417195
 21
4547.597582669558
 31
0.0
  0
ARC
  5
19A
  8
LAYER_01
 10
-17175.3355266026
 20
4549.572762332939
 30
0.0
 40
2.999999999998378
 50
45.00000000002457
 51
318.8225544710261
  0
LINE
  5
19B
  8
LAYER_01
 10
-17173.21420625905
 20
4551.694082676497
 30
0.0
 11
-17164.58750352856
 21
4560.320785406975
 31
0.0
  0
ARC
  5
19C
  8
LAYER_01
 10
-17162.46618318501
 20
4562.442105750535
 30
0.0
 40
2.999999999999863
 50
315.0000000006141
 51
225.0000000000245
  0
LINE
  5
19D
  8
LAYER_01
 10
-17160.34486284143
 20
4560.320785406997
 30
0.0
 11
-17151.71816011095
 21
4551.694082676513
 31
0.0
  0
ARC
  5
19E
  8
LAYER_01
 10
-17149.59683976741
 20
4549.572762332933
 30
0.0
 40
2.999999999999962
 50
221.1774469460645
 51
134.9999999994473
  0
LINE
  5
19F
  8
LAYER_01
 10
-17151.85486214922
 20
4547.597582613706
 30
0.0
 11
-17160.49100346571
 21
4538.961441297261
 31
0.0
  0
ARC
  5
1A0
  8
LAYER_01
 10
-17237.8355266026
 20
4549.572762332939
 30
0.0
 40
2.999999999995502
 50
44.68493944277806
 51
318.8225527172516
  0
LINE
  5
1A1
  8
LAYER_01
 10
-17235.57750423241
 20
4547.597582600441
 30
0.0
 11
-17226.90840159608
 21
4538.928479964119
 31
0.0
  0
ARC
  5
1A2
  8
LAYER_01
 10
-17224.82476182931
 20
4536.844840272026
 30
0.0
 40
2.946711564458575
 50
135.0000010266786
 51
44.99999999587348
  0
LINE
  5
1A3
  8
LAYER_01
 10
-17222.74112209973
 20
4538.928480001305
 30
0.0
 11
-17214.21816011115
 21
4547.451441989435
 31
0.0
  0
ARC
  5
1A4
  8
LAYER_01
 10
-17212.09683976751
 20
4549.572762332929
 30
0.0
 40
2.99999999999721
 50
225.0000000000737
 51
134.9999999997298
  0
LINE
  5
1A5
  8
LAYER_01
 10
-17214.21816011106
 20
4551.694082676499
 30
0.0
 11
-17222.84486284144
 21
4560.320785406977
 31
0.0
  0
ARC
  5
1A6
  8
LAYER_01
 10
-17224.96618318501
 20
4562.442105750531
 30
0.0
 40
3.000000000000356
 50
315.0000000001473
 51
228.5278068354517
  0
LINE
  5
1A7
  8
LAYER_01
 10
-17226.95295264415
 20
4560.194274102869
 30
0.0
 11
-17235.70257357945
 21
4551.682385854092
 31
0.0
  0
ARC
  5
1A8
  8
LAYER_01
 10
-17287.46618318501
 20
4562.44210575053
 30
0.0
 40
2.999999999998899
 50
314.9999999998772
 51
225.0
  0
LINE
  5
1A9
  8
LAYER_01
 10
-17289.58750352856
 20
4560.320785406971
 30
0.0
 11
-17298.21420625905
 21
4551.694082676495
 31
0.0
  0
ARC
  5
1AA
  8
LAYER_01
 10
-17300.33552660261
 20
4549.572762332933
 30
0.0
 40
3.000000000000748
 50
45.00000000004913
 51
318.8225537884162
  0
LINE
  5
1AB
  8
LAYER_01
 10
-17298.07750419548
 20
4547.597582642649
 30
0.0
 11
-17289.44136287529
 21
4538.961441322463
 31
0.0
  0
ARC
  5
1AC
  8
LAYER_01
 10
-17287.46618318501
 20
4536.703418915335
 30
0.0
 40
2.999999999999441
 50
131.177446211569
 51
48.82255365571595
  0
LINE
  5
1AD
  8
LAYER_01
 10
-17285.49100348949
 20
4538.961441317888
 30
0.0
 11
-17276.85486216996
 21
4547.597582637416
 31
0.0
  0
ARC
  5
1AE
  8
LAYER_01
 10
-17274.59683976741
 20
4549.572762332933
 30
0.0
 40
3.000000000001513
 50
221.1774463443592
 51
135.0000000000491
  0
LINE
  5
1AF
  8
LAYER_01
 10
-17276.71816011097
 20
4551.694082676493
 30
0.0
 11
-17285.34486284146
 21
4560.320785406966
 31
0.0
  0
ARC
  5
1B0
  8
LAYER_01
 10
-17349.96618318501
 20
4536.703418915335
 30
0.0
 40
3.000000000001523
 50
131.1774462921795
 51
48.82255396609506
  0
LINE
  5
1B1
  8
LAYER_01
 10
-17351.94136287847
 20
4538.961441319685
 30
0.0
 11
-17360.57750419826
 21
4547.597582639473
 31
0.0
  0
ARC
  5
1B2
  8
LAYER_01
 10
-17362.83552660261
 20
4549.572762332935
 30
0.0
 40
3.000000000000848
 50
45.00000000003685
 51
318.8225537077862
  0
LINE
  5
1B3
  8
LAYER_01
 10
-17360.71420625905
 20
4551.694082676495
 30
0.0
 11
-17352.08750352857
 21
4560.320785406977
 31
0.0
  0
ARC
  5
1B4
  8
LAYER_01
 10
-17349.966183185
 20
4562.442105750531
 30
0.0
 40
3.000000000000185
 50
314.9999999999508
 51
224.9999999998526
  0
LINE
  5
1B5
  8
LAYER_01
 10
-17347.84486284145
 20
4560.320785406968
 30
0.0
 11
-17339.21816011102
 21
4551.694082676542
 31
0.0
  0
ARC
  5
1B6
  8
LAYER_01
 10
-17337.09683976761
 20
4549.572762332835
 30
0.0
 40
2.999999999999667
 50
221.1774460351337
 51
134.9999999960205
  0
LINE
  5
1B7
  8
LAYER_01
 10
-17339.35486218082
 20
4547.597582649505
 30
0.0
 11
-17347.99100350172
 21
4538.961441328589
 31
0.0
  0
LINE
  5
1B8
  8
LAYER_02
 10
-17631.21618318501
 20
5320.472762332936
 30
0.0
 11
-17631.21618318501
 21
4570.472762332534
 31
0.0
  0
ARC
  5
1B9
  8
LAYER_02
 10
-17581.21618318501
 20
4570.472762332534
 30
0.0
 40
50.00000000000364
 50
180.0
 51
269.9999999999959
  0
LINE
  5
1BA
  8
LAYER_02
 10
-17581.21618318501
 20
4520.472762332531
 30
0.0
 11
-17156.21618318501
 21
4520.472762332533
 31
0.0
  0
ARC
  5
1BB
  8
LAYER_02
 10
-17156.21618318501
 20
4545.472762332533
 30
0.0
 40
25.0
 50
270.0
 51
0.0
  0
LINE
  5
1BC
  8
LAYER_02
 10
-17131.21618318501
 20
4545.472762332533
 30
0.0
 11
-17131.21618318501
 21
5320.472762332938
 31
0.0
  0
ARC
  5
1BD
  8
LAYER_02
 10
-17181.21618318501
 20
5320.472762332935
 30
0.0
 40
50.00000000000222
 50
0.0000000000020844
 51
90.0
  0
LINE
  5
1BE
  8
LAYER_02
 10
-17181.21618318501
 20
5370.472762332936
 30
0.0
 11
-17581.21618318501
 21
5370.472762332936
 31
0.0
  0
ARC
  5
1BF
  8
LAYER_02
 10
-17581.21618318501
 20
5320.472762332936
 30
0.0
 40
50.0
 50
90.0
 51
180.0
  0
ENDSEC
  0
EOF
