  0
SECTION
  2
HEADER
  9
$ACADVER
  1
AC1009
  9
$DWGCODEPAGE
  3
ansi_1252
  9
$INSBASE
 10
0.0
 20
0.0
 30
0.0
  9
$EXTMIN
 10
-2396.539891973951
 20
-883.9431509601336
 30
-0.0000000000000022
  9
$EXTMAX
 10
-1447.058067299432
 20
103.5316174187542
 30
0.0000000000000022
  9
$LIMMIN
 10
0.0
 20
0.0
  9
$LIMMAX
 10
12.0
 20
9.0
  9
$ORTHOMODE
 70
     0
  9
$REGENMODE
 70
     1
  9
$FILLMODE
 70
     1
  9
$QTEXTMODE
 70
     0
  9
$MIRRTEXT
 70
     1
  9
$DRAGMODE
 70
     2
  9
$LTSCALE
 40
1.0
  9
$OSMODE
 70
   511
  9
$ATTMODE
 70
     1
  9
$TEXTSIZE
 40
0.2
  9
$TRACEWID
 40
0.05
  9
$TEXTSTYLE
  7
STANDARD
  9
$CLAYER
  8
0
  9
$CELTYPE
  6
BYBLOCK
  9
$CECOLOR
 62
   256
  9
$DIMSCALE
 40
1.0
  9
$DIMASZ
 40
0.18
  9
$DIMEXO
 40
0.0625
  9
$DIMDLI
 40
0.38
  9
$DIMRND
 40
0.0
  9
$DIMDLE
 40
0.0
  9
$DIMEXE
 40
0.18
  9
$DIMTP
 40
0.0
  9
$DIMTM
 40
0.0
  9
$DIMTXT
 40
0.18
  9
$DIMCEN
 40
0.09
  9
$DIMTSZ
 40
0.0
  9
$DIMTOL
 70
     0
  9
$DIMLIM
 70
     0
  9
$DIMTIH
 70
     1
  9
$DIMTOH
 70
     1
  9
$DIMSE1
 70
     0
  9
$DIMSE2
 70
     0
  9
$DIMTAD
 70
     0
  9
$DIMZIN
 70
     0
  9
$DIMBLK
  1

  9
$DIMASO
 70
     1
  9
$DIMSHO
 70
     1
  9
$DIMPOST
  1

  9
$DIMAPOST
  1

  9
$DIMALT
 70
     0
  9
$DIMALTD
 70
     2
  9
$DIMALTF
 40
25.4
  9
$DIMLFAC
 40
1.0
  9
$DIMTOFL
 70
     0
  9
$DIMTVP
 40
0.0
  9
$DIMTIX
 70
     0
  9
$DIMSOXD
 70
     0
  9
$DIMSAH
 70
     0
  9
$DIMBLK1
  1

  9
$DIMBLK2
  1

  9
$DIMSTYLE
  2
STANDARD
  9
$DIMCLRD
 70
     0
  9
$DIMCLRE
 70
     0
  9
$DIMCLRT
 70
     0
  9
$DIMTFAC
 40
1.0
  9
$DIMGAP
 40
0.09
  9
$LUNITS
 70
     2
  9
$LUPREC
 70
     4
  9
$SKETCHINC
 40
0.1
  9
$FILLETRAD
 40
0.5
  9
$AUNITS
 70
     0
  9
$AUPREC
 70
     0
  9
$MENU
  1
.
  9
$ELEVATION
 40
0.0
  9
$PELEVATION
 40
0.0
  9
$THICKNESS
 40
0.0
  9
$LIMCHECK
 70
     0
  9
$CHAMFERA
 40
0.0
  9
$CHAMFERB
 40
0.0
  9
$SKPOLY
 70
     0
  9
$TDCREATE
 40
2447893.041666667
  9
$TDUPDATE
 40
2457831.091722963
  9
$TDINDWG
 40
0.043645787
  9
$TDUSRTIMER
 40
2457831.049760695
  9
$USRTIMER
 70
     1
  9
$ANGBASE
 50
0.0
  9
$ANGDIR
 70
     0
  9
$PDMODE
 70
     0
  9
$PDSIZE
 40
0.0
  9
$PLINEWID
 40
0.0
  9
$COORDS
 70
     1
  9
$SPLFRAME
 70
     0
  9
$SPLINETYPE
 70
     6
  9
$SPLINESEGS
 70
     8
  9
$ATTDIA
 70
     0
  9
$ATTREQ
 70
     1
  9
$HANDLING
 70
     1
  9
$HANDSEED
  5
1041C
  9
$SURFTAB1
 70
     6
  9
$SURFTAB2
 70
     6
  9
$SURFTYPE
 70
     6
  9
$SURFU
 70
     6
  9
$SURFV
 70
     6
  9
$UCSNAME
  2

  9
$UCSORG
 10
0.0
 20
0.0
 30
0.0
  9
$UCSXDIR
 10
1.0
 20
0.0
 30
0.0
  9
$UCSYDIR
 10
0.0
 20
1.0
 30
0.0
  9
$PUCSNAME
  2

  9
$PUCSORG
 10
0.0
 20
0.0
 30
0.0
  9
$PUCSXDIR
 10
1.0
 20
0.0
 30
0.0
  9
$PUCSYDIR
 10
0.0
 20
1.0
 30
0.0
  9
$USERI1
 70
     0
  9
$USERI2
 70
     0
  9
$USERI3
 70
     0
  9
$USERI4
 70
     0
  9
$USERI5
 70
     0
  9
$USERR1
 40
0.0
  9
$USERR2
 40
0.0
  9
$USERR3
 40
0.0
  9
$USERR4
 40
0.0
  9
$USERR5
 40
0.0
  9
$WORLDVIEW
 70
     1
  9
$SHADEDGE
 70
     3
  9
$SHADEDIF
 70
    70
  9
$TILEMODE
 70
     1
  9
$MAXACTVP
 70
    64
  9
$PLIMCHECK
 70
     0
  9
$PEXTMIN
 10
1.000000000000000E+20
 20
1.000000000000000E+20
 30
1.000000000000000E+20
  9
$PEXTMAX
 10
-1.000000000000000E+20
 20
-1.000000000000000E+20
 30
-1.000000000000000E+20
  9
$PLIMMIN
 10
0.0
 20
0.0
  9
$PLIMMAX
 10
0.0
 20
0.0
  9
$UNITMODE
 70
     0
  9
$VISRETAIN
 70
     1
  9
$PLINEGEN
 70
     0
  9
$PSLTSCALE
 70
     1
  0
ENDSEC
  0
SECTION
  2
TABLES
  0
TABLE
  2
VPORT
 70
     1
  0
VPORT
  2
*ACTIVE
 70
     0
 10
0.0
 20
0.0
 11
1.0
 21
1.0
 12
-1834.654394461213
 22
-397.7862450487731
 13
0.0
 23
0.0
 14
0.5
 24
0.5
 15
0.5
 25
0.5
 16
0.0
 26
0.0
 36
1.0
 17
0.0
 27
0.0
 37
0.0
 40
1133.184708038516
 41
2.282973621103118
 42
50.0
 43
0.0
 44
0.0
 50
0.0
 51
0.0
 71
    16
 72
   100
 73
     1
 74
     3
 75
     0
 76
     0
 77
     0
 78
     0
  0
ENDTAB
  0
TABLE
  2
LTYPE
 70
     1
  0
LTYPE
  2
CONTINUOUS
 70
     0
  3
Solid line
 72
    65
 73
     0
 40
0.0
  0
ENDTAB
  0
TABLE
  2
LAYER
 70
     1
  0
LAYER
  2
0
 70
     0
 62
     7
  6
CONTINUOUS
  0
ENDTAB
  0
TABLE
  2
STYLE
 70
     1
  0
STYLE
  2
STANDARD
 70
     0
 40
0.2
 41
1.0
 50
0.0
 71
     0
 42
0.2
  3

  4

  0
ENDTAB
  0
TABLE
  2
VIEW
 70
     0
  0
ENDTAB
  0
TABLE
  2
UCS
 70
     0
  0
ENDTAB
  0
TABLE
  2
APPID
 70
     1
  0
APPID
  2
ACAD
 70
     0
  0
ENDTAB
  0
TABLE
  2
DIMSTYLE
 70
     1
  0
DIMSTYLE
  2
STANDARD
 70
     0
  3

  4

  5

  6

  7

 40
1.0
 41
0.18
 42
0.0625
 43
0.38
 44
0.18
 45
0.0
 46
0.0
 47
0.0
 48
0.0
140
0.18
141
0.09
142
0.0
143
25.4
144
1.0
145
0.0
146
1.0
147
0.09
 71
     0
 72
     0
 73
     1
 74
     1
 75
     0
 76
     0
 77
     0
 78
     0
170
     0
171
     2
172
     0
173
     0
174
     0
175
     0
176
     0
177
     0
178
     0
  0
ENDTAB
  0
ENDSEC
  0
SECTION
  2
BLOCKS
  0
BLOCK
  8
0
  2
$MODEL_SPACE
 70
     0
 10
0.0
 20
0.0
 30
0.0
  3
$MODEL_SPACE
  1

  0
ENDBLK
  5
21
  8
0
  0
BLOCK
 67
     1
  8
0
  2
$PAPER_SPACE
 70
     0
 10
0.0
 20
0.0
 30
0.0
  3
$PAPER_SPACE
  1

  0
ENDBLK
  5
1D
 67
     1
  8
0
  0
ENDSEC
  0
SECTION
  2
ENTITIES
  0
LINE
  5
100
  8
0
 10
-2161.712891974232
 20
-883.9431509594385
 30
0.0
 11
-2171.71289197395
 21
-856.4683767647848
 31
0.0
  0
LINE
  5
101
  8
0
 10
-2171.71289197395
 20
-856.4683767647848
 30
0.0
 11
-2121.712891973951
 21
-856.4683767652962
 31
0.0
  0
LINE
  5
102
  8
0
 10
-2121.712891973951
 20
-856.4683767652962
 30
0.0
 11
-2131.712891974232
 21
-883.9431509597448
 31
0.0
  0
LINE
  5
103
  8
0
 10
-2131.712891974232
 20
-883.9431509597448
 30
0.0
 11
-2063.126391974232
 21
-883.9431509594385
 31
0.0
  0
LINE
  5
104
  8
0
 10
-2063.126391974232
 20
-883.9431509594385
 30
0.0
 11
-2073.12639197395
 21
-856.4683767647848
 31
0.0
  0
LINE
  5
105
  8
0
 10
-2073.12639197395
 20
-856.4683767647848
 30
0.0
 11
-2023.126391973951
 21
-856.4683767652962
 31
0.0
  0
LINE
  5
106
  8
0
 10
-2023.126391973951
 20
-856.4683767652962
 30
0.0
 11
-2033.126391974232
 21
-883.9431509597448
 31
0.0
  0
LINE
  5
107
  8
0
 10
-2033.126391974232
 20
-883.9431509597448
 30
0.0
 11
-1964.539891974232
 21
-883.9431509594385
 31
0.0
  0
LINE
  5
108
  8
0
 10
-1964.539891974232
 20
-883.9431509594385
 30
0.0
 11
-1974.53989197395
 21
-856.4683767647848
 31
0.0
  0
LINE
  5
109
  8
0
 10
-1974.53989197395
 20
-856.4683767647848
 30
0.0
 11
-1924.53989197395
 21
-856.4683767652962
 31
0.0
  0
LINE
  5
110
  8
0
 10
-1924.53989197395
 20
-856.4683767652962
 30
0.0
 11
-1934.539891974232
 21
-883.9431509597448
 31
0.0
  0
LINE
  5
111
  8
0
 10
-1934.539891974232
 20
-883.9431509597448
 30
0.0
 11
-1896.53989197436
 21
-883.9431509601336
 31
0.0
  0
LINE
  5
112
  8
0
 10
-1896.53989197436
 20
-883.9431509601336
 30
0.0
 11
-1896.53989197395
 21
-843.9431509601336
 31
0.0
  0
LINE
  5
113
  8
0
 10
-1896.53989197395
 20
-843.9431509601336
 30
0.0
 11
-1914.53989197395
 21
-843.9431509601336
 31
0.0
  0
LINE
  5
114
  8
0
 10
-1914.53989197395
 20
-843.9431509601336
 30
0.0
 11
-1914.53989197395
 21
-823.9431509627736
 31
0.0
  0
LINE
  5
115
  8
0
 10
-1914.53989197395
 20
-823.9431509627736
 30
0.0
 11
-1896.53989197395
 21
-823.9431509627736
 31
0.0
  0
LINE
  5
116
  8
0
 10
-1896.53989197395
 20
-823.9431509627736
 30
0.0
 11
-1896.53989197395
 21
-803.9431509654139
 31
0.0
  0
LINE
  5
117
  8
0
 10
-1896.53989197395
 20
-803.9431509654139
 30
0.0
 11
-1914.53989197395
 21
-803.9431509601336
 31
0.0
  0
LINE
  5
118
  8
0
 10
-1914.53989197395
 20
-803.9431509601336
 30
0.0
 11
-1914.53989197395
 21
-783.9431509627736
 31
0.0
  0
LINE
  5
119
  8
0
 10
-1914.53989197395
 20
-783.9431509627736
 30
0.0
 11
-1896.53989197395
 21
-783.9431509627736
 31
0.0
  0
LINE
  5
120
  8
0
 10
-1896.53989197395
 20
-783.9431509627736
 30
0.0
 11
-1896.53989197395
 21
-763.9431509654139
 31
0.0
  0
LINE
  5
121
  8
0
 10
-1896.53989197395
 20
-763.9431509654139
 30
0.0
 11
-1914.53989197395
 21
-763.9431509601336
 31
0.0
  0
LINE
  5
122
  8
0
 10
-1914.53989197395
 20
-763.9431509601336
 30
0.0
 11
-1914.53989197395
 21
-743.9431509627736
 31
0.0
  0
LINE
  5
123
  8
0
 10
-1914.53989197395
 20
-743.9431509627736
 30
0.0
 11
-1896.53989197395
 21
-743.9431509627736
 31
0.0
  0
LINE
  5
124
  8
0
 10
-1896.53989197395
 20
-743.9431509627736
 30
0.0
 11
-1896.53989197395
 21
-723.9431509654139
 31
0.0
  0
LINE
  5
125
  8
0
 10
-1896.53989197395
 20
-723.9431509654139
 30
0.0
 11
-1914.53989197395
 21
-723.9431509601336
 31
0.0
  0
LINE
  5
126
  8
0
 10
-1914.53989197395
 20
-723.9431509601336
 30
0.0
 11
-1914.53989197395
 21
-703.9431509627736
 31
0.0
  0
LINE
  5
127
  8
0
 10
-1914.53989197395
 20
-703.9431509627736
 30
0.0
 11
-1896.53989197395
 21
-703.9431509627736
 31
0.0
  0
LINE
  5
128
  8
0
 10
-1896.53989197395
 20
-703.9431509627736
 30
0.0
 11
-1896.53989197395
 21
-683.9431509654139
 31
0.0
  0
LINE
  5
129
  8
0
 10
-1896.53989197395
 20
-683.9431509654139
 30
0.0
 11
-1914.53989197395
 21
-683.9431509601336
 31
0.0
  0
LINE
  5
130
  8
0
 10
-1914.53989197395
 20
-683.9431509601336
 30
0.0
 11
-1914.53989197395
 21
-663.9431509627736
 31
0.0
  0
LINE
  5
131
  8
0
 10
-1914.53989197395
 20
-663.9431509627736
 30
0.0
 11
-1896.53989197395
 21
-663.9431509627736
 31
0.0
  0
LINE
  5
132
  8
0
 10
-1896.53989197395
 20
-663.9431509627736
 30
0.0
 11
-1896.53989197395
 21
-643.9431509654139
 31
0.0
  0
LINE
  5
133
  8
0
 10
-1896.53989197395
 20
-643.9431509654139
 30
0.0
 11
-1914.53989197395
 21
-643.9431509601336
 31
0.0
  0
LINE
  5
134
  8
0
 10
-1914.53989197395
 20
-643.9431509601336
 30
0.0
 11
-1914.53989197395
 21
-623.9431509627736
 31
0.0
  0
LINE
  5
135
  8
0
 10
-1914.53989197395
 20
-623.9431509627736
 30
0.0
 11
-1896.53989197395
 21
-623.9431509627736
 31
0.0
  0
LINE
  5
136
  8
0
 10
-1896.53989197395
 20
-623.9431509627736
 30
0.0
 11
-1896.53989197395
 21
-603.9431509654138
 31
0.0
  0
LINE
  5
137
  8
0
 10
-1896.53989197395
 20
-603.9431509654138
 30
0.0
 11
-1914.53989197395
 21
-603.9431509601335
 31
0.0
  0
LINE
  5
138
  8
0
 10
-1914.53989197395
 20
-603.9431509601335
 30
0.0
 11
-1914.53989197395
 21
-583.9431509627736
 31
0.0
  0
LINE
  5
139
  8
0
 10
-1914.53989197395
 20
-583.9431509627736
 30
0.0
 11
-1896.53989197395
 21
-583.9431509627736
 31
0.0
  0
LINE
  5
140
  8
0
 10
-1896.53989197395
 20
-583.9431509627736
 30
0.0
 11
-1896.53989197395
 21
-563.9431509654138
 31
0.0
  0
LINE
  5
141
  8
0
 10
-1896.53989197395
 20
-563.9431509654138
 30
0.0
 11
-1914.53989197395
 21
-563.9431509601335
 31
0.0
  0
LINE
  5
142
  8
0
 10
-1914.53989197395
 20
-563.9431509601335
 30
0.0
 11
-1914.53989197395
 21
-543.9431509627736
 31
0.0
  0
LINE
  5
143
  8
0
 10
-1914.53989197395
 20
-543.9431509627736
 30
0.0
 11
-1896.53989197395
 21
-543.9431509627736
 31
0.0
  0
LINE
  5
144
  8
0
 10
-1896.53989197395
 20
-543.9431509627736
 30
0.0
 11
-1896.53989197395
 21
-523.9431509654138
 31
0.0
  0
LINE
  5
145
  8
0
 10
-1896.53989197395
 20
-523.9431509654138
 30
0.0
 11
-1914.53989197395
 21
-523.9431509601335
 31
0.0
  0
LINE
  5
146
  8
0
 10
-1914.53989197395
 20
-523.9431509601335
 30
0.0
 11
-1914.53989197395
 21
-503.9431509627736
 31
0.0
  0
LINE
  5
147
  8
0
 10
-1914.53989197395
 20
-503.9431509627736
 30
0.0
 11
-1896.53989197395
 21
-503.9431509627736
 31
0.0
  0
LINE
  5
148
  8
0
 10
-1896.53989197395
 20
-503.9431509627736
 30
0.0
 11
-1896.53989197395
 21
-483.9431509654138
 31
0.0
  0
LINE
  5
149
  8
0
 10
-1896.53989197395
 20
-483.9431509654138
 30
0.0
 11
-1914.53989197395
 21
-483.9431509601335
 31
0.0
  0
LINE
  5
150
  8
0
 10
-1914.53989197395
 20
-483.9431509601335
 30
0.0
 11
-1914.53989197395
 21
-463.9431509627736
 31
0.0
  0
LINE
  5
151
  8
0
 10
-1914.53989197395
 20
-463.9431509627736
 30
0.0
 11
-1896.53989197395
 21
-463.9431509627736
 31
0.0
  0
LINE
  5
152
  8
0
 10
-1896.53989197395
 20
-463.9431509627736
 30
0.0
 11
-1896.53989197395
 21
-443.9431509654138
 31
0.0
  0
LINE
  5
153
  8
0
 10
-1896.53989197395
 20
-443.9431509654138
 30
0.0
 11
-1914.53989197395
 21
-443.9431509601335
 31
0.0
  0
LINE
  5
154
  8
0
 10
-1914.53989197395
 20
-443.9431509601335
 30
0.0
 11
-1914.53989197395
 21
-423.9431509627736
 31
0.0
  0
LINE
  5
155
  8
0
 10
-1914.53989197395
 20
-423.9431509627736
 30
0.0
 11
-1896.53989197395
 21
-423.9431509627736
 31
0.0
  0
LINE
  5
156
  8
0
 10
-1896.53989197395
 20
-423.9431509627736
 30
0.0
 11
-1896.53989197395
 21
-403.9431509654138
 31
0.0
  0
LINE
  5
157
  8
0
 10
-1896.53989197395
 20
-403.9431509654138
 30
0.0
 11
-1914.53989197395
 21
-403.9431509601335
 31
0.0
  0
LINE
  5
158
  8
0
 10
-1914.53989197395
 20
-403.9431509601335
 30
0.0
 11
-1914.53989197395
 21
-383.9431509627736
 31
0.0
  0
LINE
  5
159
  8
0
 10
-1914.53989197395
 20
-383.9431509627736
 30
0.0
 11
-1896.53989197395
 21
-383.9431509627736
 31
0.0
  0
LINE
  5
160
  8
0
 10
-1896.53989197395
 20
-383.9431509627736
 30
0.0
 11
-1896.53989197395
 21
-363.9431509654138
 31
0.0
  0
LINE
  5
161
  8
0
 10
-1896.53989197395
 20
-363.9431509654138
 30
0.0
 11
-1914.53989197395
 21
-363.9431509601335
 31
0.0
  0
LINE
  5
162
  8
0
 10
-1914.53989197395
 20
-363.9431509601335
 30
0.0
 11
-1914.53989197395
 21
-343.9431509627736
 31
0.0
  0
LINE
  5
163
  8
0
 10
-1914.53989197395
 20
-343.9431509627736
 30
0.0
 11
-1896.53989197395
 21
-343.9431509627736
 31
0.0
  0
LINE
  5
164
  8
0
 10
-1896.53989197395
 20
-343.9431509627736
 30
0.0
 11
-1896.53989197395
 21
-323.9431509654138
 31
0.0
  0
LINE
  5
165
  8
0
 10
-1896.53989197395
 20
-323.9431509654138
 30
0.0
 11
-1914.53989197395
 21
-323.9431509601335
 31
0.0
  0
LINE
  5
166
  8
0
 10
-1914.53989197395
 20
-323.9431509601335
 30
0.0
 11
-1914.53989197395
 21
-303.9431509627737
 31
0.0
  0
LINE
  5
167
  8
0
 10
-1914.53989197395
 20
-303.9431509627737
 30
0.0
 11
-1896.53989197395
 21
-303.9431509627736
 31
0.0
  0
LINE
  5
168
  8
0
 10
-1896.53989197395
 20
-303.9431509627736
 30
0.0
 11
-1896.53989197395
 21
-283.9431509654138
 31
0.0
  0
LINE
  5
169
  8
0
 10
-1896.53989197395
 20
-283.9431509654138
 30
0.0
 11
-1914.53989197395
 21
-283.9431509601336
 31
0.0
  0
LINE
  5
170
  8
0
 10
-1914.53989197395
 20
-283.9431509601336
 30
0.0
 11
-1914.53989197395
 21
-263.9431509627737
 31
0.0
  0
LINE
  5
171
  8
0
 10
-1914.53989197395
 20
-263.9431509627737
 30
0.0
 11
-1896.53989197395
 21
-263.9431509627736
 31
0.0
  0
LINE
  5
172
  8
0
 10
-1896.53989197395
 20
-263.9431509627736
 30
0.0
 11
-1896.53989197395
 21
-243.9431509654138
 31
0.0
  0
LINE
  5
173
  8
0
 10
-1896.53989197395
 20
-243.9431509654138
 30
0.0
 11
-1914.53989197395
 21
-243.9431509601335
 31
0.0
  0
LINE
  5
174
  8
0
 10
-1914.53989197395
 20
-243.9431509601335
 30
0.0
 11
-1914.53989197395
 21
-223.9431509627738
 31
0.0
  0
LINE
  5
175
  8
0
 10
-1914.53989197395
 20
-223.9431509627738
 30
0.0
 11
-1896.53989197395
 21
-223.9431509627737
 31
0.0
  0
LINE
  5
176
  8
0
 10
-1896.53989197395
 20
-223.9431509627737
 30
0.0
 11
-1896.53989197395
 21
-203.9431509654138
 31
0.0
  0
LINE
  5
177
  8
0
 10
-1896.53989197395
 20
-203.9431509654138
 30
0.0
 11
-1914.53989197395
 21
-203.9431509601335
 31
0.0
  0
LINE
  5
178
  8
0
 10
-1914.53989197395
 20
-203.9431509601335
 30
0.0
 11
-1914.53989197395
 21
-183.9431509627738
 31
0.0
  0
LINE
  5
179
  8
0
 10
-1914.53989197395
 20
-183.9431509627738
 30
0.0
 11
-1896.53989197395
 21
-183.9431509627737
 31
0.0
  0
LINE
  5
180
  8
0
 10
-1896.53989197395
 20
-183.9431509627737
 30
0.0
 11
-1896.53989197395
 21
-163.9431509654138
 31
0.0
  0
LINE
  5
181
  8
0
 10
-1896.53989197395
 20
-163.9431509654138
 30
0.0
 11
-1914.53989197395
 21
-163.9431509601335
 31
0.0
  0
LINE
  5
182
  8
0
 10
-1914.53989197395
 20
-163.9431509601335
 30
0.0
 11
-1914.53989197395
 21
-143.9431509627737
 31
0.0
  0
LINE
  5
183
  8
0
 10
-1914.53989197395
 20
-143.9431509627737
 30
0.0
 11
-1896.53989197395
 21
-143.9431509627737
 31
0.0
  0
LINE
  5
184
  8
0
 10
-1896.53989197395
 20
-143.9431509627737
 30
0.0
 11
-1896.53989197395
 21
-123.9431509654138
 31
0.0
  0
LINE
  5
185
  8
0
 10
-1896.53989197395
 20
-123.9431509654138
 30
0.0
 11
-1914.53989197395
 21
-123.9431509601335
 31
0.0
  0
LINE
  5
186
  8
0
 10
-1914.53989197395
 20
-123.9431509601335
 30
0.0
 11
-1914.53989197395
 21
-103.9431509627737
 31
0.0
  0
LINE
  5
187
  8
0
 10
-1914.53989197395
 20
-103.9431509627737
 30
0.0
 11
-1896.53989197395
 21
-103.9431509627737
 31
0.0
  0
LINE
  5
188
  8
0
 10
-1896.53989197395
 20
-103.9431509627737
 30
0.0
 11
-1896.53989197395
 21
-83.94315096541384
 31
0.0
  0
LINE
  5
189
  8
0
 10
-1896.53989197395
 20
-83.94315096541384
 30
0.0
 11
-1914.53989197395
 21
-83.94315096013351
 31
0.0
  0
LINE
  5
190
  8
0
 10
-1914.53989197395
 20
-83.94315096013351
 30
0.0
 11
-1914.53989197395
 21
-63.94315096277367
 31
0.0
  0
LINE
  5
191
  8
0
 10
-1914.53989197395
 20
-63.94315096277367
 30
0.0
 11
-1896.53989197395
 21
-63.94315096277367
 31
0.0
  0
LINE
  5
192
  8
0
 10
-1896.53989197395
 20
-63.94315096277367
 30
0.0
 11
-1896.53989197395
 21
-43.94315096541384
 31
0.0
  0
LINE
  5
193
  8
0
 10
-1896.53989197395
 20
-43.94315096541384
 30
0.0
 11
-1914.53989197395
 21
-43.94315096013351
 31
0.0
  0
LINE
  5
194
  8
0
 10
-1914.53989197395
 20
-43.94315096013351
 30
0.0
 11
-1914.53989197395
 21
-23.94315096277367
 31
0.0
  0
LINE
  5
195
  8
0
 10
-1914.53989197395
 20
-23.94315096277367
 30
0.0
 11
-1896.53989197395
 21
-23.94315096277367
 31
0.0
  0
LINE
  5
196
  8
0
 10
-1896.53989197395
 20
-23.94315096277367
 30
0.0
 11
-1896.53989197395
 21
-3.943150965413835
 31
0.0
  0
LINE
  5
197
  8
0
 10
-1896.53989197395
 20
-3.943150965413835
 30
0.0
 11
-1914.53989197395
 21
-3.943150960133508
 31
0.0
  0
LINE
  5
198
  8
0
 10
-1914.53989197395
 20
-3.943150960133508
 30
0.0
 11
-1914.53989197395
 21
16.05684903722633
 31
0.0
  0
LINE
  5
199
  8
0
 10
-1914.53989197395
 20
16.05684903722633
 30
0.0
 11
-1896.53989197395
 21
16.05684903722633
 31
0.0
  0
LINE
  5
200
  8
0
 10
-1896.53989197395
 20
16.05684903722633
 30
0.0
 11
-1896.53989197395
 21
36.05684903458616
 31
0.0
  0
LINE
  5
201
  8
0
 10
-1896.53989197395
 20
36.05684903458616
 30
0.0
 11
-1914.53989197395
 21
36.05684903986649
 31
0.0
  0
LINE
  5
202
  8
0
 10
-1914.53989197395
 20
36.05684903986649
 30
0.0
 11
-1914.53989197395
 21
56.05684903722633
 31
0.0
  0
LINE
  5
203
  8
0
 10
-1914.53989197395
 20
56.05684903722633
 30
0.0
 11
-1896.53989197395
 21
56.05684903722633
 31
0.0
  0
LINE
  5
204
  8
0
 10
-1896.53989197395
 20
56.05684903722633
 30
0.0
 11
-1896.53989197395
 21
76.05684903458616
 31
0.0
  0
LINE
  5
205
  8
0
 10
-1896.53989197395
 20
76.05684903458616
 30
0.0
 11
-1934.539888862525
 21
76.0568457875501
 31
0.0
  0
LINE
  5
206
  8
0
 10
-1934.539888862525
 20
76.05684322379416
 30
0.0
 11
-1924.539888862244
 21
103.5316174182428
 31
0.0
  0
LINE
  5
207
  8
0
 10
-1924.539888862244
 20
103.5316174182428
 30
0.0
 11
-1974.539888862243
 21
103.5316174187541
 31
0.0
  0
LINE
  5
208
  8
0
 10
-1974.539888862243
 20
103.5316174187541
 30
0.0
 11
-1964.539888862525
 21
76.0568432241004
 31
0.0
  0
LINE
  5
209
  8
0
 10
-1964.539888862525
 20
76.0568432241004
 30
0.0
 11
-2033.126388862524
 21
76.05683736349891
 31
0.0
  0
LINE
  5
210
  8
0
 10
-2033.126388862524
 20
76.05683479974297
 30
0.0
 11
-2023.126388862243
 21
103.5316089941916
 31
0.0
  0
LINE
  5
211
  8
0
 10
-2023.126388862243
 20
103.5316089941916
 30
0.0
 11
-2073.126388862242
 21
103.5316089947029
 31
0.0
  0
LINE
  5
212
  8
0
 10
-2073.126388862242
 20
103.5316089947029
 30
0.0
 11
-2063.126388862524
 21
76.05683480004922
 31
0.0
  0
LINE
  5
213
  8
0
 10
-2063.126388862524
 20
76.05683480004922
 30
0.0
 11
-2131.712888862523
 21
76.05682893944773
 31
0.0
  0
LINE
  5
214
  8
0
 10
-2131.712888862523
 20
76.05682637569177
 30
0.0
 11
-2121.712888862242
 21
103.5316005701404
 31
0.0
  0
LINE
  5
215
  8
0
 10
-2121.712888862242
 20
103.5316005701404
 30
0.0
 11
-2171.712888862242
 21
103.5316005706517
 31
0.0
  0
LINE
  5
216
  8
0
 10
-2171.712888862242
 20
103.5316005706517
 30
0.0
 11
-2161.712888862523
 21
76.05682637599801
 31
0.0
  0
LINE
  5
217
  8
0
 10
-2161.712888862523
 20
76.05682637599801
 30
0.0
 11
-2230.299388862523
 21
76.05682051539654
 31
0.0
  0
LINE
  5
218
  8
0
 10
-2230.299388862523
 20
76.05681795164058
 30
0.0
 11
-2220.299388862241
 21
103.5315921460892
 31
0.0
  0
LINE
  5
219
  8
0
 10
-2220.299388862241
 20
103.5315921460892
 30
0.0
 11
-2270.299388862241
 21
103.5315921466005
 31
0.0
  0
LINE
  5
220
  8
0
 10
-2270.299388862241
 20
103.5315921466005
 30
0.0
 11
-2260.299388862523
 21
76.05681795194683
 31
0.0
  0
LINE
  5
221
  8
0
 10
-2260.299388862523
 20
76.05681795194683
 30
0.0
 11
-2328.885888862523
 21
76.05681209134536
 31
0.0
  0
LINE
  5
222
  8
0
 10
-2328.885888862522
 20
76.0568095275894
 30
0.0
 11
-2318.885888862241
 21
103.531583722038
 31
0.0
  0
LINE
  5
223
  8
0
 10
-2318.885888862241
 20
103.531583722038
 30
0.0
 11
-2368.885888862241
 21
103.5315837225493
 31
0.0
  0
LINE
  5
224
  8
0
 10
-2368.885888862241
 20
103.5315837225493
 30
0.0
 11
-2358.885888862522
 21
76.05680952789564
 31
0.0
  0
LINE
  5
225
  8
0
 10
-2358.885888862522
 20
76.05680952789564
 30
0.0
 11
-2396.53989197395
 21
76.05680631042425
 31
0.0
  0
LINE
  5
226
  8
0
 10
-2396.53989197395
 20
76.05680631042425
 30
0.0
 11
-2396.539891973951
 21
56.05680631306434
 31
0.0
  0
LINE
  5
227
  8
0
 10
-2396.539891973951
 20
56.05680631306434
 30
0.0
 11
-2378.539891973951
 21
56.05680631306463
 31
0.0
  0
LINE
  5
228
  8
0
 10
-2378.539891973951
 20
56.05680631306463
 30
0.0
 11
-2378.539891973951
 21
36.05680631570479
 31
0.0
  0
LINE
  5
229
  8
0
 10
-2378.539891973951
 20
36.05680631570479
 30
0.0
 11
-2396.53989197395
 21
36.05680631042418
 31
0.0
  0
LINE
  5
230
  8
0
 10
-2396.53989197395
 20
36.05680631042418
 30
0.0
 11
-2396.539891973951
 21
16.05680631306434
 31
0.0
  0
LINE
  5
231
  8
0
 10
-2396.539891973951
 20
16.05680631306434
 30
0.0
 11
-2378.539891973951
 21
16.05680631306463
 31
0.0
  0
LINE
  5
232
  8
0
 10
-2378.539891973951
 20
16.05680631306463
 30
0.0
 11
-2378.539891973951
 21
-3.94319368429521
 31
0.0
  0
LINE
  5
233
  8
0
 10
-2378.539891973951
 20
-3.94319368429521
 30
0.0
 11
-2396.53989197395
 21
-3.943193689575821
 31
0.0
  0
LINE
  5
234
  8
0
 10
-2396.53989197395
 20
-3.943193689575821
 30
0.0
 11
-2396.539891973951
 21
-23.94319368693566
 31
0.0
  0
LINE
  5
235
  8
0
 10
-2396.539891973951
 20
-23.94319368693566
 30
0.0
 11
-2378.539891973951
 21
-23.94319368693537
 31
0.0
  0
LINE
  5
236
  8
0
 10
-2378.539891973951
 20
-23.94319368693537
 30
0.0
 11
-2378.539891973951
 21
-43.94319368429521
 31
0.0
  0
LINE
  5
237
  8
0
 10
-2378.539891973951
 20
-43.94319368429521
 30
0.0
 11
-2396.53989197395
 21
-43.94319368957582
 31
0.0
  0
LINE
  5
238
  8
0
 10
-2396.53989197395
 20
-43.94319368957582
 30
0.0
 11
-2396.539891973951
 21
-63.94319368693566
 31
0.0
  0
LINE
  5
239
  8
0
 10
-2396.539891973951
 20
-63.94319368693566
 30
0.0
 11
-2378.539891973951
 21
-63.94319368693537
 31
0.0
  0
LINE
  5
240
  8
0
 10
-2378.539891973951
 20
-63.94319368693537
 30
0.0
 11
-2378.539891973951
 21
-83.94319368429528
 31
0.0
  0
LINE
  5
241
  8
0
 10
-2378.539891973951
 20
-83.94319368429528
 30
0.0
 11
-2396.53989197395
 21
-83.94319368957582
 31
0.0
  0
LINE
  5
242
  8
0
 10
-2396.53989197395
 20
-83.94319368957582
 30
0.0
 11
-2396.539891973951
 21
-103.9431936869357
 31
0.0
  0
LINE
  5
243
  8
0
 10
-2396.539891973951
 20
-103.9431936869357
 30
0.0
 11
-2378.539891973951
 21
-103.9431936869354
 31
0.0
  0
LINE
  5
244
  8
0
 10
-2378.539891973951
 20
-103.9431936869354
 30
0.0
 11
-2378.539891973951
 21
-123.9431936842953
 31
0.0
  0
LINE
  5
245
  8
0
 10
-2378.539891973951
 20
-123.9431936842953
 30
0.0
 11
-2396.53989197395
 21
-123.9431936895758
 31
0.0
  0
LINE
  5
246
  8
0
 10
-2396.53989197395
 20
-123.9431936895758
 30
0.0
 11
-2396.539891973951
 21
-143.9431936869357
 31
0.0
  0
LINE
  5
247
  8
0
 10
-2396.539891973951
 20
-143.9431936869357
 30
0.0
 11
-2378.539891973951
 21
-143.9431936869354
 31
0.0
  0
LINE
  5
248
  8
0
 10
-2378.539891973951
 20
-143.9431936869354
 30
0.0
 11
-2378.539891973951
 21
-163.9431936842953
 31
0.0
  0
LINE
  5
249
  8
0
 10
-2378.539891973951
 20
-163.9431936842953
 30
0.0
 11
-2396.53989197395
 21
-163.9431936895758
 31
0.0
  0
LINE
  5
250
  8
0
 10
-2396.53989197395
 20
-163.9431936895758
 30
0.0
 11
-2396.539891973951
 21
-183.9431936869357
 31
0.0
  0
LINE
  5
251
  8
0
 10
-2396.539891973951
 20
-183.9431936869357
 30
0.0
 11
-2378.539891973951
 21
-183.9431936869354
 31
0.0
  0
LINE
  5
252
  8
0
 10
-2378.539891973951
 20
-183.9431936869354
 30
0.0
 11
-2378.539891973951
 21
-203.9431936842953
 31
0.0
  0
LINE
  5
253
  8
0
 10
-2378.539891973951
 20
-203.9431936842953
 30
0.0
 11
-2396.53989197395
 21
-203.9431936895758
 31
0.0
  0
LINE
  5
254
  8
0
 10
-2396.53989197395
 20
-203.9431936895758
 30
0.0
 11
-2396.539891973951
 21
-223.9431936869357
 31
0.0
  0
LINE
  5
255
  8
0
 10
-2396.539891973951
 20
-223.9431936869357
 30
0.0
 11
-2378.539891973951
 21
-223.9431936869354
 31
0.0
  0
LINE
  5
256
  8
0
 10
-2378.539891973951
 20
-223.9431936869354
 30
0.0
 11
-2378.539891973951
 21
-243.9431936842953
 31
0.0
  0
LINE
  5
257
  8
0
 10
-2378.539891973951
 20
-243.9431936842953
 30
0.0
 11
-2396.53989197395
 21
-243.9431936895758
 31
0.0
  0
LINE
  5
258
  8
0
 10
-2396.53989197395
 20
-243.9431936895758
 30
0.0
 11
-2396.539891973951
 21
-263.9431936869357
 31
0.0
  0
LINE
  5
259
  8
0
 10
-2396.539891973951
 20
-263.9431936869357
 30
0.0
 11
-2378.539891973951
 21
-263.9431936869354
 31
0.0
  0
LINE
  5
260
  8
0
 10
-2378.539891973951
 20
-263.9431936869354
 30
0.0
 11
-2378.539891973951
 21
-283.9431936842952
 31
0.0
  0
LINE
  5
261
  8
0
 10
-2378.539891973951
 20
-283.9431936842952
 30
0.0
 11
-2396.53989197395
 21
-283.9431936895758
 31
0.0
  0
LINE
  5
262
  8
0
 10
-2396.53989197395
 20
-283.9431936895758
 30
0.0
 11
-2396.539891973951
 21
-303.9431936869357
 31
0.0
  0
LINE
  5
263
  8
0
 10
-2396.539891973951
 20
-303.9431936869357
 30
0.0
 11
-2378.539891973951
 21
-303.9431936869354
 31
0.0
  0
LINE
  5
264
  8
0
 10
-2378.539891973951
 20
-303.9431936869354
 30
0.0
 11
-2378.539891973951
 21
-323.9431936842952
 31
0.0
  0
LINE
  5
265
  8
0
 10
-2378.539891973951
 20
-323.9431936842952
 30
0.0
 11
-2396.53989197395
 21
-323.9431936895758
 31
0.0
  0
LINE
  5
266
  8
0
 10
-2396.53989197395
 20
-323.9431936895758
 30
0.0
 11
-2396.539891973951
 21
-343.9431936869357
 31
0.0
  0
LINE
  5
267
  8
0
 10
-2396.539891973951
 20
-343.9431936869357
 30
0.0
 11
-2378.539891973951
 21
-343.9431936869354
 31
0.0
  0
LINE
  5
268
  8
0
 10
-2378.539891973951
 20
-343.9431936869354
 30
0.0
 11
-2378.539891973951
 21
-363.9431936842952
 31
0.0
  0
LINE
  5
269
  8
0
 10
-2378.539891973951
 20
-363.9431936842952
 30
0.0
 11
-2396.53989197395
 21
-363.9431936895758
 31
0.0
  0
LINE
  5
270
  8
0
 10
-2396.53989197395
 20
-363.9431936895758
 30
0.0
 11
-2396.539891973951
 21
-383.9431936869357
 31
0.0
  0
LINE
  5
271
  8
0
 10
-2396.539891973951
 20
-383.9431936869357
 30
0.0
 11
-2378.539891973951
 21
-383.9431936869354
 31
0.0
  0
LINE
  5
272
  8
0
 10
-2378.539891973951
 20
-383.9431936869354
 30
0.0
 11
-2378.539891973951
 21
-403.9431936842952
 31
0.0
  0
LINE
  5
273
  8
0
 10
-2378.539891973951
 20
-403.9431936842952
 30
0.0
 11
-2396.53989197395
 21
-403.9431936895758
 31
0.0
  0
LINE
  5
274
  8
0
 10
-2396.53989197395
 20
-403.9431936895758
 30
0.0
 11
-2396.539891973951
 21
-423.9431936869357
 31
0.0
  0
LINE
  5
275
  8
0
 10
-2396.539891973951
 20
-423.9431936869357
 30
0.0
 11
-2378.539891973951
 21
-423.9431936869354
 31
0.0
  0
LINE
  5
276
  8
0
 10
-2378.539891973951
 20
-423.9431936869354
 30
0.0
 11
-2378.539891973951
 21
-443.9431936842952
 31
0.0
  0
LINE
  5
277
  8
0
 10
-2378.539891973951
 20
-443.9431936842952
 30
0.0
 11
-2396.53989197395
 21
-443.9431936895758
 31
0.0
  0
LINE
  5
278
  8
0
 10
-2396.53989197395
 20
-443.9431936895758
 30
0.0
 11
-2396.539891973951
 21
-463.9431936869357
 31
0.0
  0
LINE
  5
279
  8
0
 10
-2396.539891973951
 20
-463.9431936869357
 30
0.0
 11
-2378.539891973951
 21
-463.9431936869354
 31
0.0
  0
LINE
  5
280
  8
0
 10
-2378.539891973951
 20
-463.9431936869354
 30
0.0
 11
-2378.539891973951
 21
-483.9431936842952
 31
0.0
  0
LINE
  5
281
  8
0
 10
-2378.539891973951
 20
-483.9431936842952
 30
0.0
 11
-2396.53989197395
 21
-483.9431936895758
 31
0.0
  0
LINE
  5
282
  8
0
 10
-2396.53989197395
 20
-483.9431936895758
 30
0.0
 11
-2396.539891973951
 21
-503.9431936869357
 31
0.0
  0
LINE
  5
283
  8
0
 10
-2396.539891973951
 20
-503.9431936869357
 30
0.0
 11
-2378.539891973951
 21
-503.9431936869354
 31
0.0
  0
LINE
  5
284
  8
0
 10
-2378.539891973951
 20
-503.9431936869354
 30
0.0
 11
-2378.539891973951
 21
-523.9431936842952
 31
0.0
  0
LINE
  5
285
  8
0
 10
-2378.539891973951
 20
-523.9431936842952
 30
0.0
 11
-2396.53989197395
 21
-523.9431936895758
 31
0.0
  0
LINE
  5
286
  8
0
 10
-2396.53989197395
 20
-523.9431936895758
 30
0.0
 11
-2396.539891973951
 21
-543.9431936869356
 31
0.0
  0
LINE
  5
287
  8
0
 10
-2396.539891973951
 20
-543.9431936869356
 30
0.0
 11
-2378.539891973951
 21
-543.9431936869354
 31
0.0
  0
LINE
  5
288
  8
0
 10
-2378.539891973951
 20
-543.9431936869354
 30
0.0
 11
-2378.539891973951
 21
-563.9431936842952
 31
0.0
  0
LINE
  5
289
  8
0
 10
-2378.539891973951
 20
-563.9431936842952
 30
0.0
 11
-2396.53989197395
 21
-563.9431936895758
 31
0.0
  0
LINE
  5
290
  8
0
 10
-2396.53989197395
 20
-563.9431936895758
 30
0.0
 11
-2396.539891973951
 21
-583.9431936869356
 31
0.0
  0
LINE
  5
291
  8
0
 10
-2396.539891973951
 20
-583.9431936869356
 30
0.0
 11
-2378.539891973951
 21
-583.9431936869354
 31
0.0
  0
LINE
  5
292
  8
0
 10
-2378.539891973951
 20
-583.9431936869354
 30
0.0
 11
-2378.539891973951
 21
-603.9431936842952
 31
0.0
  0
LINE
  5
293
  8
0
 10
-2378.539891973951
 20
-603.9431936842952
 30
0.0
 11
-2396.53989197395
 21
-603.9431936895758
 31
0.0
  0
LINE
  5
294
  8
0
 10
-2396.53989197395
 20
-603.9431936895758
 30
0.0
 11
-2396.539891973951
 21
-623.9431936869356
 31
0.0
  0
LINE
  5
295
  8
0
 10
-2396.539891973951
 20
-623.9431936869356
 30
0.0
 11
-2378.539891973951
 21
-623.9431936869354
 31
0.0
  0
LINE
  5
296
  8
0
 10
-2378.539891973951
 20
-623.9431936869354
 30
0.0
 11
-2378.539891973951
 21
-643.9431936842952
 31
0.0
  0
LINE
  5
297
  8
0
 10
-2378.539891973951
 20
-643.9431936842952
 30
0.0
 11
-2396.53989197395
 21
-643.9431936895758
 31
0.0
  0
LINE
  5
298
  8
0
 10
-2396.53989197395
 20
-643.9431936895758
 30
0.0
 11
-2396.539891973951
 21
-663.9431936869356
 31
0.0
  0
LINE
  5
299
  8
0
 10
-2396.539891973951
 20
-663.9431936869356
 30
0.0
 11
-2378.539891973951
 21
-663.9431936869355
 31
0.0
  0
LINE
  5
300
  8
0
 10
-2378.539891973951
 20
-663.9431936869355
 30
0.0
 11
-2378.539891973951
 21
-683.9431936842952
 31
0.0
  0
LINE
  5
301
  8
0
 10
-2378.539891973951
 20
-683.9431936842952
 30
0.0
 11
-2396.53989197395
 21
-683.9431936895758
 31
0.0
  0
LINE
  5
302
  8
0
 10
-2396.53989197395
 20
-683.9431936895758
 30
0.0
 11
-2396.539891973951
 21
-703.9431936869356
 31
0.0
  0
LINE
  5
303
  8
0
 10
-2396.539891973951
 20
-703.9431936869356
 30
0.0
 11
-2378.539891973951
 21
-703.9431936869355
 31
0.0
  0
LINE
  5
304
  8
0
 10
-2378.539891973951
 20
-703.9431936869355
 30
0.0
 11
-2378.539891973951
 21
-723.9431936842952
 31
0.0
  0
LINE
  5
305
  8
0
 10
-2378.539891973951
 20
-723.9431936842952
 30
0.0
 11
-2396.53989197395
 21
-723.9431936895758
 31
0.0
  0
LINE
  5
306
  8
0
 10
-2396.53989197395
 20
-723.9431936895758
 30
0.0
 11
-2396.539891973951
 21
-743.9431936869356
 31
0.0
  0
LINE
  5
307
  8
0
 10
-2396.539891973951
 20
-743.9431936869356
 30
0.0
 11
-2378.539891973951
 21
-743.9431936869355
 31
0.0
  0
LINE
  5
308
  8
0
 10
-2378.539891973951
 20
-743.9431936869355
 30
0.0
 11
-2378.539891973951
 21
-763.9431936842952
 31
0.0
  0
LINE
  5
309
  8
0
 10
-2378.539891973951
 20
-763.9431936842952
 30
0.0
 11
-2396.53989197395
 21
-763.9431936895758
 31
0.0
  0
LINE
  5
310
  8
0
 10
-2396.53989197395
 20
-763.9431936895758
 30
0.0
 11
-2396.539891973951
 21
-783.9431936869356
 31
0.0
  0
LINE
  5
311
  8
0
 10
-2396.539891973951
 20
-783.9431936869356
 30
0.0
 11
-2378.539891973951
 21
-783.9431936869355
 31
0.0
  0
LINE
  5
312
  8
0
 10
-2378.539891973951
 20
-783.9431936869355
 30
0.0
 11
-2378.539891973951
 21
-803.9431936842952
 31
0.0
  0
LINE
  5
313
  8
0
 10
-2378.539891973951
 20
-803.9431936842952
 30
0.0
 11
-2396.53989197395
 21
-803.9431936895758
 31
0.0
  0
LINE
  5
314
  8
0
 10
-2396.53989197395
 20
-803.9431936895758
 30
0.0
 11
-2396.539891973951
 21
-823.9431936869356
 31
0.0
  0
LINE
  5
315
  8
0
 10
-2396.539891973951
 20
-823.9431936869356
 30
0.0
 11
-2378.539891973951
 21
-823.9431936869355
 31
0.0
  0
LINE
  5
316
  8
0
 10
-2378.539891973951
 20
-823.9431936869355
 30
0.0
 11
-2378.539891973951
 21
-843.9431936842952
 31
0.0
  0
LINE
  5
317
  8
0
 10
-2378.539891973951
 20
-843.9431936842952
 30
0.0
 11
-2396.539891973951
 21
-843.9431936842954
 31
0.0
  0
LINE
  5
318
  8
0
 10
-2396.539891973951
 20
-843.9431936842954
 30
0.0
 11
-2396.539891973951
 21
-883.9431509550228
 31
0.0
  0
LINE
  5
319
  8
0
 10
-2396.539891973951
 20
-883.9431509550228
 30
0.0
 11
-2358.885891974232
 21
-883.9431509594385
 31
0.0
  0
LINE
  5
320
  8
0
 10
-2358.885891974232
 20
-883.9431509594385
 30
0.0
 11
-2368.88589197395
 21
-856.4683767647848
 31
0.0
  0
LINE
  5
321
  8
0
 10
-2368.88589197395
 20
-856.4683767647848
 30
0.0
 11
-2318.885891973951
 21
-856.4683767652962
 31
0.0
  0
LINE
  5
322
  8
0
 10
-2318.885891973951
 20
-856.4683767652962
 30
0.0
 11
-2328.885891974232
 21
-883.9431509597448
 31
0.0
  0
LINE
  5
323
  8
0
 10
-2328.885891974232
 20
-883.9431509597448
 30
0.0
 11
-2260.299391974232
 21
-883.9431509594385
 31
0.0
  0
LINE
  5
324
  8
0
 10
-2260.299391974232
 20
-883.9431509594385
 30
0.0
 11
-2270.29939197395
 21
-856.4683767647848
 31
0.0
  0
LINE
  5
325
  8
0
 10
-2270.29939197395
 20
-856.4683767647848
 30
0.0
 11
-2220.299391973951
 21
-856.4683767652962
 31
0.0
  0
LINE
  5
326
  8
0
 10
-2220.299391973951
 20
-856.4683767652962
 30
0.0
 11
-2230.299391974232
 21
-883.9431509597448
 31
0.0
  0
LINE
  5
327
  8
0
 10
-2230.299391974232
 20
-883.9431509597448
 30
0.0
 11
-2161.712891974232
 21
-883.9431509594385
 31
0.0
  0
POLYLINE
  5
328
  8
0
 66
     1
 10
0.0
 20
0.0
 30
0.0
 70
     1
  0
VERTEX
  5
1012E
  8
0
 10
-2151.53989197395
 20
-618.9431936869371
 30
0.0
  0
VERTEX
  5
1012F
  8
0
 10
-2151.53989197395
 20
-608.943194149026
 30
0.0
  0
VERTEX
  5
10130
  8
0
 10
-2386.53989197395
 20
-608.943194149026
 30
0.0
  0
VERTEX
  5
10131
  8
0
 10
-2386.53989197395
 20
-618.9431936869375
 30
0.0
  0
SEQEND
  5
10386
  8
0
  0
POLYLINE
  5
329
  8
0
 66
     1
 10
0.0
 20
0.0
 30
0.0
 70
     1
  0
VERTEX
  5
10132
  8
0
 10
-2151.53989197395
 20
-658.943193686937
 30
0.0
  0
VERTEX
  5
10133
  8
0
 10
-2151.53989197395
 20
-648.943194149026
 30
0.0
  0
VERTEX
  5
10134
  8
0
 10
-2386.53989197395
 20
-648.943194149026
 30
0.0
  0
VERTEX
  5
10135
  8
0
 10
-2386.53989197395
 20
-658.9431936869374
 30
0.0
  0
SEQEND
  5
10387
  8
0
  0
POLYLINE
  5
330
  8
0
 66
     1
 10
0.0
 20
0.0
 30
0.0
 70
     1
  0
VERTEX
  5
10136
  8
0
 10
-1906.53989197395
 20
-698.9431509627731
 30
0.0
  0
VERTEX
  5
10137
  8
0
 10
-1906.53989197395
 20
-688.9430385849136
 30
0.0
  0
VERTEX
  5
10138
  8
0
 10
-2141.53989197395
 20
-688.9430385849136
 30
0.0
  0
VERTEX
  5
10139
  8
0
 10
-2141.53989197395
 20
-698.9431509627732
 30
0.0
  0
SEQEND
  5
10388
  8
0
  0
POLYLINE
  5
331
  8
0
 66
     1
 10
0.0
 20
0.0
 30
0.0
 70
     1
  0
VERTEX
  5
1013A
  8
0
 10
-1906.53989197395
 20
-658.9431509627731
 30
0.0
  0
VERTEX
  5
1013B
  8
0
 10
-1906.53989197395
 20
-648.9430385849136
 30
0.0
  0
VERTEX
  5
1013C
  8
0
 10
-2141.53989197395
 20
-648.9430385849136
 30
0.0
  0
VERTEX
  5
1013D
  8
0
 10
-2141.53989197395
 20
-658.9431509627732
 30
0.0
  0
SEQEND
  5
10389
  8
0
  0
POLYLINE
  5
332
  8
0
 66
     1
 10
0.0
 20
0.0
 30
0.0
 70
     1
  0
VERTEX
  5
1013E
  8
0
 10
-2368.539891973951
 20
-678.9431509601322
 30
0.0
  0
VERTEX
  5
1013F
  8
0
 10
-1924.53989197395
 20
-678.9431509601327
 30
0.0
  0
VERTEX
  5
10140
  8
0
 10
-1924.53989197395
 20
-668.943150962773
 30
0.0
  0
VERTEX
  5
10141
  8
0
 10
-2368.539891973951
 20
-668.943150962773
 30
0.0
  0
SEQEND
  5
1038A
  8
0
  0
POLYLINE
  5
333
  8
0
 66
     1
 10
0.0
 20
0.0
 30
0.0
 70
     1
  0
VERTEX
  5
10142
  8
0
 10
-2368.539891973951
 20
-838.9431509601322
 30
0.0
  0
VERTEX
  5
10143
  8
0
 10
-1924.53989197395
 20
-838.9431509601327
 30
0.0
  0
VERTEX
  5
10144
  8
0
 10
-1924.53989197395
 20
-828.943150962773
 30
0.0
  0
VERTEX
  5
10145
  8
0
 10
-2368.539891973951
 20
-828.943150962773
 30
0.0
  0
SEQEND
  5
1038B
  8
0
  0
POLYLINE
  5
334
  8
0
 66
     1
 10
0.0
 20
0.0
 30
0.0
 70
     1
  0
VERTEX
  5
10146
  8
0
 10
-2151.53989197395
 20
-818.943193686937
 30
0.0
  0
VERTEX
  5
10147
  8
0
 10
-2151.53989197395
 20
-808.943194149026
 30
0.0
  0
VERTEX
  5
10148
  8
0
 10
-2386.53989197395
 20
-808.943194149026
 30
0.0
  0
VERTEX
  5
10149
  8
0
 10
-2386.53989197395
 20
-818.9431936869374
 30
0.0
  0
SEQEND
  5
1038C
  8
0
  0
POLYLINE
  5
335
  8
0
 66
     1
 10
0.0
 20
0.0
 30
0.0
 70
     1
  0
VERTEX
  5
1014A
  8
0
 10
-1906.53989197395
 20
-618.9431509627731
 30
0.0
  0
VERTEX
  5
1014B
  8
0
 10
-1906.53989197395
 20
-608.9430385849137
 30
0.0
  0
VERTEX
  5
1014C
  8
0
 10
-2141.53989197395
 20
-608.9430385849137
 30
0.0
  0
VERTEX
  5
1014D
  8
0
 10
-2141.53989197395
 20
-618.9431509627732
 30
0.0
  0
SEQEND
  5
1038D
  8
0
  0
POLYLINE
  5
336
  8
0
 66
     1
 10
0.0
 20
0.0
 30
0.0
 70
     1
  0
VERTEX
  5
1014E
  8
0
 10
-2368.539891973951
 20
-758.9431509601322
 30
0.0
  0
VERTEX
  5
1014F
  8
0
 10
-1924.53989197395
 20
-758.9431509601327
 30
0.0
  0
VERTEX
  5
10150
  8
0
 10
-1924.53989197395
 20
-748.943150962773
 30
0.0
  0
VERTEX
  5
10151
  8
0
 10
-2368.539891973951
 20
-748.943150962773
 30
0.0
  0
SEQEND
  5
1038E
  8
0
  0
POLYLINE
  5
337
  8
0
 66
     1
 10
0.0
 20
0.0
 30
0.0
 70
     1
  0
VERTEX
  5
10152
  8
0
 10
-1906.53989197395
 20
-738.9431509627731
 30
0.0
  0
VERTEX
  5
10153
  8
0
 10
-1906.53989197395
 20
-728.9430385849136
 30
0.0
  0
VERTEX
  5
10154
  8
0
 10
-2141.53989197395
 20
-728.9430385849136
 30
0.0
  0
VERTEX
  5
10155
  8
0
 10
-2141.53989197395
 20
-738.9431509627732
 30
0.0
  0
SEQEND
  5
1038F
  8
0
  0
POLYLINE
  5
338
  8
0
 66
     1
 10
0.0
 20
0.0
 30
0.0
 70
     1
  0
VERTEX
  5
10156
  8
0
 10
-2368.539891973951
 20
-798.9431509601322
 30
0.0
  0
VERTEX
  5
10157
  8
0
 10
-1924.53989197395
 20
-798.9431509601327
 30
0.0
  0
VERTEX
  5
10158
  8
0
 10
-1924.53989197395
 20
-788.943150962773
 30
0.0
  0
VERTEX
  5
10159
  8
0
 10
-2368.539891973951
 20
-788.943150962773
 30
0.0
  0
SEQEND
  5
10390
  8
0
  0
POLYLINE
  5
339
  8
0
 66
     1
 10
0.0
 20
0.0
 30
0.0
 70
     1
  0
VERTEX
  5
1015A
  8
0
 10
-2151.53989197395
 20
-698.943193686937
 30
0.0
  0
VERTEX
  5
1015B
  8
0
 10
-2151.53989197395
 20
-688.943194149026
 30
0.0
  0
VERTEX
  5
1015C
  8
0
 10
-2386.53989197395
 20
-688.943194149026
 30
0.0
  0
VERTEX
  5
1015D
  8
0
 10
-2386.53989197395
 20
-698.9431936869374
 30
0.0
  0
SEQEND
  5
10391
  8
0
  0
POLYLINE
  5
340
  8
0
 66
     1
 10
0.0
 20
0.0
 30
0.0
 70
     1
  0
VERTEX
  5
1015E
  8
0
 10
-2368.539891973951
 20
-718.9431509601322
 30
0.0
  0
VERTEX
  5
1015F
  8
0
 10
-1924.53989197395
 20
-718.9431509601327
 30
0.0
  0
VERTEX
  5
10160
  8
0
 10
-1924.53989197395
 20
-708.943150962773
 30
0.0
  0
VERTEX
  5
10161
  8
0
 10
-2368.539891973951
 20
-708.943150962773
 30
0.0
  0
SEQEND
  5
10392
  8
0
  0
POLYLINE
  5
341
  8
0
 66
     1
 10
0.0
 20
0.0
 30
0.0
 70
     1
  0
VERTEX
  5
10162
  8
0
 10
-1906.53989197395
 20
-778.9431509627731
 30
0.0
  0
VERTEX
  5
10163
  8
0
 10
-1906.53989197395
 20
-768.9430385849136
 30
0.0
  0
VERTEX
  5
10164
  8
0
 10
-2141.53989197395
 20
-768.9430385849136
 30
0.0
  0
VERTEX
  5
10165
  8
0
 10
-2141.53989197395
 20
-778.9431509627732
 30
0.0
  0
SEQEND
  5
10393
  8
0
  0
POLYLINE
  5
342
  8
0
 66
     1
 10
0.0
 20
0.0
 30
0.0
 70
     1
  0
VERTEX
  5
10166
  8
0
 10
-2368.539891973951
 20
-638.9431509601322
 30
0.0
  0
VERTEX
  5
10167
  8
0
 10
-1924.53989197395
 20
-638.9431509601327
 30
0.0
  0
VERTEX
  5
10168
  8
0
 10
-1924.53989197395
 20
-628.943150962773
 30
0.0
  0
VERTEX
  5
10169
  8
0
 10
-2368.539891973951
 20
-628.943150962773
 30
0.0
  0
SEQEND
  5
10394
  8
0
  0
POLYLINE
  5
343
  8
0
 66
     1
 10
0.0
 20
0.0
 30
0.0
 70
     1
  0
VERTEX
  5
1016A
  8
0
 10
-2151.53989197395
 20
-778.943193686937
 30
0.0
  0
VERTEX
  5
1016B
  8
0
 10
-2151.53989197395
 20
-768.943194149026
 30
0.0
  0
VERTEX
  5
1016C
  8
0
 10
-2386.53989197395
 20
-768.943194149026
 30
0.0
  0
VERTEX
  5
1016D
  8
0
 10
-2386.53989197395
 20
-778.9431936869374
 30
0.0
  0
SEQEND
  5
10395
  8
0
  0
POLYLINE
  5
344
  8
0
 66
     1
 10
0.0
 20
0.0
 30
0.0
 70
     1
  0
VERTEX
  5
1016E
  8
0
 10
-2151.53989197395
 20
-738.943193686937
 30
0.0
  0
VERTEX
  5
1016F
  8
0
 10
-2151.53989197395
 20
-728.943194149026
 30
0.0
  0
VERTEX
  5
10170
  8
0
 10
-2386.53989197395
 20
-728.943194149026
 30
0.0
  0
VERTEX
  5
10171
  8
0
 10
-2386.53989197395
 20
-738.9431936869374
 30
0.0
  0
SEQEND
  5
10396
  8
0
  0
POLYLINE
  5
345
  8
0
 66
     1
 10
0.0
 20
0.0
 30
0.0
 70
     1
  0
VERTEX
  5
10172
  8
0
 10
-1906.53989197395
 20
-818.9431509627731
 30
0.0
  0
VERTEX
  5
10173
  8
0
 10
-1906.53989197395
 20
-808.9430385849136
 30
0.0
  0
VERTEX
  5
10174
  8
0
 10
-2141.53989197395
 20
-808.9430385849136
 30
0.0
  0
VERTEX
  5
10175
  8
0
 10
-2141.53989197395
 20
-818.9431509627732
 30
0.0
  0
SEQEND
  5
10397
  8
0
  0
POLYLINE
  5
346
  8
0
 66
     1
 10
0.0
 20
0.0
 30
0.0
 70
     1
  0
VERTEX
  5
10176
  8
0
 10
-1906.53989197395
 20
-138.9431509627731
 30
0.0
  0
VERTEX
  5
10177
  8
0
 10
-1906.53989197395
 20
-128.9430385849136
 30
0.0
  0
VERTEX
  5
10178
  8
0
 10
-2141.53989197395
 20
-128.9430385849136
 30
0.0
  0
VERTEX
  5
10179
  8
0
 10
-2141.53989197395
 20
-138.9431509627732
 30
0.0
  0
SEQEND
  5
10398
  8
0
  0
POLYLINE
  5
347
  8
0
 66
     1
 10
0.0
 20
0.0
 30
0.0
 70
     1
  0
VERTEX
  5
1017A
  8
0
 10
-1924.53989197395
 20
51.05684903722704
 30
0.0
  0
VERTEX
  5
1017B
  8
0
 10
-2368.539891973951
 20
51.05684903722704
 30
0.0
  0
VERTEX
  5
1017C
  8
0
 10
-2368.539891973951
 20
41.05684903986777
 30
0.0
  0
VERTEX
  5
1017D
  8
0
 10
-1924.53989197395
 20
41.05684903986727
 30
0.0
  0
SEQEND
  5
10399
  8
0
  0
POLYLINE
  5
348
  8
0
 66
     1
 10
0.0
 20
0.0
 30
0.0
 70
     1
  0
VERTEX
  5
1017E
  8
0
 10
-2368.539891973951
 20
-278.9431509601322
 30
0.0
  0
VERTEX
  5
1017F
  8
0
 10
-1924.53989197395
 20
-278.9431509601327
 30
0.0
  0
VERTEX
  5
10180
  8
0
 10
-1924.53989197395
 20
-268.943150962773
 30
0.0
  0
VERTEX
  5
10181
  8
0
 10
-2368.539891973951
 20
-268.943150962773
 30
0.0
  0
SEQEND
  5
1039A
  8
0
  0
POLYLINE
  5
349
  8
0
 66
     1
 10
0.0
 20
0.0
 30
0.0
 70
     1
  0
VERTEX
  5
10182
  8
0
 10
-2151.53989197395
 20
-258.9431936869371
 30
0.0
  0
VERTEX
  5
10183
  8
0
 10
-2151.53989197395
 20
-248.9431941490261
 30
0.0
  0
VERTEX
  5
10184
  8
0
 10
-2386.53989197395
 20
-248.9431941490261
 30
0.0
  0
VERTEX
  5
10185
  8
0
 10
-2386.53989197395
 20
-258.9431936869374
 30
0.0
  0
SEQEND
  5
1039B
  8
0
  0
POLYLINE
  5
350
  8
0
 66
     1
 10
0.0
 20
0.0
 30
0.0
 70
     1
  0
VERTEX
  5
10186
  8
0
 10
-1906.53989197395
 20
-298.9431509627731
 30
0.0
  0
VERTEX
  5
10187
  8
0
 10
-1906.53989197395
 20
-288.9430385849137
 30
0.0
  0
VERTEX
  5
10188
  8
0
 10
-2141.53989197395
 20
-288.9430385849137
 30
0.0
  0
VERTEX
  5
10189
  8
0
 10
-2141.53989197395
 20
-298.9431509627733
 30
0.0
  0
SEQEND
  5
1039C
  8
0
  0
POLYLINE
  5
351
  8
0
 66
     1
 10
0.0
 20
0.0
 30
0.0
 70
     1
  0
VERTEX
  5
1018A
  8
0
 10
-2368.539891973951
 20
-318.9431509601322
 30
0.0
  0
VERTEX
  5
1018B
  8
0
 10
-1924.53989197395
 20
-318.9431509601327
 30
0.0
  0
VERTEX
  5
1018C
  8
0
 10
-1924.53989197395
 20
-308.943150962773
 30
0.0
  0
VERTEX
  5
1018D
  8
0
 10
-2368.539891973951
 20
-308.943150962773
 30
0.0
  0
SEQEND
  5
1039D
  8
0
  0
POLYLINE
  5
352
  8
0
 66
     1
 10
0.0
 20
0.0
 30
0.0
 70
     1
  0
VERTEX
  5
1018E
  8
0
 10
-2151.53989197395
 20
-298.9431936869371
 30
0.0
  0
VERTEX
  5
1018F
  8
0
 10
-2151.53989197395
 20
-288.9431941490261
 30
0.0
  0
VERTEX
  5
10190
  8
0
 10
-2386.53989197395
 20
-288.9431941490261
 30
0.0
  0
VERTEX
  5
10191
  8
0
 10
-2386.53989197395
 20
-298.9431936869374
 30
0.0
  0
SEQEND
  5
1039E
  8
0
  0
POLYLINE
  5
353
  8
0
 66
     1
 10
0.0
 20
0.0
 30
0.0
 70
     1
  0
VERTEX
  5
10192
  8
0
 10
-1906.53989197395
 20
-338.9431509627731
 30
0.0
  0
VERTEX
  5
10193
  8
0
 10
-1906.53989197395
 20
-328.9430385849136
 30
0.0
  0
VERTEX
  5
10194
  8
0
 10
-2141.53989197395
 20
-328.9430385849136
 30
0.0
  0
VERTEX
  5
10195
  8
0
 10
-2141.53989197395
 20
-338.9431509627732
 30
0.0
  0
SEQEND
  5
1039F
  8
0
  0
POLYLINE
  5
354
  8
0
 66
     1
 10
0.0
 20
0.0
 30
0.0
 70
     1
  0
VERTEX
  5
10196
  8
0
 10
-2151.53989197395
 20
-98.94319368693708
 30
0.0
  0
VERTEX
  5
10197
  8
0
 10
-2151.53989197395
 20
-88.94319414902604
 30
0.0
  0
VERTEX
  5
10198
  8
0
 10
-2386.53989197395
 20
-88.94319414902604
 30
0.0
  0
VERTEX
  5
10199
  8
0
 10
-2386.53989197395
 20
-98.94319368693743
 30
0.0
  0
SEQEND
  5
103A0
  8
0
  0
POLYLINE
  5
355
  8
0
 66
     1
 10
0.0
 20
0.0
 30
0.0
 70
     1
  0
VERTEX
  5
1019A
  8
0
 10
-2368.539891973951
 20
-358.9431509601322
 30
0.0
  0
VERTEX
  5
1019B
  8
0
 10
-1924.53989197395
 20
-358.9431509601326
 30
0.0
  0
VERTEX
  5
1019C
  8
0
 10
-1924.53989197395
 20
-348.943150962773
 30
0.0
  0
VERTEX
  5
1019D
  8
0
 10
-2368.539891973951
 20
-348.943150962773
 30
0.0
  0
SEQEND
  5
103A1
  8
0
  0
POLYLINE
  5
356
  8
0
 66
     1
 10
0.0
 20
0.0
 30
0.0
 70
     1
  0
VERTEX
  5
1019E
  8
0
 10
-2368.539891973951
 20
-118.9431509601323
 30
0.0
  0
VERTEX
  5
1019F
  8
0
 10
-1924.53989197395
 20
-118.9431509601327
 30
0.0
  0
VERTEX
  5
101A0
  8
0
 10
-1924.53989197395
 20
-108.943150962773
 30
0.0
  0
VERTEX
  5
101A1
  8
0
 10
-2368.539891973951
 20
-108.943150962773
 30
0.0
  0
SEQEND
  5
103A2
  8
0
  0
POLYLINE
  5
357
  8
0
 66
     1
 10
0.0
 20
0.0
 30
0.0
 70
     1
  0
VERTEX
  5
101A2
  8
0
 10
-1906.53989197395
 20
21.0568490372269
 30
0.0
  0
VERTEX
  5
101A3
  8
0
 10
-1906.53989197395
 20
31.05696141508638
 30
0.0
  0
VERTEX
  5
101A4
  8
0
 10
-2141.53989197395
 20
31.05696141508638
 30
0.0
  0
VERTEX
  5
101A5
  8
0
 10
-2141.53989197395
 20
21.05684903722675
 30
0.0
  0
SEQEND
  5
103A3
  8
0
  0
POLYLINE
  5
358
  8
0
 66
     1
 10
0.0
 20
0.0
 30
0.0
 70
     1
  0
VERTEX
  5
101A6
  8
0
 10
-2368.539891973951
 20
1.0568490398677
 30
0.0
  0
VERTEX
  5
101A7
  8
0
 10
-1924.53989197395
 20
1.056849039867274
 30
0.0
  0
VERTEX
  5
101A8
  8
0
 10
-1924.53989197395
 20
11.05684903722704
 30
0.0
  0
VERTEX
  5
101A9
  8
0
 10
-2368.539891973951
 20
11.05684903722704
 30
0.0
  0
SEQEND
  5
103A4
  8
0
  0
POLYLINE
  5
359
  8
0
 66
     1
 10
0.0
 20
0.0
 30
0.0
 70
     1
  0
VERTEX
  5
101AA
  8
0
 10
-2151.53989197395
 20
21.05680631306292
 30
0.0
  0
VERTEX
  5
101AB
  8
0
 10
-2151.53989197395
 20
31.05680585097396
 30
0.0
  0
VERTEX
  5
101AC
  8
0
 10
-2386.53989197395
 20
31.05680585097396
 30
0.0
  0
VERTEX
  5
101AD
  8
0
 10
-2386.53989197395
 20
21.05680631306257
 30
0.0
  0
SEQEND
  5
103A5
  8
0
  0
POLYLINE
  5
360
  8
0
 66
     1
 10
0.0
 20
0.0
 30
0.0
 70
     1
  0
VERTEX
  5
101AE
  8
0
 10
-1906.53989197395
 20
-18.9431509627731
 30
0.0
  0
VERTEX
  5
101AF
  8
0
 10
-1906.53989197395
 20
-8.943038584913623
 30
0.0
  0
VERTEX
  5
101B0
  8
0
 10
-2141.53989197395
 20
-8.943038584913623
 30
0.0
  0
VERTEX
  5
101B1
  8
0
 10
-2141.53989197395
 20
-18.94315096277325
 30
0.0
  0
SEQEND
  5
103A6
  8
0
  0
POLYLINE
  5
361
  8
0
 66
     1
 10
0.0
 20
0.0
 30
0.0
 70
     1
  0
VERTEX
  5
101B2
  8
0
 10
-2368.539891973951
 20
-38.94315096013223
 30
0.0
  0
VERTEX
  5
101B3
  8
0
 10
-1924.53989197395
 20
-38.94315096013273
 30
0.0
  0
VERTEX
  5
101B4
  8
0
 10
-1924.53989197395
 20
-28.94315096277296
 30
0.0
  0
VERTEX
  5
101B5
  8
0
 10
-2368.539891973951
 20
-28.94315096277296
 30
0.0
  0
SEQEND
  5
103A7
  8
0
  0
POLYLINE
  5
362
  8
0
 66
     1
 10
0.0
 20
0.0
 30
0.0
 70
     1
  0
VERTEX
  5
101B6
  8
0
 10
-2151.53989197395
 20
-18.94319368693708
 30
0.0
  0
VERTEX
  5
101B7
  8
0
 10
-2151.53989197395
 20
-8.943194149026041
 30
0.0
  0
VERTEX
  5
101B8
  8
0
 10
-2386.53989197395
 20
-8.943194149026041
 30
0.0
  0
VERTEX
  5
101B9
  8
0
 10
-2386.53989197395
 20
-18.94319368693743
 30
0.0
  0
SEQEND
  5
103A8
  8
0
  0
POLYLINE
  5
363
  8
0
 66
     1
 10
0.0
 20
0.0
 30
0.0
 70
     1
  0
VERTEX
  5
101BA
  8
0
 10
-1906.53989197395
 20
-58.9431509627731
 30
0.0
  0
VERTEX
  5
101BB
  8
0
 10
-1906.53989197395
 20
-48.94303858491362
 30
0.0
  0
VERTEX
  5
101BC
  8
0
 10
-2141.53989197395
 20
-48.94303858491362
 30
0.0
  0
VERTEX
  5
101BD
  8
0
 10
-2141.53989197395
 20
-58.94315096277325
 30
0.0
  0
SEQEND
  5
103A9
  8
0
  0
POLYLINE
  5
364
  8
0
 66
     1
 10
0.0
 20
0.0
 30
0.0
 70
     1
  0
VERTEX
  5
101BE
  8
0
 10
-2368.539891973951
 20
-78.94315096013223
 30
0.0
  0
VERTEX
  5
101BF
  8
0
 10
-1924.53989197395
 20
-78.94315096013273
 30
0.0
  0
VERTEX
  5
101C0
  8
0
 10
-1924.53989197395
 20
-68.94315096277296
 30
0.0
  0
VERTEX
  5
101C1
  8
0
 10
-2368.539891973951
 20
-68.94315096277296
 30
0.0
  0
SEQEND
  5
103AA
  8
0
  0
POLYLINE
  5
365
  8
0
 66
     1
 10
0.0
 20
0.0
 30
0.0
 70
     1
  0
VERTEX
  5
101C2
  8
0
 10
-2151.53989197395
 20
-58.94319368693708
 30
0.0
  0
VERTEX
  5
101C3
  8
0
 10
-2151.53989197395
 20
-48.94319414902604
 30
0.0
  0
VERTEX
  5
101C4
  8
0
 10
-2386.53989197395
 20
-48.94319414902604
 30
0.0
  0
VERTEX
  5
101C5
  8
0
 10
-2386.53989197395
 20
-58.94319368693743
 30
0.0
  0
SEQEND
  5
103AB
  8
0
  0
POLYLINE
  5
366
  8
0
 66
     1
 10
0.0
 20
0.0
 30
0.0
 70
     1
  0
VERTEX
  5
101C6
  8
0
 10
-1906.53989197395
 20
-258.9431509627731
 30
0.0
  0
VERTEX
  5
101C7
  8
0
 10
-1906.53989197395
 20
-248.9430385849136
 30
0.0
  0
VERTEX
  5
101C8
  8
0
 10
-2141.53989197395
 20
-248.9430385849136
 30
0.0
  0
VERTEX
  5
101C9
  8
0
 10
-2141.53989197395
 20
-258.9431509627733
 30
0.0
  0
SEQEND
  5
103AC
  8
0
  0
POLYLINE
  5
367
  8
0
 66
     1
 10
0.0
 20
0.0
 30
0.0
 70
     1
  0
VERTEX
  5
101CA
  8
0
 10
-2151.53989197395
 20
-218.9431936869371
 30
0.0
  0
VERTEX
  5
101CB
  8
0
 10
-2151.53989197395
 20
-208.9431941490261
 30
0.0
  0
VERTEX
  5
101CC
  8
0
 10
-2386.53989197395
 20
-208.9431941490261
 30
0.0
  0
VERTEX
  5
101CD
  8
0
 10
-2386.53989197395
 20
-218.9431936869374
 30
0.0
  0
SEQEND
  5
103AD
  8
0
  0
POLYLINE
  5
368
  8
0
 66
     1
 10
0.0
 20
0.0
 30
0.0
 70
     1
  0
VERTEX
  5
101CE
  8
0
 10
-2368.539891973951
 20
-238.9431509601322
 30
0.0
  0
VERTEX
  5
101CF
  8
0
 10
-1924.53989197395
 20
-238.9431509601327
 30
0.0
  0
VERTEX
  5
101D0
  8
0
 10
-1924.53989197395
 20
-228.943150962773
 30
0.0
  0
VERTEX
  5
101D1
  8
0
 10
-2368.539891973951
 20
-228.943150962773
 30
0.0
  0
SEQEND
  5
103AE
  8
0
  0
POLYLINE
  5
369
  8
0
 66
     1
 10
0.0
 20
0.0
 30
0.0
 70
     1
  0
VERTEX
  5
101D2
  8
0
 10
-1906.53989197395
 20
-218.9431509627731
 30
0.0
  0
VERTEX
  5
101D3
  8
0
 10
-1906.53989197395
 20
-208.9430385849136
 30
0.0
  0
VERTEX
  5
101D4
  8
0
 10
-2141.53989197395
 20
-208.9430385849136
 30
0.0
  0
VERTEX
  5
101D5
  8
0
 10
-2141.53989197395
 20
-218.9431509627733
 30
0.0
  0
SEQEND
  5
103AF
  8
0
  0
POLYLINE
  5
370
  8
0
 66
     1
 10
0.0
 20
0.0
 30
0.0
 70
     1
  0
VERTEX
  5
101D6
  8
0
 10
-2151.53989197395
 20
-178.9431936869371
 30
0.0
  0
VERTEX
  5
101D7
  8
0
 10
-2151.53989197395
 20
-168.9431941490261
 30
0.0
  0
VERTEX
  5
101D8
  8
0
 10
-2386.53989197395
 20
-168.9431941490261
 30
0.0
  0
VERTEX
  5
101D9
  8
0
 10
-2386.53989197395
 20
-178.9431936869374
 30
0.0
  0
SEQEND
  5
103B0
  8
0
  0
POLYLINE
  5
371
  8
0
 66
     1
 10
0.0
 20
0.0
 30
0.0
 70
     1
  0
VERTEX
  5
101DA
  8
0
 10
-2368.539891973951
 20
-198.9431509601322
 30
0.0
  0
VERTEX
  5
101DB
  8
0
 10
-1924.53989197395
 20
-198.9431509601327
 30
0.0
  0
VERTEX
  5
101DC
  8
0
 10
-1924.53989197395
 20
-188.943150962773
 30
0.0
  0
VERTEX
  5
101DD
  8
0
 10
-2368.539891973951
 20
-188.943150962773
 30
0.0
  0
SEQEND
  5
103B1
  8
0
  0
POLYLINE
  5
372
  8
0
 66
     1
 10
0.0
 20
0.0
 30
0.0
 70
     1
  0
VERTEX
  5
101DE
  8
0
 10
-1906.53989197395
 20
-178.9431509627731
 30
0.0
  0
VERTEX
  5
101DF
  8
0
 10
-1906.53989197395
 20
-168.9430385849136
 30
0.0
  0
VERTEX
  5
101E0
  8
0
 10
-2141.53989197395
 20
-168.9430385849136
 30
0.0
  0
VERTEX
  5
101E1
  8
0
 10
-2141.53989197395
 20
-178.9431509627733
 30
0.0
  0
SEQEND
  5
103B2
  8
0
  0
POLYLINE
  5
373
  8
0
 66
     1
 10
0.0
 20
0.0
 30
0.0
 70
     1
  0
VERTEX
  5
101E2
  8
0
 10
-2151.53989197395
 20
-138.9431936869371
 30
0.0
  0
VERTEX
  5
101E3
  8
0
 10
-2151.53989197395
 20
-128.9431941490261
 30
0.0
  0
VERTEX
  5
101E4
  8
0
 10
-2386.53989197395
 20
-128.9431941490261
 30
0.0
  0
VERTEX
  5
101E5
  8
0
 10
-2386.53989197395
 20
-138.9431936869374
 30
0.0
  0
SEQEND
  5
103B3
  8
0
  0
POLYLINE
  5
374
  8
0
 66
     1
 10
0.0
 20
0.0
 30
0.0
 70
     1
  0
VERTEX
  5
101E6
  8
0
 10
-2368.539891973951
 20
-158.9431509601323
 30
0.0
  0
VERTEX
  5
101E7
  8
0
 10
-1924.53989197395
 20
-158.9431509601327
 30
0.0
  0
VERTEX
  5
101E8
  8
0
 10
-1924.53989197395
 20
-148.943150962773
 30
0.0
  0
VERTEX
  5
101E9
  8
0
 10
-2368.539891973951
 20
-148.943150962773
 30
0.0
  0
SEQEND
  5
103B4
  8
0
  0
POLYLINE
  5
375
  8
0
 66
     1
 10
0.0
 20
0.0
 30
0.0
 70
     1
  0
VERTEX
  5
101EA
  8
0
 10
-1906.53989197395
 20
-98.9431509627731
 30
0.0
  0
VERTEX
  5
101EB
  8
0
 10
-1906.53989197395
 20
-88.94303858491362
 30
0.0
  0
VERTEX
  5
101EC
  8
0
 10
-2141.53989197395
 20
-88.94303858491362
 30
0.0
  0
VERTEX
  5
101ED
  8
0
 10
-2141.53989197395
 20
-98.94315096277325
 30
0.0
  0
SEQEND
  5
103B5
  8
0
  0
POLYLINE
  5
376
  8
0
 66
     1
 10
0.0
 20
0.0
 30
0.0
 70
     1
  0
VERTEX
  5
101EE
  8
0
 10
-2151.53989197395
 20
-338.9431936869371
 30
0.0
  0
VERTEX
  5
101EF
  8
0
 10
-2151.53989197395
 20
-328.9431941490261
 30
0.0
  0
VERTEX
  5
101F0
  8
0
 10
-2386.53989197395
 20
-328.9431941490261
 30
0.0
  0
VERTEX
  5
101F1
  8
0
 10
-2386.53989197395
 20
-338.9431936869375
 30
0.0
  0
SEQEND
  5
103B6
  8
0
  0
POLYLINE
  5
377
  8
0
 66
     1
 10
0.0
 20
0.0
 30
0.0
 70
     1
  0
VERTEX
  5
101F2
  8
0
 10
-1906.53989197395
 20
-378.9431509627731
 30
0.0
  0
VERTEX
  5
101F3
  8
0
 10
-1906.53989197395
 20
-368.9430385849136
 30
0.0
  0
VERTEX
  5
101F4
  8
0
 10
-2141.53989197395
 20
-368.9430385849136
 30
0.0
  0
VERTEX
  5
101F5
  8
0
 10
-2141.53989197395
 20
-378.9431509627732
 30
0.0
  0
SEQEND
  5
103B7
  8
0
  0
POLYLINE
  5
378
  8
0
 66
     1
 10
0.0
 20
0.0
 30
0.0
 70
     1
  0
VERTEX
  5
101F6
  8
0
 10
-2368.539891973951
 20
-398.9431509601322
 30
0.0
  0
VERTEX
  5
101F7
  8
0
 10
-1924.53989197395
 20
-398.9431509601326
 30
0.0
  0
VERTEX
  5
101F8
  8
0
 10
-1924.53989197395
 20
-388.943150962773
 30
0.0
  0
VERTEX
  5
101F9
  8
0
 10
-2368.539891973951
 20
-388.943150962773
 30
0.0
  0
SEQEND
  5
103B8
  8
0
  0
POLYLINE
  5
379
  8
0
 66
     1
 10
0.0
 20
0.0
 30
0.0
 70
     1
  0
VERTEX
  5
101FA
  8
0
 10
-2151.53989197395
 20
-378.9431936869371
 30
0.0
  0
VERTEX
  5
101FB
  8
0
 10
-2151.53989197395
 20
-368.9431941490261
 30
0.0
  0
VERTEX
  5
101FC
  8
0
 10
-2386.53989197395
 20
-368.9431941490261
 30
0.0
  0
VERTEX
  5
101FD
  8
0
 10
-2386.53989197395
 20
-378.9431936869375
 30
0.0
  0
SEQEND
  5
103B9
  8
0
  0
POLYLINE
  5
380
  8
0
 66
     1
 10
0.0
 20
0.0
 30
0.0
 70
     1
  0
VERTEX
  5
101FE
  8
0
 10
-1906.53989197395
 20
-418.9431509627731
 30
0.0
  0
VERTEX
  5
101FF
  8
0
 10
-1906.53989197395
 20
-408.9430385849136
 30
0.0
  0
VERTEX
  5
10200
  8
0
 10
-2141.53989197395
 20
-408.9430385849136
 30
0.0
  0
VERTEX
  5
10201
  8
0
 10
-2141.53989197395
 20
-418.9431509627732
 30
0.0
  0
SEQEND
  5
103BA
  8
0
  0
POLYLINE
  5
381
  8
0
 66
     1
 10
0.0
 20
0.0
 30
0.0
 70
     1
  0
VERTEX
  5
10202
  8
0
 10
-2368.539891973951
 20
-438.9431509601322
 30
0.0
  0
VERTEX
  5
10203
  8
0
 10
-1924.53989197395
 20
-438.9431509601326
 30
0.0
  0
VERTEX
  5
10204
  8
0
 10
-1924.53989197395
 20
-428.943150962773
 30
0.0
  0
VERTEX
  5
10205
  8
0
 10
-2368.539891973951
 20
-428.943150962773
 30
0.0
  0
SEQEND
  5
103BB
  8
0
  0
POLYLINE
  5
382
  8
0
 66
     1
 10
0.0
 20
0.0
 30
0.0
 70
     1
  0
VERTEX
  5
10206
  8
0
 10
-2151.53989197395
 20
-418.9431936869371
 30
0.0
  0
VERTEX
  5
10207
  8
0
 10
-2151.53989197395
 20
-408.9431941490261
 30
0.0
  0
VERTEX
  5
10208
  8
0
 10
-2386.53989197395
 20
-408.9431941490261
 30
0.0
  0
VERTEX
  5
10209
  8
0
 10
-2386.53989197395
 20
-418.9431936869375
 30
0.0
  0
SEQEND
  5
103BC
  8
0
  0
POLYLINE
  5
383
  8
0
 66
     1
 10
0.0
 20
0.0
 30
0.0
 70
     1
  0
VERTEX
  5
1020A
  8
0
 10
-1906.53989197395
 20
-458.9431509627731
 30
0.0
  0
VERTEX
  5
1020B
  8
0
 10
-1906.53989197395
 20
-448.9430385849136
 30
0.0
  0
VERTEX
  5
1020C
  8
0
 10
-2141.53989197395
 20
-448.9430385849136
 30
0.0
  0
VERTEX
  5
1020D
  8
0
 10
-2141.53989197395
 20
-458.9431509627732
 30
0.0
  0
SEQEND
  5
103BD
  8
0
  0
POLYLINE
  5
384
  8
0
 66
     1
 10
0.0
 20
0.0
 30
0.0
 70
     1
  0
VERTEX
  5
1020E
  8
0
 10
-2368.539891973951
 20
-478.9431509601322
 30
0.0
  0
VERTEX
  5
1020F
  8
0
 10
-1924.53989197395
 20
-478.9431509601326
 30
0.0
  0
VERTEX
  5
10210
  8
0
 10
-1924.53989197395
 20
-468.943150962773
 30
0.0
  0
VERTEX
  5
10211
  8
0
 10
-2368.539891973951
 20
-468.943150962773
 30
0.0
  0
SEQEND
  5
103BE
  8
0
  0
POLYLINE
  5
385
  8
0
 66
     1
 10
0.0
 20
0.0
 30
0.0
 70
     1
  0
VERTEX
  5
10212
  8
0
 10
-2151.53989197395
 20
-458.9431936869371
 30
0.0
  0
VERTEX
  5
10213
  8
0
 10
-2151.53989197395
 20
-448.9431941490261
 30
0.0
  0
VERTEX
  5
10214
  8
0
 10
-2386.53989197395
 20
-448.9431941490261
 30
0.0
  0
VERTEX
  5
10215
  8
0
 10
-2386.53989197395
 20
-458.9431936869375
 30
0.0
  0
SEQEND
  5
103BF
  8
0
  0
POLYLINE
  5
386
  8
0
 66
     1
 10
0.0
 20
0.0
 30
0.0
 70
     1
  0
VERTEX
  5
10216
  8
0
 10
-1906.53989197395
 20
-498.9431509627731
 30
0.0
  0
VERTEX
  5
10217
  8
0
 10
-1906.53989197395
 20
-488.9430385849136
 30
0.0
  0
VERTEX
  5
10218
  8
0
 10
-2141.53989197395
 20
-488.9430385849136
 30
0.0
  0
VERTEX
  5
10219
  8
0
 10
-2141.53989197395
 20
-498.9431509627732
 30
0.0
  0
SEQEND
  5
103C0
  8
0
  0
POLYLINE
  5
387
  8
0
 66
     1
 10
0.0
 20
0.0
 30
0.0
 70
     1
  0
VERTEX
  5
1021A
  8
0
 10
-2368.539891973951
 20
-518.9431509601322
 30
0.0
  0
VERTEX
  5
1021B
  8
0
 10
-1924.53989197395
 20
-518.9431509601327
 30
0.0
  0
VERTEX
  5
1021C
  8
0
 10
-1924.53989197395
 20
-508.943150962773
 30
0.0
  0
VERTEX
  5
1021D
  8
0
 10
-2368.539891973951
 20
-508.943150962773
 30
0.0
  0
SEQEND
  5
103C1
  8
0
  0
POLYLINE
  5
388
  8
0
 66
     1
 10
0.0
 20
0.0
 30
0.0
 70
     1
  0
VERTEX
  5
1021E
  8
0
 10
-2151.53989197395
 20
-498.9431936869371
 30
0.0
  0
VERTEX
  5
1021F
  8
0
 10
-2151.53989197395
 20
-488.9431941490261
 30
0.0
  0
VERTEX
  5
10220
  8
0
 10
-2386.53989197395
 20
-488.9431941490261
 30
0.0
  0
VERTEX
  5
10221
  8
0
 10
-2386.53989197395
 20
-498.9431936869375
 30
0.0
  0
SEQEND
  5
103C2
  8
0
  0
POLYLINE
  5
389
  8
0
 66
     1
 10
0.0
 20
0.0
 30
0.0
 70
     1
  0
VERTEX
  5
10222
  8
0
 10
-1906.53989197395
 20
-538.9431509627731
 30
0.0
  0
VERTEX
  5
10223
  8
0
 10
-1906.53989197395
 20
-528.9430385849137
 30
0.0
  0
VERTEX
  5
10224
  8
0
 10
-2141.53989197395
 20
-528.9430385849137
 30
0.0
  0
VERTEX
  5
10225
  8
0
 10
-2141.53989197395
 20
-538.9431509627732
 30
0.0
  0
SEQEND
  5
103C3
  8
0
  0
POLYLINE
  5
390
  8
0
 66
     1
 10
0.0
 20
0.0
 30
0.0
 70
     1
  0
VERTEX
  5
10226
  8
0
 10
-2368.539891973951
 20
-558.9431509601322
 30
0.0
  0
VERTEX
  5
10227
  8
0
 10
-1924.53989197395
 20
-558.9431509601327
 30
0.0
  0
VERTEX
  5
10228
  8
0
 10
-1924.53989197395
 20
-548.943150962773
 30
0.0
  0
VERTEX
  5
10229
  8
0
 10
-2368.539891973951
 20
-548.943150962773
 30
0.0
  0
SEQEND
  5
103C4
  8
0
  0
POLYLINE
  5
391
  8
0
 66
     1
 10
0.0
 20
0.0
 30
0.0
 70
     1
  0
VERTEX
  5
1022A
  8
0
 10
-2151.53989197395
 20
-538.9431936869371
 30
0.0
  0
VERTEX
  5
1022B
  8
0
 10
-2151.53989197395
 20
-528.943194149026
 30
0.0
  0
VERTEX
  5
1022C
  8
0
 10
-2386.53989197395
 20
-528.943194149026
 30
0.0
  0
VERTEX
  5
1022D
  8
0
 10
-2386.53989197395
 20
-538.9431936869375
 30
0.0
  0
SEQEND
  5
103C5
  8
0
  0
POLYLINE
  5
392
  8
0
 66
     1
 10
0.0
 20
0.0
 30
0.0
 70
     1
  0
VERTEX
  5
1022E
  8
0
 10
-1906.53989197395
 20
-578.9431509627731
 30
0.0
  0
VERTEX
  5
1022F
  8
0
 10
-1906.53989197395
 20
-568.9430385849137
 30
0.0
  0
VERTEX
  5
10230
  8
0
 10
-2141.53989197395
 20
-568.9430385849137
 30
0.0
  0
VERTEX
  5
10231
  8
0
 10
-2141.53989197395
 20
-578.9431509627732
 30
0.0
  0
SEQEND
  5
103C6
  8
0
  0
POLYLINE
  5
393
  8
0
 66
     1
 10
0.0
 20
0.0
 30
0.0
 70
     1
  0
VERTEX
  5
10232
  8
0
 10
-2368.539891973951
 20
-598.9431509601322
 30
0.0
  0
VERTEX
  5
10233
  8
0
 10
-1924.53989197395
 20
-598.9431509601327
 30
0.0
  0
VERTEX
  5
10234
  8
0
 10
-1924.53989197395
 20
-588.943150962773
 30
0.0
  0
VERTEX
  5
10235
  8
0
 10
-2368.539891973951
 20
-588.943150962773
 30
0.0
  0
SEQEND
  5
103C7
  8
0
  0
POLYLINE
  5
394
  8
0
 66
     1
 10
0.0
 20
0.0
 30
0.0
 70
     1
  0
VERTEX
  5
10236
  8
0
 10
-2151.53989197395
 20
-578.9431936869371
 30
0.0
  0
VERTEX
  5
10237
  8
0
 10
-2151.53989197395
 20
-568.943194149026
 30
0.0
  0
VERTEX
  5
10238
  8
0
 10
-2386.53989197395
 20
-568.943194149026
 30
0.0
  0
VERTEX
  5
10239
  8
0
 10
-2386.53989197395
 20
-578.9431936869375
 30
0.0
  0
SEQEND
  5
103C8
  8
0
  0
LINE
  5
395
  8
0
 10
-2171.71289197395
 20
-856.468376764785
 30
-0.0000000000000022
 11
-2161.712891974232
 21
-883.9431509594385
 31
-0.0000000000000022
  0
LINE
  5
396
  8
0
 10
-2131.712891974232
 20
-883.9431509597448
 30
0.0
 11
-2121.712891973951
 21
-856.468376765296
 31
0.0
  0
LINE
  5
397
  8
0
 10
-2121.712891973951
 20
-856.468376765296
 30
0.0
 11
-2171.71289197395
 21
-856.468376764785
 31
-0.0000000000000022
  0
LINE
  5
398
  8
0
 10
-2073.12639197395
 20
-856.4683767647848
 30
-0.0000000000000022
 11
-2063.126391974232
 21
-883.9431509594385
 31
-0.0000000000000022
  0
LINE
  5
399
  8
0
 10
-2033.126391974232
 20
-883.9431509597448
 30
0.0000000000000022
 11
-2023.126391973951
 21
-856.4683767652962
 31
0.0000000000000022
  0
LINE
  5
400
  8
0
 10
-2023.126391973951
 20
-856.4683767652962
 30
0.0000000000000022
 11
-2073.12639197395
 21
-856.4683767647848
 31
-0.0000000000000022
  0
LINE
  5
401
  8
0
 10
-2270.29939197395
 20
-856.4683767647848
 30
-0.0000000000000022
 11
-2260.299391974232
 21
-883.9431509594385
 31
-0.0000000000000022
  0
LINE
  5
402
  8
0
 10
-2230.299391974232
 20
-883.9431509597449
 30
0.0000000000000022
 11
-2220.299391973951
 21
-856.4683767652962
 31
0.0000000000000022
  0
LINE
  5
403
  8
0
 10
-2220.299391973951
 20
-856.4683767652962
 30
0.0000000000000022
 11
-2270.29939197395
 21
-856.4683767647848
 31
-0.0000000000000022
  0
LINE
  5
404
  8
0
 10
-1974.53989197395
 20
-856.468376764785
 30
-0.0000000000000022
 11
-1964.539891974232
 21
-883.9431509594385
 31
-0.0000000000000022
  0
LINE
  5
405
  8
0
 10
-1934.539891974232
 20
-883.9431509597448
 30
0.0000000000000022
 11
-1924.539891973951
 21
-856.4683767652962
 31
0.0000000000000022
  0
LINE
  5
406
  8
0
 10
-1924.539891973951
 20
-856.4683767652962
 30
0.0000000000000022
 11
-1974.53989197395
 21
-856.468376764785
 31
-0.0000000000000022
  0
LINE
  5
407
  8
0
 10
-2368.88589197395
 20
-856.4683767647848
 30
-0.0000000000000022
 11
-2358.885891974232
 21
-883.9431509594385
 31
-0.0000000000000022
  0
LINE
  5
408
  8
0
 10
-2328.885891974232
 20
-883.9431509597448
 30
0.0000000000000022
 11
-2318.885891973951
 21
-856.4683767652962
 31
0.0000000000000022
  0
LINE
  5
409
  8
0
 10
-2318.885891973951
 20
-856.4683767652962
 30
0.0000000000000022
 11
-2368.88589197395
 21
-856.4683767647848
 31
-0.0000000000000022
  0
LINE
  5
410
  8
0
 10
-2358.885891974232
 20
-883.9431509554076
 30
0.0
 11
-2396.539891973951
 21
-883.9431509550228
 31
0.0
  0
LINE
  5
411
  8
0
 10
-1896.53989197436
 20
-883.9431509601336
 30
0.0
 11
-1934.539891974232
 21
-883.9431509597448
 31
0.0000000000000022
  0
LINE
  5
412
  8
0
 10
-2260.299391974232
 20
-883.9431509564155
 30
0.0
 11
-2328.885891974232
 21
-883.9431509557143
 31
0.0
  0
LINE
  5
413
  8
0
 10
-1964.539891974232
 20
-883.9431509594385
 30
-0.0000000000000022
 11
-2033.126391974232
 21
-883.9431509587375
 31
0.0
  0
LINE
  5
414
  8
0
 10
-2063.126391974232
 20
-883.9431509584308
 30
0.0
 11
-2131.712891974232
 21
-883.9431509577297
 31
0.0
  0
LINE
  5
415
  8
0
 10
-1924.539888862244
 20
103.5316174182428
 30
0.0
 11
-1934.539888862525
 21
76.05684322379416
 31
0.0
  0
LINE
  5
416
  8
0
 10
-1974.539888862243
 20
103.5316174187541
 30
0.0
 11
-1924.539888862244
 21
103.5316174182428
 31
0.0
  0
LINE
  5
417
  8
0
 10
-1964.539888862525
 20
76.0568432241004
 30
0.0
 11
-1974.539888862243
 21
103.5316174187541
 31
0.0
  0
LINE
  5
418
  8
0
 10
-1896.53989197395
 20
76.05684903458615
 30
0.0
 11
-1934.539888862525
 21
76.0568457875501
 31
0.0
  0
LINE
  5
419
  8
0
 10
-1964.539888862525
 20
76.0568432241004
 30
0.0
 11
-2033.126388862524
 21
76.05683736349891
 31
0.0
  0
LINE
  5
420
  8
0
 10
-2318.885888862241
 20
103.531583722038
 30
0.0
 11
-2328.885888862522
 21
76.0568095275894
 31
0.0
  0
LINE
  5
421
  8
0
 10
-2368.885888862241
 20
103.5315837225493
 30
0.0
 11
-2318.885888862241
 21
103.531583722038
 31
0.0
  0
LINE
  5
422
  8
0
 10
-2358.885888862522
 20
76.05680952789564
 30
0.0
 11
-2368.885888862241
 21
103.5315837225493
 31
0.0
  0
LINE
  5
423
  8
0
 10
-2260.299388862523
 20
76.05681795194683
 30
0.0
 11
-2328.885888862523
 21
76.05681209134536
 31
0.0
  0
LINE
  5
424
  8
0
 10
-2358.885888862522
 20
76.05680952789564
 30
0.0
 11
-2396.53989197395
 21
76.0568063104242
 31
0.0
  0
LINE
  5
425
  8
0
 10
-2023.126388862243
 20
103.5316089941916
 30
0.0
 11
-2033.126388862524
 21
76.05683479974297
 31
0.0
  0
LINE
  5
426
  8
0
 10
-2073.126388862242
 20
103.5316089947029
 30
0.0
 11
-2023.126388862243
 21
103.5316089941916
 31
0.0
  0
LINE
  5
427
  8
0
 10
-2063.126388862524
 20
76.05683480004922
 30
0.0
 11
-2073.126388862242
 21
103.5316089947029
 31
0.0
  0
LINE
  5
428
  8
0
 10
-2063.126388862524
 20
76.05683480004922
 30
0.0
 11
-2131.712888862523
 21
76.05682893944773
 31
0.0
  0
LINE
  5
429
  8
0
 10
-2220.299388862241
 20
103.5315921460892
 30
0.0
 11
-2230.299388862523
 21
76.05681795164058
 31
0.0
  0
LINE
  5
430
  8
0
 10
-2270.299388862241
 20
103.5315921466005
 30
0.0
 11
-2220.299388862241
 21
103.5315921460892
 31
0.0
  0
LINE
  5
431
  8
0
 10
-2260.299388862523
 20
76.05681795194683
 30
0.0
 11
-2270.299388862241
 21
103.5315921466005
 31
0.0
  0
LINE
  5
432
  8
0
 10
-2161.712888862523
 20
76.05682637599801
 30
0.0
 11
-2230.299388862523
 21
76.05682051539654
 31
0.0
  0
LINE
  5
433
  8
0
 10
-2121.712888862242
 20
103.5316005701404
 30
0.0
 11
-2131.712888862523
 21
76.05682637569177
 31
0.0
  0
LINE
  5
434
  8
0
 10
-2171.712888862242
 20
103.5316005706517
 30
0.0
 11
-2121.712888862242
 21
103.5316005701404
 31
0.0
  0
LINE
  5
435
  8
0
 10
-2161.712888862523
 20
76.05682637599801
 30
0.0
 11
-2171.712888862242
 21
103.5316005706517
 31
0.0
  0
POLYLINE
  5
436
  8
0
 66
     1
 10
0.0
 20
0.0
 30
0.0
 70
     1
  0
VERTEX
  5
1023A
  8
0
 10
-2151.53989197395
 20
-608.943194149026
 30
0.0
  0
VERTEX
  5
1023B
  8
0
 10
-2386.53989197395
 20
-608.943194149026
 30
0.0
  0
VERTEX
  5
1023C
  8
0
 10
-2386.53989197395
 20
-618.9431936869375
 30
0.0
  0
VERTEX
  5
1023D
  8
0
 10
-2151.53989197395
 20
-618.9431936869371
 30
0.0
  0
SEQEND
  5
103C9
  8
0
  0
POLYLINE
  5
437
  8
0
 66
     1
 10
0.0
 20
0.0
 30
0.0
 70
     1
  0
VERTEX
  5
1023E
  8
0
 10
-2151.53989197395
 20
-648.943194149026
 30
0.0
  0
VERTEX
  5
1023F
  8
0
 10
-2386.53989197395
 20
-648.943194149026
 30
0.0
  0
VERTEX
  5
10240
  8
0
 10
-2386.53989197395
 20
-658.9431936869374
 30
0.0
  0
VERTEX
  5
10241
  8
0
 10
-2151.53989197395
 20
-658.943193686937
 30
0.0
  0
SEQEND
  5
103CA
  8
0
  0
POLYLINE
  5
438
  8
0
 66
     1
 10
0.0
 20
0.0
 30
0.0
 70
     1
  0
VERTEX
  5
10242
  8
0
 10
-1906.53989197395
 20
-688.9430385849136
 30
0.0
  0
VERTEX
  5
10243
  8
0
 10
-2141.53989197395
 20
-688.9430385849136
 30
0.0
  0
VERTEX
  5
10244
  8
0
 10
-2141.53989197395
 20
-698.9431509627732
 30
0.0
  0
VERTEX
  5
10245
  8
0
 10
-1906.53989197395
 20
-698.9431509627731
 30
0.0
  0
SEQEND
  5
103CB
  8
0
  0
POLYLINE
  5
439
  8
0
 66
     1
 10
0.0
 20
0.0
 30
0.0
 70
     1
  0
VERTEX
  5
10246
  8
0
 10
-1906.53989197395
 20
-648.9430385849136
 30
0.0
  0
VERTEX
  5
10247
  8
0
 10
-2141.53989197395
 20
-648.9430385849136
 30
0.0
  0
VERTEX
  5
10248
  8
0
 10
-2141.53989197395
 20
-658.9431509627732
 30
0.0
  0
VERTEX
  5
10249
  8
0
 10
-1906.53989197395
 20
-658.9431509627731
 30
0.0
  0
SEQEND
  5
103CC
  8
0
  0
POLYLINE
  5
440
  8
0
 66
     1
 10
0.0
 20
0.0
 30
0.0
 70
     1
  0
VERTEX
  5
1024A
  8
0
 10
-1924.53989197395
 20
-678.9431509601327
 30
0.0
  0
VERTEX
  5
1024B
  8
0
 10
-1924.53989197395
 20
-668.943150962773
 30
0.0
  0
VERTEX
  5
1024C
  8
0
 10
-2368.539891973951
 20
-668.943150962773
 30
0.0
  0
VERTEX
  5
1024D
  8
0
 10
-2368.539891973951
 20
-678.9431509601322
 30
0.0
  0
SEQEND
  5
103CD
  8
0
  0
POLYLINE
  5
441
  8
0
 66
     1
 10
0.0
 20
0.0
 30
0.0
 70
     1
  0
VERTEX
  5
1024E
  8
0
 10
-1924.53989197395
 20
-838.9431509601327
 30
0.0
  0
VERTEX
  5
1024F
  8
0
 10
-1924.53989197395
 20
-828.943150962773
 30
0.0
  0
VERTEX
  5
10250
  8
0
 10
-2368.539891973951
 20
-828.943150962773
 30
0.0
  0
VERTEX
  5
10251
  8
0
 10
-2368.539891973951
 20
-838.9431509601322
 30
0.0
  0
SEQEND
  5
103CE
  8
0
  0
POLYLINE
  5
442
  8
0
 66
     1
 10
0.0
 20
0.0
 30
0.0
 70
     1
  0
VERTEX
  5
10252
  8
0
 10
-2151.53989197395
 20
-808.943194149026
 30
0.0
  0
VERTEX
  5
10253
  8
0
 10
-2386.53989197395
 20
-808.943194149026
 30
0.0
  0
VERTEX
  5
10254
  8
0
 10
-2386.53989197395
 20
-818.9431936869374
 30
0.0
  0
VERTEX
  5
10255
  8
0
 10
-2151.53989197395
 20
-818.943193686937
 30
0.0
  0
SEQEND
  5
103CF
  8
0
  0
POLYLINE
  5
443
  8
0
 66
     1
 10
0.0
 20
0.0
 30
0.0
 70
     1
  0
VERTEX
  5
10256
  8
0
 10
-1906.53989197395
 20
-608.9430385849137
 30
0.0
  0
VERTEX
  5
10257
  8
0
 10
-2141.53989197395
 20
-608.9430385849137
 30
0.0
  0
VERTEX
  5
10258
  8
0
 10
-2141.53989197395
 20
-618.9431509627732
 30
0.0
  0
VERTEX
  5
10259
  8
0
 10
-1906.53989197395
 20
-618.9431509627731
 30
0.0
  0
SEQEND
  5
103D0
  8
0
  0
POLYLINE
  5
444
  8
0
 66
     1
 10
0.0
 20
0.0
 30
0.0
 70
     1
  0
VERTEX
  5
1025A
  8
0
 10
-1924.53989197395
 20
-758.9431509601327
 30
0.0
  0
VERTEX
  5
1025B
  8
0
 10
-1924.53989197395
 20
-748.943150962773
 30
0.0
  0
VERTEX
  5
1025C
  8
0
 10
-2368.539891973951
 20
-748.943150962773
 30
0.0
  0
VERTEX
  5
1025D
  8
0
 10
-2368.539891973951
 20
-758.9431509601322
 30
0.0
  0
SEQEND
  5
103D1
  8
0
  0
POLYLINE
  5
445
  8
0
 66
     1
 10
0.0
 20
0.0
 30
0.0
 70
     1
  0
VERTEX
  5
1025E
  8
0
 10
-1906.53989197395
 20
-728.9430385849136
 30
0.0
  0
VERTEX
  5
1025F
  8
0
 10
-2141.53989197395
 20
-728.9430385849136
 30
0.0
  0
VERTEX
  5
10260
  8
0
 10
-2141.53989197395
 20
-738.9431509627732
 30
0.0
  0
VERTEX
  5
10261
  8
0
 10
-1906.53989197395
 20
-738.9431509627731
 30
0.0
  0
SEQEND
  5
103D2
  8
0
  0
POLYLINE
  5
446
  8
0
 66
     1
 10
0.0
 20
0.0
 30
0.0
 70
     1
  0
VERTEX
  5
10262
  8
0
 10
-1924.53989197395
 20
-798.9431509601327
 30
0.0
  0
VERTEX
  5
10263
  8
0
 10
-1924.53989197395
 20
-788.943150962773
 30
0.0
  0
VERTEX
  5
10264
  8
0
 10
-2368.539891973951
 20
-788.943150962773
 30
0.0
  0
VERTEX
  5
10265
  8
0
 10
-2368.539891973951
 20
-798.9431509601322
 30
0.0
  0
SEQEND
  5
103D3
  8
0
  0
POLYLINE
  5
447
  8
0
 66
     1
 10
0.0
 20
0.0
 30
0.0
 70
     1
  0
VERTEX
  5
10266
  8
0
 10
-2151.53989197395
 20
-688.943194149026
 30
0.0
  0
VERTEX
  5
10267
  8
0
 10
-2386.53989197395
 20
-688.943194149026
 30
0.0
  0
VERTEX
  5
10268
  8
0
 10
-2386.53989197395
 20
-698.9431936869374
 30
0.0
  0
VERTEX
  5
10269
  8
0
 10
-2151.53989197395
 20
-698.943193686937
 30
0.0
  0
SEQEND
  5
103D4
  8
0
  0
POLYLINE
  5
448
  8
0
 66
     1
 10
0.0
 20
0.0
 30
0.0
 70
     1
  0
VERTEX
  5
1026A
  8
0
 10
-1924.53989197395
 20
-718.9431509601327
 30
0.0
  0
VERTEX
  5
1026B
  8
0
 10
-1924.53989197395
 20
-708.943150962773
 30
0.0
  0
VERTEX
  5
1026C
  8
0
 10
-2368.539891973951
 20
-708.943150962773
 30
0.0
  0
VERTEX
  5
1026D
  8
0
 10
-2368.539891973951
 20
-718.9431509601322
 30
0.0
  0
SEQEND
  5
103D5
  8
0
  0
POLYLINE
  5
449
  8
0
 66
     1
 10
0.0
 20
0.0
 30
0.0
 70
     1
  0
VERTEX
  5
1026E
  8
0
 10
-1906.53989197395
 20
-768.9430385849136
 30
0.0
  0
VERTEX
  5
1026F
  8
0
 10
-2141.53989197395
 20
-768.9430385849136
 30
0.0
  0
VERTEX
  5
10270
  8
0
 10
-2141.53989197395
 20
-778.9431509627732
 30
0.0
  0
VERTEX
  5
10271
  8
0
 10
-1906.53989197395
 20
-778.9431509627731
 30
0.0
  0
SEQEND
  5
103D6
  8
0
  0
POLYLINE
  5
450
  8
0
 66
     1
 10
0.0
 20
0.0
 30
0.0
 70
     1
  0
VERTEX
  5
10272
  8
0
 10
-1924.53989197395
 20
-638.9431509601327
 30
0.0
  0
VERTEX
  5
10273
  8
0
 10
-1924.53989197395
 20
-628.943150962773
 30
0.0
  0
VERTEX
  5
10274
  8
0
 10
-2368.539891973951
 20
-628.943150962773
 30
0.0
  0
VERTEX
  5
10275
  8
0
 10
-2368.539891973951
 20
-638.9431509601322
 30
0.0
  0
SEQEND
  5
103D7
  8
0
  0
POLYLINE
  5
451
  8
0
 66
     1
 10
0.0
 20
0.0
 30
0.0
 70
     1
  0
VERTEX
  5
10276
  8
0
 10
-2151.53989197395
 20
-768.943194149026
 30
0.0
  0
VERTEX
  5
10277
  8
0
 10
-2386.53989197395
 20
-768.943194149026
 30
0.0
  0
VERTEX
  5
10278
  8
0
 10
-2386.53989197395
 20
-778.9431936869374
 30
0.0
  0
VERTEX
  5
10279
  8
0
 10
-2151.53989197395
 20
-778.943193686937
 30
0.0
  0
SEQEND
  5
103D8
  8
0
  0
POLYLINE
  5
452
  8
0
 66
     1
 10
0.0
 20
0.0
 30
0.0
 70
     1
  0
VERTEX
  5
1027A
  8
0
 10
-2151.53989197395
 20
-728.943194149026
 30
0.0
  0
VERTEX
  5
1027B
  8
0
 10
-2386.53989197395
 20
-728.943194149026
 30
0.0
  0
VERTEX
  5
1027C
  8
0
 10
-2386.53989197395
 20
-738.9431936869374
 30
0.0
  0
VERTEX
  5
1027D
  8
0
 10
-2151.53989197395
 20
-738.943193686937
 30
0.0
  0
SEQEND
  5
103D9
  8
0
  0
POLYLINE
  5
453
  8
0
 66
     1
 10
0.0
 20
0.0
 30
0.0
 70
     1
  0
VERTEX
  5
1027E
  8
0
 10
-1906.53989197395
 20
-808.9430385849136
 30
0.0
  0
VERTEX
  5
1027F
  8
0
 10
-2141.53989197395
 20
-808.9430385849136
 30
0.0
  0
VERTEX
  5
10280
  8
0
 10
-2141.53989197395
 20
-818.9431509627732
 30
0.0
  0
VERTEX
  5
10281
  8
0
 10
-1906.53989197395
 20
-818.9431509627731
 30
0.0
  0
SEQEND
  5
103DA
  8
0
  0
POLYLINE
  5
454
  8
0
 66
     1
 10
0.0
 20
0.0
 30
0.0
 70
     1
  0
VERTEX
  5
10282
  8
0
 10
-1906.53989197395
 20
-128.9430385849136
 30
0.0
  0
VERTEX
  5
10283
  8
0
 10
-2141.53989197395
 20
-128.9430385849136
 30
0.0
  0
VERTEX
  5
10284
  8
0
 10
-2141.53989197395
 20
-138.9431509627733
 30
0.0
  0
VERTEX
  5
10285
  8
0
 10
-1906.53989197395
 20
-138.9431509627731
 30
0.0
  0
SEQEND
  5
103DB
  8
0
  0
POLYLINE
  5
455
  8
0
 66
     1
 10
0.0
 20
0.0
 30
0.0
 70
     1
  0
VERTEX
  5
10286
  8
0
 10
-2368.539891973951
 20
51.05684903722702
 30
0.0
  0
VERTEX
  5
10287
  8
0
 10
-2368.539891973951
 20
41.05684903986774
 30
0.0
  0
VERTEX
  5
10288
  8
0
 10
-1924.53989197395
 20
41.05684903986729
 30
0.0
  0
VERTEX
  5
10289
  8
0
 10
-1924.53989197395
 20
51.05684903722702
 30
0.0
  0
SEQEND
  5
103DC
  8
0
  0
POLYLINE
  5
456
  8
0
 66
     1
 10
0.0
 20
0.0
 30
0.0
 70
     1
  0
VERTEX
  5
1028A
  8
0
 10
-1924.53989197395
 20
-278.9431509601327
 30
0.0
  0
VERTEX
  5
1028B
  8
0
 10
-1924.53989197395
 20
-268.943150962773
 30
0.0
  0
VERTEX
  5
1028C
  8
0
 10
-2368.539891973951
 20
-268.943150962773
 30
0.0
  0
VERTEX
  5
1028D
  8
0
 10
-2368.539891973951
 20
-278.9431509601322
 30
0.0
  0
SEQEND
  5
103DD
  8
0
  0
POLYLINE
  5
457
  8
0
 66
     1
 10
0.0
 20
0.0
 30
0.0
 70
     1
  0
VERTEX
  5
1028E
  8
0
 10
-2151.53989197395
 20
-248.9431941490261
 30
0.0
  0
VERTEX
  5
1028F
  8
0
 10
-2386.53989197395
 20
-248.9431941490261
 30
0.0
  0
VERTEX
  5
10290
  8
0
 10
-2386.53989197395
 20
-258.9431936869374
 30
0.0
  0
VERTEX
  5
10291
  8
0
 10
-2151.53989197395
 20
-258.9431936869371
 30
0.0
  0
SEQEND
  5
103DE
  8
0
  0
POLYLINE
  5
458
  8
0
 66
     1
 10
0.0
 20
0.0
 30
0.0
 70
     1
  0
VERTEX
  5
10292
  8
0
 10
-1906.53989197395
 20
-288.9430385849137
 30
0.0
  0
VERTEX
  5
10293
  8
0
 10
-2141.53989197395
 20
-288.9430385849137
 30
0.0
  0
VERTEX
  5
10294
  8
0
 10
-2141.53989197395
 20
-298.9431509627733
 30
0.0
  0
VERTEX
  5
10295
  8
0
 10
-1906.53989197395
 20
-298.9431509627731
 30
0.0
  0
SEQEND
  5
103DF
  8
0
  0
POLYLINE
  5
459
  8
0
 66
     1
 10
0.0
 20
0.0
 30
0.0
 70
     1
  0
VERTEX
  5
10296
  8
0
 10
-1924.53989197395
 20
-318.9431509601327
 30
0.0
  0
VERTEX
  5
10297
  8
0
 10
-1924.53989197395
 20
-308.943150962773
 30
0.0
  0
VERTEX
  5
10298
  8
0
 10
-2368.539891973951
 20
-308.943150962773
 30
0.0
  0
VERTEX
  5
10299
  8
0
 10
-2368.539891973951
 20
-318.9431509601322
 30
0.0
  0
SEQEND
  5
103E0
  8
0
  0
POLYLINE
  5
460
  8
0
 66
     1
 10
0.0
 20
0.0
 30
0.0
 70
     1
  0
VERTEX
  5
1029A
  8
0
 10
-2151.53989197395
 20
-288.9431941490261
 30
0.0
  0
VERTEX
  5
1029B
  8
0
 10
-2386.53989197395
 20
-288.9431941490261
 30
0.0
  0
VERTEX
  5
1029C
  8
0
 10
-2386.53989197395
 20
-298.9431936869374
 30
0.0
  0
VERTEX
  5
1029D
  8
0
 10
-2151.53989197395
 20
-298.9431936869371
 30
0.0
  0
SEQEND
  5
103E1
  8
0
  0
POLYLINE
  5
461
  8
0
 66
     1
 10
0.0
 20
0.0
 30
0.0
 70
     1
  0
VERTEX
  5
1029E
  8
0
 10
-1906.53989197395
 20
-328.9430385849136
 30
0.0
  0
VERTEX
  5
1029F
  8
0
 10
-2141.53989197395
 20
-328.9430385849136
 30
0.0
  0
VERTEX
  5
102A0
  8
0
 10
-2141.53989197395
 20
-338.9431509627732
 30
0.0
  0
VERTEX
  5
102A1
  8
0
 10
-1906.53989197395
 20
-338.9431509627731
 30
0.0
  0
SEQEND
  5
103E2
  8
0
  0
POLYLINE
  5
462
  8
0
 66
     1
 10
0.0
 20
0.0
 30
0.0
 70
     1
  0
VERTEX
  5
102A2
  8
0
 10
-2151.53989197395
 20
-88.94319414902603
 30
0.0
  0
VERTEX
  5
102A3
  8
0
 10
-2386.53989197395
 20
-88.94319414902603
 30
0.0
  0
VERTEX
  5
102A4
  8
0
 10
-2386.53989197395
 20
-98.94319368693743
 30
0.0
  0
VERTEX
  5
102A5
  8
0
 10
-2151.53989197395
 20
-98.9431936869371
 30
0.0
  0
SEQEND
  5
103E3
  8
0
  0
POLYLINE
  5
463
  8
0
 66
     1
 10
0.0
 20
0.0
 30
0.0
 70
     1
  0
VERTEX
  5
102A6
  8
0
 10
-1924.53989197395
 20
-358.9431509601326
 30
0.0
  0
VERTEX
  5
102A7
  8
0
 10
-1924.53989197395
 20
-348.943150962773
 30
0.0
  0
VERTEX
  5
102A8
  8
0
 10
-2368.539891973951
 20
-348.943150962773
 30
0.0
  0
VERTEX
  5
102A9
  8
0
 10
-2368.539891973951
 20
-358.9431509601322
 30
0.0
  0
SEQEND
  5
103E4
  8
0
  0
POLYLINE
  5
464
  8
0
 66
     1
 10
0.0
 20
0.0
 30
0.0
 70
     1
  0
VERTEX
  5
102AA
  8
0
 10
-1924.53989197395
 20
-118.9431509601327
 30
0.0
  0
VERTEX
  5
102AB
  8
0
 10
-1924.53989197395
 20
-108.943150962773
 30
0.0
  0
VERTEX
  5
102AC
  8
0
 10
-2368.539891973951
 20
-108.943150962773
 30
0.0
  0
VERTEX
  5
102AD
  8
0
 10
-2368.539891973951
 20
-118.9431509601323
 30
0.0
  0
SEQEND
  5
103E5
  8
0
  0
POLYLINE
  5
465
  8
0
 66
     1
 10
0.0
 20
0.0
 30
0.0
 70
     1
  0
VERTEX
  5
102AE
  8
0
 10
-1906.53989197395
 20
31.05696141508637
 30
0.0
  0
VERTEX
  5
102AF
  8
0
 10
-2141.53989197395
 20
31.05696141508637
 30
0.0
  0
VERTEX
  5
102B0
  8
0
 10
-2141.53989197395
 20
21.05684903722674
 30
0.0
  0
VERTEX
  5
102B1
  8
0
 10
-1906.53989197395
 20
21.0568490372269
 30
0.0
  0
SEQEND
  5
103E6
  8
0
  0
POLYLINE
  5
466
  8
0
 66
     1
 10
0.0
 20
0.0
 30
0.0
 70
     1
  0
VERTEX
  5
102B2
  8
0
 10
-1924.53989197395
 20
1.056849039867289
 30
0.0
  0
VERTEX
  5
102B3
  8
0
 10
-1924.53989197395
 20
11.05684903722702
 30
0.0
  0
VERTEX
  5
102B4
  8
0
 10
-2368.539891973951
 20
11.05684903722702
 30
0.0
  0
VERTEX
  5
102B5
  8
0
 10
-2368.539891973951
 20
1.056849039867734
 30
0.0
  0
SEQEND
  5
103E7
  8
0
  0
POLYLINE
  5
467
  8
0
 66
     1
 10
0.0
 20
0.0
 30
0.0
 70
     1
  0
VERTEX
  5
102B6
  8
0
 10
-2151.53989197395
 20
31.05680585097398
 30
0.0
  0
VERTEX
  5
102B7
  8
0
 10
-2386.53989197395
 20
31.05680585097398
 30
0.0
  0
VERTEX
  5
102B8
  8
0
 10
-2386.53989197395
 20
21.05680631306256
 30
0.0
  0
VERTEX
  5
102B9
  8
0
 10
-2151.53989197395
 20
21.05680631306289
 30
0.0
  0
SEQEND
  5
103E8
  8
0
  0
POLYLINE
  5
468
  8
0
 66
     1
 10
0.0
 20
0.0
 30
0.0
 70
     1
  0
VERTEX
  5
102BA
  8
0
 10
-1906.53989197395
 20
-8.943038584913632
 30
0.0
  0
VERTEX
  5
102BB
  8
0
 10
-2141.53989197395
 20
-8.943038584913632
 30
0.0
  0
VERTEX
  5
102BC
  8
0
 10
-2141.53989197395
 20
-18.94315096277326
 30
0.0
  0
VERTEX
  5
102BD
  8
0
 10
-1906.53989197395
 20
-18.9431509627731
 30
0.0
  0
SEQEND
  5
103E9
  8
0
  0
POLYLINE
  5
469
  8
0
 66
     1
 10
0.0
 20
0.0
 30
0.0
 70
     1
  0
VERTEX
  5
102BE
  8
0
 10
-1924.53989197395
 20
-38.94315096013271
 30
0.0
  0
VERTEX
  5
102BF
  8
0
 10
-1924.53989197395
 20
-28.94315096277298
 30
0.0
  0
VERTEX
  5
102C0
  8
0
 10
-2368.539891973951
 20
-28.94315096277298
 30
0.0
  0
VERTEX
  5
102C1
  8
0
 10
-2368.539891973951
 20
-38.94315096013226
 30
0.0
  0
SEQEND
  5
103EA
  8
0
  0
POLYLINE
  5
470
  8
0
 66
     1
 10
0.0
 20
0.0
 30
0.0
 70
     1
  0
VERTEX
  5
102C2
  8
0
 10
-2151.53989197395
 20
-8.943194149026024
 30
0.0
  0
VERTEX
  5
102C3
  8
0
 10
-2386.53989197395
 20
-8.943194149026024
 30
0.0
  0
VERTEX
  5
102C4
  8
0
 10
-2386.53989197395
 20
-18.94319368693744
 30
0.0
  0
VERTEX
  5
102C5
  8
0
 10
-2151.53989197395
 20
-18.9431936869371
 30
0.0
  0
SEQEND
  5
103EB
  8
0
  0
POLYLINE
  5
471
  8
0
 66
     1
 10
0.0
 20
0.0
 30
0.0
 70
     1
  0
VERTEX
  5
102C6
  8
0
 10
-1906.53989197395
 20
-48.94303858491363
 30
0.0
  0
VERTEX
  5
102C7
  8
0
 10
-2141.53989197395
 20
-48.94303858491363
 30
0.0
  0
VERTEX
  5
102C8
  8
0
 10
-2141.53989197395
 20
-58.94315096277326
 30
0.0
  0
VERTEX
  5
102C9
  8
0
 10
-1906.53989197395
 20
-58.9431509627731
 30
0.0
  0
SEQEND
  5
103EC
  8
0
  0
POLYLINE
  5
472
  8
0
 66
     1
 10
0.0
 20
0.0
 30
0.0
 70
     1
  0
VERTEX
  5
102CA
  8
0
 10
-1924.53989197395
 20
-78.94315096013271
 30
0.0
  0
VERTEX
  5
102CB
  8
0
 10
-1924.53989197395
 20
-68.94315096277298
 30
0.0
  0
VERTEX
  5
102CC
  8
0
 10
-2368.539891973951
 20
-68.94315096277298
 30
0.0
  0
VERTEX
  5
102CD
  8
0
 10
-2368.539891973951
 20
-78.94315096013227
 30
0.0
  0
SEQEND
  5
103ED
  8
0
  0
POLYLINE
  5
473
  8
0
 66
     1
 10
0.0
 20
0.0
 30
0.0
 70
     1
  0
VERTEX
  5
102CE
  8
0
 10
-2151.53989197395
 20
-48.94319414902603
 30
0.0
  0
VERTEX
  5
102CF
  8
0
 10
-2386.53989197395
 20
-48.94319414902603
 30
0.0
  0
VERTEX
  5
102D0
  8
0
 10
-2386.53989197395
 20
-58.94319368693744
 30
0.0
  0
VERTEX
  5
102D1
  8
0
 10
-2151.53989197395
 20
-58.94319368693711
 30
0.0
  0
SEQEND
  5
103EE
  8
0
  0
POLYLINE
  5
474
  8
0
 66
     1
 10
0.0
 20
0.0
 30
0.0
 70
     1
  0
VERTEX
  5
102D2
  8
0
 10
-1906.53989197395
 20
-248.9430385849137
 30
0.0
  0
VERTEX
  5
102D3
  8
0
 10
-2141.53989197395
 20
-248.9430385849137
 30
0.0
  0
VERTEX
  5
102D4
  8
0
 10
-2141.53989197395
 20
-258.9431509627733
 30
0.0
  0
VERTEX
  5
102D5
  8
0
 10
-1906.53989197395
 20
-258.9431509627731
 30
0.0
  0
SEQEND
  5
103EF
  8
0
  0
POLYLINE
  5
475
  8
0
 66
     1
 10
0.0
 20
0.0
 30
0.0
 70
     1
  0
VERTEX
  5
102D6
  8
0
 10
-2151.53989197395
 20
-208.9431941490261
 30
0.0
  0
VERTEX
  5
102D7
  8
0
 10
-2386.53989197395
 20
-208.9431941490261
 30
0.0
  0
VERTEX
  5
102D8
  8
0
 10
-2386.53989197395
 20
-218.9431936869374
 30
0.0
  0
VERTEX
  5
102D9
  8
0
 10
-2151.53989197395
 20
-218.9431936869371
 30
0.0
  0
SEQEND
  5
103F0
  8
0
  0
POLYLINE
  5
476
  8
0
 66
     1
 10
0.0
 20
0.0
 30
0.0
 70
     1
  0
VERTEX
  5
102DA
  8
0
 10
-1924.53989197395
 20
-238.9431509601327
 30
0.0
  0
VERTEX
  5
102DB
  8
0
 10
-1924.53989197395
 20
-228.943150962773
 30
0.0
  0
VERTEX
  5
102DC
  8
0
 10
-2368.539891973951
 20
-228.943150962773
 30
0.0
  0
VERTEX
  5
102DD
  8
0
 10
-2368.539891973951
 20
-238.9431509601323
 30
0.0
  0
SEQEND
  5
103F1
  8
0
  0
POLYLINE
  5
477
  8
0
 66
     1
 10
0.0
 20
0.0
 30
0.0
 70
     1
  0
VERTEX
  5
102DE
  8
0
 10
-1906.53989197395
 20
-208.9430385849137
 30
0.0
  0
VERTEX
  5
102DF
  8
0
 10
-2141.53989197395
 20
-208.9430385849137
 30
0.0
  0
VERTEX
  5
102E0
  8
0
 10
-2141.53989197395
 20
-218.9431509627733
 30
0.0
  0
VERTEX
  5
102E1
  8
0
 10
-1906.53989197395
 20
-218.9431509627731
 30
0.0
  0
SEQEND
  5
103F2
  8
0
  0
POLYLINE
  5
478
  8
0
 66
     1
 10
0.0
 20
0.0
 30
0.0
 70
     1
  0
VERTEX
  5
102E2
  8
0
 10
-2151.53989197395
 20
-168.9431941490261
 30
0.0
  0
VERTEX
  5
102E3
  8
0
 10
-2386.53989197395
 20
-168.9431941490261
 30
0.0
  0
VERTEX
  5
102E4
  8
0
 10
-2386.53989197395
 20
-178.9431936869374
 30
0.0
  0
VERTEX
  5
102E5
  8
0
 10
-2151.53989197395
 20
-178.9431936869371
 30
0.0
  0
SEQEND
  5
103F3
  8
0
  0
POLYLINE
  5
479
  8
0
 66
     1
 10
0.0
 20
0.0
 30
0.0
 70
     1
  0
VERTEX
  5
102E6
  8
0
 10
-1924.53989197395
 20
-198.9431509601327
 30
0.0
  0
VERTEX
  5
102E7
  8
0
 10
-1924.53989197395
 20
-188.943150962773
 30
0.0
  0
VERTEX
  5
102E8
  8
0
 10
-2368.539891973951
 20
-188.943150962773
 30
0.0
  0
VERTEX
  5
102E9
  8
0
 10
-2368.539891973951
 20
-198.9431509601323
 30
0.0
  0
SEQEND
  5
103F4
  8
0
  0
POLYLINE
  5
480
  8
0
 66
     1
 10
0.0
 20
0.0
 30
0.0
 70
     1
  0
VERTEX
  5
102EA
  8
0
 10
-1906.53989197395
 20
-168.9430385849137
 30
0.0
  0
VERTEX
  5
102EB
  8
0
 10
-2141.53989197395
 20
-168.9430385849137
 30
0.0
  0
VERTEX
  5
102EC
  8
0
 10
-2141.53989197395
 20
-178.9431509627733
 30
0.0
  0
VERTEX
  5
102ED
  8
0
 10
-1906.53989197395
 20
-178.9431509627731
 30
0.0
  0
SEQEND
  5
103F5
  8
0
  0
POLYLINE
  5
481
  8
0
 66
     1
 10
0.0
 20
0.0
 30
0.0
 70
     1
  0
VERTEX
  5
102EE
  8
0
 10
-2151.53989197395
 20
-128.943194149026
 30
0.0
  0
VERTEX
  5
102EF
  8
0
 10
-2386.53989197395
 20
-128.943194149026
 30
0.0
  0
VERTEX
  5
102F0
  8
0
 10
-2386.53989197395
 20
-138.9431936869374
 30
0.0
  0
VERTEX
  5
102F1
  8
0
 10
-2151.53989197395
 20
-138.9431936869371
 30
0.0
  0
SEQEND
  5
103F6
  8
0
  0
POLYLINE
  5
482
  8
0
 66
     1
 10
0.0
 20
0.0
 30
0.0
 70
     1
  0
VERTEX
  5
102F2
  8
0
 10
-1924.53989197395
 20
-158.9431509601327
 30
0.0
  0
VERTEX
  5
102F3
  8
0
 10
-1924.53989197395
 20
-148.943150962773
 30
0.0
  0
VERTEX
  5
102F4
  8
0
 10
-2368.539891973951
 20
-148.943150962773
 30
0.0
  0
VERTEX
  5
102F5
  8
0
 10
-2368.539891973951
 20
-158.9431509601323
 30
0.0
  0
SEQEND
  5
103F7
  8
0
  0
POLYLINE
  5
483
  8
0
 66
     1
 10
0.0
 20
0.0
 30
0.0
 70
     1
  0
VERTEX
  5
102F6
  8
0
 10
-1906.53989197395
 20
-88.94303858491362
 30
0.0
  0
VERTEX
  5
102F7
  8
0
 10
-2141.53989197395
 20
-88.94303858491362
 30
0.0
  0
VERTEX
  5
102F8
  8
0
 10
-2141.53989197395
 20
-98.94315096277326
 30
0.0
  0
VERTEX
  5
102F9
  8
0
 10
-1906.53989197395
 20
-98.94315096277309
 30
0.0
  0
SEQEND
  5
103F8
  8
0
  0
POLYLINE
  5
484
  8
0
 66
     1
 10
0.0
 20
0.0
 30
0.0
 70
     1
  0
VERTEX
  5
102FA
  8
0
 10
-2151.53989197395
 20
-328.9431941490261
 30
0.0
  0
VERTEX
  5
102FB
  8
0
 10
-2386.53989197395
 20
-328.9431941490261
 30
0.0
  0
VERTEX
  5
102FC
  8
0
 10
-2386.53989197395
 20
-338.9431936869375
 30
0.0
  0
VERTEX
  5
102FD
  8
0
 10
-2151.53989197395
 20
-338.9431936869371
 30
0.0
  0
SEQEND
  5
103F9
  8
0
  0
POLYLINE
  5
485
  8
0
 66
     1
 10
0.0
 20
0.0
 30
0.0
 70
     1
  0
VERTEX
  5
102FE
  8
0
 10
-1906.53989197395
 20
-368.9430385849136
 30
0.0
  0
VERTEX
  5
102FF
  8
0
 10
-2141.53989197395
 20
-368.9430385849136
 30
0.0
  0
VERTEX
  5
10300
  8
0
 10
-2141.53989197395
 20
-378.9431509627732
 30
0.0
  0
VERTEX
  5
10301
  8
0
 10
-1906.53989197395
 20
-378.9431509627731
 30
0.0
  0
SEQEND
  5
103FA
  8
0
  0
POLYLINE
  5
486
  8
0
 66
     1
 10
0.0
 20
0.0
 30
0.0
 70
     1
  0
VERTEX
  5
10302
  8
0
 10
-1924.53989197395
 20
-398.9431509601326
 30
0.0
  0
VERTEX
  5
10303
  8
0
 10
-1924.53989197395
 20
-388.943150962773
 30
0.0
  0
VERTEX
  5
10304
  8
0
 10
-2368.539891973951
 20
-388.943150962773
 30
0.0
  0
VERTEX
  5
10305
  8
0
 10
-2368.539891973951
 20
-398.9431509601322
 30
0.0
  0
SEQEND
  5
103FB
  8
0
  0
POLYLINE
  5
487
  8
0
 66
     1
 10
0.0
 20
0.0
 30
0.0
 70
     1
  0
VERTEX
  5
10306
  8
0
 10
-2151.53989197395
 20
-368.9431941490261
 30
0.0
  0
VERTEX
  5
10307
  8
0
 10
-2386.53989197395
 20
-368.9431941490261
 30
0.0
  0
VERTEX
  5
10308
  8
0
 10
-2386.53989197395
 20
-378.9431936869375
 30
0.0
  0
VERTEX
  5
10309
  8
0
 10
-2151.53989197395
 20
-378.9431936869371
 30
0.0
  0
SEQEND
  5
103FC
  8
0
  0
POLYLINE
  5
488
  8
0
 66
     1
 10
0.0
 20
0.0
 30
0.0
 70
     1
  0
VERTEX
  5
1030A
  8
0
 10
-1906.53989197395
 20
-408.9430385849136
 30
0.0
  0
VERTEX
  5
1030B
  8
0
 10
-2141.53989197395
 20
-408.9430385849136
 30
0.0
  0
VERTEX
  5
1030C
  8
0
 10
-2141.53989197395
 20
-418.9431509627732
 30
0.0
  0
VERTEX
  5
1030D
  8
0
 10
-1906.53989197395
 20
-418.9431509627731
 30
0.0
  0
SEQEND
  5
103FD
  8
0
  0
POLYLINE
  5
489
  8
0
 66
     1
 10
0.0
 20
0.0
 30
0.0
 70
     1
  0
VERTEX
  5
1030E
  8
0
 10
-1924.53989197395
 20
-438.9431509601326
 30
0.0
  0
VERTEX
  5
1030F
  8
0
 10
-1924.53989197395
 20
-428.943150962773
 30
0.0
  0
VERTEX
  5
10310
  8
0
 10
-2368.539891973951
 20
-428.943150962773
 30
0.0
  0
VERTEX
  5
10311
  8
0
 10
-2368.539891973951
 20
-438.9431509601322
 30
0.0
  0
SEQEND
  5
103FE
  8
0
  0
POLYLINE
  5
490
  8
0
 66
     1
 10
0.0
 20
0.0
 30
0.0
 70
     1
  0
VERTEX
  5
10312
  8
0
 10
-2151.53989197395
 20
-408.9431941490261
 30
0.0
  0
VERTEX
  5
10313
  8
0
 10
-2386.53989197395
 20
-408.9431941490261
 30
0.0
  0
VERTEX
  5
10314
  8
0
 10
-2386.53989197395
 20
-418.9431936869375
 30
0.0
  0
VERTEX
  5
10315
  8
0
 10
-2151.53989197395
 20
-418.9431936869371
 30
0.0
  0
SEQEND
  5
103FF
  8
0
  0
POLYLINE
  5
491
  8
0
 66
     1
 10
0.0
 20
0.0
 30
0.0
 70
     1
  0
VERTEX
  5
10316
  8
0
 10
-1906.53989197395
 20
-448.9430385849136
 30
0.0
  0
VERTEX
  5
10317
  8
0
 10
-2141.53989197395
 20
-448.9430385849136
 30
0.0
  0
VERTEX
  5
10318
  8
0
 10
-2141.53989197395
 20
-458.9431509627732
 30
0.0
  0
VERTEX
  5
10319
  8
0
 10
-1906.53989197395
 20
-458.9431509627731
 30
0.0
  0
SEQEND
  5
10400
  8
0
  0
POLYLINE
  5
492
  8
0
 66
     1
 10
0.0
 20
0.0
 30
0.0
 70
     1
  0
VERTEX
  5
1031A
  8
0
 10
-1924.53989197395
 20
-478.9431509601326
 30
0.0
  0
VERTEX
  5
1031B
  8
0
 10
-1924.53989197395
 20
-468.943150962773
 30
0.0
  0
VERTEX
  5
1031C
  8
0
 10
-2368.539891973951
 20
-468.943150962773
 30
0.0
  0
VERTEX
  5
1031D
  8
0
 10
-2368.539891973951
 20
-478.9431509601322
 30
0.0
  0
SEQEND
  5
10401
  8
0
  0
POLYLINE
  5
493
  8
0
 66
     1
 10
0.0
 20
0.0
 30
0.0
 70
     1
  0
VERTEX
  5
1031E
  8
0
 10
-2151.53989197395
 20
-448.9431941490261
 30
0.0
  0
VERTEX
  5
1031F
  8
0
 10
-2386.53989197395
 20
-448.9431941490261
 30
0.0
  0
VERTEX
  5
10320
  8
0
 10
-2386.53989197395
 20
-458.9431936869375
 30
0.0
  0
VERTEX
  5
10321
  8
0
 10
-2151.53989197395
 20
-458.9431936869371
 30
0.0
  0
SEQEND
  5
10402
  8
0
  0
POLYLINE
  5
494
  8
0
 66
     1
 10
0.0
 20
0.0
 30
0.0
 70
     1
  0
VERTEX
  5
10322
  8
0
 10
-1906.53989197395
 20
-488.9430385849136
 30
0.0
  0
VERTEX
  5
10323
  8
0
 10
-2141.53989197395
 20
-488.9430385849136
 30
0.0
  0
VERTEX
  5
10324
  8
0
 10
-2141.53989197395
 20
-498.9431509627732
 30
0.0
  0
VERTEX
  5
10325
  8
0
 10
-1906.53989197395
 20
-498.9431509627731
 30
0.0
  0
SEQEND
  5
10403
  8
0
  0
POLYLINE
  5
495
  8
0
 66
     1
 10
0.0
 20
0.0
 30
0.0
 70
     1
  0
VERTEX
  5
10326
  8
0
 10
-1924.53989197395
 20
-518.9431509601327
 30
0.0
  0
VERTEX
  5
10327
  8
0
 10
-1924.53989197395
 20
-508.943150962773
 30
0.0
  0
VERTEX
  5
10328
  8
0
 10
-2368.539891973951
 20
-508.943150962773
 30
0.0
  0
VERTEX
  5
10329
  8
0
 10
-2368.539891973951
 20
-518.9431509601322
 30
0.0
  0
SEQEND
  5
10404
  8
0
  0
POLYLINE
  5
496
  8
0
 66
     1
 10
0.0
 20
0.0
 30
0.0
 70
     1
  0
VERTEX
  5
1032A
  8
0
 10
-2151.53989197395
 20
-488.9431941490261
 30
0.0
  0
VERTEX
  5
1032B
  8
0
 10
-2386.53989197395
 20
-488.9431941490261
 30
0.0
  0
VERTEX
  5
1032C
  8
0
 10
-2386.53989197395
 20
-498.9431936869375
 30
0.0
  0
VERTEX
  5
1032D
  8
0
 10
-2151.53989197395
 20
-498.9431936869371
 30
0.0
  0
SEQEND
  5
10405
  8
0
  0
POLYLINE
  5
497
  8
0
 66
     1
 10
0.0
 20
0.0
 30
0.0
 70
     1
  0
VERTEX
  5
1032E
  8
0
 10
-1906.53989197395
 20
-528.9430385849137
 30
0.0
  0
VERTEX
  5
1032F
  8
0
 10
-2141.53989197395
 20
-528.9430385849137
 30
0.0
  0
VERTEX
  5
10330
  8
0
 10
-2141.53989197395
 20
-538.9431509627732
 30
0.0
  0
VERTEX
  5
10331
  8
0
 10
-1906.53989197395
 20
-538.9431509627731
 30
0.0
  0
SEQEND
  5
10406
  8
0
  0
POLYLINE
  5
498
  8
0
 66
     1
 10
0.0
 20
0.0
 30
0.0
 70
     1
  0
VERTEX
  5
10332
  8
0
 10
-1924.53989197395
 20
-558.9431509601327
 30
0.0
  0
VERTEX
  5
10333
  8
0
 10
-1924.53989197395
 20
-548.943150962773
 30
0.0
  0
VERTEX
  5
10334
  8
0
 10
-2368.539891973951
 20
-548.943150962773
 30
0.0
  0
VERTEX
  5
10335
  8
0
 10
-2368.539891973951
 20
-558.9431509601322
 30
0.0
  0
SEQEND
  5
10407
  8
0
  0
POLYLINE
  5
499
  8
0
 66
     1
 10
0.0
 20
0.0
 30
0.0
 70
     1
  0
VERTEX
  5
10336
  8
0
 10
-2151.53989197395
 20
-528.943194149026
 30
0.0
  0
VERTEX
  5
10337
  8
0
 10
-2386.53989197395
 20
-528.943194149026
 30
0.0
  0
VERTEX
  5
10338
  8
0
 10
-2386.53989197395
 20
-538.9431936869375
 30
0.0
  0
VERTEX
  5
10339
  8
0
 10
-2151.53989197395
 20
-538.9431936869371
 30
0.0
  0
SEQEND
  5
10408
  8
0
  0
POLYLINE
  5
500
  8
0
 66
     1
 10
0.0
 20
0.0
 30
0.0
 70
     1
  0
VERTEX
  5
1033A
  8
0
 10
-1906.53989197395
 20
-568.9430385849137
 30
0.0
  0
VERTEX
  5
1033B
  8
0
 10
-2141.53989197395
 20
-568.9430385849137
 30
0.0
  0
VERTEX
  5
1033C
  8
0
 10
-2141.53989197395
 20
-578.9431509627732
 30
0.0
  0
VERTEX
  5
1033D
  8
0
 10
-1906.53989197395
 20
-578.9431509627731
 30
0.0
  0
SEQEND
  5
10409
  8
0
  0
POLYLINE
  5
501
  8
0
 66
     1
 10
0.0
 20
0.0
 30
0.0
 70
     1
  0
VERTEX
  5
1033E
  8
0
 10
-1924.53989197395
 20
-598.9431509601327
 30
0.0
  0
VERTEX
  5
1033F
  8
0
 10
-1924.53989197395
 20
-588.943150962773
 30
0.0
  0
VERTEX
  5
10340
  8
0
 10
-2368.539891973951
 20
-588.943150962773
 30
0.0
  0
VERTEX
  5
10341
  8
0
 10
-2368.539891973951
 20
-598.9431509601322
 30
0.0
  0
SEQEND
  5
1040A
  8
0
  0
POLYLINE
  5
502
  8
0
 66
     1
 10
0.0
 20
0.0
 30
0.0
 70
     1
  0
VERTEX
  5
10342
  8
0
 10
-2151.53989197395
 20
-568.943194149026
 30
0.0
  0
VERTEX
  5
10343
  8
0
 10
-2386.53989197395
 20
-568.943194149026
 30
0.0
  0
VERTEX
  5
10344
  8
0
 10
-2386.53989197395
 20
-578.9431936869375
 30
0.0
  0
VERTEX
  5
10345
  8
0
 10
-2151.53989197395
 20
-578.9431936869371
 30
0.0
  0
SEQEND
  5
1040B
  8
0
  0
LINE
  5
503
  8
0
 10
-1896.53989197395
 20
76.05684903458615
 30
0.0
 11
-1896.53989197395
 21
56.05684903722632
 31
0.0
  0
LINE
  5
504
  8
0
 10
-1896.53989197395
 20
56.05684903722632
 30
0.0
 11
-1914.53989197395
 21
56.0568490372263
 31
0.0
  0
LINE
  5
505
  8
0
 10
-1914.53989197395
 20
56.0568490372263
 30
0.0
 11
-1914.53989197395
 21
36.05684903986648
 31
0.0
  0
LINE
  5
506
  8
0
 10
-1914.53989197395
 20
36.05684903986648
 30
0.0
 11
-1896.53989197395
 21
36.05684903986648
 31
0.0
  0
LINE
  5
507
  8
0
 10
-1896.53989197395
 20
36.05684903458615
 30
0.0
 11
-1896.53989197395
 21
16.05684903722632
 31
0.0
  0
LINE
  5
508
  8
0
 10
-1896.53989197395
 20
16.05684903722632
 30
0.0
 11
-1914.53989197395
 21
16.0568490372263
 31
0.0
  0
LINE
  5
509
  8
0
 10
-1914.53989197395
 20
16.0568490372263
 30
0.0
 11
-1914.53989197395
 21
-3.943150960133526
 31
0.0
  0
LINE
  5
510
  8
0
 10
-1914.53989197395
 20
-3.943150960133526
 30
0.0
 11
-1896.53989197395
 21
-3.943150960133512
 31
0.0
  0
LINE
  5
511
  8
0
 10
-1896.53989197395
 20
-3.943150965413853
 30
0.0
 11
-1896.53989197395
 21
-23.94315096277369
 31
0.0
  0
LINE
  5
512
  8
0
 10
-1896.53989197395
 20
-23.94315096277369
 30
0.0
 11
-1914.53989197395
 21
-23.9431509627737
 31
0.0
  0
LINE
  5
513
  8
0
 10
-1914.53989197395
 20
-23.9431509627737
 30
0.0
 11
-1914.53989197395
 21
-43.94315096013352
 31
0.0
  0
LINE
  5
514
  8
0
 10
-1914.53989197395
 20
-43.94315096013352
 30
0.0
 11
-1896.53989197395
 21
-43.94315096013352
 31
0.0
  0
LINE
  5
515
  8
0
 10
-1896.53989197395
 20
-43.94315096541385
 30
0.0
 11
-1896.53989197395
 21
-63.94315096277368
 31
0.0
  0
LINE
  5
516
  8
0
 10
-1896.53989197395
 20
-63.94315096277368
 30
0.0
 11
-1914.53989197395
 21
-63.9431509627737
 31
0.0
  0
LINE
  5
517
  8
0
 10
-1914.53989197395
 20
-63.9431509627737
 30
0.0
 11
-1914.53989197395
 21
-83.94315096013352
 31
0.0
  0
LINE
  5
518
  8
0
 10
-1914.53989197395
 20
-83.94315096013352
 30
0.0
 11
-1896.53989197395
 21
-83.94315096013352
 31
0.0
  0
LINE
  5
519
  8
0
 10
-1896.53989197395
 20
-83.94315096541385
 30
0.0
 11
-1896.53989197395
 21
-103.9431509627737
 31
0.0
  0
LINE
  5
520
  8
0
 10
-1896.53989197395
 20
-103.9431509627737
 30
0.0
 11
-1914.53989197395
 21
-103.9431509627737
 31
0.0
  0
LINE
  5
521
  8
0
 10
-1914.53989197395
 20
-103.9431509627737
 30
0.0
 11
-1914.53989197395
 21
-123.9431509601335
 31
0.0
  0
LINE
  5
522
  8
0
 10
-1914.53989197395
 20
-123.9431509601335
 30
0.0
 11
-1896.53989197395
 21
-123.9431509601335
 31
0.0
  0
LINE
  5
523
  8
0
 10
-1896.53989197395
 20
-123.9431509654138
 30
0.0
 11
-1896.53989197395
 21
-143.9431509627737
 31
0.0
  0
LINE
  5
524
  8
0
 10
-1896.53989197395
 20
-143.9431509627737
 30
0.0
 11
-1914.53989197395
 21
-143.9431509627737
 31
0.0
  0
LINE
  5
525
  8
0
 10
-1914.53989197395
 20
-143.9431509627737
 30
0.0
 11
-1914.53989197395
 21
-163.9431509601336
 31
0.0
  0
LINE
  5
526
  8
0
 10
-1914.53989197395
 20
-163.9431509601336
 30
0.0
 11
-1896.53989197395
 21
-163.9431509601335
 31
0.0
  0
LINE
  5
527
  8
0
 10
-1896.53989197395
 20
-163.9431509654138
 30
0.0
 11
-1896.53989197395
 21
-183.9431509627737
 31
0.0
  0
LINE
  5
528
  8
0
 10
-1896.53989197395
 20
-183.9431509627737
 30
0.0
 11
-1914.53989197395
 21
-183.9431509627737
 31
0.0
  0
LINE
  5
529
  8
0
 10
-1914.53989197395
 20
-183.9431509627737
 30
0.0
 11
-1914.53989197395
 21
-203.9431509601336
 31
0.0
  0
LINE
  5
530
  8
0
 10
-1914.53989197395
 20
-203.9431509601336
 30
0.0
 11
-1896.53989197395
 21
-203.9431509601335
 31
0.0
  0
LINE
  5
531
  8
0
 10
-1896.53989197395
 20
-203.9431509654138
 30
0.0
 11
-1896.53989197395
 21
-223.9431509627737
 31
0.0
  0
LINE
  5
532
  8
0
 10
-1896.53989197395
 20
-223.9431509627737
 30
0.0
 11
-1914.53989197395
 21
-223.9431509627737
 31
0.0
  0
LINE
  5
533
  8
0
 10
-1914.53989197395
 20
-223.9431509627737
 30
0.0
 11
-1914.53989197395
 21
-243.9431509601336
 31
0.0
  0
LINE
  5
534
  8
0
 10
-1914.53989197395
 20
-243.9431509601336
 30
0.0
 11
-1896.53989197395
 21
-243.9431509601335
 31
0.0
  0
LINE
  5
535
  8
0
 10
-1896.53989197395
 20
-243.9431509654138
 30
0.0
 11
-1896.53989197395
 21
-263.9431509627736
 31
0.0
  0
LINE
  5
536
  8
0
 10
-1896.53989197395
 20
-263.9431509627736
 30
0.0
 11
-1914.53989197395
 21
-263.9431509627737
 31
0.0
  0
LINE
  5
537
  8
0
 10
-1914.53989197395
 20
-263.9431509627737
 30
0.0
 11
-1914.53989197395
 21
-283.9431509601336
 31
0.0
  0
LINE
  5
538
  8
0
 10
-1914.53989197395
 20
-283.9431509601336
 30
0.0
 11
-1896.53989197395
 21
-283.9431509601335
 31
0.0
  0
LINE
  5
539
  8
0
 10
-1896.53989197395
 20
-283.9431509654138
 30
0.0
 11
-1896.53989197395
 21
-303.9431509627736
 31
0.0
  0
LINE
  5
540
  8
0
 10
-1896.53989197395
 20
-303.9431509627736
 30
0.0
 11
-1914.53989197395
 21
-303.9431509627737
 31
0.0
  0
LINE
  5
541
  8
0
 10
-1914.53989197395
 20
-303.9431509627737
 30
0.0
 11
-1914.53989197395
 21
-323.9431509601335
 31
0.0
  0
LINE
  5
542
  8
0
 10
-1914.53989197395
 20
-323.9431509601335
 30
0.0
 11
-1896.53989197395
 21
-323.9431509601335
 31
0.0
  0
LINE
  5
543
  8
0
 10
-1896.53989197395
 20
-323.9431509654138
 30
0.0
 11
-1896.53989197395
 21
-343.9431509627736
 31
0.0
  0
LINE
  5
544
  8
0
 10
-1896.53989197395
 20
-343.9431509627736
 30
0.0
 11
-1914.53989197395
 21
-343.9431509627736
 31
0.0
  0
LINE
  5
545
  8
0
 10
-1914.53989197395
 20
-343.9431509627736
 30
0.0
 11
-1914.53989197395
 21
-363.9431509601335
 31
0.0
  0
LINE
  5
546
  8
0
 10
-1914.53989197395
 20
-363.9431509601335
 30
0.0
 11
-1896.53989197395
 21
-363.9431509601335
 31
0.0
  0
LINE
  5
547
  8
0
 10
-1896.53989197395
 20
-363.9431509654138
 30
0.0
 11
-1896.53989197395
 21
-383.9431509627736
 31
0.0
  0
LINE
  5
548
  8
0
 10
-1896.53989197395
 20
-383.9431509627736
 30
0.0
 11
-1914.53989197395
 21
-383.9431509627736
 31
0.0
  0
LINE
  5
549
  8
0
 10
-1914.53989197395
 20
-383.9431509627736
 30
0.0
 11
-1914.53989197395
 21
-403.9431509601335
 31
0.0
  0
LINE
  5
550
  8
0
 10
-1914.53989197395
 20
-403.9431509601335
 30
0.0
 11
-1896.53989197395
 21
-403.9431509601335
 31
0.0
  0
LINE
  5
551
  8
0
 10
-1896.53989197395
 20
-403.9431509654138
 30
0.0
 11
-1896.53989197395
 21
-423.9431509627736
 31
0.0
  0
LINE
  5
552
  8
0
 10
-1896.53989197395
 20
-423.9431509627736
 30
0.0
 11
-1914.53989197395
 21
-423.9431509627736
 31
0.0
  0
LINE
  5
553
  8
0
 10
-1914.53989197395
 20
-423.9431509627736
 30
0.0
 11
-1914.53989197395
 21
-443.9431509601335
 31
0.0
  0
LINE
  5
554
  8
0
 10
-1914.53989197395
 20
-443.9431509601335
 30
0.0
 11
-1896.53989197395
 21
-443.9431509601335
 31
0.0
  0
LINE
  5
555
  8
0
 10
-1896.53989197395
 20
-443.9431509654138
 30
0.0
 11
-1896.53989197395
 21
-463.9431509627736
 31
0.0
  0
LINE
  5
556
  8
0
 10
-1896.53989197395
 20
-463.9431509627736
 30
0.0
 11
-1914.53989197395
 21
-463.9431509627736
 31
0.0
  0
LINE
  5
557
  8
0
 10
-1914.53989197395
 20
-463.9431509627736
 30
0.0
 11
-1914.53989197395
 21
-483.9431509601335
 31
0.0
  0
LINE
  5
558
  8
0
 10
-1914.53989197395
 20
-483.9431509601335
 30
0.0
 11
-1896.53989197395
 21
-483.9431509601335
 31
0.0
  0
LINE
  5
559
  8
0
 10
-1896.53989197395
 20
-483.9431509654138
 30
0.0
 11
-1896.53989197395
 21
-503.9431509627736
 31
0.0
  0
LINE
  5
560
  8
0
 10
-1896.53989197395
 20
-503.9431509627736
 30
0.0
 11
-1914.53989197395
 21
-503.9431509627736
 31
0.0
  0
LINE
  5
561
  8
0
 10
-1914.53989197395
 20
-503.9431509627736
 30
0.0
 11
-1914.53989197395
 21
-523.9431509601335
 31
0.0
  0
LINE
  5
562
  8
0
 10
-1914.53989197395
 20
-523.9431509601335
 30
0.0
 11
-1896.53989197395
 21
-523.9431509601335
 31
0.0
  0
LINE
  5
563
  8
0
 10
-1896.53989197395
 20
-523.9431509654138
 30
0.0
 11
-1896.53989197395
 21
-543.9431509627736
 31
0.0
  0
LINE
  5
564
  8
0
 10
-1896.53989197395
 20
-543.9431509627736
 30
0.0
 11
-1914.53989197395
 21
-543.9431509627736
 31
0.0
  0
LINE
  5
565
  8
0
 10
-1914.53989197395
 20
-543.9431509627736
 30
0.0
 11
-1914.53989197395
 21
-563.9431509601335
 31
0.0
  0
LINE
  5
566
  8
0
 10
-1914.53989197395
 20
-563.9431509601335
 30
0.0
 11
-1896.53989197395
 21
-563.9431509601335
 31
0.0
  0
LINE
  5
567
  8
0
 10
-1896.53989197395
 20
-563.9431509654138
 30
0.0
 11
-1896.53989197395
 21
-583.9431509627736
 31
0.0
  0
LINE
  5
568
  8
0
 10
-1896.53989197395
 20
-583.9431509627736
 30
0.0
 11
-1914.53989197395
 21
-583.9431509627736
 31
0.0
  0
LINE
  5
569
  8
0
 10
-1914.53989197395
 20
-583.9431509627736
 30
0.0
 11
-1914.53989197395
 21
-603.9431509601335
 31
0.0
  0
LINE
  5
570
  8
0
 10
-1914.53989197395
 20
-603.9431509601335
 30
0.0
 11
-1896.53989197395
 21
-603.9431509601335
 31
0.0
  0
LINE
  5
571
  8
0
 10
-1896.53989197395
 20
-603.9431509654138
 30
0.0
 11
-1896.53989197395
 21
-623.9431509627736
 31
0.0
  0
LINE
  5
572
  8
0
 10
-1896.53989197395
 20
-623.9431509627736
 30
0.0
 11
-1914.53989197395
 21
-623.9431509627736
 31
0.0
  0
LINE
  5
573
  8
0
 10
-1914.53989197395
 20
-623.9431509627736
 30
0.0
 11
-1914.53989197395
 21
-643.9431509601336
 31
0.0
  0
LINE
  5
574
  8
0
 10
-1914.53989197395
 20
-643.9431509601336
 30
0.0
 11
-1896.53989197395
 21
-643.9431509601336
 31
0.0
  0
LINE
  5
575
  8
0
 10
-1896.53989197395
 20
-643.9431509654139
 30
0.0
 11
-1896.53989197395
 21
-663.9431509627736
 31
0.0
  0
LINE
  5
576
  8
0
 10
-1896.53989197395
 20
-663.9431509627736
 30
0.0
 11
-1914.53989197395
 21
-663.9431509627736
 31
0.0
  0
LINE
  5
577
  8
0
 10
-1914.53989197395
 20
-663.9431509627736
 30
0.0
 11
-1914.53989197395
 21
-683.9431509601336
 31
0.0
  0
LINE
  5
578
  8
0
 10
-1914.53989197395
 20
-683.9431509601336
 30
0.0
 11
-1896.53989197395
 21
-683.9431509601336
 31
0.0
  0
LINE
  5
579
  8
0
 10
-1896.53989197395
 20
-683.9431509654139
 30
0.0
 11
-1896.53989197395
 21
-703.9431509627736
 31
0.0
  0
LINE
  5
580
  8
0
 10
-1896.53989197395
 20
-703.9431509627736
 30
0.0
 11
-1914.53989197395
 21
-703.9431509627736
 31
0.0
  0
LINE
  5
581
  8
0
 10
-1914.53989197395
 20
-703.9431509627736
 30
0.0
 11
-1914.53989197395
 21
-723.9431509601336
 31
0.0
  0
LINE
  5
582
  8
0
 10
-1914.53989197395
 20
-723.9431509601336
 30
0.0
 11
-1896.53989197395
 21
-723.9431509601336
 31
0.0
  0
LINE
  5
583
  8
0
 10
-1896.53989197395
 20
-723.9431509654139
 30
0.0
 11
-1896.53989197395
 21
-743.9431509627736
 31
0.0
  0
LINE
  5
584
  8
0
 10
-1896.53989197395
 20
-743.9431509627736
 30
0.0
 11
-1914.53989197395
 21
-743.9431509627736
 31
0.0
  0
LINE
  5
585
  8
0
 10
-1914.53989197395
 20
-743.9431509627736
 30
0.0
 11
-1914.53989197395
 21
-763.9431509601336
 31
0.0
  0
LINE
  5
586
  8
0
 10
-1914.53989197395
 20
-763.9431509601336
 30
0.0
 11
-1896.53989197395
 21
-763.9431509601336
 31
0.0
  0
LINE
  5
587
  8
0
 10
-1896.53989197395
 20
-763.9431509654139
 30
0.0
 11
-1896.53989197395
 21
-783.9431509627736
 31
0.0
  0
LINE
  5
588
  8
0
 10
-1896.53989197395
 20
-783.9431509627736
 30
0.0
 11
-1914.53989197395
 21
-783.9431509627736
 31
0.0
  0
LINE
  5
589
  8
0
 10
-1914.53989197395
 20
-783.9431509627736
 30
0.0
 11
-1914.53989197395
 21
-803.9431509601336
 31
0.0
  0
LINE
  5
590
  8
0
 10
-1914.53989197395
 20
-803.9431509601336
 30
0.0
 11
-1896.53989197395
 21
-803.9431509601336
 31
0.0
  0
LINE
  5
591
  8
0
 10
-1896.53989197395
 20
-803.9431509654139
 30
0.0
 11
-1896.53989197395
 21
-823.9431509627736
 31
0.0
  0
LINE
  5
592
  8
0
 10
-1896.53989197395
 20
-823.9431509627736
 30
0.0
 11
-1914.53989197395
 21
-823.9431509627736
 31
0.0
  0
LINE
  5
593
  8
0
 10
-1914.53989197395
 20
-823.9431509627736
 30
0.0
 11
-1914.53989197395
 21
-843.9431509601336
 31
0.0
  0
LINE
  5
594
  8
0
 10
-1914.53989197395
 20
-843.9431509601336
 30
0.0
 11
-1896.53989197395
 21
-843.9431509601336
 31
0.0
  0
LINE
  5
595
  8
0
 10
-1896.53989197395
 20
-843.9431509601336
 30
0.0
 11
-1896.53989197436
 21
-883.9431509601336
 31
0.0
  0
LINE
  5
596
  8
0
 10
-2161.712891974232
 20
-883.9431509574231
 30
0.0
 11
-2230.299391974232
 21
-883.943150956722
 31
0.0
  0
LINE
  5
597
  8
0
 10
-2396.539891973951
 20
-883.9431509550228
 30
0.0
 11
-2396.539891973951
 21
-843.9431936842954
 31
0.0
  0
LINE
  5
598
  8
0
 10
-2378.539891973951
 20
-843.9431936842952
 30
0.0
 11
-2396.539891973951
 21
-843.9431936842954
 31
0.0
  0
LINE
  5
599
  8
0
 10
-2378.539891973951
 20
-823.9431936869355
 30
0.0
 11
-2378.539891973951
 21
-843.9431936842952
 31
0.0
  0
LINE
  5
600
  8
0
 10
-2396.539891973951
 20
-823.9431936869356
 30
0.0
 11
-2378.539891973951
 21
-823.9431936869355
 31
0.0
  0
LINE
  5
601
  8
0
 10
-2396.53989197395
 20
-803.9431936895758
 30
0.0
 11
-2396.539891973951
 21
-823.9431936869356
 31
0.0
  0
LINE
  5
602
  8
0
 10
-2378.539891973951
 20
-803.9431936842952
 30
0.0
 11
-2396.53989197395
 21
-803.9431936842954
 31
0.0
  0
LINE
  5
603
  8
0
 10
-2378.539891973951
 20
-783.9431936869355
 30
0.0
 11
-2378.539891973951
 21
-803.9431936842952
 31
0.0
  0
LINE
  5
604
  8
0
 10
-2396.539891973951
 20
-783.9431936869356
 30
0.0
 11
-2378.539891973951
 21
-783.9431936869355
 31
0.0
  0
LINE
  5
605
  8
0
 10
-2396.53989197395
 20
-763.9431936895758
 30
0.0
 11
-2396.539891973951
 21
-783.9431936869356
 31
0.0
  0
LINE
  5
606
  8
0
 10
-2378.539891973951
 20
-763.9431936842952
 30
0.0
 11
-2396.53989197395
 21
-763.9431936842954
 31
0.0
  0
LINE
  5
607
  8
0
 10
-2378.539891973951
 20
-743.9431936869355
 30
0.0
 11
-2378.539891973951
 21
-763.9431936842952
 31
0.0
  0
LINE
  5
608
  8
0
 10
-2396.539891973951
 20
-743.9431936869356
 30
0.0
 11
-2378.539891973951
 21
-743.9431936869355
 31
0.0
  0
LINE
  5
609
  8
0
 10
-2396.53989197395
 20
-723.9431936895758
 30
0.0
 11
-2396.539891973951
 21
-743.9431936869356
 31
0.0
  0
LINE
  5
610
  8
0
 10
-2378.539891973951
 20
-723.9431936842952
 30
0.0
 11
-2396.53989197395
 21
-723.9431936842954
 31
0.0
  0
LINE
  5
611
  8
0
 10
-2378.539891973951
 20
-703.9431936869355
 30
0.0
 11
-2378.539891973951
 21
-723.9431936842952
 31
0.0
  0
LINE
  5
612
  8
0
 10
-2396.539891973951
 20
-703.9431936869356
 30
0.0
 11
-2378.539891973951
 21
-703.9431936869355
 31
0.0
  0
LINE
  5
613
  8
0
 10
-2396.53989197395
 20
-683.9431936895758
 30
0.0
 11
-2396.539891973951
 21
-703.9431936869356
 31
0.0
  0
LINE
  5
614
  8
0
 10
-2378.539891973951
 20
-683.9431936842952
 30
0.0
 11
-2396.53989197395
 21
-683.9431936842954
 31
0.0
  0
LINE
  5
615
  8
0
 10
-2378.539891973951
 20
-663.9431936869355
 30
0.0
 11
-2378.539891973951
 21
-683.9431936842952
 31
0.0
  0
LINE
  5
616
  8
0
 10
-2396.539891973951
 20
-663.9431936869356
 30
0.0
 11
-2378.539891973951
 21
-663.9431936869355
 31
0.0
  0
LINE
  5
617
  8
0
 10
-2396.53989197395
 20
-643.9431936895758
 30
0.0
 11
-2396.539891973951
 21
-663.9431936869356
 31
0.0
  0
LINE
  5
618
  8
0
 10
-2378.539891973951
 20
-643.9431936842952
 30
0.0
 11
-2396.53989197395
 21
-643.9431936842954
 31
0.0
  0
LINE
  5
619
  8
0
 10
-2378.539891973951
 20
-623.9431936869354
 30
0.0
 11
-2378.539891973951
 21
-643.9431936842952
 31
0.0
  0
LINE
  5
620
  8
0
 10
-2396.539891973951
 20
-623.9431936869356
 30
0.0
 11
-2378.539891973951
 21
-623.9431936869354
 31
0.0
  0
LINE
  5
621
  8
0
 10
-2396.53989197395
 20
-603.9431936895758
 30
0.0
 11
-2396.539891973951
 21
-623.9431936869356
 31
0.0
  0
LINE
  5
622
  8
0
 10
-2378.539891973951
 20
-603.9431936842952
 30
0.0
 11
-2396.53989197395
 21
-603.9431936842955
 31
0.0
  0
LINE
  5
623
  8
0
 10
-2378.539891973951
 20
-583.9431936869354
 30
0.0
 11
-2378.539891973951
 21
-603.9431936842952
 31
0.0
  0
LINE
  5
624
  8
0
 10
-2396.539891973951
 20
-583.9431936869356
 30
0.0
 11
-2378.539891973951
 21
-583.9431936869354
 31
0.0
  0
LINE
  5
625
  8
0
 10
-2396.53989197395
 20
-563.9431936895758
 30
0.0
 11
-2396.539891973951
 21
-583.9431936869356
 31
0.0
  0
LINE
  5
626
  8
0
 10
-2378.539891973951
 20
-563.9431936842952
 30
0.0
 11
-2396.53989197395
 21
-563.9431936842955
 31
0.0
  0
LINE
  5
627
  8
0
 10
-2378.539891973951
 20
-543.9431936869354
 30
0.0
 11
-2378.539891973951
 21
-563.9431936842952
 31
0.0
  0
LINE
  5
628
  8
0
 10
-2396.539891973951
 20
-543.9431936869356
 30
0.0
 11
-2378.539891973951
 21
-543.9431936869354
 31
0.0
  0
LINE
  5
629
  8
0
 10
-2396.53989197395
 20
-523.9431936895758
 30
0.0
 11
-2396.539891973951
 21
-543.9431936869356
 31
0.0
  0
LINE
  5
630
  8
0
 10
-2378.539891973951
 20
-523.9431936842952
 30
0.0
 11
-2396.53989197395
 21
-523.9431936842955
 31
0.0
  0
LINE
  5
631
  8
0
 10
-2378.539891973951
 20
-503.9431936869354
 30
0.0
 11
-2378.539891973951
 21
-523.9431936842952
 31
0.0
  0
LINE
  5
632
  8
0
 10
-2396.539891973951
 20
-503.9431936869357
 30
0.0
 11
-2378.539891973951
 21
-503.9431936869354
 31
0.0
  0
LINE
  5
633
  8
0
 10
-2396.53989197395
 20
-483.9431936895758
 30
0.0
 11
-2396.539891973951
 21
-503.9431936869357
 31
0.0
  0
LINE
  5
634
  8
0
 10
-2378.539891973951
 20
-483.9431936842952
 30
0.0
 11
-2396.53989197395
 21
-483.9431936842954
 31
0.0
  0
LINE
  5
635
  8
0
 10
-2378.539891973951
 20
-463.9431936869354
 30
0.0
 11
-2378.539891973951
 21
-483.9431936842952
 31
0.0
  0
LINE
  5
636
  8
0
 10
-2396.539891973951
 20
-463.9431936869357
 30
0.0
 11
-2378.539891973951
 21
-463.9431936869354
 31
0.0
  0
LINE
  5
637
  8
0
 10
-2396.53989197395
 20
-443.9431936895758
 30
0.0
 11
-2396.539891973951
 21
-463.9431936869357
 31
0.0
  0
LINE
  5
638
  8
0
 10
-2378.539891973951
 20
-443.9431936842952
 30
0.0
 11
-2396.53989197395
 21
-443.9431936842954
 31
0.0
  0
LINE
  5
639
  8
0
 10
-2378.539891973951
 20
-423.9431936869354
 30
0.0
 11
-2378.539891973951
 21
-443.9431936842952
 31
0.0
  0
LINE
  5
640
  8
0
 10
-2396.539891973951
 20
-423.9431936869357
 30
0.0
 11
-2378.539891973951
 21
-423.9431936869354
 31
0.0
  0
LINE
  5
641
  8
0
 10
-2396.53989197395
 20
-403.9431936895758
 30
0.0
 11
-2396.539891973951
 21
-423.9431936869357
 31
0.0
  0
LINE
  5
642
  8
0
 10
-2378.539891973951
 20
-403.9431936842952
 30
0.0
 11
-2396.53989197395
 21
-403.9431936842954
 31
0.0
  0
LINE
  5
643
  8
0
 10
-2378.539891973951
 20
-383.9431936869354
 30
0.0
 11
-2378.539891973951
 21
-403.9431936842952
 31
0.0
  0
LINE
  5
644
  8
0
 10
-2396.539891973951
 20
-383.9431936869357
 30
0.0
 11
-2378.539891973951
 21
-383.9431936869354
 31
0.0
  0
LINE
  5
645
  8
0
 10
-2396.53989197395
 20
-363.9431936895758
 30
0.0
 11
-2396.539891973951
 21
-383.9431936869357
 31
0.0
  0
LINE
  5
646
  8
0
 10
-2378.539891973951
 20
-363.9431936842952
 30
0.0
 11
-2396.53989197395
 21
-363.9431936842954
 31
0.0
  0
LINE
  5
647
  8
0
 10
-2378.539891973951
 20
-343.9431936869354
 30
0.0
 11
-2378.539891973951
 21
-363.9431936842952
 31
0.0
  0
LINE
  5
648
  8
0
 10
-2396.539891973951
 20
-343.9431936869357
 30
0.0
 11
-2378.539891973951
 21
-343.9431936869354
 31
0.0
  0
LINE
  5
649
  8
0
 10
-2396.53989197395
 20
-323.9431936895758
 30
0.0
 11
-2396.539891973951
 21
-343.9431936869357
 31
0.0
  0
LINE
  5
650
  8
0
 10
-2378.539891973951
 20
-323.9431936842952
 30
0.0
 11
-2396.53989197395
 21
-323.9431936842954
 31
0.0
  0
LINE
  5
651
  8
0
 10
-2378.539891973951
 20
-303.9431936869354
 30
0.0
 11
-2378.539891973951
 21
-323.9431936842952
 31
0.0
  0
LINE
  5
652
  8
0
 10
-2396.539891973951
 20
-303.9431936869357
 30
0.0
 11
-2378.539891973951
 21
-303.9431936869354
 31
0.0
  0
LINE
  5
653
  8
0
 10
-2396.53989197395
 20
-283.9431936895758
 30
0.0
 11
-2396.539891973951
 21
-303.9431936869357
 31
0.0
  0
LINE
  5
654
  8
0
 10
-2378.539891973951
 20
-283.9431936842952
 30
0.0
 11
-2396.53989197395
 21
-283.9431936842954
 31
0.0
  0
LINE
  5
655
  8
0
 10
-2378.539891973951
 20
-263.9431936869354
 30
0.0
 11
-2378.539891973951
 21
-283.9431936842952
 31
0.0
  0
LINE
  5
656
  8
0
 10
-2396.539891973951
 20
-263.9431936869357
 30
0.0
 11
-2378.539891973951
 21
-263.9431936869354
 31
0.0
  0
LINE
  5
657
  8
0
 10
-2396.53989197395
 20
-243.9431936895758
 30
0.0
 11
-2396.539891973951
 21
-263.9431936869357
 31
0.0
  0
LINE
  5
658
  8
0
 10
-2378.539891973951
 20
-243.9431936842952
 30
0.0
 11
-2396.53989197395
 21
-243.9431936842954
 31
0.0
  0
LINE
  5
659
  8
0
 10
-2378.539891973951
 20
-223.9431936869354
 30
0.0
 11
-2378.539891973951
 21
-243.9431936842952
 31
0.0
  0
LINE
  5
660
  8
0
 10
-2396.539891973951
 20
-223.9431936869357
 30
0.0
 11
-2378.539891973951
 21
-223.9431936869354
 31
0.0
  0
LINE
  5
661
  8
0
 10
-2396.53989197395
 20
-203.9431936895758
 30
0.0
 11
-2396.539891973951
 21
-223.9431936869357
 31
0.0
  0
LINE
  5
662
  8
0
 10
-2378.539891973951
 20
-203.9431936842952
 30
0.0
 11
-2396.53989197395
 21
-203.9431936842954
 31
0.0
  0
LINE
  5
663
  8
0
 10
-2378.539891973951
 20
-183.9431936869354
 30
0.0
 11
-2378.539891973951
 21
-203.9431936842952
 31
0.0
  0
LINE
  5
664
  8
0
 10
-2396.539891973951
 20
-183.9431936869357
 30
0.0
 11
-2378.539891973951
 21
-183.9431936869354
 31
0.0
  0
LINE
  5
665
  8
0
 10
-2396.53989197395
 20
-163.9431936895758
 30
0.0
 11
-2396.539891973951
 21
-183.9431936869357
 31
0.0
  0
LINE
  5
666
  8
0
 10
-2378.539891973951
 20
-163.9431936842952
 30
0.0
 11
-2396.53989197395
 21
-163.9431936842954
 31
0.0
  0
LINE
  5
667
  8
0
 10
-2378.539891973951
 20
-143.9431936869354
 30
0.0
 11
-2378.539891973951
 21
-163.9431936842952
 31
0.0
  0
LINE
  5
668
  8
0
 10
-2396.539891973951
 20
-143.9431936869357
 30
0.0
 11
-2378.539891973951
 21
-143.9431936869354
 31
0.0
  0
LINE
  5
669
  8
0
 10
-2396.53989197395
 20
-123.9431936895758
 30
0.0
 11
-2396.539891973951
 21
-143.9431936869357
 31
0.0
  0
LINE
  5
670
  8
0
 10
-2378.539891973951
 20
-123.9431936842952
 30
0.0
 11
-2396.53989197395
 21
-123.9431936842954
 31
0.0
  0
LINE
  5
671
  8
0
 10
-2378.539891973951
 20
-103.9431936869354
 30
0.0
 11
-2378.539891973951
 21
-123.9431936842952
 31
0.0
  0
LINE
  5
672
  8
0
 10
-2396.539891973951
 20
-103.9431936869357
 30
0.0
 11
-2378.539891973951
 21
-103.9431936869354
 31
0.0
  0
LINE
  5
673
  8
0
 10
-2396.53989197395
 20
-83.94319368957582
 30
0.0
 11
-2396.539891973951
 21
-103.9431936869357
 31
0.0
  0
LINE
  5
674
  8
0
 10
-2378.539891973951
 20
-83.94319368429524
 30
0.0
 11
-2396.53989197395
 21
-83.94319368429537
 31
0.0
  0
LINE
  5
675
  8
0
 10
-2378.539891973951
 20
-63.94319368693541
 30
0.0
 11
-2378.539891973951
 21
-83.94319368429524
 31
0.0
  0
LINE
  5
676
  8
0
 10
-2396.539891973951
 20
-63.94319368693564
 30
0.0
 11
-2378.539891973951
 21
-63.94319368693541
 31
0.0
  0
LINE
  5
677
  8
0
 10
-2396.53989197395
 20
-43.94319368957581
 30
0.0
 11
-2396.539891973951
 21
-63.94319368693564
 31
0.0
  0
LINE
  5
678
  8
0
 10
-2378.539891973951
 20
-43.94319368429524
 30
0.0
 11
-2396.53989197395
 21
-43.94319368429536
 31
0.0
  0
LINE
  5
679
  8
0
 10
-2378.539891973951
 20
-23.94319368693541
 30
0.0
 11
-2378.539891973951
 21
-43.94319368429524
 31
0.0
  0
LINE
  5
680
  8
0
 10
-2396.539891973951
 20
-23.94319368693564
 30
0.0
 11
-2378.539891973951
 21
-23.94319368693541
 31
0.0
  0
LINE
  5
681
  8
0
 10
-2396.53989197395
 20
-3.943193689575812
 30
0.0
 11
-2396.539891973951
 21
-23.94319368693564
 31
0.0
  0
LINE
  5
682
  8
0
 10
-2378.539891973951
 20
-3.943193684295236
 30
0.0
 11
-2396.53989197395
 21
-3.943193684295367
 31
0.0
  0
LINE
  5
683
  8
0
 10
-2378.539891973951
 20
16.05680631306459
 30
0.0
 11
-2378.539891973951
 21
-3.943193684295236
 31
0.0
  0
LINE
  5
684
  8
0
 10
-2396.539891973951
 20
16.05680631306436
 30
0.0
 11
-2378.539891973951
 21
16.05680631306459
 31
0.0
  0
LINE
  5
685
  8
0
 10
-2396.53989197395
 20
36.05680631042419
 30
0.0
 11
-2396.539891973951
 21
16.05680631306436
 31
0.0
  0
LINE
  5
686
  8
0
 10
-2378.539891973951
 20
36.05680631570476
 30
0.0
 11
-2396.53989197395
 21
36.05680631570463
 31
0.0
  0
LINE
  5
687
  8
0
 10
-2378.539891973951
 20
56.05680631306459
 30
0.0
 11
-2378.539891973951
 21
36.05680631570476
 31
0.0
  0
LINE
  5
688
  8
0
 10
-2396.539891973951
 20
56.05680631306436
 30
0.0
 11
-2378.539891973951
 21
56.05680631306459
 31
0.0
  0
LINE
  5
689
  8
0
 10
-2396.53989197395
 20
76.0568063104242
 30
0.0
 11
-2396.539891973951
 21
56.05680631306436
 31
0.0
  0
CIRCLE
  5
1011C
  8
0
 10
-1637.846463762344
 20
-367.0011515752399
 30
0.0
 40
190.7883964629127
  0
POLYLINE
  5
1011D
  8
0
 66
     1
 10
0.0
 20
0.0
 30
0.0
 70
     1
  0
VERTEX
  5
10346
  8
0
 10
-1479.944683452421
 20
-337.0011515752397
 30
0.0
  0
VERTEX
  5
10347
  8
0
 10
-1461.687693827256
 20
-337.0011515752396
 30
0.0
 42
0.3185177257539061
  0
VERTEX
  5
10348
  8
0
 10
-1607.846463764195
 20
-190.8423816398366
 30
0.0
  0
VERTEX
  5
10349
  8
0
 10
-1607.84646376421
 20
-209.0993712649616
 30
0.0
 42
-0.3080462148994109
  0
SEQEND
  5
1040C
  8
0
  0
POLYLINE
  5
1011E
  8
0
 66
     1
 10
0.0
 20
0.0
 30
0.0
 70
     1
  0
VERTEX
  5
1034A
  8
0
 10
-1667.846463760505
 20
-209.0993712649665
 30
0.0
  0
VERTEX
  5
1034B
  8
0
 10
-1667.846463760505
 20
-190.8423816398384
 30
0.0
 42
0.3185177257538891
  0
VERTEX
  5
1034C
  8
0
 10
-1814.005233697432
 20
-337.0011515752396
 30
0.0
  0
VERTEX
  5
1034D
  8
0
 10
-1795.748244072268
 20
-337.0011515752395
 30
0.0
 42
-0.3080462148993643
  0
SEQEND
  5
1040D
  8
0
  0
POLYLINE
  5
1011F
  8
0
 66
     1
 10
0.0
 20
0.0
 30
0.0
 70
     1
  0
VERTEX
  5
1034E
  8
0
 10
-1461.687693827256
 20
-397.0011515752406
 30
0.0
 42
-0.3185177257543889
  0
VERTEX
  5
1034F
  8
0
 10
-1607.846463764504
 20
-543.1599215106959
 30
0.0
  0
VERTEX
  5
10350
  8
0
 10
-1607.846463764487
 20
-524.9029318855711
 30
0.0
 42
0.3080462148998908
  0
VERTEX
  5
10351
  8
0
 10
-1479.944683452421
 20
-397.0011515752408
 30
0.0
  0
SEQEND
  5
1040E
  8
0
  0
POLYLINE
  5
10120
  8
0
 66
     1
 10
0.0
 20
0.0
 30
0.0
 70
     1
  0
VERTEX
  5
10352
  8
0
 10
-1647.846463764514
 20
-527.41615157524
 30
0.0
  0
VERTEX
  5
10353
  8
0
 10
-1647.846463764514
 20
-545.41615157524
 30
0.0
  0
VERTEX
  5
10354
  8
0
 10
-1627.846463764514
 20
-545.41615157524
 30
0.0
  0
VERTEX
  5
10355
  8
0
 10
-1627.846463764514
 20
-527.41615157524
 30
0.0
  0
SEQEND
  5
1040F
  8
0
  0
POLYLINE
  5
10121
  8
0
 66
     1
 10
0.0
 20
0.0
 30
0.0
 70
     1
  0
VERTEX
  5
10356
  8
0
 10
-1459.431463762344
 20
-377.0011515752397
 30
0.0
  0
VERTEX
  5
10357
  8
0
 10
-1459.431463762344
 20
-357.0011515752397
 30
0.0
  0
VERTEX
  5
10358
  8
0
 10
-1477.431463762344
 20
-357.0011515752397
 30
0.0
  0
VERTEX
  5
10359
  8
0
 10
-1477.431463762344
 20
-377.0011515752397
 30
0.0
  0
SEQEND
  5
10410
  8
0
  0
POLYLINE
  5
10122
  8
0
 66
     1
 10
0.0
 20
0.0
 30
0.0
 70
     1
  0
VERTEX
  5
1035A
  8
0
 10
-1816.261463762344
 20
-377.0011515752397
 30
0.0
  0
VERTEX
  5
1035B
  8
0
 10
-1798.261463762344
 20
-377.0011515752397
 30
0.0
  0
VERTEX
  5
1035C
  8
0
 10
-1798.261463762344
 20
-357.0011515752397
 30
0.0
  0
VERTEX
  5
1035D
  8
0
 10
-1816.261463762344
 20
-357.0011515752397
 30
0.0
  0
SEQEND
  5
10411
  8
0
  0
POLYLINE
  5
10123
  8
0
 66
     1
 10
0.0
 20
0.0
 30
0.0
 70
     1
  0
VERTEX
  5
1035E
  8
0
 10
-1627.846463761852
 20
-188.5861515752408
 30
0.0
  0
VERTEX
  5
1035F
  8
0
 10
-1647.846463762836
 20
-188.5861515752408
 30
0.0
  0
VERTEX
  5
10360
  8
0
 10
-1647.846463762839
 20
-206.5861515752407
 30
0.0
  0
VERTEX
  5
10361
  8
0
 10
-1627.846463761853
 20
-206.5861515752405
 30
0.0
  0
SEQEND
  5
10412
  8
0
  0
POLYLINE
  5
10124
  8
0
 66
     1
 10
0.0
 20
0.0
 30
0.0
 70
     1
  0
VERTEX
  5
10362
  8
0
 10
-1667.846463760505
 20
-543.1599215106417
 30
0.0
 42
-0.318517725753889
  0
VERTEX
  5
10363
  8
0
 10
-1814.005233697432
 20
-397.0011515752404
 30
0.0
  0
VERTEX
  5
10364
  8
0
 10
-1795.748244072268
 20
-397.0011515752404
 30
0.0
 42
0.3080462148993652
  0
VERTEX
  5
10365
  8
0
 10
-1667.846463760504
 20
-524.9029318855135
 30
0.0
  0
SEQEND
  5
10413
  8
0
  0
POLYLINE
  5
10125
  8
0
 66
     1
 10
0.0
 20
0.0
 30
0.0
 70
     1
  0
VERTEX
  5
10366
  8
0
 10
-1667.846463760504
 20
-524.9029318855131
 30
0.0
 42
-0.3080462148993665
  0
VERTEX
  5
10367
  8
0
 10
-1795.748244072268
 20
-397.0011515752404
 30
0.0
  0
VERTEX
  5
10368
  8
0
 10
-1814.005233697432
 20
-397.0011515752403
 30
0.0
 42
0.3185177257538911
  0
VERTEX
  5
10369
  8
0
 10
-1667.846463760504
 20
-543.1599215106415
 30
0.0
  0
SEQEND
  5
10414
  8
0
  0
POLYLINE
  5
10126
  8
0
 66
     1
 10
0.0
 20
0.0
 30
0.0
 70
     1
  0
VERTEX
  5
1036A
  8
0
 10
-1607.84646376421
 20
-209.0993712649615
 30
0.0
 42
-0.3080462148994094
  0
VERTEX
  5
1036B
  8
0
 10
-1479.944683452421
 20
-337.0011515752395
 30
0.0
  0
VERTEX
  5
1036C
  8
0
 10
-1461.687693827256
 20
-337.0011515752396
 30
0.0
 42
0.3185177257539049
  0
VERTEX
  5
1036D
  8
0
 10
-1607.846463764195
 20
-190.8423816398366
 30
0.0
  0
SEQEND
  5
10415
  8
0
  0
POLYLINE
  5
10127
  8
0
 66
     1
 10
0.0
 20
0.0
 30
0.0
 70
     1
  0
VERTEX
  5
1036E
  8
0
 10
-1479.944683452421
 20
-397.0011515752405
 30
0.0
 42
-0.3080462148998909
  0
VERTEX
  5
1036F
  8
0
 10
-1607.846463764487
 20
-524.9029318855711
 30
0.0
  0
VERTEX
  5
10370
  8
0
 10
-1607.846463764504
 20
-543.1599215106959
 30
0.0
 42
0.3185177257543889
  0
VERTEX
  5
10371
  8
0
 10
-1461.687693827256
 20
-397.0011515752405
 30
0.0
  0
SEQEND
  5
10416
  8
0
  0
CIRCLE
  5
10128
  8
0
 10
-1637.846463762345
 20
-367.0011515752403
 30
0.0
 40
190.7883964629127
  0
POLYLINE
  5
10129
  8
0
 66
     1
 10
0.0
 20
0.0
 30
0.0
 70
     1
  0
VERTEX
  5
10372
  8
0
 10
-1814.005233697433
 20
-337.0011515752395
 30
0.0
 42
-0.3185177257538893
  0
VERTEX
  5
10373
  8
0
 10
-1667.846463760505
 20
-190.8423816398385
 30
0.0
  0
VERTEX
  5
10374
  8
0
 10
-1667.846463760505
 20
-209.0993712649664
 30
0.0
 42
0.3080462148993646
  0
VERTEX
  5
10375
  8
0
 10
-1795.748244072268
 20
-337.0011515752396
 30
0.0
  0
SEQEND
  5
10417
  8
0
  0
POLYLINE
  5
1012A
  8
0
 66
     1
 10
0.0
 20
0.0
 30
0.0
 70
     1
  0
VERTEX
  5
10376
  8
0
 10
-1647.846463764514
 20
-545.41615157524
 30
0.0
  0
VERTEX
  5
10377
  8
0
 10
-1647.846463764514
 20
-527.41615157524
 30
0.0
  0
VERTEX
  5
10378
  8
0
 10
-1627.846463764514
 20
-527.41615157524
 30
0.0
  0
VERTEX
  5
10379
  8
0
 10
-1627.846463764514
 20
-545.41615157524
 30
0.0
  0
SEQEND
  5
10418
  8
0
  0
POLYLINE
  5
1012B
  8
0
 66
     1
 10
0.0
 20
0.0
 30
0.0
 70
     1
  0
VERTEX
  5
1037A
  8
0
 10
-1459.431463762344
 20
-357.0011515752397
 30
0.0
  0
VERTEX
  5
1037B
  8
0
 10
-1459.431463762344
 20
-377.0011515752397
 30
0.0
  0
VERTEX
  5
1037C
  8
0
 10
-1477.431463762344
 20
-377.0011515752397
 30
0.0
  0
VERTEX
  5
1037D
  8
0
 10
-1477.431463762344
 20
-357.0011515752396
 30
0.0
  0
SEQEND
  5
10419
  8
0
  0
POLYLINE
  5
1012C
  8
0
 66
     1
 10
0.0
 20
0.0
 30
0.0
 70
     1
  0
VERTEX
  5
1037E
  8
0
 10
-1798.261463762344
 20
-377.0011515752396
 30
0.0
  0
VERTEX
  5
1037F
  8
0
 10
-1816.261463762344
 20
-377.0011515752396
 30
0.0
  0
VERTEX
  5
10380
  8
0
 10
-1816.261463762344
 20
-357.0011515752396
 30
0.0
  0
VERTEX
  5
10381
  8
0
 10
-1798.261463762344
 20
-357.0011515752397
 30
0.0
  0
SEQEND
  5
1041A
  8
0
  0
POLYLINE
  5
1012D
  8
0
 66
     1
 10
0.0
 20
0.0
 30
0.0
 70
     1
  0
VERTEX
  5
10382
  8
0
 10
-1647.846463762836
 20
-188.5861515752408
 30
0.0
  0
VERTEX
  5
10383
  8
0
 10
-1627.846463761852
 20
-188.5861515752408
 30
0.0
  0
VERTEX
  5
10384
  8
0
 10
-1627.846463761853
 20
-206.5861515752405
 30
0.0
  0
VERTEX
  5
10385
  8
0
 10
-1647.846463762839
 20
-206.5861515752407
 30
0.0
  0
SEQEND
  5
1041B
  8
0
  0
ENDSEC
  0
EOF
