  0
SECTION
  2
HEADER
  9
$ACADVER
  1
AC1009
  9
$DWGCODEPAGE
  3
ansi_1252
  9
$INSBASE
 10
0.0
 20
0.0
 30
0.0
  9
$EXTMIN
 10
-584.4534618866101
 20
-744.058590266721
 30
0.0
  9
$EXTMAX
 10
635.5465381133902
 20
220.9414097332791
 30
0.0
  9
$LIMMIN
 10
0.0
 20
0.0
  9
$LIMMAX
 10
12.0
 20
9.0
  9
$ORTHOMODE
 70
     0
  9
$REGENMODE
 70
     1
  9
$FILLMODE
 70
     1
  9
$QTEXTMODE
 70
     0
  9
$MIRRTEXT
 70
     1
  9
$DRAGMODE
 70
     2
  9
$LTSCALE
 40
1.0
  9
$OSMODE
 70
    37
  9
$ATTMODE
 70
     1
  9
$TEXTSIZE
 40
0.2
  9
$TRACEWID
 40
0.05
  9
$TEXTSTYLE
  7
STANDARD
  9
$CLAYER
  8
OUTSIDE
  9
$CELTYPE
  6
BYLAYER
  9
$CECOLOR
 62
   256
  9
$DIMSCALE
 40
1.0
  9
$DIMASZ
 40
0.18
  9
$DIMEXO
 40
0.0625
  9
$DIMDLI
 40
0.38
  9
$DIMRND
 40
0.0
  9
$DIMDLE
 40
0.0
  9
$DIMEXE
 40
0.18
  9
$DIMTP
 40
0.0
  9
$DIMTM
 40
0.0
  9
$DIMTXT
 40
0.18
  9
$DIMCEN
 40
0.09
  9
$DIMTSZ
 40
0.0
  9
$DIMTOL
 70
     0
  9
$DIMLIM
 70
     0
  9
$DIMTIH
 70
     1
  9
$DIMTOH
 70
     1
  9
$DIMSE1
 70
     0
  9
$DIMSE2
 70
     0
  9
$DIMTAD
 70
     0
  9
$DIMZIN
 70
     0
  9
$DIMBLK
  1

  9
$DIMASO
 70
     1
  9
$DIMSHO
 70
     1
  9
$DIMPOST
  1

  9
$DIMAPOST
  1

  9
$DIMALT
 70
     0
  9
$DIMALTD
 70
     2
  9
$DIMALTF
 40
25.4
  9
$DIMLFAC
 40
1.0
  9
$DIMTOFL
 70
     0
  9
$DIMTVP
 40
0.0
  9
$DIMTIX
 70
     0
  9
$DIMSOXD
 70
     0
  9
$DIMSAH
 70
     0
  9
$DIMBLK1
  1

  9
$DIMBLK2
  1

  9
$DIMSTYLE
  2
STANDARD
  9
$DIMCLRD
 70
     0
  9
$DIMCLRE
 70
     0
  9
$DIMCLRT
 70
     0
  9
$DIMTFAC
 40
1.0
  9
$DIMGAP
 40
0.09
  9
$LUNITS
 70
     2
  9
$LUPREC
 70
     3
  9
$SKETCHINC
 40
0.1
  9
$FILLETRAD
 40
0.5
  9
$AUNITS
 70
     0
  9
$AUPREC
 70
     0
  9
$MENU
  1
.
  9
$ELEVATION
 40
0.0
  9
$PELEVATION
 40
0.0
  9
$THICKNESS
 40
0.0
  9
$LIMCHECK
 70
     0
  9
$CHAMFERA
 40
0.0
  9
$CHAMFERB
 40
0.0
  9
$SKPOLY
 70
     0
  9
$TDCREATE
 40
2457827.848221007
  9
$TDUPDATE
 40
2457827.848237442
  9
$TDINDWG
 40
0.0000000116
  9
$TDUSRTIMER
 40
0.0000000116
  9
$USRTIMER
 70
     1
  9
$ANGBASE
 50
0.0
  9
$ANGDIR
 70
     0
  9
$PDMODE
 70
     0
  9
$PDSIZE
 40
0.0
  9
$PLINEWID
 40
0.0
  9
$COORDS
 70
     1
  9
$SPLFRAME
 70
     0
  9
$SPLINETYPE
 70
     6
  9
$SPLINESEGS
 70
     8
  9
$ATTDIA
 70
     0
  9
$ATTREQ
 70
     1
  9
$HANDLING
 70
     1
  9
$HANDSEED
  5
3E3
  9
$SURFTAB1
 70
     6
  9
$SURFTAB2
 70
     6
  9
$SURFTYPE
 70
     6
  9
$SURFU
 70
     6
  9
$SURFV
 70
     6
  9
$UCSNAME
  2

  9
$UCSORG
 10
0.0
 20
0.0
 30
0.0
  9
$UCSXDIR
 10
1.0
 20
0.0
 30
0.0
  9
$UCSYDIR
 10
0.0
 20
1.0
 30
0.0
  9
$PUCSNAME
  2

  9
$PUCSORG
 10
0.0
 20
0.0
 30
0.0
  9
$PUCSXDIR
 10
1.0
 20
0.0
 30
0.0
  9
$PUCSYDIR
 10
0.0
 20
1.0
 30
0.0
  9
$USERI1
 70
     0
  9
$USERI2
 70
     0
  9
$USERI3
 70
     0
  9
$USERI4
 70
     0
  9
$USERI5
 70
     0
  9
$USERR1
 40
0.0
  9
$USERR2
 40
0.0
  9
$USERR3
 40
0.0
  9
$USERR4
 40
0.0
  9
$USERR5
 40
0.0
  9
$WORLDVIEW
 70
     1
  9
$SHADEDGE
 70
     3
  9
$SHADEDIF
 70
    70
  9
$TILEMODE
 70
     1
  9
$MAXACTVP
 70
    64
  9
$PLIMCHECK
 70
     0
  9
$PEXTMIN
 10
1.000000000000000E+20
 20
1.000000000000000E+20
 30
1.000000000000000E+20
  9
$PEXTMAX
 10
-1.000000000000000E+20
 20
-1.000000000000000E+20
 30
-1.000000000000000E+20
  9
$PLIMMIN
 10
0.0
 20
0.0
  9
$PLIMMAX
 10
12.0
 20
9.0
  9
$UNITMODE
 70
     0
  9
$VISRETAIN
 70
     1
  9
$PLINEGEN
 70
     0
  9
$PSLTSCALE
 70
     1
  0
ENDSEC
  0
SECTION
  2
TABLES
  0
TABLE
  2
VPORT
 70
     1
  0
VPORT
  2
*ACTIVE
 70
     0
 10
0.0
 20
0.0
 11
1.0
 21
1.0
 12
25.54653811339006
 22
-261.558590266721
 13
0.0
 23
0.0
 14
0.5
 24
0.5
 15
0.5
 25
0.5
 16
0.0
 26
0.0
 36
1.0
 17
0.0
 27
0.0
 37
0.0
 40
984.3000000000002
 41
1.264248704663212
 42
50.0
 43
0.0
 44
0.0
 50
0.0
 51
0.0
 71
     0
 72
   100
 73
     1
 74
     3
 75
     0
 76
     0
 77
     0
 78
     0
  0
ENDTAB
  0
TABLE
  2
LTYPE
 70
     1
  0
LTYPE
  2
CONTINUOUS
 70
     0
  3
Solid line
 72
    65
 73
     0
 40
0.0
  0
ENDTAB
  0
TABLE
  2
LAYER
 70
     4
  0
LAYER
  2
0
 70
     0
 62
     7
  6
CONTINUOUS
  0
LAYER
  2
OUTSIDE
 70
     0
 62
     6
  6
CONTINUOUS
  0
LAYER
  2
INSIDE
 70
     0
 62
     3
  6
CONTINUOUS
  0
LAYER
  2
DEFAULT
 70
     0
 62
     7
  6
CONTINUOUS
  0
ENDTAB
  0
TABLE
  2
STYLE
 70
     1
  0
STYLE
  2
STANDARD
 70
     0
 40
0.0
 41
1.0
 50
0.0
 71
     0
 42
0.2
  3
txt
  4

  0
ENDTAB
  0
TABLE
  2
VIEW
 70
     0
  0
ENDTAB
  0
TABLE
  2
UCS
 70
     0
  0
ENDTAB
  0
TABLE
  2
APPID
 70
     1
  0
APPID
  2
ACAD
 70
     0
  0
ENDTAB
  0
TABLE
  2
DIMSTYLE
 70
     1
  0
DIMSTYLE
  2
STANDARD
 70
     0
  3

  4

  5

  6

  7

 40
1.0
 41
0.18
 42
0.0625
 43
0.38
 44
0.18
 45
0.0
 46
0.0
 47
0.0
 48
0.0
140
0.18
141
0.09
142
0.0
143
25.4
144
1.0
145
0.0
146
1.0
147
0.09
 71
     0
 72
     0
 73
     1
 74
     1
 75
     0
 76
     0
 77
     0
 78
     0
170
     0
171
     2
172
     0
173
     0
174
     0
175
     0
176
     0
177
     0
178
     0
  0
ENDTAB
  0
ENDSEC
  0
SECTION
  2
BLOCKS
  0
BLOCK
  8
0
  2
$MODEL_SPACE
 70
     0
 10
0.0
 20
0.0
 30
0.0
  3
$MODEL_SPACE
  1

  0
ENDBLK
  5
21
  8
0
  0
BLOCK
 67
     1
  8
0
  2
$PAPER_SPACE
 70
     0
 10
0.0
 20
0.0
 30
0.0
  3
$PAPER_SPACE
  1

  0
ENDBLK
  5
1D
 67
     1
  8
0
  0
ENDSEC
  0
SECTION
  2
ENTITIES
  0
LINE
  5
6F
  8
OUTSIDE
 10
-88.85992338548135
 20
-327.3775599128651
 30
0.0
 11
-89.15958354164684
 21
-331.3708031198351
 31
0.0
  0
LINE
  5
70
  8
OUTSIDE
 10
-89.15958354164684
 20
-331.3708031198351
 30
0.0
 11
-91.02907241734107
 21
-356.3008053529614
 31
0.0
  0
ARC
  5
71
  8
OUTSIDE
 10
-87.04027517883003
 20
-356.5999651598325
 30
0.0
 40
4.00000000000015
 50
175.710846471447
 51
355.7108468514665
  0
LINE
  5
72
  8
OUTSIDE
 10
-83.0514779383347
 20
-356.8991249402482
 30
0.0
 11
-81.18172923229389
 21
-331.9691421930368
 31
0.0
  0
LINE
  5
73
  8
OUTSIDE
 10
-81.18172923229389
 20
-331.9691421930368
 30
0.0
 11
-14.25416657659252
 21
-336.9887093922146
 31
0.0
  0
ARC
  5
74
  8
OUTSIDE
 10
-17.99366398867392
 20
-386.8486748866365
 30
0.0
 40
49.9999999999995
 50
357.6817539865921
 51
85.71084667118117
  0
ARC
  5
75
  8
OUTSIDE
 10
1335.233204745151
 20
-508.5698819477205
 30
0.0
 40
1308.753114389551
 50
174.7523881138756
 51
185.2055055212006
  0
ARC
  5
76
  8
OUTSIDE
 10
-17.99366396538676
 20
-630.8936771565961
 30
0.0
 40
49.99999999999892
 50
274.2891533288204
 51
4.109204814780493
  0
LINE
  5
77
  8
OUTSIDE
 10
-14.25416655330378
 20
-680.753642651018
 30
0.0
 11
-81.18172923229406
 21
-685.7732098519439
 31
0.0
  0
LINE
  5
78
  8
OUTSIDE
 10
-81.18172923229406
 20
-685.7732098519439
 30
0.0
 11
-83.0514779383351
 21
-660.8432271047325
 31
0.0
  0
ARC
  5
79
  8
OUTSIDE
 10
-87.0402751788302
 20
-661.1423868851482
 30
0.0
 40
3.999999999999993
 50
4.28915314853365
 51
184.2891535285532
  0
LINE
  5
7A
  8
OUTSIDE
 10
-91.02907241734113
 20
-661.4415466920202
 30
0.0
 11
-89.15958354164701
 21
-686.3715489251456
 31
0.0
  0
LINE
  5
7B
  8
OUTSIDE
 10
-89.15958354164701
 20
-686.3715489251456
 30
0.0
 11
-88.85992338548147
 21
-690.3647921321165
 31
0.0
  0
ARC
  5
7C
  8
OUTSIDE
 10
-88.56059779609598
 20
-694.3535769334742
 30
0.0
 40
4.000000000000011
 50
94.29153486122058
 51
274.2915348612196
  0
LINE
  5
7D
  8
OUTSIDE
 10
-88.26127220671054
 20
-698.342361734831
 30
0.0
 11
-85.37887786739896
 21
-698.1260616766879
 31
0.0
  0
ARC
  5
7E
  8
OUTSIDE
 10
-95.35083987079236
 20
-698.874375650151
 30
0.0
 40
10.0000000000001
 50
274.29153486122
 51
4.291534861219104
  0
LINE
  5
7F
  8
OUTSIDE
 10
-94.60252589732897
 20
-708.846337653544
 30
0.0
 11
-97.4759675505407
 21
-709.0619658860126
 31
0.0
  0
LINE
  5
80
  8
OUTSIDE
 10
-97.4759675505407
 20
-709.0619658860126
 30
0.0
 11
-98.37394431869666
 21
-697.0956114819403
 31
0.0
  0
LINE
  5
81
  8
OUTSIDE
 10
-98.37394431869666
 20
-697.0956114819403
 30
0.0
 11
-100.9952207975916
 21
-662.1939079472816
 31
0.0
  0
ARC
  5
82
  8
OUTSIDE
 10
-104.9840172725333
 20
-662.4930779350173
 30
0.0
 40
4.000000000008646
 50
4.289299768269996
 51
184.2895353855061
  0
LINE
  5
83
  8
OUTSIDE
 10
-108.9728125171656
 20
-662.7922643258646
 30
0.0
 11
-106.3434745840124
 21
-697.8469692371248
 31
0.0
  0
LINE
  5
84
  8
OUTSIDE
 10
-106.3434745840124
 20
-697.8469692371248
 30
0.0
 11
-106.2061169060665
 21
-699.6761477188995
 31
0.0
  0
LINE
  5
85
  8
OUTSIDE
 10
-106.2061169060665
 20
-699.6761477188995
 30
0.0
 11
-170.2906836316162
 21
-704.4884212970576
 31
0.0
  0
LINE
  5
86
  8
OUTSIDE
 10
-170.2906836316162
 20
-704.4884212970576
 30
0.0
 11
-170.4271738076194
 21
-702.6707952509325
 31
0.0
  0
LINE
  5
87
  8
OUTSIDE
 10
-170.4271738076194
 20
-702.6707952509325
 30
0.0
 11
-173.0544628220083
 21
-667.7677124176155
 31
0.0
  0
ARC
  5
88
  8
OUTSIDE
 10
-177.0431096659061
 20
-668.0688707724105
 30
0.0
 40
3.99999999999981
 50
4.317861560242902
 51
184.3178484556794
  0
LINE
  5
89
  8
OUTSIDE
 10
-181.0317565786841
 20
-668.3700282149305
 30
0.0
 11
-179.1786066343198
 21
-693.1229756570958
 31
0.0
  0
LINE
  5
8A
  8
OUTSIDE
 10
-179.1786066343198
 20
-693.1229756570958
 30
0.0
 11
-178.282723834763
 21
-705.0894870121012
 31
0.0
  0
LINE
  5
8B
  8
OUTSIDE
 10
-178.282723834763
 20
-705.0894870121012
 30
0.0
 11
-177.5361548351324
 21
-715.0615798079382
 31
0.0
  0
LINE
  5
8C
  8
OUTSIDE
 10
-177.5361548351324
 20
-715.0615798079382
 30
0.0
 11
-180.5277826738836
 21
-715.285550507828
 31
0.0
  0
ARC
  5
8D
  8
OUTSIDE
 10
-181.2743516735142
 20
-705.3134577119902
 30
0.0
 40
9.999999999999966
 50
184.2815088522936
 51
274.2815088522933
  0
LINE
  5
8E
  8
OUTSIDE
 10
-191.2464444693515
 20
-706.0600267116208
 30
0.0
 11
-188.3607986347117
 21
-705.8439904423888
 31
0.0
  0
ARC
  5
8F
  8
OUTSIDE
 10
-188.5562919203101
 20
-701.848770501598
 30
0.0
 40
3.999999999999998
 50
272.8013510212202
 51
94.28915332881796
  0
LINE
  5
90
  8
OUTSIDE
 10
-188.8554517132765
 20
-697.8599732620444
 30
0.0
 11
-189.154611506243
 21
-693.8711760224908
 31
0.0
  0
LINE
  5
91
  8
OUTSIDE
 10
-189.154611506243
 20
-693.8711760224908
 30
0.0
 11
-191.0243602122837
 21
-668.9411932752794
 31
0.0
  0
ARC
  5
92
  8
OUTSIDE
 10
-195.0131574518376
 20
-669.2403530682461
 30
0.0
 40
4.000000000000059
 50
4.289153328818715
 51
184.2891533288187
  0
LINE
  5
93
  8
OUTSIDE
 10
-199.0019546913916
 20
-669.539512861212
 30
0.0
 11
-197.1322059853504
 21
-694.4694956084234
 31
0.0
  0
LINE
  5
94
  8
OUTSIDE
 10
-197.1322059853504
 20
-694.4694956084234
 30
0.0
 11
-296.1770291515398
 21
-701.8978573458874
 31
0.0
  0
ARC
  5
95
  8
OUTSIDE
 10
-300.1658263011648
 20
-702.1970183379065
 30
0.0
 40
4.000000000000157
 50
4.289170552211091
 51
184.2891361054281
  0
LINE
  5
96
  8
OUTSIDE
 10
-304.1546236306475
 20
-702.4961769318209
 30
0.0
 11
-303.2571442517475
 21
-714.4625686504826
 31
0.0
  0
LINE
  5
97
  8
OUTSIDE
 10
-303.2571442517475
 20
-714.4625686504826
 30
0.0
 11
-353.2578934370024
 21
-718.2126248393763
 31
0.0
  0
LINE
  5
98
  8
OUTSIDE
 10
-353.2578934370024
 20
-718.2126248393763
 30
0.0
 11
-354.155372815902
 21
-706.2462331207146
 31
0.0
  0
ARC
  5
99
  8
OUTSIDE
 10
-358.1441700555176
 20
-706.5453929128573
 30
0.0
 40
4.000000000000076
 50
4.289153316982615
 51
184.2891533406548
  0
LINE
  5
9A
  8
OUTSIDE
 10
-362.1329672950097
 20
-706.8445527066481
 30
0.0
 11
-389.5525129726547
 21
-708.8388956112642
 31
0.0
  0
LINE
  5
9B
  8
OUTSIDE
 10
-389.5525129726547
 20
-708.8388956112642
 30
0.0
 11
-389.6790089772752
 21
-652.0873085017595
 31
0.0
  0
LINE
  5
9C
  8
OUTSIDE
 10
-389.6790089772752
 20
-652.0873085017595
 30
0.0
 11
-334.9928311061142
 21
-644.6325723999873
 31
0.0
  0
LINE
  5
9D
  8
OUTSIDE
 10
-334.9928311061142
 20
-644.6325723999873
 30
0.0
 11
-334.9780134292662
 21
-653.275940468194
 31
0.0
  0
ARC
  5
9E
  8
OUTSIDE
 10
-329.9780207766593
 20
-653.2673687777608
 30
0.0
 40
5.000000000000063
 50
180.0982243851268
 51
0.0
  0
LINE
  5
9F
  8
OUTSIDE
 10
-324.9780207766592
 20
-653.2673687777608
 30
0.0
 11
-324.9780207766594
 21
-643.2673687777608
 31
0.0
  0
LINE
  5
A0
  8
OUTSIDE
 10
-324.9780207766594
 20
-643.2673687777608
 30
0.0
 11
-129.2033416107469
 21
-616.5796640339834
 31
0.0
  0
LINE
  5
A1
  8
OUTSIDE
 10
-129.2033416107469
 20
-616.5796640339834
 30
0.0
 11
-129.2061582721136
 21
-623.8722862654424
 31
0.0
  0
ARC
  5
A2
  8
OUTSIDE
 10
-124.2049303653358
 20
-623.8667075788201
 30
0.0
 40
5.001231018187156
 50
180.0639113177968
 51
0.0
  0
LINE
  5
A3
  8
OUTSIDE
 10
-119.2036993471487
 20
-623.8667075788201
 30
0.0
 11
-119.2036993471487
 21
-615.2165280992888
 31
0.0
  0
LINE
  5
A4
  8
OUTSIDE
 10
-119.2036993471487
 20
-615.2165280992888
 30
0.0
 11
-112.3377230380504
 21
-614.2805687132452
 31
0.0
  0
ARC
  5
A5
  8
OUTSIDE
 10
-116.3898011138011
 20
-584.5554839653707
 30
0.0
 40
30.00000000000563
 50
277.7626254079569
 51
0.0003825616546941
  0
LINE
  5
A6
  8
OUTSIDE
 10
-86.3898011144642
 20
-584.555283656556
 30
0.0
 11
-86.38980112529521
 21
-563.8711750473706
 31
0.0
  0
LINE
  5
A7
  8
OUTSIDE
 10
-86.38980112529521
 20
-563.8711750473706
 30
0.0
 11
-84.15461151079211
 21
-563.8711747666714
 31
0.0
  0
ARC
  5
A8
  8
OUTSIDE
 10
-84.15461213415244
 20
-558.8711747666714
 30
0.0
 40
5.000000000000002
 50
270.0000071431826
 51
90.00000714318263
  0
LINE
  5
A9
  8
OUTSIDE
 10
-84.15461275751272
 20
-553.8711747666714
 30
0.0
 11
-86.3898011242502
 21
-553.8711750473706
 31
0.0
  0
LINE
  5
AA
  8
OUTSIDE
 10
-86.3898011242502
 20
-553.8711750473706
 30
0.0
 11
-86.3898011138009
 21
-513.8711760969966
 31
0.0
  0
LINE
  5
AB
  8
OUTSIDE
 10
-86.3898011138009
 20
-513.8711760969966
 30
0.0
 11
-84.1546203724339
 21
-513.8711760969966
 31
0.0
  0
ARC
  5
AC
  8
OUTSIDE
 10
-84.1546203724339
 20
-508.8711760224908
 30
0.0
 40
5.000000074505806
 50
270.0
 51
90.0
  0
LINE
  5
AD
  8
OUTSIDE
 10
-84.1546203724339
 20
-503.871175947985
 30
0.0
 11
-86.3898011138009
 21
-503.871175947985
 31
0.0
  0
LINE
  5
AE
  8
OUTSIDE
 10
-86.3898011138009
 20
-503.871175947985
 30
0.0
 11
-86.3898011138009
 21
-463.8711753519386
 31
0.0
  0
LINE
  5
AF
  8
OUTSIDE
 10
-86.3898011138009
 20
-463.8711753519386
 30
0.0
 11
-84.1546203724339
 21
-463.8711753519386
 31
0.0
  0
ARC
  5
B0
  8
OUTSIDE
 10
-84.1546203724339
 20
-458.8711752774328
 30
0.0
 40
5.000000074505806
 50
270.0
 51
90.0
  0
LINE
  5
B1
  8
OUTSIDE
 10
-84.1546203724339
 20
-453.871175202927
 30
0.0
 11
-86.3898011138009
 21
-453.871175202927
 31
0.0
  0
LINE
  5
B2
  8
OUTSIDE
 10
-86.3898011138009
 20
-453.871175202927
 30
0.0
 11
-86.38980111380101
 21
-433.1868680796109
 31
0.0
  0
ARC
  5
B3
  8
OUTSIDE
 10
-116.3898011138013
 20
-433.1868680796109
 30
0.0
 40
30.00000000000022
 50
0.0
 51
82.23702726698113
  0
LINE
  5
B4
  8
OUTSIDE
 10
-112.3375428456756
 20
-403.4618078958459
 30
0.0
 11
-119.2036993471489
 21
-402.5258239456919
 31
0.0
  0
LINE
  5
B5
  8
OUTSIDE
 10
-119.2036993471489
 20
-402.5258239456919
 30
0.0
 11
-119.2036993471487
 21
-393.8756444661606
 31
0.0
  0
ARC
  5
B6
  8
OUTSIDE
 10
-124.2049303653358
 20
-393.8756444661606
 30
0.0
 40
5.001231018187156
 50
0.0
 51
179.9360886822026
  0
LINE
  5
B7
  8
OUTSIDE
 10
-129.2061582721136
 20
-393.8700657795383
 30
0.0
 11
-129.2033416107467
 21
-401.1626880109982
 31
0.0
  0
LINE
  5
B8
  8
OUTSIDE
 10
-129.2033416107467
 20
-401.1626880109982
 30
0.0
 11
-324.9780207766593
 21
-374.4749832672199
 31
0.0
  0
LINE
  5
B9
  8
OUTSIDE
 10
-324.9780207766593
 20
-374.4749832672199
 30
0.0
 11
-324.9780207766593
 21
-364.4749832672199
 31
0.0
  0
ARC
  5
BA
  8
OUTSIDE
 10
-329.9780207766593
 20
-364.4749832672199
 30
0.0
 40
5.0
 50
0.0
 51
179.9017756148732
  0
LINE
  5
BB
  8
OUTSIDE
 10
-334.9780134292662
 20
-364.4664115767876
 30
0.0
 11
-334.9928311061142
 21
-373.1097796449943
 31
0.0
  0
LINE
  5
BC
  8
OUTSIDE
 10
-334.9928311061142
 20
-373.1097796449943
 30
0.0
 11
-389.5849993997921
 21
-365.6678587849968
 31
0.0
  0
LINE
  5
BD
  8
OUTSIDE
 10
-389.5849993997921
 20
-365.6678587849968
 30
0.0
 11
-389.5849993997921
 21
-308.8388969304745
 31
0.0
  0
LINE
  5
BE
  8
OUTSIDE
 10
-389.5849993997921
 20
-308.8388969304745
 30
0.0
 11
-362.1329672950096
 21
-310.8977993383335
 31
0.0
  0
ARC
  5
BF
  8
OUTSIDE
 10
-358.1441700555176
 20
-311.1969591321234
 30
0.0
 40
3.999999999999906
 50
175.7108466593442
 51
355.7108466830172
  0
LINE
  5
C0
  8
OUTSIDE
 10
-354.1553728159021
 20
-311.4961189242661
 30
0.0
 11
-353.2578934370024
 21
-299.5297272056044
 31
0.0
  0
LINE
  5
C1
  8
OUTSIDE
 10
-353.2578934370024
 20
-299.5297272056044
 30
0.0
 11
-303.2571442517475
 21
-303.279783394499
 31
0.0
  0
LINE
  5
C2
  8
OUTSIDE
 10
-303.2571442517475
 20
-303.279783394499
 30
0.0
 11
-304.1546236306473
 21
-315.2461751131598
 31
0.0
  0
ARC
  5
C3
  8
OUTSIDE
 10
-300.1658263011648
 20
-315.5453337070751
 30
0.0
 40
4.000000000000055
 50
175.7108638945726
 51
355.7108294477889
  0
LINE
  5
C4
  8
OUTSIDE
 10
-296.17702915154
 20
-315.8444946990933
 30
0.0
 11
-197.1322059853504
 21
-323.2728564365573
 31
0.0
  0
LINE
  5
C5
  8
OUTSIDE
 10
-197.1322059853504
 20
-323.2728564365573
 30
0.0
 11
-199.0019546913913
 21
-348.2028391837687
 31
0.0
  0
ARC
  5
C6
  8
OUTSIDE
 10
-195.0131574518376
 20
-348.5019989767355
 30
0.0
 40
3.99999999999992
 50
175.7108466711811
 51
355.710846671182
  0
LINE
  5
C7
  8
OUTSIDE
 10
-191.0243602122839
 20
-348.8011587697022
 30
0.0
 11
-189.154611506243
 21
-323.8711760224908
 31
0.0
  0
LINE
  5
C8
  8
OUTSIDE
 10
-189.154611506243
 20
-323.8711760224908
 30
0.0
 11
-188.8554517132765
 21
-319.8823787829372
 31
0.0
  0
ARC
  5
C9
  8
OUTSIDE
 10
-188.5562919203101
 20
-315.8935815433827
 30
0.0
 40
3.999999999999989
 50
265.710846671182
 51
87.19864897877976
  0
LINE
  5
CA
  8
OUTSIDE
 10
-188.3607986347117
 20
-311.8983616025928
 30
0.0
 11
-191.2464444693516
 21
-311.6823253333599
 31
0.0
  0
ARC
  5
CB
  8
OUTSIDE
 10
-181.2743516735142
 20
-312.4288943329905
 30
0.0
 40
10.0
 50
85.71849114770674
 51
175.7184911477067
  0
LINE
  5
CC
  8
OUTSIDE
 10
-180.5277826738836
 20
-302.4568015371536
 30
0.0
 11
-177.5361548351324
 21
-302.6807722370425
 31
0.0
  0
LINE
  5
CD
  8
OUTSIDE
 10
-177.5361548351324
 20
-302.6807722370425
 30
0.0
 11
-178.282723834763
 21
-312.6528650328804
 31
0.0
  0
LINE
  5
CE
  8
OUTSIDE
 10
-178.282723834763
 20
-312.6528650328804
 30
0.0
 11
-179.1786066343198
 21
-324.6193763878849
 31
0.0
  0
LINE
  5
CF
  8
OUTSIDE
 10
-179.1786066343198
 20
-324.6193763878849
 30
0.0
 11
-181.0317565786846
 21
-349.3723238300502
 31
0.0
  0
ARC
  5
D0
  8
OUTSIDE
 10
-177.0431096659061
 20
-349.6734812725702
 30
0.0
 40
4.000000000000362
 50
175.6821515443212
 51
355.6821384397577
  0
LINE
  5
D1
  8
OUTSIDE
 10
-173.0544628220078
 20
-349.9746396273652
 30
0.0
 11
-170.4271738076194
 21
-315.0715567940491
 31
0.0
  0
LINE
  5
D2
  8
OUTSIDE
 10
-170.4271738076194
 20
-315.0715567940491
 30
0.0
 11
-170.2906836316162
 21
-313.2539307479213
 31
0.0
  0
LINE
  5
D3
  8
OUTSIDE
 10
-170.2906836316162
 20
-313.2539307479213
 30
0.0
 11
-106.2061169060665
 21
-318.0662043260784
 31
0.0
  0
LINE
  5
D4
  8
OUTSIDE
 10
-106.2061169060665
 20
-318.0662043260784
 30
0.0
 11
-106.3434745840122
 21
-319.8953828089491
 31
0.0
  0
LINE
  5
D5
  8
OUTSIDE
 10
-106.3434745840122
 20
-319.8953828089491
 30
0.0
 11
-108.9728125171652
 21
-354.9500877191161
 31
0.0
  0
ARC
  5
D6
  8
OUTSIDE
 10
-104.9840172725333
 20
-355.2492741099634
 30
0.0
 40
4.000000000008358
 50
175.7104646144936
 51
355.7107002317297
  0
LINE
  5
D7
  8
OUTSIDE
 10
-100.9952207975919
 20
-355.5484440976991
 30
0.0
 11
-98.37394431869666
 21
-320.6467405630413
 31
0.0
  0
LINE
  5
D8
  8
OUTSIDE
 10
-98.37394431869666
 20
-320.6467405630413
 30
0.0
 11
-97.4759675505407
 21
-308.680386158969
 31
0.0
  0
LINE
  5
D9
  8
OUTSIDE
 10
-97.4759675505407
 20
-308.680386158969
 30
0.0
 11
-94.60252589732897
 21
-308.8960143914367
 31
0.0
  0
ARC
  5
DA
  8
OUTSIDE
 10
-95.35083987079236
 20
-318.8679763948306
 30
0.0
 40
10.0000000000001
 50
355.7084651387812
 51
85.70846513877993
  0
LINE
  5
DB
  8
OUTSIDE
 10
-85.37887786739896
 20
-319.6162903682937
 30
0.0
 11
-88.26127220671066
 21
-319.3999903101506
 31
0.0
  0
ARC
  5
DC
  8
OUTSIDE
 10
-88.56059779609598
 20
-323.3887751115074
 30
0.0
 40
3.999999999999954
 50
85.70846513878064
 51
265.7084651387798
  0
LINE
  5
DD
  8
OUTSIDE
 10
-397.8314947978004
 20
-199.107882480958
 30
0.0
 11
-397.5318346416349
 21
-203.101125687928
 31
0.0
  0
LINE
  5
DE
  8
OUTSIDE
 10
-397.5318346416349
 20
-203.101125687928
 30
0.0
 11
-395.6623457659406
 21
-228.0311279210543
 31
0.0
  0
ARC
  5
DF
  8
OUTSIDE
 10
-399.6511430044517
 20
-228.3302877279254
 30
0.0
 40
4.00000000000015
 50
184.2891531485335
 51
4.289153528553002
  0
LINE
  5
E0
  8
OUTSIDE
 10
-403.639940244947
 20
-228.6294475083411
 30
0.0
 11
-405.5096889509878
 21
-203.6994647611297
 31
0.0
  0
LINE
  5
E1
  8
OUTSIDE
 10
-405.5096889509878
 20
-203.6994647611297
 30
0.0
 11
-472.4372516066892
 21
-208.7190319603075
 31
0.0
  0
ARC
  5
E2
  8
OUTSIDE
 10
-468.6977541946078
 20
-258.5789974547293
 30
0.0
 40
49.9999999999995
 50
94.28915332881883
 51
182.3182460134079
  0
ARC
  5
E3
  8
OUTSIDE
 10
-1821.924622928433
 20
-380.3002045158133
 30
0.0
 40
1308.753114389551
 50
354.7944944787994
 51
5.247611886124428
  0
ARC
  5
E4
  8
OUTSIDE
 10
-468.697754217895
 20
-502.623999724689
 30
0.0
 40
49.99999999999892
 50
175.8907951852195
 51
265.7108466711795
  0
LINE
  5
E5
  8
OUTSIDE
 10
-472.4372516299779
 20
-552.4839652191109
 30
0.0
 11
-405.5096889509877
 21
-557.5035324200368
 31
0.0
  0
LINE
  5
E6
  8
OUTSIDE
 10
-405.5096889509877
 20
-557.5035324200368
 30
0.0
 11
-403.6399402449466
 21
-532.5735496728254
 31
0.0
  0
ARC
  5
E7
  8
OUTSIDE
 10
-399.6511430044515
 20
-532.8727094532411
 30
0.0
 40
3.999999999999993
 50
355.7108464714468
 51
175.7108468514664
  0
LINE
  5
E8
  8
OUTSIDE
 10
-395.6623457659406
 20
-533.1718692601131
 30
0.0
 11
-397.5318346416347
 21
-558.1018714932385
 31
0.0
  0
LINE
  5
E9
  8
OUTSIDE
 10
-397.5318346416347
 20
-558.1018714932385
 30
0.0
 11
-397.8314947978002
 21
-562.0951147002094
 31
0.0
  0
ARC
  5
EA
  8
OUTSIDE
 10
-398.1308203871857
 20
-566.0838995015671
 30
0.0
 40
4.000000000000011
 50
265.7084651387798
 51
85.70846513877902
  0
LINE
  5
EB
  8
OUTSIDE
 10
-398.4301459765712
 20
-570.0726843029239
 30
0.0
 11
-401.3125403158828
 21
-569.8563842447808
 31
0.0
  0
ARC
  5
EC
  8
OUTSIDE
 10
-391.3405783124894
 20
-570.6046982182439
 30
0.0
 40
10.0000000000001
 50
175.7084651387809
 51
265.7084651387799
  0
LINE
  5
ED
  8
OUTSIDE
 10
-392.0888922859527
 20
-580.5766602216369
 30
0.0
 11
-389.215450632741
 21
-580.7922884541055
 31
0.0
  0
LINE
  5
EE
  8
OUTSIDE
 10
-389.215450632741
 20
-580.7922884541055
 30
0.0
 11
-388.3174738645851
 21
-568.8259340500332
 31
0.0
  0
LINE
  5
EF
  8
OUTSIDE
 10
-388.3174738645851
 20
-568.8259340500332
 30
0.0
 11
-385.6961973856901
 21
-533.9242305153745
 31
0.0
  0
ARC
  5
F0
  8
OUTSIDE
 10
-381.7074009107484
 20
-534.2234005031102
 30
0.0
 40
4.000000000008646
 50
355.7104646144939
 51
175.71070023173
  0
LINE
  5
F1
  8
OUTSIDE
 10
-377.7186056661162
 20
-534.5225868939575
 30
0.0
 11
-380.3479435992693
 21
-569.5772918052177
 31
0.0
  0
LINE
  5
F2
  8
OUTSIDE
 10
-380.3479435992693
 20
-569.5772918052177
 30
0.0
 11
-380.4853012772152
 21
-571.4064702869924
 31
0.0
  0
LINE
  5
F3
  8
OUTSIDE
 10
-380.4853012772152
 20
-571.4064702869924
 30
0.0
 11
-316.4007345516656
 21
-576.2187438651505
 31
0.0
  0
LINE
  5
F4
  8
OUTSIDE
 10
-316.4007345516656
 20
-576.2187438651505
 30
0.0
 11
-316.2642443756623
 21
-574.4011178190254
 31
0.0
  0
LINE
  5
F5
  8
OUTSIDE
 10
-316.2642443756623
 20
-574.4011178190254
 30
0.0
 11
-313.6369553612734
 21
-539.4980349857084
 31
0.0
  0
ARC
  5
F6
  8
OUTSIDE
 10
-309.6483085173756
 20
-539.7991933405034
 30
0.0
 40
3.99999999999981
 50
355.6821515443206
 51
175.6821384397571
  0
LINE
  5
F7
  8
OUTSIDE
 10
-305.6596616045976
 20
-540.1003507830234
 30
0.0
 11
-307.5128115489619
 21
-564.8532982251887
 31
0.0
  0
LINE
  5
F8
  8
OUTSIDE
 10
-307.5128115489619
 20
-564.8532982251887
 30
0.0
 11
-308.4086943485187
 21
-576.8198095801941
 31
0.0
  0
LINE
  5
F9
  8
OUTSIDE
 10
-308.4086943485187
 20
-576.8198095801941
 30
0.0
 11
-309.1552633481493
 21
-586.7919023760311
 31
0.0
  0
LINE
  5
FA
  8
OUTSIDE
 10
-309.1552633481493
 20
-586.7919023760311
 30
0.0
 11
-306.1636355093981
 21
-587.0158730759209
 31
0.0
  0
ARC
  5
FB
  8
OUTSIDE
 10
-305.4170665097675
 20
-577.0437802800831
 30
0.0
 40
9.999999999999966
 50
265.7184911477067
 51
355.7184911477064
  0
LINE
  5
FC
  8
OUTSIDE
 10
-295.4449737139302
 20
-577.7903492797137
 30
0.0
 11
-298.33061954857
 21
-577.5743130104817
 31
0.0
  0
ARC
  5
FD
  8
OUTSIDE
 10
-298.1351262629717
 20
-573.5790930696909
 30
0.0
 40
3.999999999999998
 50
85.71084667118205
 51
267.1986489787798
  0
LINE
  5
FE
  8
OUTSIDE
 10
-297.8359664700052
 20
-569.5902958301373
 30
0.0
 11
-297.5368066770387
 21
-565.6014985905837
 31
0.0
  0
LINE
  5
FF
  8
OUTSIDE
 10
-297.5368066770387
 20
-565.6014985905837
 30
0.0
 11
-295.667057970998
 21
-540.6715158433723
 31
0.0
  0
ARC
  5
100
  8
OUTSIDE
 10
-291.6782607314441
 20
-540.970675636339
 30
0.0
 40
4.000000000000059
 50
355.7108466711813
 51
175.7108466711813
  0
LINE
  5
101
  8
OUTSIDE
 10
-287.6894634918901
 20
-541.2698354293049
 30
0.0
 11
-289.5592121979313
 21
-566.1998181765163
 31
0.0
  0
LINE
  5
102
  8
OUTSIDE
 10
-289.5592121979313
 20
-566.1998181765163
 30
0.0
 11
-190.5143890317419
 21
-573.6281799139803
 31
0.0
  0
ARC
  5
103
  8
OUTSIDE
 10
-186.5255918821169
 20
-573.9273409059994
 30
0.0
 40
4.000000000000157
 50
355.7108638945718
 51
175.7108294477889
  0
LINE
  5
104
  8
OUTSIDE
 10
-182.5367945526342
 20
-574.2264994999138
 30
0.0
 11
-183.4342739315342
 21
-586.1928912185755
 31
0.0
  0
LINE
  5
105
  8
OUTSIDE
 10
-183.4342739315342
 20
-586.1928912185755
 30
0.0
 11
-133.4335247462793
 21
-589.9429474074692
 31
0.0
  0
LINE
  5
106
  8
OUTSIDE
 10
-133.4335247462793
 20
-589.9429474074692
 30
0.0
 11
-132.5360453673798
 21
-577.9765556888075
 31
0.0
  0
ARC
  5
107
  8
OUTSIDE
 10
-128.5472481277641
 20
-578.2757154809502
 30
0.0
 40
4.000000000000076
 50
355.7108466593452
 51
175.7108466830174
  0
LINE
  5
108
  8
OUTSIDE
 10
-124.558450888272
 20
-578.574875274741
 30
0.0
 11
-97.13890521062706
 21
-580.5692181793571
 31
0.0
  0
LINE
  5
109
  8
OUTSIDE
 10
-97.13890521062706
 20
-580.5692181793571
 30
0.0
 11
-97.01240920600651
 21
-523.8176310698524
 31
0.0
  0
LINE
  5
10A
  8
OUTSIDE
 10
-97.01240920600651
 20
-523.8176310698524
 30
0.0
 11
-151.6985870771675
 21
-516.3628949680802
 31
0.0
  0
LINE
  5
10B
  8
OUTSIDE
 10
-151.6985870771675
 20
-516.3628949680802
 30
0.0
 11
-151.7134047540155
 21
-525.0062630362869
 31
0.0
  0
ARC
  5
10C
  8
OUTSIDE
 10
-156.7133974066224
 20
-524.9976913458537
 30
0.0
 40
5.000000000000063
 50
180.0
 51
359.9017756148733
  0
LINE
  5
10D
  8
OUTSIDE
 10
-161.7133974066225
 20
-524.9976913458537
 30
0.0
 11
-161.7133974066223
 21
-514.9976913458537
 31
0.0
  0
LINE
  5
10E
  8
OUTSIDE
 10
-161.7133974066223
 20
-514.9976913458537
 30
0.0
 11
-357.4880765725348
 21
-488.3099866020763
 31
0.0
  0
LINE
  5
10F
  8
OUTSIDE
 10
-357.4880765725348
 20
-488.3099866020763
 30
0.0
 11
-357.4852599111681
 21
-495.6026088335353
 31
0.0
  0
ARC
  5
110
  8
OUTSIDE
 10
-362.4864878179459
 20
-495.597030146913
 30
0.0
 40
5.001231018187156
 50
180.0
 51
359.9360886822026
  0
LINE
  5
111
  8
OUTSIDE
 10
-367.487718836133
 20
-495.597030146913
 30
0.0
 11
-367.487718836133
 21
-486.9468506673817
 31
0.0
  0
LINE
  5
112
  8
OUTSIDE
 10
-367.487718836133
 20
-486.9468506673817
 30
0.0
 11
-374.3536951452313
 21
-486.0108912813381
 31
0.0
  0
ARC
  5
113
  8
OUTSIDE
 10
-370.3016170694806
 20
-456.2858065334636
 30
0.0
 40
30.00000000000563
 50
179.9996174383453
 51
262.2373745920431
  0
LINE
  5
114
  8
OUTSIDE
 10
-400.3016170688175
 20
-456.2856062246489
 30
0.0
 11
-400.3016170579865
 21
-435.6014976154635
 31
0.0
  0
LINE
  5
115
  8
OUTSIDE
 10
-400.3016170579865
 20
-435.6014976154635
 30
0.0
 11
-402.5368066724896
 21
-435.6014973347643
 31
0.0
  0
ARC
  5
116
  8
OUTSIDE
 10
-402.5368060491293
 20
-430.6014973347643
 30
0.0
 40
5.000000000000002
 50
89.99999285681739
 51
269.9999928568174
  0
LINE
  5
117
  8
OUTSIDE
 10
-402.536805425769
 20
-425.6014973347643
 30
0.0
 11
-400.3016170590315
 21
-425.6014976154635
 31
0.0
  0
LINE
  5
118
  8
OUTSIDE
 10
-400.3016170590315
 20
-425.6014976154635
 30
0.0
 11
-400.3016170694808
 21
-385.6014986650895
 31
0.0
  0
LINE
  5
119
  8
OUTSIDE
 10
-400.3016170694808
 20
-385.6014986650895
 30
0.0
 11
-402.5367978108478
 21
-385.6014986650895
 31
0.0
  0
ARC
  5
11A
  8
OUTSIDE
 10
-402.5367978108478
 20
-380.6014985905837
 30
0.0
 40
5.000000074505806
 50
90.0
 51
270.0
  0
LINE
  5
11B
  8
OUTSIDE
 10
-402.5367978108478
 20
-375.6014985160779
 30
0.0
 11
-400.3016170694808
 21
-375.6014985160779
 31
0.0
  0
LINE
  5
11C
  8
OUTSIDE
 10
-400.3016170694808
 20
-375.6014985160779
 30
0.0
 11
-400.3016170694808
 21
-335.6014979200314
 31
0.0
  0
LINE
  5
11D
  8
OUTSIDE
 10
-400.3016170694808
 20
-335.6014979200314
 30
0.0
 11
-402.5367978108478
 21
-335.6014979200314
 31
0.0
  0
ARC
  5
11E
  8
OUTSIDE
 10
-402.5367978108478
 20
-330.6014978455256
 30
0.0
 40
5.000000074505806
 50
90.0
 51
270.0
  0
LINE
  5
11F
  8
OUTSIDE
 10
-402.5367978108478
 20
-325.6014977710198
 30
0.0
 11
-400.3016170694808
 21
-325.6014977710198
 31
0.0
  0
LINE
  5
120
  8
OUTSIDE
 10
-400.3016170694808
 20
-325.6014977710198
 30
0.0
 11
-400.3016170694807
 21
-304.9171906477037
 31
0.0
  0
ARC
  5
121
  8
OUTSIDE
 10
-370.3016170694804
 20
-304.9171906477037
 30
0.0
 40
30.00000000000022
 50
97.76297273301883
 51
180.0
  0
LINE
  5
122
  8
OUTSIDE
 10
-374.3538753376062
 20
-275.1921304639387
 30
0.0
 11
-367.4877188361328
 21
-274.2561465137848
 31
0.0
  0
LINE
  5
123
  8
OUTSIDE
 10
-367.4877188361328
 20
-274.2561465137848
 30
0.0
 11
-367.487718836133
 21
-265.6059670342535
 31
0.0
  0
ARC
  5
124
  8
OUTSIDE
 10
-362.4864878179459
 20
-265.6059670342535
 30
0.0
 40
5.001231018187156
 50
0.0639113177974218
 51
180.0
  0
LINE
  5
125
  8
OUTSIDE
 10
-357.4852599111681
 20
-265.6003883476311
 30
0.0
 11
-357.488076572535
 21
-272.8930105790911
 31
0.0
  0
LINE
  5
126
  8
OUTSIDE
 10
-357.488076572535
 20
-272.8930105790911
 30
0.0
 11
-161.7133974066224
 21
-246.2053058353128
 31
0.0
  0
LINE
  5
127
  8
OUTSIDE
 10
-161.7133974066224
 20
-246.2053058353128
 30
0.0
 11
-161.7133974066224
 21
-236.2053058353128
 31
0.0
  0
ARC
  5
128
  8
OUTSIDE
 10
-156.7133974066224
 20
-236.2053058353128
 30
0.0
 40
5.0
 50
0.0982243851264455
 51
180.0
  0
LINE
  5
129
  8
OUTSIDE
 10
-151.7134047540155
 20
-236.1967341448805
 30
0.0
 11
-151.6985870771675
 21
-244.8401022130871
 31
0.0
  0
LINE
  5
12A
  8
OUTSIDE
 10
-151.6985870771675
 20
-244.8401022130871
 30
0.0
 11
-97.10641878348963
 21
-237.3981813530897
 31
0.0
  0
LINE
  5
12B
  8
OUTSIDE
 10
-97.10641878348963
 20
-237.3981813530897
 30
0.0
 11
-97.10641878348963
 21
-180.5692194985674
 31
0.0
  0
LINE
  5
12C
  8
OUTSIDE
 10
-97.10641878348963
 20
-180.5692194985674
 30
0.0
 11
-124.5584508882721
 21
-182.6281219064264
 31
0.0
  0
ARC
  5
12D
  8
OUTSIDE
 10
-128.5472481277641
 20
-182.9272817002162
 30
0.0
 40
3.999999999999906
 50
184.2891533169827
 51
4.289153340655402
  0
LINE
  5
12E
  8
OUTSIDE
 10
-132.5360453673796
 20
-183.226441492359
 30
0.0
 11
-133.4335247462793
 21
-171.2600497736973
 31
0.0
  0
LINE
  5
12F
  8
OUTSIDE
 10
-133.4335247462793
 20
-171.2600497736973
 30
0.0
 11
-183.4342739315342
 21
-175.0101059625919
 31
0.0
  0
LINE
  5
130
  8
OUTSIDE
 10
-183.4342739315342
 20
-175.0101059625919
 30
0.0
 11
-182.5367945526344
 21
-186.9764976812527
 31
0.0
  0
ARC
  5
131
  8
OUTSIDE
 10
-186.5255918821169
 20
-187.275656275168
 30
0.0
 40
4.000000000000055
 50
184.2891705522115
 51
4.28913610542789
  0
LINE
  5
132
  8
OUTSIDE
 10
-190.5143890317418
 20
-187.5748172671862
 30
0.0
 11
-289.5592121979313
 21
-195.0031790046502
 31
0.0
  0
LINE
  5
133
  8
OUTSIDE
 10
-289.5592121979313
 20
-195.0031790046502
 30
0.0
 11
-287.6894634918904
 21
-219.9331617518616
 31
0.0
  0
ARC
  5
134
  8
OUTSIDE
 10
-291.6782607314441
 20
-220.2323215448284
 30
0.0
 40
3.99999999999992
 50
184.2891533288181
 51
4.289153328818896
  0
LINE
  5
135
  8
OUTSIDE
 10
-295.6670579709978
 20
-220.5314813377951
 30
0.0
 11
-297.5368066770387
 21
-195.6014985905837
 31
0.0
  0
LINE
  5
136
  8
OUTSIDE
 10
-297.5368066770387
 20
-195.6014985905837
 30
0.0
 11
-297.8359664700052
 21
-191.6127013510301
 31
0.0
  0
ARC
  5
137
  8
OUTSIDE
 10
-298.1351262629717
 20
-187.6239041114756
 30
0.0
 40
3.999999999999989
 50
92.80135102122024
 51
274.2891533288179
  0
LINE
  5
138
  8
OUTSIDE
 10
-298.33061954857
 20
-183.6286841706857
 30
0.0
 11
-295.4449737139302
 21
-183.4126479014527
 31
0.0
  0
ARC
  5
139
  8
OUTSIDE
 10
-305.4170665097675
 20
-184.1592169010834
 30
0.0
 40
10.0
 50
4.281508852293253
 51
94.28150885229327
  0
LINE
  5
13A
  8
OUTSIDE
 10
-306.1636355093981
 20
-174.1871241052465
 30
0.0
 11
-309.1552633481493
 21
-174.4110948051354
 31
0.0
  0
LINE
  5
13B
  8
OUTSIDE
 10
-309.1552633481493
 20
-174.4110948051354
 30
0.0
 11
-308.4086943485187
 21
-184.3831876009732
 31
0.0
  0
LINE
  5
13C
  8
OUTSIDE
 10
-308.4086943485187
 20
-184.3831876009732
 30
0.0
 11
-307.5128115489619
 21
-196.3496989559777
 31
0.0
  0
LINE
  5
13D
  8
OUTSIDE
 10
-307.5128115489619
 20
-196.3496989559777
 30
0.0
 11
-305.6596616045971
 21
-221.1026463981431
 31
0.0
  0
ARC
  5
13E
  8
OUTSIDE
 10
-309.6483085173756
 20
-221.4038038406631
 30
0.0
 40
4.000000000000362
 50
184.3178615602427
 51
4.317848455679222
  0
LINE
  5
13F
  8
OUTSIDE
 10
-313.6369553612739
 20
-221.7049621954581
 30
0.0
 11
-316.2642443756623
 21
-186.8018793621419
 31
0.0
  0
LINE
  5
140
  8
OUTSIDE
 10
-316.2642443756623
 20
-186.8018793621419
 30
0.0
 11
-316.4007345516656
 21
-184.9842533160142
 31
0.0
  0
LINE
  5
141
  8
OUTSIDE
 10
-316.4007345516656
 20
-184.9842533160142
 30
0.0
 11
-380.4853012772152
 21
-189.7965268941713
 31
0.0
  0
LINE
  5
142
  8
OUTSIDE
 10
-380.4853012772152
 20
-189.7965268941713
 30
0.0
 11
-380.3479435992695
 21
-191.625705377042
 31
0.0
  0
LINE
  5
143
  8
OUTSIDE
 10
-380.3479435992695
 20
-191.625705377042
 30
0.0
 11
-377.7186056661166
 21
-226.680410287209
 31
0.0
  0
ARC
  5
144
  8
OUTSIDE
 10
-381.7074009107484
 20
-226.9795966780563
 30
0.0
 40
4.000000000008358
 50
184.2892997682699
 51
4.289535385506033
  0
LINE
  5
145
  8
OUTSIDE
 10
-385.6961973856899
 20
-227.278766665792
 30
0.0
 11
-388.3174738645851
 21
-192.3770631311342
 31
0.0
  0
LINE
  5
146
  8
OUTSIDE
 10
-388.3174738645851
 20
-192.3770631311342
 30
0.0
 11
-389.215450632741
 21
-180.4107087270619
 31
0.0
  0
LINE
  5
147
  8
OUTSIDE
 10
-389.215450632741
 20
-180.4107087270619
 30
0.0
 11
-392.0888922859527
 21
-180.6263369595296
 31
0.0
  0
ARC
  5
148
  8
OUTSIDE
 10
-391.3405783124894
 20
-190.5982989629235
 30
0.0
 40
10.0000000000001
 50
94.29153486122011
 51
184.2915348612189
  0
LINE
  5
149
  8
OUTSIDE
 10
-401.3125403158828
 20
-191.3466129363866
 30
0.0
 11
-398.4301459765711
 21
-191.1303128782435
 31
0.0
  0
ARC
  5
14A
  8
OUTSIDE
 10
-398.1308203871857
 20
-195.1190976796003
 30
0.0
 40
3.999999999999954
 50
274.2915348612202
 51
94.29153486121936
  0
LINE
  5
14B
  8
OUTSIDE
 10
-205.4534618866101
 20
195.941409733279
 30
0.0
 11
-209.45346188661
 21
195.9414097332791
 31
0.0
  0
LINE
  5
14C
  8
OUTSIDE
 10
-209.45346188661
 20
195.9414097332791
 30
0.0
 11
-559.45346188661
 21
195.9414097332791
 31
0.0
  0
LINE
  5
14D
  8
OUTSIDE
 10
-559.45346188661
 20
195.9414097332791
 30
0.0
 11
-559.45346188661
 21
20.9414097332791
 31
0.0
  0
LINE
  5
14E
  8
OUTSIDE
 10
-559.45346188661
 20
20.9414097332791
 30
0.0
 11
-559.45346188661
 21
-154.0585902667209
 31
0.0
  0
LINE
  5
14F
  8
OUTSIDE
 10
-559.45346188661
 20
-154.0585902667209
 30
0.0
 11
-209.45346188661
 21
-154.0585902667209
 31
0.0
  0
LINE
  5
150
  8
OUTSIDE
 10
-209.45346188661
 20
-154.0585902667209
 30
0.0
 11
-205.4534618866101
 21
-154.0585902667208
 31
0.0
  0
ARC
  5
151
  8
OUTSIDE
 10
-205.4534618866101
 20
-145.0585902667208
 30
0.0
 40
9.000000000000021
 50
270.0000000000002
 51
0.0
  0
LINE
  5
152
  8
OUTSIDE
 10
-196.4534618866101
 20
-145.0585902667208
 30
0.0
 11
-196.4534618866101
 21
-75.55859026672084
 31
0.0
  0
ARC
  5
153
  8
OUTSIDE
 10
-192.4534618866101
 20
-75.55859026672084
 30
0.0
 40
4.0
 50
90.00000000000082
 51
180.0
  0
ARC
  5
154
  8
OUTSIDE
 10
-192.4534618866101
 20
-75.55859026672084
 30
0.0
 40
4.0
 50
0.0
 51
90.00000000000082
  0
LINE
  5
155
  8
OUTSIDE
 10
-188.4534618866101
 20
-75.55859026672084
 30
0.0
 11
-188.4534618866101
 21
-145.0585902667208
 31
0.0
  0
ARC
  5
156
  8
OUTSIDE
 10
-179.4534618866101
 20
-145.0585902667208
 30
0.0
 40
9.0
 50
180.0
 51
270.0
  0
ARC
  5
157
  8
OUTSIDE
 10
-179.4534618866101
 20
-145.0585902667208
 30
0.0
 40
9.0
 50
270.0
 51
0.0
  0
LINE
  5
158
  8
OUTSIDE
 10
-170.4534618866101
 20
-145.0585902667208
 30
0.0
 11
-170.4534618866101
 21
-75.55859026672084
 31
0.0
  0
ARC
  5
159
  8
OUTSIDE
 10
-166.4534618866101
 20
-75.55859026672084
 30
0.0
 40
4.0
 50
90.00000000000082
 51
180.0
  0
ARC
  5
15A
  8
OUTSIDE
 10
-166.4534618866101
 20
-75.55859026672084
 30
0.0
 40
4.0
 50
0.0
 51
90.00000000000082
  0
LINE
  5
15B
  8
OUTSIDE
 10
-162.4534618866101
 20
-75.55859026672084
 30
0.0
 11
-162.4534618866101
 21
-145.0585902667208
 31
0.0
  0
ARC
  5
15C
  8
OUTSIDE
 10
-153.4534618866101
 20
-145.0585902667208
 30
0.0
 40
9.0
 50
180.0
 51
270.0
  0
ARC
  5
15D
  8
OUTSIDE
 10
-153.4534618866101
 20
-145.0585902667208
 30
0.0
 40
9.0
 50
270.0
 51
0.0
  0
LINE
  5
15E
  8
OUTSIDE
 10
-144.4534618866101
 20
-145.0585902667208
 30
0.0
 11
-144.4534618866101
 21
-75.55859026672084
 31
0.0
  0
ARC
  5
15F
  8
OUTSIDE
 10
-140.4534618866101
 20
-75.55859026672084
 30
0.0
 40
4.0
 50
90.0
 51
180.0
  0
ARC
  5
160
  8
OUTSIDE
 10
-140.4534618866101
 20
-75.55859026672084
 30
0.0
 40
4.0
 50
0.0
 51
90.0
  0
LINE
  5
161
  8
OUTSIDE
 10
-136.4534618866101
 20
-75.55859026672084
 30
0.0
 11
-136.4534618866101
 21
-145.0585902667208
 31
0.0
  0
ARC
  5
162
  8
OUTSIDE
 10
-127.4534618866101
 20
-145.0585902667208
 30
0.0
 40
9.0
 50
180.0000000000002
 51
270.0000000000001
  0
ARC
  5
163
  8
OUTSIDE
 10
-127.4534618866101
 20
-145.0585902667208
 30
0.0
 40
8.999999999999986
 50
269.9999999999999
 51
359.9999999999998
  0
LINE
  5
164
  8
OUTSIDE
 10
-118.4534618866101
 20
-145.0585902667208
 30
0.0
 11
-118.45346188661
 21
-75.55859026672084
 31
0.0
  0
ARC
  5
165
  8
OUTSIDE
 10
-114.4534618866101
 20
-75.55859026672084
 30
0.0
 40
3.999999999999972
 50
90.0000000000004
 51
180.0
  0
ARC
  5
166
  8
OUTSIDE
 10
-114.4534618866101
 20
-75.55859026672084
 30
0.0
 40
3.999999999999972
 50
0.0
 51
90.0000000000004
  0
LINE
  5
167
  8
OUTSIDE
 10
-110.4534618866101
 20
-75.55859026672084
 30
0.0
 11
-110.4534618866101
 21
-145.0585902667208
 31
0.0
  0
ARC
  5
168
  8
OUTSIDE
 10
-101.4534618866101
 20
-145.0585902667208
 30
0.0
 40
9.0
 50
180.0
 51
270.0
  0
ARC
  5
169
  8
OUTSIDE
 10
-101.4534618866101
 20
-145.0585902667208
 30
0.0
 40
9.0
 50
270.0
 51
0.0
  0
LINE
  5
16A
  8
OUTSIDE
 10
-92.4534618866101
 20
-145.0585902667208
 30
0.0
 11
-92.45346188661006
 21
-75.55859026672084
 31
0.0
  0
ARC
  5
16B
  8
OUTSIDE
 10
-88.45346188661009
 20
-75.55859026672084
 30
0.0
 40
3.999999999999972
 50
89.99999999999959
 51
180.0
  0
ARC
  5
16C
  8
OUTSIDE
 10
-88.45346188661003
 20
-75.55859026672084
 30
0.0
 40
3.999999999999972
 50
0.0
 51
90.0000000000004
  0
LINE
  5
16D
  8
OUTSIDE
 10
-84.45346188661006
 20
-75.55859026672084
 30
0.0
 11
-84.45346188661
 21
-145.0585902667208
 31
0.0
  0
ARC
  5
16E
  8
OUTSIDE
 10
-75.45346188661004
 20
-145.0585902667208
 30
0.0
 40
8.999999999999957
 50
180.0
 51
269.9999999999999
  0
ARC
  5
16F
  8
OUTSIDE
 10
-75.45346188661001
 20
-145.0585902667208
 30
0.0
 40
8.999999999999957
 50
269.9999999999997
 51
0.0
  0
LINE
  5
170
  8
OUTSIDE
 10
-66.45346188661006
 20
-145.0585902667208
 30
0.0
 11
-66.45346188661006
 21
-75.55859026672084
 31
0.0
  0
ARC
  5
171
  8
OUTSIDE
 10
-62.45346188661006
 20
-75.55859026672084
 30
0.0
 40
4.0
 50
90.0
 51
180.0
  0
ARC
  5
172
  8
OUTSIDE
 10
-62.45346188661006
 20
-75.55859026672084
 30
0.0
 40
4.0
 50
0.0
 51
90.0
  0
LINE
  5
173
  8
OUTSIDE
 10
-58.45346188661006
 20
-75.55859026672084
 30
0.0
 11
-58.45346188661006
 21
-145.0585902667208
 31
0.0
  0
ARC
  5
174
  8
OUTSIDE
 10
-49.45346188661006
 20
-145.0585902667208
 30
0.0
 40
9.0
 50
180.0
 51
270.0
  0
ARC
  5
175
  8
OUTSIDE
 10
-49.45346188661006
 20
-145.0585902667208
 30
0.0
 40
9.0
 50
270.0
 51
0.0
  0
LINE
  5
176
  8
OUTSIDE
 10
-40.45346188661006
 20
-145.0585902667208
 30
0.0
 11
-40.45346188661006
 21
-75.55859026672084
 31
0.0
  0
ARC
  5
177
  8
OUTSIDE
 10
-36.45346188661006
 20
-75.55859026672084
 30
0.0
 40
4.0
 50
90.0
 51
180.0
  0
ARC
  5
178
  8
OUTSIDE
 10
-36.45346188661006
 20
-75.55859026672084
 30
0.0
 40
4.0
 50
0.0
 51
90.0
  0
LINE
  5
179
  8
OUTSIDE
 10
-32.45346188661006
 20
-75.55859026672084
 30
0.0
 11
-32.45346188661006
 21
-145.0585902667208
 31
0.0
  0
ARC
  5
17A
  8
OUTSIDE
 10
-23.45346188661006
 20
-145.0585902667208
 30
0.0
 40
9.0
 50
180.0
 51
270.0
  0
ARC
  5
17B
  8
OUTSIDE
 10
-23.45346188661006
 20
-145.0585902667208
 30
0.0
 40
9.0
 50
270.0
 51
0.0
  0
LINE
  5
17C
  8
OUTSIDE
 10
-14.45346188661006
 20
-145.0585902667208
 30
0.0
 11
-14.45346188661
 21
-75.55859026672084
 31
0.0
  0
ARC
  5
17D
  8
OUTSIDE
 10
-10.45346188661003
 20
-75.55859026672084
 30
0.0
 40
3.999999999999972
 50
90.0000000000004
 51
180.0
  0
ARC
  5
17E
  8
OUTSIDE
 10
-10.45346188661003
 20
-75.55859026672084
 30
0.0
 40
3.999999999999972
 50
0.0
 51
90.0000000000004
  0
LINE
  5
17F
  8
OUTSIDE
 10
-6.453461886610061
 20
-75.55859026672084
 30
0.0
 11
-6.453461886610057
 21
-145.0585902667208
 31
0.0
  0
ARC
  5
180
  8
OUTSIDE
 10
2.546538113389999
 20
-145.0585902667208
 30
0.0
 40
9.000000000000057
 50
180.0
 51
269.9999999999997
  0
ARC
  5
181
  8
OUTSIDE
 10
2.546538113389999
 20
-145.0585902667208
 30
0.0
 40
9.000000000000057
 50
269.9999999999997
 51
0.0
  0
LINE
  5
182
  8
OUTSIDE
 10
11.54653811339006
 20
-145.0585902667208
 30
0.0
 11
11.54653811338994
 21
-75.55859026672084
 31
0.0
  0
ARC
  5
183
  8
OUTSIDE
 10
15.54653811338994
 20
-75.55859026672084
 30
0.0
 40
4.0
 50
90.0
 51
180.0
  0
ARC
  5
184
  8
OUTSIDE
 10
15.54653811338994
 20
-75.55859026672084
 30
0.0
 40
4.0
 50
0.0
 51
90.0
  0
LINE
  5
185
  8
OUTSIDE
 10
19.54653811338994
 20
-75.55859026672084
 30
0.0
 11
19.54653811338994
 21
-145.0585902667208
 31
0.0
  0
ARC
  5
186
  8
OUTSIDE
 10
28.54653811339
 20
-145.0585902667208
 30
0.0
 40
9.00000000000006
 50
180.0
 51
269.9999999999996
  0
ARC
  5
187
  8
OUTSIDE
 10
28.54653811339
 20
-145.0585902667208
 30
0.0
 40
9.000000000000057
 50
269.9999999999996
 51
0.0
  0
LINE
  5
188
  8
OUTSIDE
 10
37.54653811339006
 20
-145.0585902667208
 30
0.0
 11
37.54653811339006
 21
-75.55859026672084
 31
0.0
  0
ARC
  5
189
  8
OUTSIDE
 10
41.54653811338994
 20
-75.55859026672084
 30
0.0
 40
3.999999999999886
 50
90.0
 51
180.0
  0
ARC
  5
18A
  8
OUTSIDE
 10
41.54653811338994
 20
-75.55859026672084
 30
0.0
 40
4.000000000000114
 50
0.0
 51
90.0
  0
LINE
  5
18B
  8
OUTSIDE
 10
45.54653811339006
 20
-75.55859026672084
 30
0.0
 11
45.54653811338994
 21
-145.0585902667208
 31
0.0
  0
ARC
  5
18C
  8
OUTSIDE
 10
54.54653811338994
 20
-145.0585902667208
 30
0.0
 40
9.0
 50
180.0
 51
270.0
  0
ARC
  5
18D
  8
OUTSIDE
 10
54.54653811338994
 20
-145.0585902667208
 30
0.0
 40
9.0
 50
270.0
 51
0.0
  0
LINE
  5
18E
  8
OUTSIDE
 10
63.54653811338994
 20
-145.0585902667208
 30
0.0
 11
63.54653811338994
 21
-75.55859026672084
 31
0.0
  0
ARC
  5
18F
  8
OUTSIDE
 10
67.54653811338983
 20
-75.55859026672084
 30
0.0
 40
3.999999999999886
 50
89.99999999999756
 51
180.0
  0
ARC
  5
190
  8
OUTSIDE
 10
67.54653811339028
 20
-75.55859026672084
 30
0.0
 40
3.999999999999886
 50
0.0
 51
90.00000000000408
  0
LINE
  5
191
  8
OUTSIDE
 10
71.54653811339017
 20
-75.55859026672084
 30
0.0
 11
71.54653811338994
 21
-145.0585902667208
 31
0.0
  0
ARC
  5
192
  8
OUTSIDE
 10
80.54653811339
 20
-145.0585902667208
 30
0.0
 40
9.000000000000057
 50
180.0
 51
269.9999999999997
  0
ARC
  5
193
  8
OUTSIDE
 10
80.54653811339
 20
-145.0585902667208
 30
0.0
 40
9.000000000000057
 50
269.9999999999997
 51
0.0
  0
LINE
  5
194
  8
OUTSIDE
 10
89.54653811339006
 20
-145.0585902667208
 30
0.0
 11
89.54653811339017
 21
-75.55859026672084
 31
0.0
  0
ARC
  5
195
  8
OUTSIDE
 10
93.54653811338997
 20
-75.55859026672078
 30
0.0
 40
3.999999999999801
 50
89.99999999999878
 51
180.0000000000008
  0
ARC
  5
196
  8
OUTSIDE
 10
93.54653811339031
 20
-75.55859026672084
 30
0.0
 40
3.999999999999858
 50
0.0
 51
90.00000000000365
  0
LINE
  5
197
  8
OUTSIDE
 10
97.54653811339017
 20
-75.55859026672084
 30
0.0
 11
97.5465381133899
 21
-145.0585902667208
 31
0.0
  0
ARC
  5
198
  8
OUTSIDE
 10
106.5465381133899
 20
-145.0585902667208
 30
0.0
 40
9.0
 50
180.0
 51
270.0
  0
ARC
  5
199
  8
OUTSIDE
 10
106.5465381133899
 20
-145.0585902667208
 30
0.0
 40
9.0
 50
270.0
 51
0.0
  0
LINE
  5
19A
  8
OUTSIDE
 10
115.5465381133899
 20
-145.0585902667208
 30
0.0
 11
115.5465381133901
 21
-75.55859026672084
 31
0.0
  0
ARC
  5
19B
  8
OUTSIDE
 10
119.5465381133899
 20
-75.55859026672078
 30
0.0
 40
3.999999999999801
 50
89.99999999999837
 51
180.0000000000008
  0
ARC
  5
19C
  8
OUTSIDE
 10
119.5465381133903
 20
-75.55859026672084
 30
0.0
 40
3.999999999999858
 50
0.0
 51
90.00000000000408
  0
LINE
  5
19D
  8
OUTSIDE
 10
123.5465381133902
 20
-75.55859026672084
 30
0.0
 11
123.5465381133899
 21
-145.0585902667208
 31
0.0
  0
ARC
  5
19E
  8
OUTSIDE
 10
132.5465381133899
 20
-145.0585902667208
 30
0.0
 40
9.0
 50
180.0
 51
270.0
  0
ARC
  5
19F
  8
OUTSIDE
 10
132.5465381133899
 20
-145.0585902667208
 30
0.0
 40
9.0
 50
270.0
 51
0.0
  0
LINE
  5
1A0
  8
OUTSIDE
 10
141.5465381133899
 20
-145.0585902667208
 30
0.0
 11
141.5465381133901
 21
-75.55859026672084
 31
0.0
  0
ARC
  5
1A1
  8
OUTSIDE
 10
145.5465381133899
 20
-75.55859026672078
 30
0.0
 40
3.999999999999801
 50
89.99999999999797
 51
180.0000000000008
  0
ARC
  5
1A2
  8
OUTSIDE
 10
145.5465381133903
 20
-75.55859026672084
 30
0.0
 40
3.999999999999858
 50
0.0
 51
90.00000000000408
  0
LINE
  5
1A3
  8
OUTSIDE
 10
149.5465381133902
 20
-75.55859026672084
 30
0.0
 11
149.5465381133899
 21
-145.0585902667208
 31
0.0
  0
ARC
  5
1A4
  8
OUTSIDE
 10
158.5465381133899
 20
-145.0585902667208
 30
0.0
 40
9.0
 50
180.0
 51
270.0
  0
ARC
  5
1A5
  8
OUTSIDE
 10
158.5465381133899
 20
-145.0585902667208
 30
0.0
 40
9.0
 50
270.0
 51
0.0
  0
LINE
  5
1A6
  8
OUTSIDE
 10
167.5465381133899
 20
-145.0585902667208
 30
0.0
 11
167.5465381133899
 21
-75.55859026672084
 31
0.0
  0
ARC
  5
1A7
  8
OUTSIDE
 10
171.5465381133898
 20
-75.55859026672084
 30
0.0
 40
3.999999999999858
 50
89.99999999999756
 51
180.0
  0
ARC
  5
1A8
  8
OUTSIDE
 10
171.5465381133902
 20
-75.55859026672084
 30
0.0
 40
3.999999999999829
 50
0.0
 51
90.00000000000325
  0
LINE
  5
1A9
  8
OUTSIDE
 10
175.54653811339
 20
-75.55859026672084
 30
0.0
 11
175.5465381133899
 21
-145.0585902667208
 31
0.0
  0
ARC
  5
1AA
  8
OUTSIDE
 10
184.5465381133899
 20
-145.0585902667208
 30
0.0
 40
9.0
 50
180.0
 51
270.0
  0
ARC
  5
1AB
  8
OUTSIDE
 10
184.5465381133899
 20
-145.0585902667208
 30
0.0
 40
9.0
 50
270.0
 51
0.0
  0
LINE
  5
1AC
  8
OUTSIDE
 10
193.5465381133899
 20
-145.0585902667208
 30
0.0
 11
193.5465381133899
 21
-75.55859026672084
 31
0.0
  0
ARC
  5
1AD
  8
OUTSIDE
 10
197.5465381133899
 20
-75.55859026672084
 30
0.0
 40
4.0
 50
90.0
 51
180.0
  0
ARC
  5
1AE
  8
OUTSIDE
 10
197.5465381133899
 20
-75.55859026672084
 30
0.0
 40
4.0
 50
0.0
 51
90.0
  0
LINE
  5
1AF
  8
OUTSIDE
 10
201.5465381133899
 20
-75.55859026672084
 30
0.0
 11
201.5465381133899
 21
-145.0585902667208
 31
0.0
  0
ARC
  5
1B0
  8
OUTSIDE
 10
210.5465381133899
 20
-145.0585902667208
 30
0.0
 40
9.0
 50
180.0
 51
270.0
  0
ARC
  5
1B1
  8
OUTSIDE
 10
210.5465381133899
 20
-145.0585902667208
 30
0.0
 40
9.0
 50
270.0
 51
0.0
  0
LINE
  5
1B2
  8
OUTSIDE
 10
219.5465381133899
 20
-145.0585902667208
 30
0.0
 11
219.5465381133899
 21
-75.55859026672084
 31
0.0
  0
ARC
  5
1B3
  8
OUTSIDE
 10
223.5465381133899
 20
-75.55859026672084
 30
0.0
 40
4.0
 50
90.0
 51
180.0
  0
ARC
  5
1B4
  8
OUTSIDE
 10
223.5465381133899
 20
-75.55859026672084
 30
0.0
 40
4.0
 50
0.0
 51
90.0
  0
LINE
  5
1B5
  8
OUTSIDE
 10
227.5465381133899
 20
-75.55859026672084
 30
0.0
 11
227.5465381133899
 21
-145.0585902667208
 31
0.0
  0
ARC
  5
1B6
  8
OUTSIDE
 10
236.5465381133899
 20
-145.0585902667208
 30
0.0
 40
8.999999999999986
 50
180.0
 51
270.0
  0
LINE
  5
1B7
  8
OUTSIDE
 10
236.5465381133899
 20
-154.0585902667208
 30
0.0
 11
240.5465381133899
 21
-154.0585902667208
 31
0.0
  0
LINE
  5
1B8
  8
OUTSIDE
 10
240.5465381133899
 20
-154.0585902667208
 30
0.0
 11
590.5465381133902
 21
-154.0585902667208
 31
0.0
  0
LINE
  5
1B9
  8
OUTSIDE
 10
590.5465381133902
 20
-154.0585902667208
 30
0.0
 11
590.5465381133902
 21
20.9414097332791
 31
0.0
  0
LINE
  5
1BA
  8
OUTSIDE
 10
590.5465381133902
 20
20.9414097332791
 30
0.0
 11
590.5465381133902
 21
195.9414097332791
 31
0.0
  0
LINE
  5
1BB
  8
OUTSIDE
 10
590.5465381133902
 20
195.9414097332791
 30
0.0
 11
240.5465381133899
 21
195.9414097332791
 31
0.0
  0
LINE
  5
1BC
  8
OUTSIDE
 10
240.5465381133899
 20
195.9414097332791
 30
0.0
 11
236.5465381133899
 21
195.9414097332791
 31
0.0
  0
ARC
  5
1BD
  8
OUTSIDE
 10
236.5465381133899
 20
186.9414097332791
 30
0.0
 40
8.999999999999986
 50
90.0
 51
180.0
  0
LINE
  5
1BE
  8
OUTSIDE
 10
227.5465381133899
 20
186.9414097332791
 30
0.0
 11
227.5465381133901
 21
117.441409733279
 31
0.0
  0
ARC
  5
1BF
  8
OUTSIDE
 10
223.5465381133902
 20
117.441409733279
 30
0.0
 40
3.999999999999943
 50
269.9999999999968
 51
0.0
  0
ARC
  5
1C0
  8
OUTSIDE
 10
223.5465381133899
 20
117.441409733279
 30
0.0
 40
3.999999999999943
 50
180.0
 51
270.0
  0
LINE
  5
1C1
  8
OUTSIDE
 10
219.54653811339
 20
117.441409733279
 30
0.0
 11
219.5465381133899
 21
186.941409733279
 31
0.0
  0
ARC
  5
1C2
  8
OUTSIDE
 10
210.5465381133898
 20
186.941409733279
 30
0.0
 40
9.000000000000057
 50
0.0
 51
89.99999999999964
  0
ARC
  5
1C3
  8
OUTSIDE
 10
210.5465381133898
 20
186.9414097332791
 30
0.0
 40
8.999999999999943
 50
89.99999999999964
 51
180.0
  0
LINE
  5
1C4
  8
OUTSIDE
 10
201.5465381133899
 20
186.9414097332791
 30
0.0
 11
201.5465381133899
 21
117.441409733279
 31
0.0
  0
ARC
  5
1C5
  8
OUTSIDE
 10
197.5465381133899
 20
117.441409733279
 30
0.0
 40
3.999999999999943
 50
270.0
 51
0.0
  0
ARC
  5
1C6
  8
OUTSIDE
 10
197.5465381133899
 20
117.441409733279
 30
0.0
 40
3.999999999999943
 50
180.0
 51
270.0
  0
LINE
  5
1C7
  8
OUTSIDE
 10
193.54653811339
 20
117.441409733279
 30
0.0
 11
193.5465381133899
 21
186.941409733279
 31
0.0
  0
ARC
  5
1C8
  8
OUTSIDE
 10
184.5465381133898
 20
186.941409733279
 30
0.0
 40
9.000000000000057
 50
0.0
 51
89.99999999999964
  0
ARC
  5
1C9
  8
OUTSIDE
 10
184.5465381133898
 20
186.9414097332791
 30
0.0
 40
8.999999999999943
 50
89.99999999999964
 51
180.0
  0
LINE
  5
1CA
  8
OUTSIDE
 10
175.5465381133899
 20
186.9414097332791
 30
0.0
 11
175.5465381133901
 21
117.441409733279
 31
0.0
  0
ARC
  5
1CB
  8
OUTSIDE
 10
171.5465381133901
 20
117.441409733279
 30
0.0
 40
4.0
 50
269.9999999999976
 51
0.0
  0
ARC
  5
1CC
  8
OUTSIDE
 10
171.5465381133899
 20
117.441409733279
 30
0.0
 40
4.0
 50
180.0
 51
270.0000000000008
  0
LINE
  5
1CD
  8
OUTSIDE
 10
167.5465381133899
 20
117.441409733279
 30
0.0
 11
167.5465381133899
 21
186.941409733279
 31
0.0
  0
ARC
  5
1CE
  8
OUTSIDE
 10
158.5465381133899
 20
186.941409733279
 30
0.0
 40
9.0
 50
0.0
 51
90.0
  0
ARC
  5
1CF
  8
OUTSIDE
 10
158.5465381133899
 20
186.9414097332791
 30
0.0
 40
8.999999999999886
 50
90.0
 51
180.0
  0
LINE
  5
1D0
  8
OUTSIDE
 10
149.54653811339
 20
186.9414097332791
 30
0.0
 11
149.5465381133901
 21
117.441409733279
 31
0.0
  0
ARC
  5
1D1
  8
OUTSIDE
 10
145.5465381133901
 20
117.441409733279
 30
0.0
 40
4.0
 50
269.9999999999976
 51
0.0
  0
ARC
  5
1D2
  8
OUTSIDE
 10
145.5465381133899
 20
117.441409733279
 30
0.0
 40
4.0
 50
180.0
 51
270.0000000000008
  0
LINE
  5
1D3
  8
OUTSIDE
 10
141.5465381133899
 20
117.441409733279
 30
0.0
 11
141.5465381133899
 21
186.941409733279
 31
0.0
  0
ARC
  5
1D4
  8
OUTSIDE
 10
132.5465381133898
 20
186.941409733279
 30
0.0
 40
9.000000000000057
 50
0.0
 51
89.99999999999964
  0
ARC
  5
1D5
  8
OUTSIDE
 10
132.5465381133898
 20
186.9414097332791
 30
0.0
 40
8.999999999999943
 50
89.99999999999964
 51
180.0
  0
LINE
  5
1D6
  8
OUTSIDE
 10
123.5465381133899
 20
186.9414097332791
 30
0.0
 11
123.5465381133899
 21
117.441409733279
 31
0.0
  0
ARC
  5
1D7
  8
OUTSIDE
 10
119.5465381133899
 20
117.441409733279
 30
0.0
 40
4.0
 50
270.0
 51
0.0
  0
ARC
  5
1D8
  8
OUTSIDE
 10
119.5465381133899
 20
117.441409733279
 30
0.0
 40
3.999999999999986
 50
180.0
 51
270.0000000000002
  0
LINE
  5
1D9
  8
OUTSIDE
 10
115.5465381133899
 20
117.441409733279
 30
0.0
 11
115.5465381133899
 21
186.941409733279
 31
0.0
  0
ARC
  5
1DA
  8
OUTSIDE
 10
106.5465381133898
 20
186.941409733279
 30
0.0
 40
9.000000000000057
 50
0.0
 51
89.99999999999964
  0
ARC
  5
1DB
  8
OUTSIDE
 10
106.5465381133898
 20
186.9414097332791
 30
0.0
 40
8.999999999999943
 50
89.99999999999964
 51
180.0
  0
LINE
  5
1DC
  8
OUTSIDE
 10
97.5465381133899
 20
186.9414097332791
 30
0.0
 11
97.54653811338994
 21
117.441409733279
 31
0.0
  0
ARC
  5
1DD
  8
OUTSIDE
 10
93.54653811339
 20
117.441409733279
 30
0.0
 40
3.999999999999943
 50
269.9999999999992
 51
0.0
  0
ARC
  5
1DE
  8
OUTSIDE
 10
93.54653811339
 20
117.441409733279
 30
0.0
 40
3.999999999999943
 50
180.0
 51
269.9999999999992
  0
LINE
  5
1DF
  8
OUTSIDE
 10
89.54653811339006
 20
117.441409733279
 30
0.0
 11
89.54653811338994
 21
186.941409733279
 31
0.0
  0
ARC
  5
1E0
  8
OUTSIDE
 10
80.54653811338989
 20
186.941409733279
 30
0.0
 40
9.000000000000057
 50
0.0
 51
89.99999999999964
  0
ARC
  5
1E1
  8
OUTSIDE
 10
80.54653811338989
 20
186.9414097332791
 30
0.0
 40
8.999999999999943
 50
89.99999999999964
 51
180.0
  0
LINE
  5
1E2
  8
OUTSIDE
 10
71.54653811338994
 20
186.9414097332791
 30
0.0
 11
71.54653811338994
 21
117.441409733279
 31
0.0
  0
ARC
  5
1E3
  8
OUTSIDE
 10
67.54653811339
 20
117.441409733279
 30
0.0
 40
3.999999999999943
 50
269.9999999999992
 51
0.0
  0
ARC
  5
1E4
  8
OUTSIDE
 10
67.54653811338989
 20
117.441409733279
 30
0.0
 40
3.999999999999943
 50
180.0
 51
270.0000000000008
  0
LINE
  5
1E5
  8
OUTSIDE
 10
63.54653811338994
 20
117.441409733279
 30
0.0
 11
63.54653811338994
 21
186.941409733279
 31
0.0
  0
ARC
  5
1E6
  8
OUTSIDE
 10
54.54653811338989
 20
186.941409733279
 30
0.0
 40
9.000000000000057
 50
0.0
 51
89.99999999999964
  0
ARC
  5
1E7
  8
OUTSIDE
 10
54.54653811338989
 20
186.9414097332791
 30
0.0
 40
8.999999999999943
 50
89.99999999999964
 51
180.0
  0
LINE
  5
1E8
  8
OUTSIDE
 10
45.54653811338994
 20
186.9414097332791
 30
0.0
 11
45.54653811339006
 21
117.441409733279
 31
0.0
  0
ARC
  5
1E9
  8
OUTSIDE
 10
41.54653811339006
 20
117.441409733279
 30
0.0
 40
4.0
 50
269.9999999999984
 51
0.0
  0
ARC
  5
1EA
  8
OUTSIDE
 10
41.54653811339006
 20
117.441409733279
 30
0.0
 40
4.0
 50
180.0
 51
269.9999999999984
  0
LINE
  5
1EB
  8
OUTSIDE
 10
37.54653811339006
 20
117.441409733279
 30
0.0
 11
37.54653811338994
 21
186.941409733279
 31
0.0
  0
ARC
  5
1EC
  8
OUTSIDE
 10
28.54653811338989
 20
186.941409733279
 30
0.0
 40
9.000000000000057
 50
0.0
 51
89.99999999999967
  0
ARC
  5
1ED
  8
OUTSIDE
 10
28.54653811338989
 20
186.9414097332791
 30
0.0
 40
8.999999999999947
 50
89.99999999999967
 51
180.0
  0
LINE
  5
1EE
  8
OUTSIDE
 10
19.54653811338994
 20
186.9414097332791
 30
0.0
 11
19.54653811338994
 21
117.441409733279
 31
0.0
  0
ARC
  5
1EF
  8
OUTSIDE
 10
15.54653811338994
 20
117.441409733279
 30
0.0
 40
4.0
 50
270.0
 51
0.0
  0
ARC
  5
1F0
  8
OUTSIDE
 10
15.54653811338993
 20
117.441409733279
 30
0.0
 40
3.999999999999993
 50
180.0
 51
270.0000000000001
  0
LINE
  5
1F1
  8
OUTSIDE
 10
11.54653811338994
 20
117.441409733279
 30
0.0
 11
11.54653811338994
 21
186.941409733279
 31
0.0
  0
ARC
  5
1F2
  8
OUTSIDE
 10
2.546538113389886
 20
186.941409733279
 30
0.0
 40
9.000000000000057
 50
0.0
 51
89.99999999999964
  0
ARC
  5
1F3
  8
OUTSIDE
 10
2.546538113389886
 20
186.9414097332791
 30
0.0
 40
8.999999999999943
 50
89.99999999999964
 51
180.0
  0
LINE
  5
1F4
  8
OUTSIDE
 10
-6.453461886610057
 20
186.9414097332791
 30
0.0
 11
-6.453461886610061
 21
117.441409733279
 31
0.0
  0
ARC
  5
1F5
  8
OUTSIDE
 10
-10.45346188661003
 20
117.441409733279
 30
0.0
 40
3.999999999999972
 50
269.9999999999996
 51
0.0
  0
ARC
  5
1F6
  8
OUTSIDE
 10
-10.45346188661001
 20
117.441409733279
 30
0.0
 40
3.999999999999993
 50
180.0
 51
269.9999999999993
  0
LINE
  5
1F7
  8
OUTSIDE
 10
-14.45346188661
 20
117.441409733279
 30
0.0
 11
-14.45346188661005
 21
186.941409733279
 31
0.0
  0
ARC
  5
1F8
  8
OUTSIDE
 10
-23.45346188661016
 20
186.941409733279
 30
0.0
 40
9.000000000000103
 50
0.0
 51
89.99999999999936
  0
ARC
  5
1F9
  8
OUTSIDE
 10
-23.45346188661007
 20
186.9414097332791
 30
0.0
 40
8.999999999999986
 50
89.99999999999991
 51
180.0
  0
LINE
  5
1FA
  8
OUTSIDE
 10
-32.45346188661006
 20
186.9414097332791
 30
0.0
 11
-32.45346188660999
 21
117.441409733279
 31
0.0
  0
ARC
  5
1FB
  8
OUTSIDE
 10
-36.45346188660992
 20
117.441409733279
 30
0.0
 40
3.999999999999922
 50
269.999999999998
 51
0.0
  0
ARC
  5
1FC
  8
OUTSIDE
 10
-36.45346188661009
 20
117.441409733279
 30
0.0
 40
3.999999999999908
 50
180.0
 51
270.0000000000004
  0
LINE
  5
1FD
  8
OUTSIDE
 10
-40.45346188660999
 20
117.441409733279
 30
0.0
 11
-40.45346188661
 21
186.941409733279
 31
0.0
  0
ARC
  5
1FE
  8
OUTSIDE
 10
-49.4534618866101
 20
186.941409733279
 30
0.0
 40
9.0000000000001
 50
0.0
 51
89.99999999999973
  0
ARC
  5
1FF
  8
OUTSIDE
 10
-49.45346188661007
 20
186.9414097332791
 30
0.0
 40
8.999999999999986
 50
89.99999999999991
 51
180.0
  0
LINE
  5
200
  8
OUTSIDE
 10
-58.45346188661006
 20
186.9414097332791
 30
0.0
 11
-58.45346188661006
 21
117.441409733279
 31
0.0
  0
ARC
  5
201
  8
OUTSIDE
 10
-62.45346188661006
 20
117.441409733279
 30
0.0
 40
4.0
 50
270.0
 51
0.0
  0
ARC
  5
202
  8
OUTSIDE
 10
-62.45346188661006
 20
117.441409733279
 30
0.0
 40
4.0
 50
180.0
 51
270.0
  0
LINE
  5
203
  8
OUTSIDE
 10
-66.45346188661006
 20
117.441409733279
 30
0.0
 11
-66.45346188661006
 21
186.941409733279
 31
0.0
  0
ARC
  5
204
  8
OUTSIDE
 10
-75.45346188661007
 20
186.941409733279
 30
0.0
 40
9.000000000000014
 50
0.0
 51
89.99999999999955
  0
ARC
  5
205
  8
OUTSIDE
 10
-75.4534618866101
 20
186.9414097332791
 30
0.0
 40
8.9999999999999
 50
89.99999999999936
 51
180.0
  0
LINE
  5
206
  8
OUTSIDE
 10
-84.45346188661
 20
186.9414097332791
 30
0.0
 11
-84.45346188661
 21
117.441409733279
 31
0.0
  0
ARC
  5
207
  8
OUTSIDE
 10
-88.45346188660994
 20
117.441409733279
 30
0.0
 40
3.999999999999943
 50
269.9999999999984
 51
0.0
  0
ARC
  5
208
  8
OUTSIDE
 10
-88.45346188661011
 20
117.441409733279
 30
0.0
 40
3.999999999999943
 50
180.0
 51
270.0000000000008
  0
LINE
  5
209
  8
OUTSIDE
 10
-92.45346188661006
 20
117.441409733279
 30
0.0
 11
-92.45346188661004
 21
186.941409733279
 31
0.0
  0
ARC
  5
20A
  8
OUTSIDE
 10
-101.4534618866101
 20
186.941409733279
 30
0.0
 40
9.0000000000001
 50
0.0
 51
89.99999999999973
  0
ARC
  5
20B
  8
OUTSIDE
 10
-101.4534618866101
 20
186.9414097332791
 30
0.0
 40
8.999999999999986
 50
89.99999999999991
 51
180.0
  0
LINE
  5
20C
  8
OUTSIDE
 10
-110.4534618866101
 20
186.9414097332791
 30
0.0
 11
-110.4534618866101
 21
117.441409733279
 31
0.0
  0
ARC
  5
20D
  8
OUTSIDE
 10
-114.4534618866101
 20
117.441409733279
 30
0.0
 40
3.999999999999972
 50
269.9999999999996
 51
0.0
  0
ARC
  5
20E
  8
OUTSIDE
 10
-114.4534618866101
 20
117.441409733279
 30
0.0
 40
3.999999999999972
 50
180.0
 51
269.9999999999996
  0
LINE
  5
20F
  8
OUTSIDE
 10
-118.45346188661
 20
117.441409733279
 30
0.0
 11
-118.4534618866101
 21
186.941409733279
 31
0.0
  0
ARC
  5
210
  8
OUTSIDE
 10
-127.4534618866101
 20
186.941409733279
 30
0.0
 40
8.999999999999986
 50
0.0
 51
90.00000000000009
  0
ARC
  5
211
  8
OUTSIDE
 10
-127.4534618866101
 20
186.9414097332791
 30
0.0
 40
8.999999999999915
 50
89.99999999999973
 51
180.0
  0
LINE
  5
212
  8
OUTSIDE
 10
-136.4534618866101
 20
186.9414097332791
 30
0.0
 11
-136.4534618866099
 21
117.441409733279
 31
0.0
  0
ARC
  5
213
  8
OUTSIDE
 10
-140.4534618866099
 20
117.441409733279
 30
0.0
 40
3.999999999999943
 50
269.999999999998
 51
0.0
  0
ARC
  5
214
  8
OUTSIDE
 10
-140.4534618866101
 20
117.441409733279
 30
0.0
 40
3.999999999999943
 50
180.0
 51
270.0000000000013
  0
LINE
  5
215
  8
OUTSIDE
 10
-144.4534618866101
 20
117.441409733279
 30
0.0
 11
-144.4534618866101
 21
186.941409733279
 31
0.0
  0
ARC
  5
216
  8
OUTSIDE
 10
-153.4534618866101
 20
186.941409733279
 30
0.0
 40
9.000000000000085
 50
0.0
 51
89.99999999999964
  0
ARC
  5
217
  8
OUTSIDE
 10
-153.4534618866101
 20
186.9414097332791
 30
0.0
 40
9.0
 50
89.99999999999982
 51
180.0
  0
LINE
  5
218
  8
OUTSIDE
 10
-162.4534618866101
 20
186.9414097332791
 30
0.0
 11
-162.4534618866099
 21
117.441409733279
 31
0.0
  0
ARC
  5
219
  8
OUTSIDE
 10
-166.4534618866098
 20
117.441409733279
 30
0.0
 40
3.999999999999915
 50
269.9999999999959
 51
0.0
  0
ARC
  5
21A
  8
OUTSIDE
 10
-166.4534618866101
 20
117.441409733279
 30
0.0
 40
3.999999999999915
 50
180.0
 51
270.0000000000004
  0
LINE
  5
21B
  8
OUTSIDE
 10
-170.45346188661
 20
117.441409733279
 30
0.0
 11
-170.4534618866101
 21
186.941409733279
 31
0.0
  0
ARC
  5
21C
  8
OUTSIDE
 10
-179.4534618866102
 20
186.941409733279
 30
0.0
 40
9.000000000000114
 50
0.0
 51
89.99999999999964
  0
ARC
  5
21D
  8
OUTSIDE
 10
-179.4534618866101
 20
186.9414097332791
 30
0.0
 40
9.0
 50
90.0
 51
180.0
  0
LINE
  5
21E
  8
OUTSIDE
 10
-188.4534618866101
 20
186.9414097332791
 30
0.0
 11
-188.4534618866101
 21
117.441409733279
 31
0.0
  0
ARC
  5
21F
  8
OUTSIDE
 10
-192.4534618866101
 20
117.441409733279
 30
0.0
 40
4.000000000000028
 50
270.0000000000004
 51
0.0
  0
ARC
  5
220
  8
OUTSIDE
 10
-192.4534618866102
 20
117.441409733279
 30
0.0
 40
4.0
 50
180.0
 51
270.0000000000008
  0
LINE
  5
221
  8
OUTSIDE
 10
-196.4534618866102
 20
117.441409733279
 30
0.0
 11
-196.4534618866101
 21
186.941409733279
 31
0.0
  0
ARC
  5
222
  8
OUTSIDE
 10
-205.4534618866101
 20
186.941409733279
 30
0.0
 40
9.0
 50
0.0
 51
89.99999999999964
  0
ARC
  5
224
  8
INSIDE
 10
385.0464295264425
 20
-117.0279460791552
 30
0.0
 40
4.200120216290251
 50
0.136504137852554
 51
90.13630440992355
  0
LINE
  5
225
  8
INSIDE
 10
389.2465381133901
 20
-129.0585902667209
 30
0.0
 11
389.246537822688
 21
-117.0179395262904
 31
0.0
  0
ARC
  5
226
  8
INSIDE
 10
385.0465381133901
 20
-129.0585902667208
 30
0.0
 40
4.200000000000098
 50
182.7294026367796
 51
359.9999999999996
  0
LINE
  5
227
  8
INSIDE
 10
296.8918016602447
 20
-129.258590266721
 30
0.0
 11
380.8513027207092
 21
-129.2585902667209
 31
0.0
  0
ARC
  5
228
  8
INSIDE
 10
292.6965380674908
 20
-129.0591826758014
 30
0.0
 40
4.200000000000273
 50
270.0085827224802
 51
357.2786880715475
  0
ARC
  5
229
  8
INSIDE
 10
292.6965456406954
 20
-129.0591751014627
 30
0.0
 40
4.200007573211229
 50
180.0085764603149
 51
270.0084793946506
  0
LINE
  5
22A
  8
INSIDE
 10
288.4965385008254
 20
-117.0600670055597
 30
0.0
 11
288.4965381145375
 21
-129.0598037899708
 31
0.0
  0
ARC
  5
22B
  8
INSIDE
 10
292.6963829684531
 20
-117.0485147949971
 30
0.0
 40
4.199860355515639
 50
90.1581475573442
 51
180.1575989885126
  0
ARC
  5
22C
  8
INSIDE
 10
292.6965226159771
 20
-117.0486540522493
 30
0.0
 40
4.200000000000233
 50
2.882541589923787
 51
90.16004735736901
  0
LINE
  5
22D
  8
INSIDE
 10
380.8508669561974
 20
-116.8374418431453
 30
0.0
 11
296.8912084686635
 21
-116.8374418431453
 31
0.0
  0
ARC
  5
22E
  8
INSIDE
 10
385.0465497414805
 20
-117.0278255748086
 30
0.0
 40
4.199999999999948
 50
90.13794827184752
 51
177.4019230030279
  0
LINE
  5
22F
  8
INSIDE
 10
554.6465380968832
 20
-117.0475060755587
 30
0.0
 11
554.6465381133901
 21
-129.0585902667209
 31
0.0
  0
ARC
  5
230
  8
INSIDE
 10
550.4465092760781
 20
-117.0498912711716
 30
0.0
 40
4.200029498081056
 50
0.0325382593953253
 51
89.8734137998806
  0
ARC
  5
231
  8
INSIDE
 10
550.4465387736657
 20
-117.0498618380863
 30
0.0
 40
4.200000000000347
 50
89.87381531352858
 51
176.998553173992
  0
LINE
  5
232
  8
INSIDE
 10
512.5014059918315
 20
-116.8299449093989
 30
0.0
 11
546.2523002796745
 21
-116.8299449093989
 31
0.0
  0
ARC
  5
233
  8
INSIDE
 10
508.3065312397937
 20
-117.0373715584038
 30
0.0
 40
4.200000000000206
 50
2.830835281985137
 51
90.10629867990846
  0
ARC
  5
234
  8
INSIDE
 10
508.3064383410826
 20
-117.0372788321001
 30
0.0
 40
4.199907102528288
 50
90.10503369044466
 51
180.1049566578135
  0
LINE
  5
235
  8
INSIDE
 10
504.1065381136038
 20
-129.0447935366586
 30
0.0
 11
504.10653828523
 21
-117.0449723824772
 31
0.0
  0
ARC
  5
236
  8
INSIDE
 10
508.3065413805256
 20
-129.0445221196705
 30
0.0
 40
4.200003275691567
 50
180.0037026275688
 51
269.901096542047
  0
ARC
  5
237
  8
INSIDE
 10
508.3065381048348
 20
-129.0445253897131
 30
0.0
 40
4.200000000000539
 50
269.9011411514652
 51
357.0784927644707
  0
LINE
  5
238
  8
INSIDE
 10
546.2513027207092
 20
-129.2585902667209
 30
0.0
 11
512.5010793465483
 21
-129.2585902667209
 31
0.0
  0
ARC
  5
239
  8
INSIDE
 10
550.44653811339
 20
-129.058590266721
 30
0.0
 40
4.200000000000017
 50
182.7294026367789
 51
0.0000000000007754
  0
ARC
  5
23A
  8
INSIDE
 10
385.0465497414801
 20
158.9106450413584
 30
0.0
 40
4.199999999999856
 50
182.5980769968573
 51
269.8620517280385
  0
ARC
  5
23B
  8
INSIDE
 10
385.046429526442
 20
158.9107655457053
 30
0.0
 40
4.200120216290554
 50
269.863695589964
 51
359.8634958620307
  0
LINE
  5
23C
  8
INSIDE
 10
389.2465381133899
 20
170.9414097332791
 30
0.0
 11
389.2465378226877
 21
158.900758992832
 31
0.0
  0
ARC
  5
23D
  8
INSIDE
 10
385.0465381133901
 20
170.941409733279
 30
0.0
 40
4.200000000000031
 50
0.0000000000011632
 51
177.2705973632191
  0
LINE
  5
23E
  8
INSIDE
 10
296.8918016602424
 20
171.1414097332791
 30
0.0
 11
380.8513027207094
 21
171.1414097332791
 31
0.0
  0
ARC
  5
23F
  8
INSIDE
 10
292.6965380674908
 20
170.9420021423192
 30
0.0
 40
4.200000000000025
 50
2.721311929004264
 51
89.99141727622474
  0
ARC
  5
240
  8
INSIDE
 10
292.696545640698
 20
170.9419945679778
 30
0.0
 40
4.200007573213765
 50
89.99152060408927
 51
179.991423536552
  0
LINE
  5
241
  8
INSIDE
 10
288.4965385008254
 20
158.9428864721178
 30
0.0
 11
288.4965381145377
 21
170.9426232567155
 31
0.0
  0
ARC
  5
242
  8
INSIDE
 10
292.6963843883867
 20
158.9313356736852
 30
0.0
 40
4.199861771559859
 50
179.8424203293995
 51
269.8418331249048
  0
ARC
  5
243
  8
INSIDE
 10
292.6965226159773
 20
158.9314735188072
 30
0.0
 40
4.200000000000033
 50
269.8399526427907
 51
357.1174584103907
  0
LINE
  5
244
  8
INSIDE
 10
380.8508669561971
 20
158.7202613097035
 30
0.0
 11
296.8912084686651
 21
158.7202613097263
 31
0.0
  0
ARC
  5
245
  8
INSIDE
 10
550.4465381133898
 20
170.9414097332789
 30
0.0
 40
4.199999999999791
 50
0.0000000000019386
 51
177.2705973632186
  0
LINE
  5
246
  8
INSIDE
 10
512.5010793465481
 20
171.1414097332791
 30
0.0
 11
546.2513027207094
 21
171.1414097332791
 31
0.0
  0
ARC
  5
247
  8
INSIDE
 10
508.306538104835
 20
170.9273448562716
 30
0.0
 40
4.200000000000149
 50
2.921507235526457
 51
90.09885884853945
  0
ARC
  5
248
  8
INSIDE
 10
508.3065413805252
 20
170.9273415862286
 30
0.0
 40
4.200003275691452
 50
90.09890345795071
 51
179.9962973724304
  0
LINE
  5
249
  8
INSIDE
 10
504.1065382852298
 20
158.9277918489995
 30
0.0
 11
504.1065381136036
 21
170.9276130032168
 31
0.0
  0
ARC
  5
24A
  8
INSIDE
 10
508.3064390504142
 20
158.9200990053949
 30
0.0
 40
4.19990781056423
 50
179.8950530017947
 51
269.8949566509397
  0
ARC
  5
24B
  8
INSIDE
 10
508.3065312397939
 20
158.9201910249619
 30
0.0
 40
4.200000000000103
 50
269.8937013205917
 51
357.1691647184933
  0
LINE
  5
24C
  8
INSIDE
 10
546.2523002796731
 20
158.7127643759573
 30
0.0
 11
512.5014059918333
 21
158.7127643759919
 31
0.0
  0
ARC
  5
24D
  8
INSIDE
 10
550.4465387736659
 20
158.9326813046158
 30
0.0
 40
4.20000000000007
 50
183.0014468256142
 51
270.1261846864745
  0
ARC
  5
24E
  8
INSIDE
 10
550.4465099847372
 20
158.932710030205
 30
0.0
 40
4.200028789020638
 50
270.1265765541183
 51
359.9674713870058
  0
LINE
  5
24F
  8
INSIDE
 10
554.6465381133899
 20
170.9414097332791
 30
0.0
 11
554.6465380968834
 21
158.9303255421177
 31
0.0
  0
ARC
  5
250
  8
INSIDE
 10
-353.9537869369474
 20
158.9270631736938
 30
0.0
 40
4.199688320242716
 50
179.8536254917967
 51
224.9415730169877
  0
LINE
  5
251
  8
INSIDE
 10
-358.1534618866099
 20
170.9414097332791
 30
0.0
 11
-358.1534615523977
 21
158.9377921776279
 31
0.0
  0
ARC
  5
252
  8
INSIDE
 10
-353.9534618866099
 20
170.941409733279
 30
0.0
 40
4.200000000000099
 50
2.729402636780435
 51
179.9999999999989
  0
LINE
  5
253
  8
INSIDE
 10
-265.7986972792907
 20
171.1414097332791
 30
0.0
 11
-349.7582264939292
 21
171.1414097332791
 31
0.0
  0
ARC
  5
254
  8
INSIDE
 10
-261.60346188661
 20
170.941409733279
 30
0.0
 40
4.200000000000053
 50
0.0000000000007754
 51
177.2705973632204
  0
LINE
  5
255
  8
INSIDE
 10
-257.4034618866099
 20
158.9414097332791
 30
0.0
 11
-257.4034618866099
 21
170.9414097332791
 31
0.0
  0
ARC
  5
256
  8
INSIDE
 10
-261.60346188661
 20
158.9414097332792
 30
0.0
 40
4.200000000000063
 50
182.7294026367804
 51
359.9999999999993
  0
LINE
  5
257
  8
INSIDE
 10
-349.7575862053368
 20
158.7414097332791
 30
0.0
 11
-265.7986972792906
 21
158.7414097332791
 31
0.0
  0
ARC
  5
258
  8
INSIDE
 10
-353.9534752551
 20
158.9271920846375
 30
0.0
 40
4.199999999999871
 50
224.9398142987351
 51
357.4647573921427
  0
ARC
  5
259
  8
INSIDE
 10
-353.9534618866098
 20
-129.0585902667208
 30
0.0
 40
4.200000000000098
 50
180.0
 51
357.27059736322
  0
LINE
  5
25A
  8
INSIDE
 10
-265.7986972792907
 20
-129.2585902667209
 30
0.0
 11
-349.7582264939291
 21
-129.2585902667209
 31
0.0
  0
ARC
  5
25B
  8
INSIDE
 10
-261.60346188661
 20
-129.0585902667208
 30
0.0
 40
4.200000000000053
 50
182.7294026367804
 51
359.9999999999993
  0
LINE
  5
25C
  8
INSIDE
 10
-257.4034618866099
 20
-117.0585902667209
 30
0.0
 11
-257.4034618866099
 21
-129.058590266721
 31
0.0
  0
ARC
  5
25D
  8
INSIDE
 10
-261.60346188661
 20
-117.0585902667211
 30
0.0
 40
4.200000000000069
 50
0.0000000000021325
 51
177.2705973632182
  0
LINE
  5
25E
  8
INSIDE
 10
-349.7577710747922
 20
-116.8585902667208
 30
0.0
 11
-265.7986972792907
 21
-116.8585902667209
 31
0.0
  0
ARC
  5
25F
  8
INSIDE
 10
-353.9534871218418
 20
-117.0482395549603
 30
0.0
 40
4.199999999999924
 50
2.588047558683186
 51
180.0049137890986
  0
LINE
  5
260
  8
INSIDE
 10
-358.1534618866099
 20
-129.0585902667208
 30
0.0
 11
-358.1534871063961
 21
-117.0485997545136
 31
0.0
  0
ARC
  5
261
  8
INSIDE
 10
-205.4534618866098
 20
186.9287220303012
 30
0.0
 40
3.999999999999943
 50
0.0
 51
88.97740529422687
  0
LINE
  5
262
  8
INSIDE
 10
-201.4534618866099
 20
29.94063217523501
 30
0.0
 11
-201.4534618866099
 21
186.9287220303012
 31
0.0
  0
ARC
  5
263
  8
INSIDE
 10
-205.4534618866099
 20
29.94063217523501
 30
0.0
 40
4.0
 50
269.8627838026103
 51
0.0000000000000509
  0
ARC
  5
264
  8
INSIDE
 10
-205.4534618866101
 20
29.94063217523495
 30
0.0
 40
3.999999999999886
 50
180.0
 51
269.8627838026136
  0
LINE
  5
265
  8
INSIDE
 10
-209.4534618866099
 20
186.9287220303012
 30
0.0
 11
-209.4534618866101
 21
29.94063217523495
 31
0.0
  0
ARC
  5
266
  8
INSIDE
 10
-205.4534618866099
 20
186.9287220303012
 30
0.0
 40
3.999999999999943
 50
88.97740529422606
 51
179.9999999999996
  0
ARC
  5
267
  8
INSIDE
 10
-205.4534618866098
 20
11.94218729132319
 30
0.0
 40
3.999999999999943
 50
0.0
 51
90.13721619739131
  0
LINE
  5
268
  8
INSIDE
 10
-201.4534618866099
 20
-145.0459025637431
 30
0.0
 11
-201.4534618866099
 21
11.94218729132319
 31
0.0
  0
ARC
  5
269
  8
INSIDE
 10
-205.4534618866101
 20
-145.0459025637431
 30
0.0
 40
4.000000000000057
 50
271.0225947057755
 51
0.0
  0
ARC
  5
26A
  8
INSIDE
 10
-205.4534618866099
 20
-145.0459025637431
 30
0.0
 40
4.0
 50
180.0
 51
271.0225947057739
  0
LINE
  5
26B
  8
INSIDE
 10
-209.4534618866101
 20
11.94218729132322
 30
0.0
 11
-209.4534618866099
 21
-145.0459025637431
 31
0.0
  0
ARC
  5
26C
  8
INSIDE
 10
-205.4534618866101
 20
11.94218729132322
 30
0.0
 40
3.999999999999943
 50
90.13721619738723
 51
180.0
  0
ARC
  5
26D
  8
INSIDE
 10
-192.4534618866101
 20
-57.5585902667209
 30
0.0
 40
4.0
 50
270.0
 51
0.0
  0
ARC
  5
26E
  8
INSIDE
 10
-192.4534618866101
 20
-57.5585902667209
 30
0.0
 40
4.0
 50
180.0
 51
270.0
  0
LINE
  5
26F
  8
INSIDE
 10
-196.4534618866101
 20
20.94140973327913
 30
0.0
 11
-196.4534618866101
 21
-57.5585902667209
 31
0.0
  0
LINE
  5
270
  8
INSIDE
 10
-196.45346188661
 20
99.4414097332791
 30
0.0
 11
-196.4534618866101
 21
20.94140973327904
 31
0.0
  0
ARC
  5
271
  8
INSIDE
 10
-192.4534618866101
 20
99.4414097332791
 30
0.0
 40
3.999999999999943
 50
90.0
 51
180.0
  0
ARC
  5
272
  8
INSIDE
 10
-192.4534618866101
 20
99.4414097332791
 30
0.0
 40
4.0
 50
0.0
 51
90.0
  0
LINE
  5
273
  8
INSIDE
 10
-188.4534618866101
 20
20.9414097332791
 30
0.0
 11
-188.4534618866101
 21
99.4414097332791
 31
0.0
  0
LINE
  5
274
  8
INSIDE
 10
-188.4534618866101
 20
-57.5585902667209
 30
0.0
 11
-188.4534618866101
 21
20.9414097332791
 31
0.0
  0
ARC
  5
275
  8
INSIDE
 10
-179.4534618866099
 20
11.94218729132319
 30
0.0
 40
4.0
 50
0.0
 51
90.13721619738966
  0
LINE
  5
276
  8
INSIDE
 10
-175.45346188661
 20
-145.0459025637431
 30
0.0
 11
-175.4534618866099
 21
11.94218729132319
 31
0.0
  0
ARC
  5
277
  8
INSIDE
 10
-179.4534618866101
 20
-145.0459025637431
 30
0.0
 40
4.000000000000057
 50
271.0225947057755
 51
0.0
  0
ARC
  5
278
  8
INSIDE
 10
-179.4534618866099
 20
-145.0459025637431
 30
0.0
 40
4.0
 50
180.0
 51
271.0225947057739
  0
LINE
  5
279
  8
INSIDE
 10
-183.4534618866101
 20
11.94218729132322
 30
0.0
 11
-183.4534618866099
 21
-145.0459025637431
 31
0.0
  0
ARC
  5
27A
  8
INSIDE
 10
-179.4534618866101
 20
11.94218729132322
 30
0.0
 40
3.999999999999956
 50
90.13721619738723
 51
180.0
  0
LINE
  5
27C
  8
DEFAULT
 10
635.5465381133902
 20
220.9414097332791
 30
0.0
 11
635.5465381133902
 21
-744.058590266721
 31
0.0
  0
LINE
  5
27D
  8
DEFAULT
 10
-584.4534618866101
 20
220.9414097332791
 30
0.0
 11
635.5465381133902
 21
220.9414097332791
 31
0.0
  0
LINE
  5
27E
  8
DEFAULT
 10
-584.4534618866101
 20
-744.058590266721
 30
0.0
 11
-584.4534618866101
 21
220.9414097332791
 31
0.0
  0
LINE
  5
27F
  8
DEFAULT
 10
635.5465381133902
 20
-744.058590266721
 30
0.0
 11
-584.4534618866101
 21
-744.058590266721
 31
0.0
  0
LINE
  5
280
  8
INSIDE
 10
175.5465381133899
 20
20.9414097332791
 30
0.0
 11
175.5465381133899
 21
99.4414097332791
 31
0.0
  0
LINE
  5
281
  8
INSIDE
 10
175.5465381133899
 20
-57.5585902667209
 30
0.0
 11
175.5465381133899
 21
20.9414097332791
 31
0.0
  0
ARC
  5
282
  8
INSIDE
 10
171.5465381133899
 20
-57.5585902667209
 30
0.0
 40
4.0
 50
270.0
 51
0.0
  0
ARC
  5
283
  8
INSIDE
 10
171.5465381133899
 20
-57.5585902667209
 30
0.0
 40
4.0
 50
180.0
 51
270.0
  0
LINE
  5
284
  8
INSIDE
 10
167.5465381133899
 20
20.9414097332791
 30
0.0
 11
167.5465381133899
 21
-57.5585902667209
 31
0.0
  0
LINE
  5
285
  8
INSIDE
 10
167.5465381133899
 20
99.4414097332791
 30
0.0
 11
167.5465381133899
 21
20.9414097332791
 31
0.0
  0
ARC
  5
286
  8
INSIDE
 10
171.5465381133899
 20
99.4414097332791
 30
0.0
 40
3.999999999999986
 50
90.0
 51
180.0
  0
ARC
  5
287
  8
INSIDE
 10
171.5465381133899
 20
99.4414097332791
 30
0.0
 40
3.999999999999986
 50
0.0
 51
90.00000000000082
  0
ARC
  5
288
  8
INSIDE
 10
197.5465381133899
 20
-57.5585902667209
 30
0.0
 40
4.0
 50
270.0
 51
0.0
  0
ARC
  5
289
  8
INSIDE
 10
197.5465381133899
 20
-57.5585902667209
 30
0.0
 40
4.0
 50
180.0
 51
270.0
  0
LINE
  5
28A
  8
INSIDE
 10
193.5465381133899
 20
20.9414097332791
 30
0.0
 11
193.5465381133899
 21
-57.5585902667209
 31
0.0
  0
LINE
  5
28B
  8
INSIDE
 10
193.5465381133899
 20
99.4414097332791
 30
0.0
 11
193.5465381133899
 21
20.9414097332791
 31
0.0
  0
ARC
  5
28C
  8
INSIDE
 10
197.5465381133899
 20
99.4414097332791
 30
0.0
 40
3.99999999999995
 50
89.99999999999959
 51
180.0
  0
ARC
  5
28D
  8
INSIDE
 10
197.5465381133899
 20
99.4414097332791
 30
0.0
 40
3.99999999999995
 50
0.0
 51
89.99999999999959
  0
LINE
  5
28E
  8
INSIDE
 10
201.5465381133899
 20
20.94140973327904
 30
0.0
 11
201.5465381133899
 21
99.4414097332791
 31
0.0
  0
LINE
  5
28F
  8
INSIDE
 10
201.5465381133899
 20
-57.5585902667209
 30
0.0
 11
201.5465381133899
 21
20.94140973327904
 31
0.0
  0
LINE
  5
290
  8
INSIDE
 10
227.5465381133899
 20
20.9414097332791
 30
0.0
 11
227.5465381133899
 21
99.4414097332791
 31
0.0
  0
LINE
  5
291
  8
INSIDE
 10
227.5465381133899
 20
-57.5585902667209
 30
0.0
 11
227.5465381133899
 21
20.9414097332791
 31
0.0
  0
ARC
  5
292
  8
INSIDE
 10
223.5465381133899
 20
-57.5585902667209
 30
0.0
 40
4.0
 50
270.0
 51
0.0
  0
ARC
  5
293
  8
INSIDE
 10
223.5465381133899
 20
-57.5585902667209
 30
0.0
 40
4.0
 50
180.0
 51
270.0
  0
LINE
  5
294
  8
INSIDE
 10
219.5465381133899
 20
20.9414097332791
 30
0.0
 11
219.5465381133899
 21
-57.5585902667209
 31
0.0
  0
LINE
  5
295
  8
INSIDE
 10
219.5465381133899
 20
99.4414097332791
 30
0.0
 11
219.5465381133899
 21
20.9414097332791
 31
0.0
  0
ARC
  5
296
  8
INSIDE
 10
223.5465381133899
 20
99.4414097332791
 30
0.0
 40
3.99999999999995
 50
89.99999999999959
 51
180.0
  0
ARC
  5
297
  8
INSIDE
 10
223.5465381133901
 20
99.44140973327913
 30
0.0
 40
3.999999999999879
 50
359.9999999999998
 51
90.00000000000244
  0
ARC
  5
298
  8
INSIDE
 10
210.5465381133903
 20
186.9287220303012
 30
0.0
 40
4.0
 50
0.0
 51
88.97740529422933
  0
LINE
  5
299
  8
INSIDE
 10
214.5465381133903
 20
29.94063217523501
 30
0.0
 11
214.5465381133903
 21
186.9287220303012
 31
0.0
  0
ARC
  5
29A
  8
INSIDE
 10
210.5465381133903
 20
29.94063217523501
 30
0.0
 40
4.0
 50
269.8627838026087
 51
0.0
  0
ARC
  5
29B
  8
INSIDE
 10
210.5465381133899
 20
29.94063217523495
 30
0.0
 40
4.0
 50
180.0
 51
269.8627838026119
  0
LINE
  5
29C
  8
INSIDE
 10
206.5465381133901
 20
186.9287220303012
 30
0.0
 11
206.5465381133899
 21
29.94063217523495
 31
0.0
  0
ARC
  5
29D
  8
INSIDE
 10
210.5465381133899
 20
186.9287220303012
 30
0.0
 40
3.999999999999903
 50
88.97740529422524
 51
179.9999999999996
  0
ARC
  5
29E
  8
INSIDE
 10
184.5465381133899
 20
29.94063217523495
 30
0.0
 40
4.0
 50
180.0
 51
269.8627838026119
  0
LINE
  5
29F
  8
INSIDE
 10
180.5465381133901
 20
186.9287220303012
 30
0.0
 11
180.5465381133899
 21
29.94063217523495
 31
0.0
  0
ARC
  5
2A0
  8
INSIDE
 10
184.5465381133899
 20
186.9287220303012
 30
0.0
 40
3.999999999999915
 50
88.97740529422565
 51
179.9999999999996
  0
ARC
  5
2A1
  8
INSIDE
 10
184.5465381133903
 20
186.9287220303012
 30
0.0
 40
3.99999999999995
 50
0.0
 51
88.97740529422687
  0
LINE
  5
2A2
  8
INSIDE
 10
188.5465381133899
 20
29.94063217523495
 30
0.0
 11
188.5465381133903
 21
186.9287220303012
 31
0.0
  0
ARC
  5
2A3
  8
INSIDE
 10
184.5465381133901
 20
29.94063217523501
 30
0.0
 40
3.999999999999886
 50
269.8627838026103
 51
359.9999999999997
  0
ARC
  5
2A4
  8
INSIDE
 10
236.5465381133904
 20
186.9287220303012
 30
0.0
 40
3.999999999999886
 50
0.0
 51
88.9774052942293
  0
LINE
  5
2A5
  8
INSIDE
 10
240.5465381133903
 20
29.94063217523501
 30
0.0
 11
240.5465381133903
 21
186.9287220303012
 31
0.0
  0
ARC
  5
2A6
  8
INSIDE
 10
236.5465381133903
 20
29.94063217523501
 30
0.0
 40
4.0
 50
269.8627838026087
 51
0.0
  0
ARC
  5
2A7
  8
INSIDE
 10
236.5465381133899
 20
29.94063217523495
 30
0.0
 40
4.0
 50
180.0
 51
269.8627838026119
  0
LINE
  5
2A8
  8
INSIDE
 10
232.5465381133903
 20
186.9287220303012
 30
0.0
 11
232.5465381133899
 21
29.94063217523495
 31
0.0
  0
ARC
  5
2A9
  8
INSIDE
 10
236.5465381133901
 20
186.9287220303012
 30
0.0
 40
3.999999999999903
 50
88.97740529422524
 51
179.9999999999996
  0
ARC
  5
2AA
  8
INSIDE
 10
-153.4534618866099
 20
11.94218729132319
 30
0.0
 40
4.0
 50
0.0
 51
90.13721619738966
  0
LINE
  5
2AB
  8
INSIDE
 10
-149.45346188661
 20
-145.0459025637431
 30
0.0
 11
-149.4534618866099
 21
11.94218729132319
 31
0.0
  0
ARC
  5
2AC
  8
INSIDE
 10
-153.4534618866101
 20
-145.0459025637431
 30
0.0
 40
4.000000000000057
 50
271.0225947057755
 51
0.0
  0
ARC
  5
2AD
  8
INSIDE
 10
-153.4534618866099
 20
-145.0459025637431
 30
0.0
 40
4.0
 50
180.0
 51
271.0225947057739
  0
LINE
  5
2AE
  8
INSIDE
 10
-157.4534618866101
 20
11.94218729132322
 30
0.0
 11
-157.4534618866099
 21
-145.0459025637431
 31
0.0
  0
ARC
  5
2AF
  8
INSIDE
 10
-153.4534618866101
 20
11.94218729132319
 30
0.0
 40
4.0
 50
90.13721619738806
 51
180.0
  0
ARC
  5
2B0
  8
INSIDE
 10
-127.4534618866099
 20
11.94218729132319
 30
0.0
 40
4.0
 50
0.0
 51
90.13721619738966
  0
LINE
  5
2B1
  8
INSIDE
 10
-123.4534618866099
 20
-145.0459025637431
 30
0.0
 11
-123.4534618866099
 21
11.94218729132319
 31
0.0
  0
ARC
  5
2B2
  8
INSIDE
 10
-127.4534618866099
 20
-145.0459025637431
 30
0.0
 40
3.999999999999943
 50
271.0225947057738
 51
0.0
  0
ARC
  5
2B3
  8
INSIDE
 10
-127.4534618866101
 20
-145.0459025637431
 30
0.0
 40
3.999999999999886
 50
180.0000000000008
 51
271.0225947057756
  0
LINE
  5
2B4
  8
INSIDE
 10
-131.45346188661
 20
11.94218729132322
 30
0.0
 11
-131.4534618866099
 21
-145.0459025637431
 31
0.0
  0
ARC
  5
2B5
  8
INSIDE
 10
-127.4534618866101
 20
11.94218729132322
 30
0.0
 40
3.999999999999943
 50
90.13721619738806
 51
180.0
  0
ARC
  5
2B6
  8
INSIDE
 10
-101.4534618866098
 20
11.94218729132319
 30
0.0
 40
3.999999999999943
 50
0.0
 51
90.13721619739131
  0
LINE
  5
2B7
  8
INSIDE
 10
-97.45346188660994
 20
-145.0459025637431
 30
0.0
 11
-97.45346188660994
 21
11.94218729132319
 31
0.0
  0
ARC
  5
2B8
  8
INSIDE
 10
-101.4534618866099
 20
-145.0459025637431
 30
0.0
 40
3.999999999999968
 50
271.0225947057733
 51
0.0
  0
ARC
  5
2B9
  8
INSIDE
 10
-101.4534618866101
 20
-145.0459025637431
 30
0.0
 40
3.999999999999897
 50
180.0000000000004
 51
271.022594705775
  0
LINE
  5
2BA
  8
INSIDE
 10
-105.4534618866099
 20
11.94218729132322
 30
0.0
 11
-105.4534618866099
 21
-145.0459025637431
 31
0.0
  0
ARC
  5
2BB
  8
INSIDE
 10
-101.4534618866101
 20
11.94218729132319
 30
0.0
 40
3.999999999999943
 50
90.13721619738806
 51
179.9999999999996
  0
ARC
  5
2BC
  8
INSIDE
 10
-75.45346188660994
 20
11.94218729132319
 30
0.0
 40
4.0
 50
0.0
 51
90.13721619738966
  0
LINE
  5
2BD
  8
INSIDE
 10
-71.45346188660994
 20
-145.0459025637431
 30
0.0
 11
-71.45346188660994
 21
11.94218729132319
 31
0.0
  0
ARC
  5
2BE
  8
INSIDE
 10
-75.45346188660994
 20
-145.0459025637431
 30
0.0
 40
3.999999999999943
 50
271.0225947057738
 51
0.0
  0
ARC
  5
2BF
  8
INSIDE
 10
-75.45346188661006
 20
-145.0459025637431
 30
0.0
 40
3.999999999999886
 50
180.0000000000008
 51
271.0225947057756
  0
LINE
  5
2C0
  8
INSIDE
 10
-79.45346188660994
 20
11.94218729132322
 30
0.0
 11
-79.45346188660994
 21
-145.0459025637431
 31
0.0
  0
ARC
  5
2C1
  8
INSIDE
 10
-75.45346188661006
 20
11.94218729132322
 30
0.0
 40
3.999999999999943
 50
90.13721619738806
 51
180.0
  0
ARC
  5
2C2
  8
INSIDE
 10
-179.4534618866098
 20
186.9287220303012
 30
0.0
 40
3.999999999999943
 50
0.0
 51
88.97740529422687
  0
LINE
  5
2C3
  8
INSIDE
 10
-175.4534618866099
 20
29.94063217523501
 30
0.0
 11
-175.4534618866099
 21
186.9287220303012
 31
0.0
  0
ARC
  5
2C4
  8
INSIDE
 10
-179.4534618866098
 20
29.94063217523501
 30
0.0
 40
3.99999999999995
 50
269.8627838026091
 51
359.9999999999998
  0
ARC
  5
2C5
  8
INSIDE
 10
-179.4534618866101
 20
29.94063217523495
 30
0.0
 40
3.999999999999986
 50
180.0
 51
269.8627838026115
  0
LINE
  5
2C6
  8
INSIDE
 10
-183.4534618866098
 20
186.9287220303012
 30
0.0
 11
-183.4534618866101
 21
29.94063217523495
 31
0.0
  0
ARC
  5
2C7
  8
INSIDE
 10
-179.4534618866099
 20
186.9287220303012
 30
0.0
 40
3.999999999999943
 50
88.97740529422606
 51
179.9999999999996
  0
ARC
  5
2C8
  8
INSIDE
 10
-153.4534618866098
 20
186.9287220303012
 30
0.0
 40
3.999999999999886
 50
0.0
 51
88.97740529422767
  0
LINE
  5
2C9
  8
INSIDE
 10
-149.4534618866099
 20
29.94063217523501
 30
0.0
 11
-149.4534618866099
 21
186.9287220303012
 31
0.0
  0
ARC
  5
2CA
  8
INSIDE
 10
-153.4534618866098
 20
29.94063217523501
 30
0.0
 40
3.999999999999943
 50
269.8627838026087
 51
0.0
  0
ARC
  5
2CB
  8
INSIDE
 10
-153.4534618866101
 20
29.94063217523495
 30
0.0
 40
3.999999999999886
 50
180.0
 51
269.8627838026127
  0
LINE
  5
2CC
  8
INSIDE
 10
-157.4534618866098
 20
186.9287220303012
 30
0.0
 11
-157.4534618866101
 21
29.94063217523495
 31
0.0
  0
ARC
  5
2CD
  8
INSIDE
 10
-153.45346188661
 20
186.9287220303012
 30
0.0
 40
3.999999999999903
 50
88.97740529422524
 51
179.9999999999996
  0
ARC
  5
2CE
  8
INSIDE
 10
-127.4534618866099
 20
186.9287220303012
 30
0.0
 40
3.999999999999943
 50
0.0
 51
88.97740529422606
  0
LINE
  5
2CF
  8
INSIDE
 10
-123.4534618866099
 20
29.94063217523501
 30
0.0
 11
-123.45346188661
 21
186.9287220303012
 31
0.0
  0
ARC
  5
2D0
  8
INSIDE
 10
-127.4534618866098
 20
29.94063217523501
 30
0.0
 40
3.999999999999943
 50
269.8627838026087
 51
0.0
  0
ARC
  5
2D1
  8
INSIDE
 10
-127.4534618866101
 20
29.94063217523495
 30
0.0
 40
3.999999999999886
 50
180.0
 51
269.8627838026126
  0
LINE
  5
2D2
  8
INSIDE
 10
-131.4534618866098
 20
186.9287220303012
 30
0.0
 11
-131.4534618866101
 21
29.94063217523495
 31
0.0
  0
ARC
  5
2D3
  8
INSIDE
 10
-127.4534618866099
 20
186.9287220303012
 30
0.0
 40
3.999999999999936
 50
88.97740529422606
 51
179.9999999999996
  0
ARC
  5
2D4
  8
INSIDE
 10
-23.45346188660977
 20
11.94218729132319
 30
0.0
 40
3.999999999999886
 50
0.0
 51
90.13721619739212
  0
LINE
  5
2D5
  8
INSIDE
 10
-19.45346188660994
 20
-145.0459025637431
 30
0.0
 11
-19.45346188660994
 21
11.94218729132319
 31
0.0
  0
ARC
  5
2D6
  8
INSIDE
 10
-23.45346188660994
 20
-145.0459025637431
 30
0.0
 40
3.999999999999972
 50
271.0225947057735
 51
0.0
  0
ARC
  5
2D7
  8
INSIDE
 10
-23.45346188660994
 20
-145.0459025637431
 30
0.0
 40
3.999999999999932
 50
180.0000000000004
 51
271.0225947057746
  0
LINE
  5
2D8
  8
INSIDE
 10
-27.45346188661006
 20
11.94218729132322
 30
0.0
 11
-27.45346188660994
 21
-145.0459025637431
 31
0.0
  0
ARC
  5
2D9
  8
INSIDE
 10
-23.45346188661011
 20
11.94218729132322
 30
0.0
 40
3.999999999999886
 50
90.13721619738725
 51
180.0
  0
ARC
  5
2DA
  8
INSIDE
 10
-101.4534618866099
 20
186.9287220303012
 30
0.0
 40
3.999999999999943
 50
0.0
 51
88.97740529422606
  0
LINE
  5
2DB
  8
INSIDE
 10
-97.45346188660994
 20
29.94063217523501
 30
0.0
 11
-97.45346188660994
 21
186.9287220303012
 31
0.0
  0
ARC
  5
2DC
  8
INSIDE
 10
-101.4534618866099
 20
29.94063217523501
 30
0.0
 40
4.0
 50
269.8627838026103
 51
0.0000000000000509
  0
ARC
  5
2DD
  8
INSIDE
 10
-101.4534618866101
 20
29.94063217523495
 30
0.0
 40
4.0
 50
180.0
 51
269.8627838026119
  0
LINE
  5
2DE
  8
INSIDE
 10
-105.4534618866098
 20
186.9287220303012
 30
0.0
 11
-105.4534618866101
 21
29.94063217523495
 31
0.0
  0
ARC
  5
2DF
  8
INSIDE
 10
-101.4534618866099
 20
186.9287220303012
 30
0.0
 40
3.999999999999938
 50
88.97740529422585
 51
179.9999999999996
  0
ARC
  5
2E0
  8
INSIDE
 10
-49.45346188660994
 20
186.9287220303012
 30
0.0
 40
3.999999999999943
 50
0.0
 51
88.97740529422606
  0
LINE
  5
2E1
  8
INSIDE
 10
-45.45346188660994
 20
29.94063217523501
 30
0.0
 11
-45.45346188660994
 21
186.9287220303012
 31
0.0
  0
ARC
  5
2E2
  8
INSIDE
 10
-49.45346188660994
 20
29.94063217523501
 30
0.0
 40
4.0
 50
269.8627838026102
 51
359.9999999999999
  0
ARC
  5
2E3
  8
INSIDE
 10
-49.45346188661006
 20
29.94063217523495
 30
0.0
 40
4.0
 50
180.0
 51
269.8627838026118
  0
LINE
  5
2E4
  8
INSIDE
 10
-53.45346188660983
 20
186.9287220303012
 30
0.0
 11
-53.45346188661006
 21
29.94063217523495
 31
0.0
  0
ARC
  5
2E5
  8
INSIDE
 10
-49.45346188660994
 20
186.9287220303012
 30
0.0
 40
3.999999999999938
 50
88.97740529422585
 51
179.9999999999996
  0
ARC
  5
2E6
  8
INSIDE
 10
2.546538113390284
 20
11.94218729132319
 30
0.0
 40
3.999999999999886
 50
0.0
 51
90.13721619739131
  0
LINE
  5
2E7
  8
INSIDE
 10
6.546538113390056
 20
-145.0459025637431
 30
0.0
 11
6.546538113390056
 21
11.94218729132319
 31
0.0
  0
ARC
  5
2E8
  8
INSIDE
 10
2.546538113390284
 20
-145.0459025637431
 30
0.0
 40
3.999999999999886
 50
271.0225947057723
 51
0.0
  0
ARC
  5
2E9
  8
INSIDE
 10
2.546538113389943
 20
-145.0459025637431
 30
0.0
 40
3.999999999999886
 50
180.0000000000008
 51
271.0225947057756
  0
LINE
  5
2EA
  8
INSIDE
 10
-1.453461886610057
 20
11.94218729132322
 30
0.0
 11
-1.453461886609944
 21
-145.0459025637431
 31
0.0
  0
ARC
  5
2EB
  8
INSIDE
 10
2.546538113389943
 20
11.94218729132322
 30
0.0
 40
3.999999999999967
 50
90.13721619738791
 51
180.0
  0
ARC
  5
2EC
  8
INSIDE
 10
28.54653811339028
 20
11.94218729132319
 30
0.0
 40
3.999999999999886
 50
0.0
 51
90.13721619739295
  0
LINE
  5
2ED
  8
INSIDE
 10
32.54653811339006
 20
-145.0459025637431
 30
0.0
 11
32.54653811339006
 21
11.94218729132319
 31
0.0
  0
ARC
  5
2EE
  8
INSIDE
 10
28.54653811339028
 20
-145.0459025637431
 30
0.0
 40
3.999999999999886
 50
271.0225947057723
 51
0.0
  0
ARC
  5
2EF
  8
INSIDE
 10
28.54653811339028
 20
-145.0459025637431
 30
0.0
 40
4.0
 50
180.0000000000008
 51
271.0225947057723
  0
LINE
  5
2F0
  8
INSIDE
 10
24.54653811338994
 20
11.94218729132322
 30
0.0
 11
24.54653811339006
 21
-145.0459025637431
 31
0.0
  0
ARC
  5
2F1
  8
INSIDE
 10
28.54653811338994
 20
11.94218729132322
 30
0.0
 40
4.0
 50
90.13721619738966
 51
180.0
  0
ARC
  5
2F2
  8
INSIDE
 10
-23.45346188660983
 20
186.9287220303012
 30
0.0
 40
3.999999999999943
 50
0.0
 51
88.97740529422687
  0
LINE
  5
2F3
  8
INSIDE
 10
-19.45346188660994
 20
29.94063217523501
 30
0.0
 11
-19.45346188660994
 21
186.9287220303012
 31
0.0
  0
ARC
  5
2F4
  8
INSIDE
 10
-23.45346188660994
 20
29.94063217523501
 30
0.0
 40
4.0
 50
269.8627838026095
 51
0.0
  0
ARC
  5
2F5
  8
INSIDE
 10
-23.45346188661011
 20
29.94063217523495
 30
0.0
 40
3.999999999999943
 50
180.0
 51
269.8627838026127
  0
LINE
  5
2F6
  8
INSIDE
 10
-27.45346188660983
 20
186.9287220303012
 30
0.0
 11
-27.45346188661011
 21
29.94063217523495
 31
0.0
  0
ARC
  5
2F7
  8
INSIDE
 10
-23.45346188660994
 20
186.9287220303012
 30
0.0
 40
3.999999999999938
 50
88.97740529422606
 51
180.0
  0
ARC
  5
2F8
  8
INSIDE
 10
54.54653811339006
 20
11.94218729132319
 30
0.0
 40
4.0
 50
0.0
 51
90.13721619738966
  0
LINE
  5
2F9
  8
INSIDE
 10
58.54653811339006
 20
-145.0459025637431
 30
0.0
 11
58.54653811339006
 21
11.94218729132319
 31
0.0
  0
ARC
  5
2FA
  8
INSIDE
 10
54.54653811339006
 20
-145.0459025637431
 30
0.0
 40
3.999999999999972
 50
271.0225947057735
 51
0.0
  0
ARC
  5
2FB
  8
INSIDE
 10
54.54653811338994
 20
-145.0459025637431
 30
0.0
 40
3.999999999999929
 50
180.0000000000004
 51
271.0225947057746
  0
LINE
  5
2FC
  8
INSIDE
 10
50.54653811338994
 20
11.94218729132322
 30
0.0
 11
50.54653811339006
 21
-145.0459025637431
 31
0.0
  0
ARC
  5
2FD
  8
INSIDE
 10
54.54653811338994
 20
11.94218729132322
 30
0.0
 40
4.0
 50
90.13721619738806
 51
180.0
  0
ARC
  5
2FE
  8
INSIDE
 10
2.546538113390284
 20
186.9287220303012
 30
0.0
 40
3.999999999999886
 50
0.0
 51
88.97740529422767
  0
LINE
  5
2FF
  8
INSIDE
 10
6.546538113390056
 20
29.94063217523501
 30
0.0
 11
6.546538113390056
 21
186.9287220303012
 31
0.0
  0
ARC
  5
300
  8
INSIDE
 10
2.546538113390284
 20
29.94063217523501
 30
0.0
 40
3.999999999999886
 50
269.8627838026087
 51
0.0
  0
ARC
  5
301
  8
INSIDE
 10
2.546538113389943
 20
29.94063217523495
 30
0.0
 40
4.0
 50
180.0
 51
269.8627838026119
  0
LINE
  5
302
  8
INSIDE
 10
-1.453461886609716
 20
186.9287220303012
 30
0.0
 11
-1.453461886610057
 21
29.94063217523495
 31
0.0
  0
ARC
  5
303
  8
INSIDE
 10
2.546538113389943
 20
186.9287220303012
 30
0.0
 40
3.999999999999886
 50
88.97740529422444
 51
179.9999999999996
  0
ARC
  5
304
  8
INSIDE
 10
28.54653811339028
 20
186.9287220303012
 30
0.0
 40
3.999999999999886
 50
0.0
 51
88.97740529422767
  0
LINE
  5
305
  8
INSIDE
 10
32.54653811339006
 20
29.94063217523501
 30
0.0
 11
32.54653811339006
 21
186.9287220303012
 31
0.0
  0
ARC
  5
306
  8
INSIDE
 10
28.54653811339006
 20
29.94063217523501
 30
0.0
 40
4.0
 50
269.8627838026103
 51
0.0
  0
ARC
  5
307
  8
INSIDE
 10
28.54653811338994
 20
29.94063217523495
 30
0.0
 40
4.0
 50
180.0
 51
269.8627838026119
  0
LINE
  5
308
  8
INSIDE
 10
24.54653811339028
 20
186.9287220303012
 30
0.0
 11
24.54653811338994
 21
29.94063217523495
 31
0.0
  0
ARC
  5
309
  8
INSIDE
 10
28.54653811338994
 20
186.9287220303012
 30
0.0
 40
3.999999999999886
 50
88.97740529422441
 51
179.9999999999996
  0
ARC
  5
30A
  8
INSIDE
 10
54.54653811338994
 20
186.9287220303012
 30
0.0
 40
4.000000000000114
 50
0.0
 51
88.97740529422447
  0
LINE
  5
30B
  8
INSIDE
 10
58.54653811339006
 20
29.94063217523501
 30
0.0
 11
58.54653811339006
 21
186.9287220303012
 31
0.0
  0
ARC
  5
30C
  8
INSIDE
 10
54.54653811339006
 20
29.94063217523501
 30
0.0
 40
4.0
 50
269.8627838026102
 51
359.9999999999999
  0
ARC
  5
30D
  8
INSIDE
 10
54.54653811338994
 20
29.94063217523495
 30
0.0
 40
4.0
 50
180.0
 51
269.8627838026118
  0
LINE
  5
30E
  8
INSIDE
 10
50.54653811339006
 20
186.9287220303012
 30
0.0
 11
50.54653811338994
 21
29.94063217523495
 31
0.0
  0
ARC
  5
30F
  8
INSIDE
 10
54.54653811339028
 20
186.9287220303012
 30
0.0
 40
4.0
 50
88.97740529422771
 51
179.9999999999996
  0
ARC
  5
310
  8
INSIDE
 10
106.5465381133903
 20
11.94218729132319
 30
0.0
 40
4.0
 50
0.0
 51
90.13721619739131
  0
LINE
  5
311
  8
INSIDE
 10
110.5465381133901
 20
-145.0459025637431
 30
0.0
 11
110.5465381133903
 21
11.94218729132319
 31
0.0
  0
ARC
  5
312
  8
INSIDE
 10
106.5465381133901
 20
-145.0459025637431
 30
0.0
 40
3.999999999999968
 50
271.0225947057733
 51
0.0
  0
ARC
  5
313
  8
INSIDE
 10
106.5465381133899
 20
-145.0459025637431
 30
0.0
 40
3.999999999999915
 50
180.0000000000004
 51
271.0225947057748
  0
LINE
  5
314
  8
INSIDE
 10
102.5465381133899
 20
11.94218729132322
 30
0.0
 11
102.5465381133901
 21
-145.0459025637431
 31
0.0
  0
ARC
  5
315
  8
INSIDE
 10
106.5465381133899
 20
11.94218729132319
 30
0.0
 40
4.0
 50
90.13721619738806
 51
179.9999999999996
  0
ARC
  5
316
  8
INSIDE
 10
80.54653811338994
 20
29.94063217523495
 30
0.0
 40
4.0
 50
180.0
 51
269.8627838026103
  0
LINE
  5
317
  8
INSIDE
 10
76.54653811339028
 20
186.9287220303012
 30
0.0
 11
76.54653811338994
 21
29.94063217523495
 31
0.0
  0
ARC
  5
318
  8
INSIDE
 10
80.54653811339006
 20
186.9287220303012
 30
0.0
 40
3.999999999999886
 50
88.97740529422605
 51
180.0
  0
ARC
  5
319
  8
INSIDE
 10
80.54653811338994
 20
186.9287220303012
 30
0.0
 40
4.000000000000114
 50
0.0
 51
88.97740529422447
  0
LINE
  5
31A
  8
INSIDE
 10
84.54653811339006
 20
29.94063217523501
 30
0.0
 11
84.54653811339006
 21
186.9287220303012
 31
0.0
  0
ARC
  5
31B
  8
INSIDE
 10
80.54653811339006
 20
29.94063217523495
 30
0.0
 40
3.99999999999997
 50
269.8627838026093
 51
0.0000000000001018
  0
ARC
  5
31C
  8
INSIDE
 10
132.5465381133903
 20
11.94218729132319
 30
0.0
 40
4.0
 50
0.0
 51
90.13721619739131
  0
LINE
  5
31D
  8
INSIDE
 10
136.5465381133903
 20
-145.0459025637431
 30
0.0
 11
136.5465381133903
 21
11.94218729132319
 31
0.0
  0
ARC
  5
31E
  8
INSIDE
 10
132.5465381133903
 20
-145.0459025637431
 30
0.0
 40
3.999999999999968
 50
271.0225947057735
 51
0.0
  0
ARC
  5
31F
  8
INSIDE
 10
132.5465381133899
 20
-145.0459025637431
 30
0.0
 40
3.999999999999915
 50
180.0000000000004
 51
271.0225947057748
  0
LINE
  5
320
  8
INSIDE
 10
128.5465381133899
 20
11.94218729132322
 30
0.0
 11
128.5465381133901
 21
-145.0459025637431
 31
0.0
  0
ARC
  5
321
  8
INSIDE
 10
132.5465381133899
 20
11.94218729132322
 30
0.0
 40
4.0
 50
90.13721619738806
 51
180.0
  0
ARC
  5
322
  8
INSIDE
 10
106.5465381133899
 20
29.94063217523495
 30
0.0
 40
4.0
 50
180.0
 51
269.8627838026119
  0
LINE
  5
323
  8
INSIDE
 10
102.5465381133903
 20
186.9287220303012
 30
0.0
 11
102.5465381133899
 21
29.94063217523495
 31
0.0
  0
ARC
  5
324
  8
INSIDE
 10
106.5465381133903
 20
186.9287220303012
 30
0.0
 40
4.0
 50
88.97740529422771
 51
180.0
  0
ARC
  5
325
  8
INSIDE
 10
106.5465381133901
 20
186.9287220303012
 30
0.0
 40
4.0
 50
0.0
 51
88.97740529422607
  0
LINE
  5
326
  8
INSIDE
 10
110.5465381133901
 20
29.94063217523501
 30
0.0
 11
110.5465381133901
 21
186.9287220303012
 31
0.0
  0
ARC
  5
327
  8
INSIDE
 10
106.5465381133901
 20
29.94063217523501
 30
0.0
 40
4.0
 50
269.8627838026103
 51
359.9999999999997
  0
ARC
  5
328
  8
INSIDE
 10
158.5465381133903
 20
11.94218729132319
 30
0.0
 40
3.999999999999886
 50
0.0
 51
90.13721619739295
  0
LINE
  5
329
  8
INSIDE
 10
162.5465381133901
 20
-145.0459025637431
 30
0.0
 11
162.5465381133901
 21
11.94218729132319
 31
0.0
  0
ARC
  5
32A
  8
INSIDE
 10
158.5465381133901
 20
-145.0459025637431
 30
0.0
 40
3.999999999999968
 50
271.0225947057735
 51
0.0
  0
ARC
  5
32B
  8
INSIDE
 10
158.5465381133899
 20
-145.0459025637431
 30
0.0
 40
3.999999999999915
 50
180.0000000000004
 51
271.0225947057748
  0
LINE
  5
32C
  8
INSIDE
 10
154.5465381133899
 20
11.94218729132322
 30
0.0
 11
154.5465381133901
 21
-145.0459025637431
 31
0.0
  0
ARC
  5
32D
  8
INSIDE
 10
158.5465381133899
 20
11.94218729132319
 30
0.0
 40
4.0
 50
90.13721619738966
 51
179.9999999999996
  0
ARC
  5
32E
  8
INSIDE
 10
184.5465381133901
 20
11.94218729132319
 30
0.0
 40
4.0
 50
0.0
 51
90.13721619739131
  0
LINE
  5
32F
  8
INSIDE
 10
188.5465381133901
 20
-145.0459025637431
 30
0.0
 11
188.5465381133901
 21
11.94218729132319
 31
0.0
  0
ARC
  5
330
  8
INSIDE
 10
184.5465381133899
 20
-145.0459025637431
 30
0.0
 40
4.000000000000114
 50
271.0225947057755
 51
0.0
  0
ARC
  5
331
  8
INSIDE
 10
184.5465381133901
 20
-145.0459025637431
 30
0.0
 40
4.0
 50
180.0
 51
271.0225947057739
  0
LINE
  5
332
  8
INSIDE
 10
180.5465381133899
 20
11.94218729132322
 30
0.0
 11
180.5465381133901
 21
-145.0459025637431
 31
0.0
  0
ARC
  5
333
  8
INSIDE
 10
184.5465381133899
 20
11.94218729132322
 30
0.0
 40
3.999999999999956
 50
90.13721619738723
 51
180.0
  0
ARC
  5
334
  8
INSIDE
 10
158.5465381133903
 20
186.9287220303012
 30
0.0
 40
3.999999999999886
 50
0.0
 51
88.97740529422767
  0
LINE
  5
335
  8
INSIDE
 10
162.5465381133901
 20
29.94063217523501
 30
0.0
 11
162.5465381133901
 21
186.9287220303012
 31
0.0
  0
ARC
  5
336
  8
INSIDE
 10
158.5465381133901
 20
29.94063217523501
 30
0.0
 40
3.999999999999986
 50
269.8627838026095
 51
0.0
  0
ARC
  5
337
  8
INSIDE
 10
158.5465381133899
 20
29.94063217523495
 30
0.0
 40
3.999999999999968
 50
180.0
 51
269.8627838026119
  0
LINE
  5
338
  8
INSIDE
 10
154.5465381133901
 20
186.9287220303012
 30
0.0
 11
154.5465381133899
 21
29.94063217523495
 31
0.0
  0
ARC
  5
339
  8
INSIDE
 10
158.5465381133899
 20
186.9287220303012
 30
0.0
 40
3.999999999999886
 50
88.97740529422441
 51
179.9999999999996
  0
ARC
  5
33A
  8
INSIDE
 10
210.5465381133901
 20
11.94218729132319
 30
0.0
 40
4.0
 50
0.0
 51
90.13721619738966
  0
LINE
  5
33B
  8
INSIDE
 10
214.5465381133901
 20
-145.0459025637431
 30
0.0
 11
214.5465381133901
 21
11.94218729132319
 31
0.0
  0
ARC
  5
33C
  8
INSIDE
 10
210.5465381133899
 20
-145.0459025637431
 30
0.0
 40
4.000000000000114
 50
271.0225947057755
 51
0.0
  0
ARC
  5
33D
  8
INSIDE
 10
210.5465381133901
 20
-145.0459025637431
 30
0.0
 40
4.0
 50
180.0
 51
271.0225947057739
  0
LINE
  5
33E
  8
INSIDE
 10
206.5465381133899
 20
11.94218729132322
 30
0.0
 11
206.5465381133901
 21
-145.0459025637431
 31
0.0
  0
ARC
  5
33F
  8
INSIDE
 10
210.5465381133899
 20
11.94218729132322
 30
0.0
 40
3.999999999999886
 50
90.13721619738807
 51
180.0
  0
ARC
  5
340
  8
INSIDE
 10
145.5465381133899
 20
-57.5585902667209
 30
0.0
 40
4.0
 50
270.0
 51
0.0
  0
ARC
  5
341
  8
INSIDE
 10
145.5465381133899
 20
-57.5585902667209
 30
0.0
 40
4.0
 50
180.0
 51
270.0
  0
LINE
  5
342
  8
INSIDE
 10
141.5465381133901
 20
20.9414097332791
 30
0.0
 11
141.5465381133899
 21
-57.5585902667209
 31
0.0
  0
LINE
  5
343
  8
INSIDE
 10
141.5465381133899
 20
99.4414097332791
 30
0.0
 11
141.5465381133901
 21
20.9414097332791
 31
0.0
  0
ARC
  5
344
  8
INSIDE
 10
145.5465381133899
 20
99.4414097332791
 30
0.0
 40
3.999999999999986
 50
90.0
 51
180.0
  0
ARC
  5
345
  8
INSIDE
 10
145.5465381133899
 20
99.4414097332791
 30
0.0
 40
4.000000000000057
 50
0.0
 51
90.0
  0
LINE
  5
346
  8
INSIDE
 10
149.5465381133899
 20
20.9414097332791
 30
0.0
 11
149.5465381133899
 21
99.4414097332791
 31
0.0
  0
LINE
  5
347
  8
INSIDE
 10
149.5465381133899
 20
-57.5585902667209
 30
0.0
 11
149.5465381133899
 21
20.9414097332791
 31
0.0
  0
ARC
  5
348
  8
INSIDE
 10
-166.45346188661
 20
99.44140973327913
 30
0.0
 40
4.0
 50
359.9999999999998
 51
90.00000000000082
  0
LINE
  5
349
  8
INSIDE
 10
-162.4534618866101
 20
20.9414097332791
 30
0.0
 11
-162.45346188661
 21
99.4414097332791
 31
0.0
  0
LINE
  5
34A
  8
INSIDE
 10
-162.45346188661
 20
-57.5585902667209
 30
0.0
 11
-162.4534618866101
 21
20.9414097332791
 31
0.0
  0
ARC
  5
34B
  8
INSIDE
 10
-166.4534618866101
 20
-57.5585902667209
 30
0.0
 40
4.000000000000057
 50
270.0
 51
0.0
  0
ARC
  5
34C
  8
INSIDE
 10
-166.4534618866101
 20
-57.5585902667209
 30
0.0
 40
4.0
 50
180.0
 51
270.0
  0
LINE
  5
34D
  8
INSIDE
 10
-170.4534618866101
 20
20.94140973327913
 30
0.0
 11
-170.4534618866101
 21
-57.5585902667209
 31
0.0
  0
LINE
  5
34E
  8
INSIDE
 10
-170.4534618866101
 20
99.4414097332791
 30
0.0
 11
-170.45346188661
 21
20.94140973327904
 31
0.0
  0
ARC
  5
34F
  8
INSIDE
 10
-166.4534618866101
 20
99.4414097332791
 30
0.0
 40
4.0
 50
90.0
 51
180.0
  0
LINE
  5
350
  8
INSIDE
 10
123.5465381133901
 20
20.94140973327904
 30
0.0
 11
123.5465381133901
 21
99.4414097332791
 31
0.0
  0
LINE
  5
351
  8
INSIDE
 10
123.5465381133899
 20
-57.5585902667209
 30
0.0
 11
123.5465381133899
 21
20.94140973327913
 31
0.0
  0
ARC
  5
352
  8
INSIDE
 10
119.5465381133899
 20
-57.5585902667209
 30
0.0
 40
4.0
 50
270.0
 51
0.0
  0
ARC
  5
353
  8
INSIDE
 10
119.5465381133899
 20
-57.5585902667209
 30
0.0
 40
4.0
 50
180.0
 51
270.0
  0
LINE
  5
354
  8
INSIDE
 10
115.5465381133899
 20
20.9414097332791
 30
0.0
 11
115.5465381133899
 21
-57.5585902667209
 31
0.0
  0
LINE
  5
355
  8
INSIDE
 10
115.5465381133901
 20
99.4414097332791
 30
0.0
 11
115.5465381133899
 21
20.9414097332791
 31
0.0
  0
ARC
  5
356
  8
INSIDE
 10
119.5465381133899
 20
99.4414097332791
 30
0.0
 40
3.999999999999886
 50
90.0
 51
180.0
  0
ARC
  5
357
  8
INSIDE
 10
119.5465381133899
 20
99.4414097332791
 30
0.0
 40
4.000000000000114
 50
0.0
 51
90.0
  0
LINE
  5
358
  8
INSIDE
 10
97.54653811338994
 20
20.9414097332791
 30
0.0
 11
97.54653811338994
 21
99.4414097332791
 31
0.0
  0
LINE
  5
359
  8
INSIDE
 10
97.54653811338994
 20
-57.5585902667209
 30
0.0
 11
97.54653811338994
 21
20.9414097332791
 31
0.0
  0
ARC
  5
35A
  8
INSIDE
 10
93.54653811338994
 20
-57.5585902667209
 30
0.0
 40
4.0
 50
270.0
 51
0.0
  0
ARC
  5
35B
  8
INSIDE
 10
93.54653811338994
 20
-57.5585902667209
 30
0.0
 40
4.0
 50
180.0
 51
270.0
  0
LINE
  5
35C
  8
INSIDE
 10
89.54653811338994
 20
20.94140973327913
 30
0.0
 11
89.54653811338994
 21
-57.5585902667209
 31
0.0
  0
LINE
  5
35D
  8
INSIDE
 10
89.54653811338994
 20
99.4414097332791
 30
0.0
 11
89.54653811338994
 21
20.94140973327904
 31
0.0
  0
ARC
  5
35E
  8
INSIDE
 10
93.54653811338994
 20
99.4414097332791
 30
0.0
 40
4.0
 50
90.0
 51
180.0
  0
ARC
  5
35F
  8
INSIDE
 10
93.54653811338994
 20
99.44140973327913
 30
0.0
 40
4.0
 50
359.9999999999998
 51
90.0
  0
ARC
  5
360
  8
INSIDE
 10
-140.4534618866101
 20
99.4414097332791
 30
0.0
 40
3.999999999999943
 50
0.0
 51
90.0
  0
LINE
  5
361
  8
INSIDE
 10
-136.4534618866101
 20
20.9414097332791
 30
0.0
 11
-136.4534618866101
 21
99.4414097332791
 31
0.0
  0
LINE
  5
362
  8
INSIDE
 10
-136.4534618866101
 20
-57.5585902667209
 30
0.0
 11
-136.4534618866101
 21
20.9414097332791
 31
0.0
  0
ARC
  5
363
  8
INSIDE
 10
-140.4534618866101
 20
-57.5585902667209
 30
0.0
 40
4.0
 50
270.0
 51
0.0
  0
ARC
  5
364
  8
INSIDE
 10
-140.4534618866101
 20
-57.5585902667209
 30
0.0
 40
4.0
 50
180.0
 51
270.0
  0
LINE
  5
365
  8
INSIDE
 10
-144.4534618866101
 20
20.9414097332791
 30
0.0
 11
-144.4534618866101
 21
-57.5585902667209
 31
0.0
  0
LINE
  5
366
  8
INSIDE
 10
-144.4534618866101
 20
99.4414097332791
 30
0.0
 11
-144.4534618866101
 21
20.9414097332791
 31
0.0
  0
ARC
  5
367
  8
INSIDE
 10
-140.4534618866101
 20
99.4414097332791
 30
0.0
 40
3.99999999999995
 50
89.99999999999959
 51
180.0
  0
ARC
  5
368
  8
INSIDE
 10
-114.4534618866101
 20
99.4414097332791
 30
0.0
 40
4.000000000000057
 50
0.0
 51
90.0
  0
LINE
  5
369
  8
INSIDE
 10
-110.4534618866099
 20
20.9414097332791
 30
0.0
 11
-110.4534618866099
 21
99.4414097332791
 31
0.0
  0
LINE
  5
36A
  8
INSIDE
 10
-110.4534618866101
 20
-57.5585902667209
 30
0.0
 11
-110.4534618866099
 21
20.9414097332791
 31
0.0
  0
ARC
  5
36B
  8
INSIDE
 10
-114.4534618866101
 20
-57.5585902667209
 30
0.0
 40
4.0
 50
270.0
 51
0.0
  0
ARC
  5
36C
  8
INSIDE
 10
-114.4534618866101
 20
-57.5585902667209
 30
0.0
 40
4.0
 50
180.0
 51
270.0
  0
LINE
  5
36D
  8
INSIDE
 10
-118.4534618866101
 20
20.9414097332791
 30
0.0
 11
-118.4534618866101
 21
-57.5585902667209
 31
0.0
  0
LINE
  5
36E
  8
INSIDE
 10
-118.4534618866101
 20
99.4414097332791
 30
0.0
 11
-118.4534618866101
 21
20.9414097332791
 31
0.0
  0
ARC
  5
36F
  8
INSIDE
 10
-114.4534618866101
 20
99.4414097332791
 30
0.0
 40
3.999999999999986
 50
90.0
 51
180.0
  0
ARC
  5
370
  8
INSIDE
 10
-62.45346188661006
 20
99.44140973327904
 30
0.0
 40
3.999999999999986
 50
90.0
 51
179.9999999999998
  0
ARC
  5
371
  8
INSIDE
 10
-62.45346188661006
 20
99.4414097332791
 30
0.0
 40
4.0
 50
0.0
 51
90.0
  0
LINE
  5
372
  8
INSIDE
 10
-58.45346188661006
 20
20.9414097332791
 30
0.0
 11
-58.45346188661006
 21
99.4414097332791
 31
0.0
  0
LINE
  5
373
  8
INSIDE
 10
-58.45346188661006
 20
-57.5585902667209
 30
0.0
 11
-58.45346188661006
 21
20.9414097332791
 31
0.0
  0
ARC
  5
374
  8
INSIDE
 10
-62.45346188661006
 20
-57.5585902667209
 30
0.0
 40
4.0
 50
270.0
 51
0.0
  0
ARC
  5
375
  8
INSIDE
 10
-62.45346188661006
 20
-57.5585902667209
 30
0.0
 40
4.0
 50
180.0
 51
270.0
  0
LINE
  5
376
  8
INSIDE
 10
-66.45346188661006
 20
20.94140973327904
 30
0.0
 11
-66.45346188661006
 21
-57.5585902667209
 31
0.0
  0
LINE
  5
377
  8
INSIDE
 10
-66.45346188661006
 20
99.44140973327906
 30
0.0
 11
-66.45346188661006
 21
20.94140973327904
 31
0.0
  0
ARC
  5
378
  8
INSIDE
 10
-36.45346188661006
 20
-57.5585902667209
 30
0.0
 40
4.0
 50
270.0
 51
0.0
  0
ARC
  5
379
  8
INSIDE
 10
-36.45346188661006
 20
-57.5585902667209
 30
0.0
 40
4.0
 50
180.0
 51
270.0
  0
LINE
  5
37A
  8
INSIDE
 10
-40.45346188661006
 20
20.94140973327913
 30
0.0
 11
-40.45346188661006
 21
-57.5585902667209
 31
0.0
  0
LINE
  5
37B
  8
INSIDE
 10
-40.45346188661006
 20
99.4414097332791
 30
0.0
 11
-40.45346188660994
 21
20.94140973327904
 31
0.0
  0
ARC
  5
37C
  8
INSIDE
 10
-36.45346188661006
 20
99.4414097332791
 30
0.0
 40
4.0
 50
90.0
 51
180.0
  0
ARC
  5
37D
  8
INSIDE
 10
-36.45346188660994
 20
99.44140973327913
 30
0.0
 40
4.0
 50
359.9999999999998
 51
90.00000000000082
  0
LINE
  5
37E
  8
INSIDE
 10
-32.45346188661006
 20
20.9414097332791
 30
0.0
 11
-32.45346188660994
 21
99.4414097332791
 31
0.0
  0
LINE
  5
37F
  8
INSIDE
 10
-32.45346188661006
 20
-57.5585902667209
 30
0.0
 11
-32.45346188661006
 21
20.9414097332791
 31
0.0
  0
LINE
  5
380
  8
INSIDE
 10
71.54653811338994
 20
20.94140973327904
 30
0.0
 11
71.54653811338994
 21
99.4414097332791
 31
0.0
  0
LINE
  5
381
  8
INSIDE
 10
71.54653811338994
 20
-57.5585902667209
 30
0.0
 11
71.54653811338994
 21
20.94140973327913
 31
0.0
  0
ARC
  5
382
  8
INSIDE
 10
67.54653811338994
 20
-57.5585902667209
 30
0.0
 40
4.0
 50
270.0
 51
0.0
  0
ARC
  5
383
  8
INSIDE
 10
67.54653811338994
 20
-57.5585902667209
 30
0.0
 40
4.0
 50
180.0
 51
270.0
  0
LINE
  5
384
  8
INSIDE
 10
63.54653811338994
 20
20.9414097332791
 30
0.0
 11
63.54653811338994
 21
-57.5585902667209
 31
0.0
  0
LINE
  5
385
  8
INSIDE
 10
63.54653811338994
 20
99.4414097332791
 30
0.0
 11
63.54653811338994
 21
20.9414097332791
 31
0.0
  0
ARC
  5
386
  8
INSIDE
 10
67.54653811338994
 20
99.4414097332791
 30
0.0
 40
4.0
 50
90.0
 51
180.0
  0
ARC
  5
387
  8
INSIDE
 10
67.54653811338994
 20
99.4414097332791
 30
0.0
 40
4.0
 50
0.0
 51
90.0
  0
ARC
  5
388
  8
INSIDE
 10
-10.45346188661006
 20
99.44140973327913
 30
0.0
 40
4.0
 50
359.9999999999998
 51
90.0
  0
LINE
  5
389
  8
INSIDE
 10
-6.453461886610057
 20
20.9414097332791
 30
0.0
 11
-6.453461886610057
 21
99.4414097332791
 31
0.0
  0
LINE
  5
38A
  8
INSIDE
 10
-6.453461886610057
 20
-57.5585902667209
 30
0.0
 11
-6.453461886610057
 21
20.9414097332791
 31
0.0
  0
ARC
  5
38B
  8
INSIDE
 10
-10.45346188661006
 20
-57.5585902667209
 30
0.0
 40
4.0
 50
270.0
 51
0.0
  0
ARC
  5
38C
  8
INSIDE
 10
-10.45346188661006
 20
-57.5585902667209
 30
0.0
 40
4.0
 50
180.0
 51
270.0
  0
LINE
  5
38D
  8
INSIDE
 10
-14.45346188661006
 20
20.9414097332791
 30
0.0
 11
-14.45346188661006
 21
-57.5585902667209
 31
0.0
  0
LINE
  5
38E
  8
INSIDE
 10
-14.45346188661006
 20
99.4414097332791
 30
0.0
 11
-14.45346188661006
 21
20.9414097332791
 31
0.0
  0
ARC
  5
38F
  8
INSIDE
 10
-10.45346188661006
 20
99.4414097332791
 30
0.0
 40
3.999999999999943
 50
90.0
 51
180.0
  0
LINE
  5
390
  8
INSIDE
 10
45.54653811338994
 20
-57.5585902667209
 30
0.0
 11
45.54653811338994
 21
20.9414097332791
 31
0.0
  0
ARC
  5
391
  8
INSIDE
 10
41.54653811338994
 20
-57.5585902667209
 30
0.0
 40
4.0
 50
270.0
 51
0.0
  0
ARC
  5
392
  8
INSIDE
 10
41.54653811338994
 20
-57.5585902667209
 30
0.0
 40
4.0
 50
180.0
 51
270.0
  0
LINE
  5
393
  8
INSIDE
 10
37.54653811338994
 20
20.9414097332791
 30
0.0
 11
37.54653811338994
 21
-57.5585902667209
 31
0.0
  0
LINE
  5
394
  8
INSIDE
 10
37.54653811338994
 20
99.4414097332791
 30
0.0
 11
37.54653811338994
 21
20.9414097332791
 31
0.0
  0
ARC
  5
395
  8
INSIDE
 10
41.54653811338972
 20
99.4414097332791
 30
0.0
 40
3.999999999999886
 50
89.99999999999837
 51
180.0
  0
ARC
  5
396
  8
INSIDE
 10
41.54653811339006
 20
99.44140973327913
 30
0.0
 40
3.999999999999886
 50
359.9999999999998
 51
90.00000000000325
  0
LINE
  5
397
  8
INSIDE
 10
45.54653811338994
 20
20.9414097332791
 30
0.0
 11
45.54653811338994
 21
99.4414097332791
 31
0.0
  0
LINE
  5
398
  8
INSIDE
 10
19.54653811338994
 20
-57.5585902667209
 30
0.0
 11
19.54653811338994
 21
20.9414097332791
 31
0.0
  0
ARC
  5
399
  8
INSIDE
 10
15.54653811338994
 20
-57.5585902667209
 30
0.0
 40
4.0
 50
270.0
 51
0.0
  0
ARC
  5
39A
  8
INSIDE
 10
15.54653811338994
 20
-57.5585902667209
 30
0.0
 40
4.0
 50
180.0
 51
270.0
  0
LINE
  5
39B
  8
INSIDE
 10
11.54653811338994
 20
20.94140973327913
 30
0.0
 11
11.54653811338994
 21
-57.5585902667209
 31
0.0
  0
LINE
  5
39C
  8
INSIDE
 10
11.54653811338994
 20
99.4414097332791
 30
0.0
 11
11.54653811338994
 21
20.94140973327904
 31
0.0
  0
ARC
  5
39D
  8
INSIDE
 10
15.54653811338994
 20
99.4414097332791
 30
0.0
 40
4.0
 50
90.0
 51
180.0
  0
ARC
  5
39E
  8
INSIDE
 10
15.54653811338994
 20
99.4414097332791
 30
0.0
 40
4.0
 50
0.0
 51
90.0
  0
LINE
  5
39F
  8
INSIDE
 10
19.54653811338994
 20
20.9414097332791
 30
0.0
 11
19.54653811338994
 21
99.4414097332791
 31
0.0
  0
ARC
  5
3A0
  8
INSIDE
 10
-75.45346188660983
 20
186.9287220303012
 30
0.0
 40
3.999999999999886
 50
0.0
 51
88.97740529422767
  0
LINE
  5
3A1
  8
INSIDE
 10
-71.45346188660994
 20
29.94063217523501
 30
0.0
 11
-71.45346188660994
 21
186.9287220303012
 31
0.0
  0
ARC
  5
3A2
  8
INSIDE
 10
-75.45346188660983
 20
29.94063217523501
 30
0.0
 40
3.999999999999943
 50
269.8627838026087
 51
0.0
  0
ARC
  5
3A3
  8
INSIDE
 10
-75.45346188661011
 20
29.94063217523495
 30
0.0
 40
3.999999999999886
 50
180.0
 51
269.8627838026126
  0
LINE
  5
3A4
  8
INSIDE
 10
-79.45346188660994
 20
186.9287220303012
 30
0.0
 11
-79.45346188661006
 21
29.94063217523495
 31
0.0
  0
ARC
  5
3A5
  8
INSIDE
 10
-75.45346188661006
 20
186.9287220303012
 30
0.0
 40
3.999999999999886
 50
88.97740529422543
 51
179.9999999999996
  0
ARC
  5
3A6
  8
INSIDE
 10
80.54653811339006
 20
11.94218729132319
 30
0.0
 40
4.0
 50
0.0
 51
90.13721619738966
  0
LINE
  5
3A7
  8
INSIDE
 10
84.54653811339006
 20
-145.0459025637431
 30
0.0
 11
84.54653811339006
 21
11.94218729132319
 31
0.0
  0
ARC
  5
3A8
  8
INSIDE
 10
80.54653811339028
 20
-145.0459025637431
 30
0.0
 40
3.999999999999886
 50
271.0225947057723
 51
0.0
  0
ARC
  5
3A9
  8
INSIDE
 10
80.54653811338994
 20
-145.0459025637431
 30
0.0
 40
3.999999999999886
 50
180.0000000000008
 51
271.0225947057756
  0
LINE
  5
3AA
  8
INSIDE
 10
76.54653811338994
 20
11.94218729132322
 30
0.0
 11
76.54653811339006
 21
-145.0459025637431
 31
0.0
  0
ARC
  5
3AB
  8
INSIDE
 10
80.54653811339006
 20
11.94218729132322
 30
0.0
 40
4.0
 50
90.13721619738966
 51
180.0
  0
ARC
  5
3AC
  8
INSIDE
 10
-49.45346188660994
 20
11.94218729132319
 30
0.0
 40
4.0
 50
0.0
 51
90.13721619738966
  0
LINE
  5
3AD
  8
INSIDE
 10
-45.45346188660994
 20
-145.0459025637431
 30
0.0
 11
-45.45346188660994
 21
11.94218729132319
 31
0.0
  0
ARC
  5
3AE
  8
INSIDE
 10
-49.45346188660994
 20
-145.0459025637431
 30
0.0
 40
3.999999999999943
 50
271.0225947057738
 51
0.0
  0
ARC
  5
3AF
  8
INSIDE
 10
-49.45346188661006
 20
-145.0459025637431
 30
0.0
 40
3.999999999999886
 50
180.0000000000008
 51
271.0225947057756
  0
LINE
  5
3B0
  8
INSIDE
 10
-53.45346188660994
 20
11.94218729132322
 30
0.0
 11
-53.45346188660994
 21
-145.0459025637431
 31
0.0
  0
ARC
  5
3B1
  8
INSIDE
 10
-49.45346188661006
 20
11.94218729132322
 30
0.0
 40
3.999999999999965
 50
90.13721619738786
 51
180.0
  0
LINE
  5
3B2
  8
INSIDE
 10
-84.45346188661006
 20
20.9414097332791
 30
0.0
 11
-84.45346188661006
 21
99.4414097332791
 31
0.0
  0
LINE
  5
3B3
  8
INSIDE
 10
-84.45346188661011
 20
-57.5585902667209
 30
0.0
 11
-84.45346188661006
 21
20.9414097332791
 31
0.0
  0
ARC
  5
3B4
  8
INSIDE
 10
-88.45346188661006
 20
-57.5585902667209
 30
0.0
 40
3.999999999999968
 50
269.9999999999996
 51
0.0
  0
ARC
  5
3B5
  8
INSIDE
 10
-88.45346188661006
 20
-57.5585902667209
 30
0.0
 40
3.999999999999986
 50
180.0
 51
270.0
  0
LINE
  5
3B6
  8
INSIDE
 10
-92.45346188661006
 20
20.9414097332791
 30
0.0
 11
-92.45346188661006
 21
-57.5585902667209
 31
0.0
  0
LINE
  5
3B7
  8
INSIDE
 10
-92.45346188660994
 20
99.4414097332791
 30
0.0
 11
-92.45346188661006
 21
20.9414097332791
 31
0.0
  0
ARC
  5
3B8
  8
INSIDE
 10
-88.45346188661006
 20
99.4414097332791
 30
0.0
 40
3.999999999999943
 50
90.0
 51
180.0
  0
ARC
  5
3B9
  8
INSIDE
 10
-88.45346188661006
 20
99.4414097332791
 30
0.0
 40
4.0
 50
0.0
 51
90.0
  0
ARC
  5
3BA
  8
INSIDE
 10
236.5465381133904
 20
11.94218729132319
 30
0.0
 40
3.999999999999886
 50
0.0
 51
90.13721619739133
  0
LINE
  5
3BB
  8
INSIDE
 10
240.5465381133903
 20
-145.0459025637431
 30
0.0
 11
240.5465381133903
 21
11.94218729132319
 31
0.0
  0
ARC
  5
3BC
  8
INSIDE
 10
236.5465381133903
 20
-145.0459025637431
 30
0.0
 40
3.999999999999968
 50
271.0225947057735
 51
0.0
  0
ARC
  5
3BD
  8
INSIDE
 10
236.5465381133901
 20
-145.0459025637431
 30
0.0
 40
3.999999999999986
 50
180.0
 51
271.0225947057743
  0
LINE
  5
3BE
  8
INSIDE
 10
232.5465381133901
 20
11.94218729132322
 30
0.0
 11
232.5465381133901
 21
-145.0459025637431
 31
0.0
  0
ARC
  5
3BF
  8
INSIDE
 10
236.5465381133899
 20
11.94218729132322
 30
0.0
 40
3.999999999999886
 50
90.13721619738644
 51
180.0
  0
ARC
  5
3C0
  8
INSIDE
 10
132.5465381133904
 20
186.9287220303012
 30
0.0
 40
3.999999999999886
 50
0.0
 51
88.9774052942293
  0
LINE
  5
3C1
  8
INSIDE
 10
136.5465381133903
 20
29.94063217523501
 30
0.0
 11
136.5465381133901
 21
186.9287220303012
 31
0.0
  0
ARC
  5
3C2
  8
INSIDE
 10
132.5465381133903
 20
29.94063217523501
 30
0.0
 40
4.0
 50
269.8627838026087
 51
0.0
  0
ARC
  5
3C3
  8
INSIDE
 10
132.5465381133899
 20
29.94063217523495
 30
0.0
 40
4.0
 50
180.0
 51
269.8627838026119
  0
LINE
  5
3C4
  8
INSIDE
 10
128.5465381133901
 20
186.9287220303012
 30
0.0
 11
128.5465381133899
 21
29.94063217523495
 31
0.0
  0
ARC
  5
3C5
  8
INSIDE
 10
132.5465381133899
 20
186.9287220303012
 30
0.0
 40
3.999999999999886
 50
88.97740529422441
 51
179.9999999999996
  0
ARC
  5
3C6
  8
INSIDE
 10
-477.2133630126128
 20
-117.080357651816
 30
0.0
 40
4.199907975247207
 50
359.8952386438259
 51
89.89515139737874
  0
LINE
  5
3C7
  8
INSIDE
 10
-473.0134618866099
 20
-129.0585912343173
 30
0.0
 11
-473.0134620578425
 21
-117.0880368877715
 31
0.0
  0
ARC
  5
3C8
  8
INSIDE
 10
-477.2134618866099
 20
-129.0585912347549
 30
0.0
 40
4.199999999999968
 50
182.7293894160051
 51
0.0000000059682472
  0
LINE
  5
3C9
  8
INSIDE
 10
-515.1582184199143
 20
-129.2585902667209
 30
0.0
 11
-481.4086973254396
 21
-129.2585902667209
 31
0.0
  0
ARC
  5
3CA
  8
INSIDE
 10
-519.3534618900106
 20
-129.0587597720149
 30
0.0
 40
4.200000000000069
 50
225.0023789542585
 51
357.2729123533693
  0
ARC
  5
3CB
  8
INSIDE
 10
-519.3534569127726
 20
-129.0587577102544
 30
0.0
 40
4.200004977238582
 50
180.0023344816749
 51
225.002350828058
  0
LINE
  5
3CC
  8
INSIDE
 10
-523.5534617308392
 20
-117.0587482081036
 30
0.0
 11
-523.5534618865249
 21
-129.0589288369017
 31
0.0
  0
ARC
  5
3CD
  8
INSIDE
 10
-519.3533793438411
 20
-117.0660738553062
 30
0.0
 40
4.200088775571092
 50
89.9001395205519
 51
179.9000666647432
  0
ARC
  5
3CE
  8
INSIDE
 10
-519.3534681174361
 20
-117.0659849239356
 30
0.0
 40
4.199999999999885
 50
2.633090439242019
 51
89.8989263716657
  0
LINE
  5
3CF
  8
INSIDE
 10
-481.4083305007997
 20
-116.8730372468595
 30
0.0
 11
-515.1579024590403
 21
-116.8730372468595
 31
0.0
  0
ARC
  5
3D0
  8
INSIDE
 10
-477.2134550373067
 20
-117.0804495073175
 30
0.0
 40
4.200000000000233
 50
89.89389830527745
 51
177.1693612442498
  0
ARC
  5
3D1
  8
INSIDE
 10
-477.2137044053752
 20
170.9340893278957
 30
0.0
 40
4.199907975247321
 50
359.8952386438259
 51
89.89515139737797
  0
LINE
  5
3D2
  8
INSIDE
 10
-473.0138032793722
 20
158.9558557453944
 30
0.0
 11
-473.0138034506048
 21
170.9264100919402
 31
0.0
  0
ARC
  5
3D3
  8
INSIDE
 10
-477.2138032793721
 20
158.9558557449569
 30
0.0
 40
4.199999999999968
 50
182.7293894160051
 51
0.0000000059682472
  0
LINE
  5
3D4
  8
INSIDE
 10
-515.1585598126766
 20
158.7558567129908
 30
0.0
 11
-481.4090387182018
 21
158.7558567129908
 31
0.0
  0
ARC
  5
3D5
  8
INSIDE
 10
-519.3538032827729
 20
158.9556872076968
 30
0.0
 40
4.200000000000069
 50
225.0023789542585
 51
357.2729123533693
  0
ARC
  5
3D6
  8
INSIDE
 10
-519.3537983055348
 20
158.9556892694573
 30
0.0
 40
4.200004977238582
 50
180.0023344816741
 51
225.0023508280582
  0
LINE
  5
3D7
  8
INSIDE
 10
-523.5538031236015
 20
170.9556987716081
 30
0.0
 11
-523.5538032792872
 21
158.95551814281
 31
0.0
  0
ARC
  5
3D8
  8
INSIDE
 10
-519.3537207366035
 20
170.9483731244056
 30
0.0
 40
4.200088775571092
 50
89.9001395205519
 51
179.9000666647438
  0
ARC
  5
3D9
  8
INSIDE
 10
-519.3538095101984
 20
170.9484620557762
 30
0.0
 40
4.199999999999885
 50
2.633090439242212
 51
89.8989263716657
  0
LINE
  5
3DA
  8
INSIDE
 10
-481.408671893562
 20
171.1414097328522
 30
0.0
 11
-515.1582438518026
 21
171.1414097328522
 31
0.0
  0
ARC
  5
3DB
  8
INSIDE
 10
-477.213796430069
 20
170.9339974723942
 30
0.0
 40
4.200000000000234
 50
89.89389830527745
 51
177.16936124425
  0
ENDSEC
  0
EOF
