  0
SECTION
  2
HEADER
  9
$ACADVER
  1
AC1014
  9
$HANDSEED
  5
FFFF
  9
$MEASUREMENT
 70
     1
  0
ENDSEC
  0
SECTION
  2
TABLES
  0
TABLE
  2
VPORT
  5
8
330
0
100
AcDbSymbolTable
 70
     4
  0
VPORT
  5
2E
330
8
100
AcDbSymbolTableRecord
100
AcDbViewportTableRecord
  2
*ACTIVE
 70
     0
 10
0.0
 20
0.0
 11
1.0
 21
1.0
 12
210.0
 22
148.5
 13
0.0
 23
0.0
 14
10.0
 24
10.0
 15
10.0
 25
10.0
 16
0.0
 26
0.0
 36
1.0
 17
0.0
 27
0.0
 37
0.0
 40
341.0
 41
1.24
 42
50.0
 43
0.0
 44
0.0
 50
0.0
 51
0.0
 71
     0
 72
   100
 73
     1
 74
     3
 75
     0
 76
     0
 77
     0
 78
     0
  0
ENDTAB
  0
TABLE
  2
LTYPE
  5
5
330
0
100
AcDbSymbolTable
 70
     1
  0
LTYPE
  5
14
330
5
100
AcDbSymbolTableRecord
100
AcDbLinetypeTableRecord
  2
BYBLOCK
 70
     0
  3

 72
    65
 73
     0
 40
0.0
  0
LTYPE
  5
15
330
5
100
AcDbSymbolTableRecord
100
AcDbLinetypeTableRecord
  2
BYLAYER
 70
     0
  3

 72
    65
 73
     0
 40
0.0
  0
LTYPE
  5
16
330
5
100
AcDbSymbolTableRecord
100
AcDbLinetypeTableRecord
  2
CONTINUOUS
 70
     0
  3
Solid line
 72
    65
 73
     0
 40
0.0
  0
ENDTAB
  0
TABLE
  2
LAYER
  5
2
100
AcDbSymbolTable
 70
2
  0
LAYER
  5
50
100
AcDbSymbolTableRecord
100
AcDbLayerTableRecord
  2
0
 70
0
  6
CONTINUOUS
  0
LAYER
  5
51
100
AcDbSymbolTableRecord
100
AcDbLayerTableRecord
  2
Default
 70
0
  6
CONTINUOUS
  0
ENDTAB
  0
TABLE
  2
STYLE
  5
3
330
0
100
AcDbSymbolTable
 70
     1
  0
STYLE
  5
11
330
3
100
AcDbSymbolTableRecord
100
AcDbTextStyleTableRecord
  2
STANDARD
 70
     0
 40
0.0
 41
1.0
 50
0.0
 71
     0
 42
2.5
  3
txt
  4

  0
ENDTAB
  0
TABLE
  2
VIEW
  5
6
330
0
100
AcDbSymbolTable
 70
     0
  0
ENDTAB
  0
TABLE
  2
UCS
  5
7
330
0
100
AcDbSymbolTable
 70
     0
  0
ENDTAB
  0
TABLE
  2
APPID
  5
9
330
0
100
AcDbSymbolTable
 70
     2
  0
APPID
  5
12
330
9
100
AcDbSymbolTableRecord
100
AcDbRegAppTableRecord
  2
ACAD
 70
     0
  0
ENDTAB
  0
TABLE
  2
DIMSTYLE
  5
A
330
0
100
AcDbSymbolTable
 70
     1
  0
DIMSTYLE
105
27
330
A
100
AcDbSymbolTableRecord
100
AcDbDimStyleTableRecord
  2
ISO-25
 70
     0
  3

  4

  5

  6

  7

 40
1.0
 41
2.5
 42
0.625
 43
3.75
 44
1.25
 45
0.0
 46
0.0
 47
0.0
 48
0.0
140
2.5
141
2.5
142
0.0
143
0.03937007874016
144
1.0
145
0.0
146
1.0
147
0.625
 71
     0
 72
     0
 73
     0
 74
     0
 75
     0
 76
     0
 77
     1
 78
     8
170
     0
171
     3
172
     1
173
     0
174
     0
175
     0
176
     0
177
     0
178
     0
270
     2
271
     2
272
     2
273
     2
274
     3
340
11
275
     0
280
     0
281
     0
282
     0
283
     0
284
     8
285
     0
286
     0
287
     3
288
     0
  0
ENDTAB
  0
TABLE
  2
BLOCK_RECORD
  5
1
330
0
100
AcDbSymbolTable
 70
     1
  0
BLOCK_RECORD
  5
1F
330
1
100
AcDbSymbolTableRecord
100
AcDbBlockTableRecord
  2
*MODEL_SPACE
  0
BLOCK_RECORD
  5
1B
330
1
100
AcDbSymbolTableRecord
100
AcDbBlockTableRecord
  2
*PAPER_SPACE
  0
ENDTAB
  0
ENDSEC
  0
SECTION
  2
BLOCKS
  0
BLOCK
  5
20
330
1F
100
AcDbEntity
  8
0
100
AcDbBlockBegin
  2
*MODEL_SPACE
 70
     0
 10
0.0
 20
0.0
 30
0.0
  3
*MODEL_SPACE
  1

  0
ENDBLK
  5
21
330
1F
100
AcDbEntity
  8
0
100
AcDbBlockEnd
  0
BLOCK
  5
1C
330
1B
100
AcDbEntity
 67
     1
  8
0
100
AcDbBlockBegin
  2
*PAPER_SPACE
  1

  0
ENDBLK
  5
1D
330
1B
100
AcDbEntity
 67
     1
  8
0
100
AcDbBlockEnd
  0
ENDSEC
  0
SECTION
  2
ENTITIES
  0
LWPOLYLINE
  5
100
100
AcDbEntity
  8
Default
 62
7
100
AcDbPolyline
 90
2
 70
0
 10
115.953475
 20
75.014205
 30
0.0
 10
119.849420
 20
68.275949
 30
0.0
  0
LWPOLYLINE
  5
101
100
AcDbEntity
  8
Default
 62
7
100
AcDbPolyline
 90
2
 70
0
 10
119.841010
 20
81.757315
 30
0.0
 10
115.953478
 20
75.014205
 30
0.0
  0
LWPOLYLINE
  5
102
100
AcDbEntity
  8
Default
 62
7
100
AcDbPolyline
 90
2
 70
0
 10
127.624470
 20
81.762172
 30
0.0
 10
119.841010
 20
81.757318
 30
0.0
  0
LWPOLYLINE
  5
103
100
AcDbEntity
  8
Default
 62
7
100
AcDbPolyline
 90
2
 70
0
 10
131.520413
 20
75.023933
 30
0.0
 10
127.624470
 20
81.762172
 30
0.0
  0
LWPOLYLINE
  5
104
100
AcDbEntity
  8
Default
 62
7
100
AcDbPolyline
 90
2
 70
0
 10
127.632881
 20
68.280818
 30
0.0
 10
131.520404
 20
75.023933
 30
0.0
  0
LWPOLYLINE
  5
105
100
AcDbEntity
  8
Default
 62
7
100
AcDbPolyline
 90
2
 70
0
 10
119.849415
 20
68.275949
 30
0.0
 10
127.632881
 20
68.280803
 30
0.0
  0
LWPOLYLINE
  5
106
100
AcDbEntity
  8
Default
 62
7
100
AcDbPolyline
 90
2
 70
0
 10
126.074514
 20
70.976110
 30
0.0
 10
121.404425
 20
70.973203
 30
0.0
  0
LWPOLYLINE
  5
107
100
AcDbEntity
  8
Default
 62
7
100
AcDbPolyline
 90
2
 70
0
 10
128.407030
 20
75.021980
 30
0.0
 10
126.074514
 20
70.976110
 30
0.0
  0
LWPOLYLINE
  5
108
100
AcDbEntity
  8
Default
 62
7
100
AcDbPolyline
 90
2
 70
0
 10
126.069463
 20
79.064938
 30
0.0
 10
128.407036
 20
75.021980
 30
0.0
  0
LWPOLYLINE
  5
109
100
AcDbEntity
  8
Default
 62
7
100
AcDbPolyline
 90
2
 70
0
 10
121.399396
 20
79.062011
 30
0.0
 10
126.069463
 20
79.064946
 30
0.0
  0
LWPOLYLINE
  5
10a
100
AcDbEntity
  8
Default
 62
7
100
AcDbPolyline
 90
2
 70
0
 10
119.066869
 20
75.016147
 30
0.0
 10
121.399396
 20
79.062011
 30
0.0
  0
LWPOLYLINE
  5
10b
100
AcDbEntity
  8
Default
 62
7
100
AcDbPolyline
 90
2
 70
0
 10
121.404420
 20
70.973198
 30
0.0
 10
119.066858
 20
75.016147
 30
0.0
  0
LWPOLYLINE
  5
10c
100
AcDbEntity
  8
Default
 62
7
100
AcDbPolyline
 90
2
 70
0
 10
122.361071
 20
73.778653
 30
0.0
 10
122.811704
 20
73.414206
 30
0.0
  0
LWPOLYLINE
  5
10d
100
AcDbEntity
  8
Default
 62
7
100
AcDbPolyline
 90
2
 70
0
 10
122.045103
 20
74.264558
 30
0.0
 10
122.361071
 20
73.778653
 30
0.0
  0
LWPOLYLINE
  5
10e
100
AcDbEntity
  8
Default
 62
7
100
AcDbPolyline
 90
2
 70
0
 10
121.894735
 20
74.824255
 30
0.0
 10
122.045103
 20
74.264558
 30
0.0
  0
LWPOLYLINE
  5
10f
100
AcDbEntity
  8
Default
 62
7
100
AcDbPolyline
 90
2
 70
0
 10
121.924719
 20
75.403096
 30
0.0
 10
121.894735
 20
74.824255
 30
0.0
  0
LWPOLYLINE
  5
110
100
AcDbEntity
  8
Default
 62
7
100
AcDbPolyline
 90
2
 70
0
 10
122.132079
 20
75.944294
 30
0.0
 10
121.924719
 20
75.403096
 30
0.0
  0
LWPOLYLINE
  5
111
100
AcDbEntity
  8
Default
 62
7
100
AcDbPolyline
 90
2
 70
0
 10
122.496526
 20
76.394929
 30
0.0
 10
122.132079
 20
75.944294
 30
0.0
  0
LWPOLYLINE
  5
112
100
AcDbEntity
  8
Default
 62
7
100
AcDbPolyline
 90
2
 70
0
 10
122.982434
 20
76.710925
 30
0.0
 10
122.496526
 20
76.394929
 30
0.0
  0
LWPOLYLINE
  5
113
100
AcDbEntity
  8
Default
 62
7
100
AcDbPolyline
 90
2
 70
0
 10
123.542143
 20
76.861251
 30
0.0
 10
122.982434
 20
76.710925
 30
0.0
  0
LWPOLYLINE
  5
114
100
AcDbEntity
  8
Default
 62
7
100
AcDbPolyline
 90
2
 70
0
 10
124.120969
 20
76.831290
 30
0.0
 10
123.542143
 20
76.861251
 30
0.0
  0
LWPOLYLINE
  5
115
100
AcDbEntity
  8
Default
 62
7
100
AcDbPolyline
 90
2
 70
0
 10
124.662167
 20
76.623927
 30
0.0
 10
124.120969
 20
76.831290
 30
0.0
  0
LWPOLYLINE
  5
116
100
AcDbEntity
  8
Default
 62
7
100
AcDbPolyline
 90
2
 70
0
 10
125.112800
 20
76.259480
 30
0.0
 10
124.662167
 20
76.623927
 30
0.0
  0
LWPOLYLINE
  5
117
100
AcDbEntity
  8
Default
 62
7
100
AcDbPolyline
 90
2
 70
0
 10
125.428790
 20
75.773564
 30
0.0
 10
125.112800
 20
76.259480
 30
0.0
  0
LWPOLYLINE
  5
118
100
AcDbEntity
  8
Default
 62
7
100
AcDbPolyline
 90
2
 70
0
 10
125.579132
 20
75.213883
 30
0.0
 10
125.428790
 20
75.773564
 30
0.0
  0
LWPOLYLINE
  5
119
100
AcDbEntity
  8
Default
 62
7
100
AcDbPolyline
 90
2
 70
0
 10
125.549158
 20
74.635034
 30
0.0
 10
125.579132
 20
75.213883
 30
0.0
  0
LWPOLYLINE
  5
11a
100
AcDbEntity
  8
Default
 62
7
100
AcDbPolyline
 90
2
 70
0
 10
125.341798
 20
74.093836
 30
0.0
 10
125.549158
 20
74.635034
 30
0.0
  0
LWPOLYLINE
  5
11b
100
AcDbEntity
  8
Default
 62
7
100
AcDbPolyline
 90
2
 70
0
 10
124.977350
 20
73.643201
 30
0.0
 10
125.341798
 20
74.093836
 30
0.0
  0
LWPOLYLINE
  5
11c
100
AcDbEntity
  8
Default
 62
7
100
AcDbPolyline
 90
2
 70
0
 10
124.491434
 20
73.327213
 30
0.0
 10
124.977350
 20
73.643201
 30
0.0
  0
LWPOLYLINE
  5
11d
100
AcDbEntity
  8
Default
 62
7
100
AcDbPolyline
 90
2
 70
0
 10
123.931751
 20
73.176871
 30
0.0
 10
124.491434
 20
73.327213
 30
0.0
  0
LWPOLYLINE
  5
11e
100
AcDbEntity
  8
Default
 62
7
100
AcDbPolyline
 90
2
 70
0
 10
123.352901
 20
73.206846
 30
0.0
 10
123.931751
 20
73.176871
 30
0.0
  0
LWPOLYLINE
  5
11f
100
AcDbEntity
  8
Default
 62
7
100
AcDbPolyline
 90
2
 70
0
 10
122.811704
 20
73.414206
 30
0.0
 10
123.352901
 20
73.206846
 30
0.0
  0
LWPOLYLINE
  5
120
100
AcDbEntity
  8
Default
 62
7
100
AcDbPolyline
 90
2
 70
0
 10
133.045990
 20
75.190441
 30
0.0
 10
136.941921
 20
68.452182
 30
0.0
  0
LWPOLYLINE
  5
121
100
AcDbEntity
  8
Default
 62
7
100
AcDbPolyline
 90
2
 70
0
 10
136.933511
 20
81.933545
 30
0.0
 10
133.045990
 20
75.190441
 30
0.0
  0
LWPOLYLINE
  5
122
100
AcDbEntity
  8
Default
 62
7
100
AcDbPolyline
 90
2
 70
0
 10
144.716974
 20
81.938414
 30
0.0
 10
136.933511
 20
81.933560
 30
0.0
  0
LWPOLYLINE
  5
123
100
AcDbEntity
  8
Default
 62
7
100
AcDbPolyline
 90
2
 70
0
 10
136.941921
 20
68.452196
 30
0.0
 10
144.725390
 20
68.457079
 30
0.0
  0
LWPOLYLINE
  5
124
100
AcDbEntity
  8
Default
 62
7
100
AcDbPolyline
 90
2
 70
0
 10
143.167015
 20
71.152380
 30
0.0
 10
138.496937
 20
71.149445
 30
0.0
  0
LWPOLYLINE
  5
125
100
AcDbEntity
  8
Default
 62
7
100
AcDbPolyline
 90
2
 70
0
 10
145.499520
 20
75.198213
 30
0.0
 10
143.167015
 20
71.152366
 30
0.0
  0
LWPOLYLINE
  5
126
100
AcDbEntity
  8
Default
 62
7
100
AcDbPolyline
 90
2
 70
0
 10
143.161964
 20
79.241162
 30
0.0
 10
145.499526
 20
75.198213
 30
0.0
  0
LWPOLYLINE
  5
127
100
AcDbEntity
  8
Default
 62
7
100
AcDbPolyline
 90
2
 70
0
 10
138.491894
 20
79.238236
 30
0.0
 10
143.161964
 20
79.241171
 30
0.0
  0
LWPOLYLINE
  5
128
100
AcDbEntity
  8
Default
 62
7
100
AcDbPolyline
 90
2
 70
0
 10
136.159381
 20
75.192402
 30
0.0
 10
138.491894
 20
79.238244
 30
0.0
  0
LWPOLYLINE
  5
129
100
AcDbEntity
  8
Default
 62
7
100
AcDbPolyline
 90
2
 70
0
 10
138.496946
 20
71.149453
 30
0.0
 10
136.159384
 20
75.192402
 30
0.0
  0
LWPOLYLINE
  5
12a
100
AcDbEntity
  8
Default
 62
7
100
AcDbPolyline
 90
2
 70
0
 10
139.453586
 20
73.954906
 30
0.0
 10
139.904227
 20
73.590455
 30
0.0
  0
LWPOLYLINE
  5
12b
100
AcDbEntity
  8
Default
 62
7
100
AcDbPolyline
 90
2
 70
0
 10
139.137619
 20
74.440797
 30
0.0
 10
139.453586
 20
73.954906
 30
0.0
  0
LWPOLYLINE
  5
12c
100
AcDbEntity
  8
Default
 62
7
100
AcDbPolyline
 90
2
 70
0
 10
138.987268
 20
75.000522
 30
0.0
 10
139.137619
 20
74.440797
 30
0.0
  0
LWPOLYLINE
  5
12d
100
AcDbEntity
  8
Default
 62
7
100
AcDbPolyline
 90
2
 70
0
 10
139.017237
 20
75.579335
 30
0.0
 10
138.987268
 20
75.000522
 30
0.0
  0
LWPOLYLINE
  5
12e
100
AcDbEntity
  8
Default
 62
7
100
AcDbPolyline
 90
2
 70
0
 10
139.224599
 20
76.120541
 30
0.0
 10
139.017237
 20
75.579335
 30
0.0
  0
LWPOLYLINE
  5
12f
100
AcDbEntity
  8
Default
 62
7
100
AcDbPolyline
 90
2
 70
0
 10
139.589050
 20
76.571179
 30
0.0
 10
139.224599
 20
76.120541
 30
0.0
  0
LWPOLYLINE
  5
130
100
AcDbEntity
  8
Default
 62
7
100
AcDbPolyline
 90
2
 70
0
 10
140.074941
 20
76.887150
 30
0.0
 10
139.589050
 20
76.571179
 30
0.0
  0
LWPOLYLINE
  5
131
100
AcDbEntity
  8
Default
 62
7
100
AcDbPolyline
 90
2
 70
0
 10
140.634666
 20
77.037501
 30
0.0
 10
140.074941
 20
76.887150
 30
0.0
  0
LWPOLYLINE
  5
132
100
AcDbEntity
  8
Default
 62
7
100
AcDbPolyline
 90
2
 70
0
 10
141.213479
 20
77.007532
 30
0.0
 10
140.634666
 20
77.037501
 30
0.0
  0
LWPOLYLINE
  5
133
100
AcDbEntity
  8
Default
 62
7
100
AcDbPolyline
 90
2
 70
0
 10
141.754685
 20
76.800169
 30
0.0
 10
141.213479
 20
77.007532
 30
0.0
  0
LWPOLYLINE
  5
134
100
AcDbEntity
  8
Default
 62
7
100
AcDbPolyline
 90
2
 70
0
 10
142.205323
 20
76.435715
 30
0.0
 10
141.754685
 20
76.800169
 30
0.0
  0
LWPOLYLINE
  5
135
100
AcDbEntity
  8
Default
 62
7
100
AcDbPolyline
 90
2
 70
0
 10
142.521291
 20
75.949828
 30
0.0
 10
142.205323
 20
76.435715
 30
0.0
  0
LWPOLYLINE
  5
136
100
AcDbEntity
  8
Default
 62
7
100
AcDbPolyline
 90
2
 70
0
 10
142.671645
 20
75.390102
 30
0.0
 10
142.521291
 20
75.949828
 30
0.0
  0
LWPOLYLINE
  5
137
100
AcDbEntity
  8
Default
 62
7
100
AcDbPolyline
 90
2
 70
0
 10
142.641676
 20
74.811287
 30
0.0
 10
142.671645
 20
75.390102
 30
0.0
  0
LWPOLYLINE
  5
138
100
AcDbEntity
  8
Default
 62
7
100
AcDbPolyline
 90
2
 70
0
 10
142.434313
 20
74.270083
 30
0.0
 10
142.641676
 20
74.811287
 30
0.0
  0
LWPOLYLINE
  5
139
100
AcDbEntity
  8
Default
 62
7
100
AcDbPolyline
 90
2
 70
0
 10
142.069860
 20
73.819445
 30
0.0
 10
142.434313
 20
74.270083
 30
0.0
  0
LWPOLYLINE
  5
13a
100
AcDbEntity
  8
Default
 62
7
100
AcDbPolyline
 90
2
 70
0
 10
141.583972
 20
73.503475
 30
0.0
 10
142.069860
 20
73.819445
 30
0.0
  0
LWPOLYLINE
  5
13b
100
AcDbEntity
  8
Default
 62
7
100
AcDbPolyline
 90
2
 70
0
 10
141.024246
 20
73.353123
 30
0.0
 10
141.583972
 20
73.503475
 30
0.0
  0
LWPOLYLINE
  5
13c
100
AcDbEntity
  8
Default
 62
7
100
AcDbPolyline
 90
2
 70
0
 10
140.445431
 20
73.383093
 30
0.0
 10
141.024246
 20
73.353123
 30
0.0
  0
LWPOLYLINE
  5
13d
100
AcDbEntity
  8
Default
 62
7
100
AcDbPolyline
 90
2
 70
0
 10
139.904227
 20
73.590455
 30
0.0
 10
140.445431
 20
73.383093
 30
0.0
  0
LWPOLYLINE
  5
13e
100
AcDbEntity
  8
Default
 62
7
100
AcDbPolyline
 90
2
 70
0
 10
148.612905
 20
75.200155
 30
0.0
 10
144.716974
 20
81.938414
 30
0.0
  0
LWPOLYLINE
  5
13f
100
AcDbEntity
  8
Default
 62
7
100
AcDbPolyline
 90
2
 70
0
 10
144.725384
 20
68.457059
 30
0.0
 10
148.612900
 20
75.200155
 30
0.0
  0
LWPOLYLINE
  5
140
100
AcDbEntity
  8
Default
 62
7
100
AcDbPolyline
 90
2
 70
0
 10
108.224317
 20
48.421232
 30
0.0
 10
108.224317
 20
42.521358
 30
0.0
  0
LWPOLYLINE
  5
141
100
AcDbEntity
  8
Default
 62
7
100
AcDbPolyline
 90
2
 70
0
 10
102.887032
 20
48.421232
 30
0.0
 10
108.224317
 20
48.421232
 30
0.0
  0
LWPOLYLINE
  5
142
100
AcDbEntity
  8
Default
 62
7
100
AcDbPolyline
 90
2
 70
0
 10
102.887032
 20
44.685164
 30
0.0
 10
102.887032
 20
48.421232
 30
0.0
  0
LWPOLYLINE
  5
143
100
AcDbEntity
  8
Default
 62
7
100
AcDbPolyline
 90
2
 70
0
 10
97.549809
 20
44.685164
 30
0.0
 10
102.887032
 20
44.685164
 30
0.0
  0
LWPOLYLINE
  5
144
100
AcDbEntity
  8
Default
 62
7
100
AcDbPolyline
 90
2
 70
0
 10
97.549809
 20
48.421232
 30
0.0
 10
97.549809
 20
44.685164
 30
0.0
  0
LWPOLYLINE
  5
145
100
AcDbEntity
  8
Default
 62
7
100
AcDbPolyline
 90
2
 70
0
 10
92.212581
 20
48.421232
 30
0.0
 10
97.549809
 20
48.421232
 30
0.0
  0
LWPOLYLINE
  5
146
100
AcDbEntity
  8
Default
 62
7
100
AcDbPolyline
 90
2
 70
0
 10
92.212581
 20
44.685164
 30
0.0
 10
92.212581
 20
48.421232
 30
0.0
  0
LWPOLYLINE
  5
147
100
AcDbEntity
  8
Default
 62
7
100
AcDbPolyline
 90
2
 70
0
 10
86.875355
 20
44.685164
 30
0.0
 10
92.212581
 20
44.685164
 30
0.0
  0
LWPOLYLINE
  5
148
100
AcDbEntity
  8
Default
 62
7
100
AcDbPolyline
 90
2
 70
0
 10
86.875355
 20
48.421232
 30
0.0
 10
86.875355
 20
44.685164
 30
0.0
  0
LWPOLYLINE
  5
149
100
AcDbEntity
  8
Default
 62
7
100
AcDbPolyline
 90
2
 70
0
 10
81.538143
 20
48.421232
 30
0.0
 10
86.875355
 20
48.421232
 30
0.0
  0
LWPOLYLINE
  5
14a
100
AcDbEntity
  8
Default
 62
7
100
AcDbPolyline
 90
2
 70
0
 10
81.538143
 20
44.685164
 30
0.0
 10
81.538143
 20
48.421232
 30
0.0
  0
LWPOLYLINE
  5
14b
100
AcDbEntity
  8
Default
 62
7
100
AcDbPolyline
 90
2
 70
0
 10
76.200861
 20
44.685164
 30
0.0
 10
81.538143
 20
44.685164
 30
0.0
  0
LWPOLYLINE
  5
14c
100
AcDbEntity
  8
Default
 62
7
100
AcDbPolyline
 90
2
 70
0
 10
76.200861
 20
48.421232
 30
0.0
 10
76.200861
 20
44.685164
 30
0.0
  0
LWPOLYLINE
  5
14d
100
AcDbEntity
  8
Default
 62
7
100
AcDbPolyline
 90
2
 70
0
 10
70.863638
 20
48.421232
 30
0.0
 10
76.200861
 20
48.421232
 30
0.0
  0
LWPOLYLINE
  5
14e
100
AcDbEntity
  8
Default
 62
7
100
AcDbPolyline
 90
2
 70
0
 10
70.863638
 20
42.521358
 30
0.0
 10
70.863638
 20
48.421232
 30
0.0
  0
LWPOLYLINE
  5
14f
100
AcDbEntity
  8
Default
 62
7
100
AcDbPolyline
 90
2
 70
0
 10
67.127572
 20
42.521358
 30
0.0
 10
70.863638
 20
42.521358
 30
0.0
  0
LWPOLYLINE
  5
150
100
AcDbEntity
  8
Default
 62
7
100
AcDbPolyline
 90
2
 70
0
 10
67.127572
 20
37.633336
 30
0.0
 10
67.127572
 20
42.521358
 30
0.0
  0
LWPOLYLINE
  5
151
100
AcDbEntity
  8
Default
 62
7
100
AcDbPolyline
 90
2
 70
0
 10
70.863638
 20
37.633336
 30
0.0
 10
67.127572
 20
37.633336
 30
0.0
  0
LWPOLYLINE
  5
152
100
AcDbEntity
  8
Default
 62
7
100
AcDbPolyline
 90
2
 70
0
 10
70.863638
 20
33.056653
 30
0.0
 10
70.863638
 20
37.633336
 30
0.0
  0
LWPOLYLINE
  5
153
100
AcDbEntity
  8
Default
 62
7
100
AcDbPolyline
 90
2
 70
0
 10
67.127572
 20
33.056653
 30
0.0
 10
70.863638
 20
33.056653
 30
0.0
  0
LWPOLYLINE
  5
154
100
AcDbEntity
  8
Default
 62
7
100
AcDbPolyline
 90
2
 70
0
 10
67.127572
 20
28.168631
 30
0.0
 10
67.127572
 20
33.056653
 30
0.0
  0
LWPOLYLINE
  5
155
100
AcDbEntity
  8
Default
 62
7
100
AcDbPolyline
 90
2
 70
0
 10
70.863638
 20
28.168631
 30
0.0
 10
67.127572
 20
28.168631
 30
0.0
  0
LWPOLYLINE
  5
156
100
AcDbEntity
  8
Default
 62
7
100
AcDbPolyline
 90
2
 70
0
 10
70.863638
 20
22.268757
 30
0.0
 10
70.863638
 20
28.168631
 30
0.0
  0
LWPOLYLINE
  5
157
100
AcDbEntity
  8
Default
 62
7
100
AcDbPolyline
 90
2
 70
0
 10
76.200923
 20
22.268757
 30
0.0
 10
70.863638
 20
22.268757
 30
0.0
  0
LWPOLYLINE
  5
158
100
AcDbEntity
  8
Default
 62
7
100
AcDbPolyline
 90
2
 70
0
 10
76.200923
 20
26.004825
 30
0.0
 10
76.200923
 20
22.268757
 30
0.0
  0
LWPOLYLINE
  5
159
100
AcDbEntity
  8
Default
 62
7
100
AcDbPolyline
 90
2
 70
0
 10
81.538143
 20
26.004825
 30
0.0
 10
76.200923
 20
26.004825
 30
0.0
  0
LWPOLYLINE
  5
15a
100
AcDbEntity
  8
Default
 62
7
100
AcDbPolyline
 90
2
 70
0
 10
81.538143
 20
22.268757
 30
0.0
 10
81.538143
 20
26.004825
 30
0.0
  0
LWPOLYLINE
  5
15b
100
AcDbEntity
  8
Default
 62
7
100
AcDbPolyline
 90
2
 70
0
 10
86.875372
 20
22.268757
 30
0.0
 10
81.538143
 20
22.268757
 30
0.0
  0
LWPOLYLINE
  5
15c
100
AcDbEntity
  8
Default
 62
7
100
AcDbPolyline
 90
2
 70
0
 10
86.875372
 20
26.004825
 30
0.0
 10
86.875372
 20
22.268757
 30
0.0
  0
LWPOLYLINE
  5
15d
100
AcDbEntity
  8
Default
 62
7
100
AcDbPolyline
 90
2
 70
0
 10
92.212600
 20
26.004825
 30
0.0
 10
86.875372
 20
26.004825
 30
0.0
  0
LWPOLYLINE
  5
15e
100
AcDbEntity
  8
Default
 62
7
100
AcDbPolyline
 90
2
 70
0
 10
92.212600
 20
22.268757
 30
0.0
 10
92.212600
 20
26.004825
 30
0.0
  0
LWPOLYLINE
  5
15f
100
AcDbEntity
  8
Default
 62
7
100
AcDbPolyline
 90
2
 70
0
 10
97.549809
 20
22.268757
 30
0.0
 10
92.212600
 20
22.268757
 30
0.0
  0
LWPOLYLINE
  5
160
100
AcDbEntity
  8
Default
 62
7
100
AcDbPolyline
 90
2
 70
0
 10
97.549809
 20
26.004825
 30
0.0
 10
97.549809
 20
22.268757
 30
0.0
  0
LWPOLYLINE
  5
161
100
AcDbEntity
  8
Default
 62
7
100
AcDbPolyline
 90
2
 70
0
 10
102.887094
 20
26.004825
 30
0.0
 10
97.549809
 20
26.004825
 30
0.0
  0
LWPOLYLINE
  5
162
100
AcDbEntity
  8
Default
 62
7
100
AcDbPolyline
 90
2
 70
0
 10
102.887094
 20
22.268757
 30
0.0
 10
102.887094
 20
26.004825
 30
0.0
  0
LWPOLYLINE
  5
163
100
AcDbEntity
  8
Default
 62
7
100
AcDbPolyline
 90
2
 70
0
 10
108.224317
 20
22.268757
 30
0.0
 10
102.887094
 20
22.268757
 30
0.0
  0
LWPOLYLINE
  5
164
100
AcDbEntity
  8
Default
 62
7
100
AcDbPolyline
 90
2
 70
0
 10
108.224317
 20
28.168631
 30
0.0
 10
108.224317
 20
22.268757
 30
0.0
  0
LWPOLYLINE
  5
165
100
AcDbEntity
  8
Default
 62
7
100
AcDbPolyline
 90
2
 70
0
 10
111.960383
 20
28.168631
 30
0.0
 10
108.224317
 20
28.168631
 30
0.0
  0
LWPOLYLINE
  5
166
100
AcDbEntity
  8
Default
 62
7
100
AcDbPolyline
 90
2
 70
0
 10
111.960383
 20
33.056653
 30
0.0
 10
111.960383
 20
28.168631
 30
0.0
  0
LWPOLYLINE
  5
167
100
AcDbEntity
  8
Default
 62
7
100
AcDbPolyline
 90
2
 70
0
 10
108.224317
 20
33.056653
 30
0.0
 10
111.960383
 20
33.056653
 30
0.0
  0
LWPOLYLINE
  5
168
100
AcDbEntity
  8
Default
 62
7
100
AcDbPolyline
 90
2
 70
0
 10
108.224317
 20
37.633336
 30
0.0
 10
108.224317
 20
33.056653
 30
0.0
  0
LWPOLYLINE
  5
169
100
AcDbEntity
  8
Default
 62
7
100
AcDbPolyline
 90
2
 70
0
 10
111.960383
 20
37.633336
 30
0.0
 10
108.224317
 20
37.633336
 30
0.0
  0
LWPOLYLINE
  5
16a
100
AcDbEntity
  8
Default
 62
7
100
AcDbPolyline
 90
2
 70
0
 10
111.960383
 20
42.521358
 30
0.0
 10
111.960383
 20
37.633336
 30
0.0
  0
SPLINE
  5
16b
100
AcDbEntity
  8
Default
 62
7
100
AcDbSpline
 70
8
 71
3
 72
8
 73
4
 74
0
 40
0
 40
0
 40
0
 40
0
 40
1
 40
1
 40
1
 40
1
 10
89.543969
 20
34.170210
 30
0.0
 10
89.518762
 20
34.170210
 30
0.0
 10
89.495470
 20
34.156762
 30
0.0
 10
89.482866
 20
34.134932
 30
0.0
  0
SPLINE
  5
16c
100
AcDbEntity
  8
Default
 62
7
100
AcDbSpline
 70
8
 71
3
 72
8
 73
4
 74
0
 40
0
 40
0
 40
0
 40
0
 40
1
 40
1
 40
1
 40
1
 10
89.482866
 20
34.134932
 30
0.0
 10
89.470263
 20
34.113102
 30
0.0
 10
89.470263
 20
34.086206
 30
0.0
 10
89.482866
 20
34.064376
 30
0.0
  0
SPLINE
  5
16d
100
AcDbEntity
  8
Default
 62
7
100
AcDbSpline
 70
8
 71
3
 72
8
 73
4
 74
0
 40
0
 40
0
 40
0
 40
0
 40
1
 40
1
 40
1
 40
1
 10
89.482866
 20
34.064376
 30
0.0
 10
89.495470
 20
34.042546
 30
0.0
 10
89.518762
 20
34.029098
 30
0.0
 10
89.543969
 20
34.029098
 30
0.0
  0
SPLINE
  5
16e
100
AcDbEntity
  8
Default
 62
7
100
AcDbSpline
 70
8
 71
3
 72
8
 73
4
 74
0
 40
0
 40
0
 40
0
 40
0
 40
1
 40
1
 40
1
 40
1
 10
89.543969
 20
34.029098
 30
0.0
 10
89.569176
 20
34.029098
 30
0.0
 10
89.592468
 20
34.042546
 30
0.0
 10
89.605072
 20
34.064376
 30
0.0
  0
SPLINE
  5
16f
100
AcDbEntity
  8
Default
 62
7
100
AcDbSpline
 70
8
 71
3
 72
8
 73
4
 74
0
 40
0
 40
0
 40
0
 40
0
 40
1
 40
1
 40
1
 40
1
 10
89.605072
 20
34.064376
 30
0.0
 10
89.617675
 20
34.086206
 30
0.0
 10
89.617675
 20
34.113102
 30
0.0
 10
89.605072
 20
34.134932
 30
0.0
  0
SPLINE
  5
170
100
AcDbEntity
  8
Default
 62
7
100
AcDbSpline
 70
8
 71
3
 72
8
 73
4
 74
0
 40
0
 40
0
 40
0
 40
0
 40
1
 40
1
 40
1
 40
1
 10
89.605072
 20
34.134932
 30
0.0
 10
89.592468
 20
34.156762
 30
0.0
 10
89.569176
 20
34.170210
 30
0.0
 10
89.543969
 20
34.170210
 30
0.0
  0
LWPOLYLINE
  5
171
100
AcDbEntity
  8
Default
 62
7
100
AcDbPolyline
 90
2
 70
0
 10
108.224317
 20
42.521358
 30
0.0
 10
111.960383
 20
42.521358
 30
0.0
  0
SPLINE
  5
172
100
AcDbEntity
  8
Default
 62
7
100
AcDbSpline
 70
8
 71
3
 72
8
 73
4
 74
0
 40
0
 40
0
 40
0
 40
0
 40
1
 40
1
 40
1
 40
1
 10
89.543969
 20
34.170210
 30
0.0
 10
89.518762
 20
34.170210
 30
0.0
 10
89.495470
 20
34.156762
 30
0.0
 10
89.482866
 20
34.134932
 30
0.0
  0
SPLINE
  5
173
100
AcDbEntity
  8
Default
 62
7
100
AcDbSpline
 70
8
 71
3
 72
8
 73
4
 74
0
 40
0
 40
0
 40
0
 40
0
 40
1
 40
1
 40
1
 40
1
 10
89.482866
 20
34.134932
 30
0.0
 10
89.470263
 20
34.113102
 30
0.0
 10
89.470263
 20
34.086206
 30
0.0
 10
89.482866
 20
34.064376
 30
0.0
  0
SPLINE
  5
174
100
AcDbEntity
  8
Default
 62
7
100
AcDbSpline
 70
8
 71
3
 72
8
 73
4
 74
0
 40
0
 40
0
 40
0
 40
0
 40
1
 40
1
 40
1
 40
1
 10
89.482866
 20
34.064376
 30
0.0
 10
89.495470
 20
34.042546
 30
0.0
 10
89.518762
 20
34.029098
 30
0.0
 10
89.543969
 20
34.029098
 30
0.0
  0
SPLINE
  5
175
100
AcDbEntity
  8
Default
 62
7
100
AcDbSpline
 70
8
 71
3
 72
8
 73
4
 74
0
 40
0
 40
0
 40
0
 40
0
 40
1
 40
1
 40
1
 40
1
 10
89.543969
 20
34.029098
 30
0.0
 10
89.569176
 20
34.029098
 30
0.0
 10
89.592468
 20
34.042546
 30
0.0
 10
89.605072
 20
34.064376
 30
0.0
  0
SPLINE
  5
176
100
AcDbEntity
  8
Default
 62
7
100
AcDbSpline
 70
8
 71
3
 72
8
 73
4
 74
0
 40
0
 40
0
 40
0
 40
0
 40
1
 40
1
 40
1
 40
1
 10
89.605072
 20
34.064376
 30
0.0
 10
89.617675
 20
34.086206
 30
0.0
 10
89.617675
 20
34.113102
 30
0.0
 10
89.605072
 20
34.134932
 30
0.0
  0
SPLINE
  5
177
100
AcDbEntity
  8
Default
 62
7
100
AcDbSpline
 70
8
 71
3
 72
8
 73
4
 74
0
 40
0
 40
0
 40
0
 40
0
 40
1
 40
1
 40
1
 40
1
 10
89.605072
 20
34.134932
 30
0.0
 10
89.592468
 20
34.156762
 30
0.0
 10
89.569176
 20
34.170210
 30
0.0
 10
89.543969
 20
34.170210
 30
0.0
  0
LWPOLYLINE
  5
178
100
AcDbEntity
  8
Default
 62
7
100
AcDbPolyline
 90
3
 70
0
 10
89.543969
 20
34.170210
 30
0.0
 10
89.543969
 20
34.170210
 30
0.0
 10
89.543969
 20
34.170210
 30
0.0
  0
LWPOLYLINE
  5
179
100
AcDbEntity
  8
Default
 62
7
100
AcDbPolyline
 90
2
 70
0
 10
103.227327
 20
34.130772
 30
0.0
 10
103.215361
 20
33.888177
 30
0.0
  0
LWPOLYLINE
  5
17a
100
AcDbEntity
  8
Default
 62
7
100
AcDbPolyline
 90
2
 70
0
 10
103.215361
 20
34.373368
 30
0.0
 10
103.227327
 20
34.130772
 30
0.0
  0
LWPOLYLINE
  5
17b
100
AcDbEntity
  8
Default
 62
7
100
AcDbPolyline
 90
2
 70
0
 10
103.179753
 20
34.613659
 30
0.0
 10
103.215369
 20
34.373368
 30
0.0
  0
LWPOLYLINE
  5
17c
100
AcDbEntity
  8
Default
 62
7
100
AcDbPolyline
 90
2
 70
0
 10
103.120723
 20
34.849281
 30
0.0
 10
103.179753
 20
34.613659
 30
0.0
  0
LWPOLYLINE
  5
17d
100
AcDbEntity
  8
Default
 62
7
100
AcDbPolyline
 90
2
 70
0
 10
103.038904
 20
35.077990
 30
0.0
 10
103.120723
 20
34.849281
 30
0.0
  0
LWPOLYLINE
  5
17e
100
AcDbEntity
  8
Default
 62
7
100
AcDbPolyline
 90
2
 70
0
 10
102.935041
 20
35.297546
 30
0.0
 10
103.038904
 20
35.077990
 30
0.0
  0
LWPOLYLINE
  5
17f
100
AcDbEntity
  8
Default
 62
7
100
AcDbPolyline
 90
2
 70
0
 10
102.810194
 20
35.505894
 30
0.0
 10
102.935041
 20
35.297546
 30
0.0
  0
LWPOLYLINE
  5
180
100
AcDbEntity
  8
Default
 62
7
100
AcDbPolyline
 90
2
 70
0
 10
102.665485
 20
35.700980
 30
0.0
 10
102.810194
 20
35.505894
 30
0.0
  0
LWPOLYLINE
  5
181
100
AcDbEntity
  8
Default
 62
7
100
AcDbPolyline
 90
2
 70
0
 10
102.502341
 20
35.880996
 30
0.0
 10
102.665485
 20
35.700980
 30
0.0
  0
LWPOLYLINE
  5
182
100
AcDbEntity
  8
Default
 62
7
100
AcDbPolyline
 90
2
 70
0
 10
102.322387
 20
36.044075
 30
0.0
 10
102.502341
 20
35.880996
 30
0.0
  0
LWPOLYLINE
  5
183
100
AcDbEntity
  8
Default
 62
7
100
AcDbPolyline
 90
2
 70
0
 10
102.127304
 20
36.188785
 30
0.0
 10
102.322387
 20
36.044075
 30
0.0
  0
LWPOLYLINE
  5
184
100
AcDbEntity
  8
Default
 62
7
100
AcDbPolyline
 90
2
 70
0
 10
101.918953
 20
36.313694
 30
0.0
 10
102.127304
 20
36.188785
 30
0.0
  0
LWPOLYLINE
  5
185
100
AcDbEntity
  8
Default
 62
7
100
AcDbPolyline
 90
2
 70
0
 10
101.699337
 20
36.417495
 30
0.0
 10
101.918953
 20
36.313694
 30
0.0
  0
LWPOLYLINE
  5
186
100
AcDbEntity
  8
Default
 62
7
100
AcDbPolyline
 90
2
 70
0
 10
101.470689
 20
36.499377
 30
0.0
 10
101.699337
 20
36.417495
 30
0.0
  0
LWPOLYLINE
  5
187
100
AcDbEntity
  8
Default
 62
7
100
AcDbPolyline
 90
2
 70
0
 10
101.235067
 20
36.558345
 30
0.0
 10
101.470689
 20
36.499377
 30
0.0
  0
LWPOLYLINE
  5
188
100
AcDbEntity
  8
Default
 62
7
100
AcDbPolyline
 90
2
 70
0
 10
100.994777
 20
36.594024
 30
0.0
 10
101.235067
 20
36.558345
 30
0.0
  0
LWPOLYLINE
  5
189
100
AcDbEntity
  8
Default
 62
7
100
AcDbPolyline
 90
2
 70
0
 10
100.752182
 20
36.605917
 30
0.0
 10
100.994777
 20
36.594024
 30
0.0
  0
LWPOLYLINE
  5
18a
100
AcDbEntity
  8
Default
 62
7
100
AcDbPolyline
 90
2
 70
0
 10
100.509586
 20
36.594024
 30
0.0
 10
100.752182
 20
36.605917
 30
0.0
  0
LWPOLYLINE
  5
18b
100
AcDbEntity
  8
Default
 62
7
100
AcDbPolyline
 90
2
 70
0
 10
100.269294
 20
36.558345
 30
0.0
 10
100.509586
 20
36.594024
 30
0.0
  0
LWPOLYLINE
  5
18c
100
AcDbEntity
  8
Default
 62
7
100
AcDbPolyline
 90
2
 70
0
 10
100.033672
 20
36.499377
 30
0.0
 10
100.269294
 20
36.558345
 30
0.0
  0
LWPOLYLINE
  5
18d
100
AcDbEntity
  8
Default
 62
7
100
AcDbPolyline
 90
2
 70
0
 10
99.804962
 20
36.417495
 30
0.0
 10
100.033672
 20
36.499377
 30
0.0
  0
LWPOLYLINE
  5
18e
100
AcDbEntity
  8
Default
 62
7
100
AcDbPolyline
 90
2
 70
0
 10
99.585407
 20
36.313694
 30
0.0
 10
99.804962
 20
36.417495
 30
0.0
  0
LWPOLYLINE
  5
18f
100
AcDbEntity
  8
Default
 62
7
100
AcDbPolyline
 90
2
 70
0
 10
99.377060
 20
36.188785
 30
0.0
 10
99.585407
 20
36.313694
 30
0.0
  0
LWPOLYLINE
  5
190
100
AcDbEntity
  8
Default
 62
7
100
AcDbPolyline
 90
2
 70
0
 10
99.181974
 20
36.044075
 30
0.0
 10
99.377060
 20
36.188785
 30
0.0
  0
LWPOLYLINE
  5
191
100
AcDbEntity
  8
Default
 62
7
100
AcDbPolyline
 90
2
 70
0
 10
99.001958
 20
35.880996
 30
0.0
 10
99.181974
 20
36.044075
 30
0.0
  0
LWPOLYLINE
  5
192
100
AcDbEntity
  8
Default
 62
7
100
AcDbPolyline
 90
2
 70
0
 10
98.838879
 20
35.700980
 30
0.0
 10
99.001958
 20
35.880996
 30
0.0
  0
LWPOLYLINE
  5
193
100
AcDbEntity
  8
Default
 62
7
100
AcDbPolyline
 90
2
 70
0
 10
98.694167
 20
35.505894
 30
0.0
 10
98.838879
 20
35.700980
 30
0.0
  0
LWPOLYLINE
  5
194
100
AcDbEntity
  8
Default
 62
7
100
AcDbPolyline
 90
2
 70
0
 10
98.569258
 20
35.297546
 30
0.0
 10
98.694167
 20
35.505894
 30
0.0
  0
LWPOLYLINE
  5
195
100
AcDbEntity
  8
Default
 62
7
100
AcDbPolyline
 90
2
 70
0
 10
98.465459
 20
35.077990
 30
0.0
 10
98.569258
 20
35.297546
 30
0.0
  0
LWPOLYLINE
  5
196
100
AcDbEntity
  8
Default
 62
7
100
AcDbPolyline
 90
2
 70
0
 10
98.383575
 20
34.849281
 30
0.0
 10
98.465459
 20
35.077990
 30
0.0
  0
LWPOLYLINE
  5
197
100
AcDbEntity
  8
Default
 62
7
100
AcDbPolyline
 90
2
 70
0
 10
98.324546
 20
34.613659
 30
0.0
 10
98.383575
 20
34.849281
 30
0.0
  0
LWPOLYLINE
  5
198
100
AcDbEntity
  8
Default
 62
7
100
AcDbPolyline
 90
2
 70
0
 10
98.288929
 20
34.373368
 30
0.0
 10
98.324546
 20
34.613659
 30
0.0
  0
LWPOLYLINE
  5
199
100
AcDbEntity
  8
Default
 62
7
100
AcDbPolyline
 90
2
 70
0
 10
98.277037
 20
34.130772
 30
0.0
 10
98.288918
 20
34.373368
 30
0.0
  0
LWPOLYLINE
  5
19a
100
AcDbEntity
  8
Default
 62
7
100
AcDbPolyline
 90
2
 70
0
 10
98.288918
 20
33.888177
 30
0.0
 10
98.277037
 20
34.130772
 30
0.0
  0
LWPOLYLINE
  5
19b
100
AcDbEntity
  8
Default
 62
7
100
AcDbPolyline
 90
2
 70
0
 10
98.324546
 20
33.647886
 30
0.0
 10
98.288929
 20
33.888177
 30
0.0
  0
LWPOLYLINE
  5
19c
100
AcDbEntity
  8
Default
 62
7
100
AcDbPolyline
 90
2
 70
0
 10
98.383575
 20
33.412264
 30
0.0
 10
98.324546
 20
33.647886
 30
0.0
  0
LWPOLYLINE
  5
19d
100
AcDbEntity
  8
Default
 62
7
100
AcDbPolyline
 90
2
 70
0
 10
98.465459
 20
33.183617
 30
0.0
 10
98.383575
 20
33.412264
 30
0.0
  0
LWPOLYLINE
  5
19e
100
AcDbEntity
  8
Default
 62
7
100
AcDbPolyline
 90
2
 70
0
 10
98.569258
 20
32.963998
 30
0.0
 10
98.465459
 20
33.183617
 30
0.0
  0
LWPOLYLINE
  5
19f
100
AcDbEntity
  8
Default
 62
7
100
AcDbPolyline
 90
2
 70
0
 10
98.694167
 20
32.755650
 30
0.0
 10
98.569258
 20
32.963998
 30
0.0
  0
LWPOLYLINE
  5
1a0
100
AcDbEntity
  8
Default
 62
7
100
AcDbPolyline
 90
2
 70
0
 10
98.838879
 20
32.560565
 30
0.0
 10
98.694167
 20
32.755650
 30
0.0
  0
LWPOLYLINE
  5
1a1
100
AcDbEntity
  8
Default
 62
7
100
AcDbPolyline
 90
2
 70
0
 10
99.001958
 20
32.380611
 30
0.0
 10
98.838879
 20
32.560565
 30
0.0
  0
LWPOLYLINE
  5
1a2
100
AcDbEntity
  8
Default
 62
7
100
AcDbPolyline
 90
2
 70
0
 10
99.181974
 20
32.217470
 30
0.0
 10
99.001958
 20
32.380611
 30
0.0
  0
LWPOLYLINE
  5
1a3
100
AcDbEntity
  8
Default
 62
7
100
AcDbPolyline
 90
2
 70
0
 10
99.377060
 20
32.072759
 30
0.0
 10
99.181974
 20
32.217470
 30
0.0
  0
LWPOLYLINE
  5
1a4
100
AcDbEntity
  8
Default
 62
7
100
AcDbPolyline
 90
2
 70
0
 10
99.585407
 20
31.947912
 30
0.0
 10
99.377060
 20
32.072759
 30
0.0
  0
LWPOLYLINE
  5
1a5
100
AcDbEntity
  8
Default
 62
7
100
AcDbPolyline
 90
2
 70
0
 10
99.804962
 20
31.844050
 30
0.0
 10
99.585407
 20
31.947912
 30
0.0
  0
LWPOLYLINE
  5
1a6
100
AcDbEntity
  8
Default
 62
7
100
AcDbPolyline
 90
2
 70
0
 10
100.033672
 20
31.762230
 30
0.0
 10
99.804962
 20
31.844050
 30
0.0
  0
LWPOLYLINE
  5
1a7
100
AcDbEntity
  8
Default
 62
7
100
AcDbPolyline
 90
2
 70
0
 10
100.269294
 20
31.703200
 30
0.0
 10
100.033672
 20
31.762230
 30
0.0
  0
LWPOLYLINE
  5
1a8
100
AcDbEntity
  8
Default
 62
7
100
AcDbPolyline
 90
2
 70
0
 10
100.509586
 20
31.667583
 30
0.0
 10
100.269294
 20
31.703200
 30
0.0
  0
LWPOLYLINE
  5
1a9
100
AcDbEntity
  8
Default
 62
7
100
AcDbPolyline
 90
2
 70
0
 10
100.752182
 20
31.655627
 30
0.0
 10
100.509586
 20
31.667582
 30
0.0
  0
LWPOLYLINE
  5
1aa
100
AcDbEntity
  8
Default
 62
7
100
AcDbPolyline
 90
2
 70
0
 10
100.994777
 20
31.667582
 30
0.0
 10
100.752182
 20
31.655627
 30
0.0
  0
LWPOLYLINE
  5
1ab
100
AcDbEntity
  8
Default
 62
7
100
AcDbPolyline
 90
2
 70
0
 10
101.235067
 20
31.703200
 30
0.0
 10
100.994777
 20
31.667583
 30
0.0
  0
LWPOLYLINE
  5
1ac
100
AcDbEntity
  8
Default
 62
7
100
AcDbPolyline
 90
2
 70
0
 10
101.470689
 20
31.762230
 30
0.0
 10
101.235067
 20
31.703200
 30
0.0
  0
LWPOLYLINE
  5
1ad
100
AcDbEntity
  8
Default
 62
7
100
AcDbPolyline
 90
2
 70
0
 10
101.699337
 20
31.844050
 30
0.0
 10
101.470689
 20
31.762230
 30
0.0
  0
LWPOLYLINE
  5
1ae
100
AcDbEntity
  8
Default
 62
7
100
AcDbPolyline
 90
2
 70
0
 10
101.918953
 20
31.947912
 30
0.0
 10
101.699337
 20
31.844050
 30
0.0
  0
LWPOLYLINE
  5
1af
100
AcDbEntity
  8
Default
 62
7
100
AcDbPolyline
 90
2
 70
0
 10
102.127304
 20
32.072759
 30
0.0
 10
101.918953
 20
31.947912
 30
0.0
  0
LWPOLYLINE
  5
1b0
100
AcDbEntity
  8
Default
 62
7
100
AcDbPolyline
 90
2
 70
0
 10
102.322387
 20
32.217470
 30
0.0
 10
102.127304
 20
32.072759
 30
0.0
  0
LWPOLYLINE
  5
1b1
100
AcDbEntity
  8
Default
 62
7
100
AcDbPolyline
 90
2
 70
0
 10
102.502341
 20
32.380611
 30
0.0
 10
102.322387
 20
32.217470
 30
0.0
  0
LWPOLYLINE
  5
1b2
100
AcDbEntity
  8
Default
 62
7
100
AcDbPolyline
 90
2
 70
0
 10
102.665485
 20
32.560565
 30
0.0
 10
102.502341
 20
32.380611
 30
0.0
  0
LWPOLYLINE
  5
1b3
100
AcDbEntity
  8
Default
 62
7
100
AcDbPolyline
 90
2
 70
0
 10
102.810194
 20
32.755650
 30
0.0
 10
102.665485
 20
32.560565
 30
0.0
  0
LWPOLYLINE
  5
1b4
100
AcDbEntity
  8
Default
 62
7
100
AcDbPolyline
 90
2
 70
0
 10
102.935041
 20
32.963998
 30
0.0
 10
102.810194
 20
32.755650
 30
0.0
  0
LWPOLYLINE
  5
1b5
100
AcDbEntity
  8
Default
 62
7
100
AcDbPolyline
 90
2
 70
0
 10
103.038904
 20
33.183617
 30
0.0
 10
102.935041
 20
32.963998
 30
0.0
  0
LWPOLYLINE
  5
1b6
100
AcDbEntity
  8
Default
 62
7
100
AcDbPolyline
 90
2
 70
0
 10
103.120723
 20
33.412264
 30
0.0
 10
103.038904
 20
33.183617
 30
0.0
  0
LWPOLYLINE
  5
1b7
100
AcDbEntity
  8
Default
 62
7
100
AcDbPolyline
 90
2
 70
0
 10
103.179753
 20
33.647886
 30
0.0
 10
103.120723
 20
33.412264
 30
0.0
  0
LWPOLYLINE
  5
1b8
100
AcDbEntity
  8
Default
 62
7
100
AcDbPolyline
 90
2
 70
0
 10
103.215369
 20
33.888177
 30
0.0
 10
103.179753
 20
33.647886
 30
0.0
  0
LWPOLYLINE
  5
1b9
100
AcDbEntity
  8
Default
 62
7
100
AcDbPolyline
 90
2
 70
0
 10
92.034676
 20
34.099638
 30
0.0
 10
92.022682
 20
33.855549
 30
0.0
  0
LWPOLYLINE
  5
1ba
100
AcDbEntity
  8
Default
 62
7
100
AcDbPolyline
 90
2
 70
0
 10
92.022682
 20
34.343790
 30
0.0
 10
92.034676
 20
34.099638
 30
0.0
  0
LWPOLYLINE
  5
1bb
100
AcDbEntity
  8
Default
 62
7
100
AcDbPolyline
 90
2
 70
0
 10
91.986811
 20
34.585576
 30
0.0
 10
92.022679
 20
34.343790
 30
0.0
  0
LWPOLYLINE
  5
1bc
100
AcDbEntity
  8
Default
 62
7
100
AcDbPolyline
 90
2
 70
0
 10
91.927426
 20
34.822692
 30
0.0
 10
91.986811
 20
34.585576
 30
0.0
  0
LWPOLYLINE
  5
1bd
100
AcDbEntity
  8
Default
 62
7
100
AcDbPolyline
 90
2
 70
0
 10
91.845085
 20
35.052834
 30
0.0
 10
91.927426
 20
34.822692
 30
0.0
  0
LWPOLYLINE
  5
1be
100
AcDbEntity
  8
Default
 62
7
100
AcDbPolyline
 90
2
 70
0
 10
91.740572
 20
35.273760
 30
0.0
 10
91.845085
 20
35.052834
 30
0.0
  0
LWPOLYLINE
  5
1bf
100
AcDbEntity
  8
Default
 62
7
100
AcDbPolyline
 90
2
 70
0
 10
91.614910
 20
35.483416
 30
0.0
 10
91.740572
 20
35.273760
 30
0.0
  0
LWPOLYLINE
  5
1c0
100
AcDbEntity
  8
Default
 62
7
100
AcDbPolyline
 90
2
 70
0
 10
91.469317
 20
35.679746
 30
0.0
 10
91.614910
 20
35.483416
 30
0.0
  0
LWPOLYLINE
  5
1c1
100
AcDbEntity
  8
Default
 62
7
100
AcDbPolyline
 90
2
 70
0
 10
91.305160
 20
35.860821
 30
0.0
 10
91.469317
 20
35.679746
 30
0.0
  0
LWPOLYLINE
  5
1c2
100
AcDbEntity
  8
Default
 62
7
100
AcDbPolyline
 90
2
 70
0
 10
91.124055
 20
36.025021
 30
0.0
 10
91.305160
 20
35.860821
 30
0.0
  0
LWPOLYLINE
  5
1c3
100
AcDbEntity
  8
Default
 62
7
100
AcDbPolyline
 90
2
 70
0
 10
90.927730
 20
36.170603
 30
0.0
 10
91.124055
 20
36.025021
 30
0.0
  0
LWPOLYLINE
  5
1c4
100
AcDbEntity
  8
Default
 62
7
100
AcDbPolyline
 90
2
 70
0
 10
90.718073
 20
36.296260
 30
0.0
 10
90.927730
 20
36.170603
 30
0.0
  0
LWPOLYLINE
  5
1c5
100
AcDbEntity
  8
Default
 62
7
100
AcDbPolyline
 90
2
 70
0
 10
90.497124
 20
36.400745
 30
0.0
 10
90.718073
 20
36.296260
 30
0.0
  0
LWPOLYLINE
  5
1c6
100
AcDbEntity
  8
Default
 62
7
100
AcDbPolyline
 90
2
 70
0
 10
90.266980
 20
36.483125
 30
0.0
 10
90.497124
 20
36.400745
 30
0.0
  0
LWPOLYLINE
  5
1c7
100
AcDbEntity
  8
Default
 62
7
100
AcDbPolyline
 90
2
 70
0
 10
90.029874
 20
36.542529
 30
0.0
 10
90.266980
 20
36.483125
 30
0.0
  0
LWPOLYLINE
  5
1c8
100
AcDbEntity
  8
Default
 62
7
100
AcDbPolyline
 90
2
 70
0
 10
89.788094
 20
36.578395
 30
0.0
 10
90.029874
 20
36.542529
 30
0.0
  0
LWPOLYLINE
  5
1c9
100
AcDbEntity
  8
Default
 62
7
100
AcDbPolyline
 90
2
 70
0
 10
89.543977
 20
36.590350
 30
0.0
 10
89.788094
 20
36.578395
 30
0.0
  0
LWPOLYLINE
  5
1ca
100
AcDbEntity
  8
Default
 62
7
100
AcDbPolyline
 90
2
 70
0
 10
89.299841
 20
36.578395
 30
0.0
 10
89.543977
 20
36.590350
 30
0.0
  0
LWPOLYLINE
  5
1cb
100
AcDbEntity
  8
Default
 62
7
100
AcDbPolyline
 90
2
 70
0
 10
89.058061
 20
36.542529
 30
0.0
 10
89.299841
 20
36.578395
 30
0.0
  0
LWPOLYLINE
  5
1cc
100
AcDbEntity
  8
Default
 62
7
100
AcDbPolyline
 90
2
 70
0
 10
88.820955
 20
36.483125
 30
0.0
 10
89.058061
 20
36.542529
 30
0.0
  0
LWPOLYLINE
  5
1cd
100
AcDbEntity
  8
Default
 62
7
100
AcDbPolyline
 90
2
 70
0
 10
88.590814
 20
36.400745
 30
0.0
 10
88.820955
 20
36.483125
 30
0.0
  0
LWPOLYLINE
  5
1ce
100
AcDbEntity
  8
Default
 62
7
100
AcDbPolyline
 90
2
 70
0
 10
88.369862
 20
36.296260
 30
0.0
 10
88.590814
 20
36.400745
 30
0.0
  0
LWPOLYLINE
  5
1cf
100
AcDbEntity
  8
Default
 62
7
100
AcDbPolyline
 90
2
 70
0
 10
88.160205
 20
36.170603
 30
0.0
 10
88.369862
 20
36.296260
 30
0.0
  0
LWPOLYLINE
  5
1d0
100
AcDbEntity
  8
Default
 62
7
100
AcDbPolyline
 90
2
 70
0
 10
87.963883
 20
36.025021
 30
0.0
 10
88.160205
 20
36.170603
 30
0.0
  0
LWPOLYLINE
  5
1d1
100
AcDbEntity
  8
Default
 62
7
100
AcDbPolyline
 90
2
 70
0
 10
87.782775
 20
35.860821
 30
0.0
 10
87.963883
 20
36.025021
 30
0.0
  0
LWPOLYLINE
  5
1d2
100
AcDbEntity
  8
Default
 62
7
100
AcDbPolyline
 90
2
 70
0
 10
87.618621
 20
35.679746
 30
0.0
 10
87.782775
 20
35.860821
 30
0.0
  0
LWPOLYLINE
  5
1d3
100
AcDbEntity
  8
Default
 62
7
100
AcDbPolyline
 90
2
 70
0
 10
87.473025
 20
35.483416
 30
0.0
 10
87.618621
 20
35.679746
 30
0.0
  0
LWPOLYLINE
  5
1d4
100
AcDbEntity
  8
Default
 62
7
100
AcDbPolyline
 90
2
 70
0
 10
87.347363
 20
35.273760
 30
0.0
 10
87.473025
 20
35.483416
 30
0.0
  0
LWPOLYLINE
  5
1d5
100
AcDbEntity
  8
Default
 62
7
100
AcDbPolyline
 90
2
 70
0
 10
87.242853
 20
35.052834
 30
0.0
 10
87.347363
 20
35.273760
 30
0.0
  0
LWPOLYLINE
  5
1d6
100
AcDbEntity
  8
Default
 62
7
100
AcDbPolyline
 90
2
 70
0
 10
87.160509
 20
34.822692
 30
0.0
 10
87.242853
 20
35.052834
 30
0.0
  0
LWPOLYLINE
  5
1d7
100
AcDbEntity
  8
Default
 62
7
100
AcDbPolyline
 90
2
 70
0
 10
87.101124
 20
34.585576
 30
0.0
 10
87.160509
 20
34.822692
 30
0.0
  0
LWPOLYLINE
  5
1d8
100
AcDbEntity
  8
Default
 62
7
100
AcDbPolyline
 90
2
 70
0
 10
87.065259
 20
34.343790
 30
0.0
 10
87.101124
 20
34.585576
 30
0.0
  0
LWPOLYLINE
  5
1d9
100
AcDbEntity
  8
Default
 62
7
100
AcDbPolyline
 90
2
 70
0
 10
87.053265
 20
34.099638
 30
0.0
 10
87.065259
 20
34.343790
 30
0.0
  0
LWPOLYLINE
  5
1da
100
AcDbEntity
  8
Default
 62
7
100
AcDbPolyline
 90
2
 70
0
 10
87.065259
 20
33.855549
 30
0.0
 10
87.053265
 20
34.099638
 30
0.0
  0
LWPOLYLINE
  5
1db
100
AcDbEntity
  8
Default
 62
7
100
AcDbPolyline
 90
2
 70
0
 10
87.101124
 20
33.613763
 30
0.0
 10
87.065259
 20
33.855549
 30
0.0
  0
LWPOLYLINE
  5
1dc
100
AcDbEntity
  8
Default
 62
7
100
AcDbPolyline
 90
2
 70
0
 10
87.160509
 20
33.376647
 30
0.0
 10
87.101124
 20
33.613763
 30
0.0
  0
LWPOLYLINE
  5
1dd
100
AcDbEntity
  8
Default
 62
7
100
AcDbPolyline
 90
2
 70
0
 10
87.242853
 20
33.146505
 30
0.0
 10
87.160509
 20
33.376647
 30
0.0
  0
LWPOLYLINE
  5
1de
100
AcDbEntity
  8
Default
 62
7
100
AcDbPolyline
 90
2
 70
0
 10
87.347363
 20
32.925517
 30
0.0
 10
87.242853
 20
33.146505
 30
0.0
  0
LWPOLYLINE
  5
1df
100
AcDbEntity
  8
Default
 62
7
100
AcDbPolyline
 90
2
 70
0
 10
87.473025
 20
32.715861
 30
0.0
 10
87.347363
 20
32.925517
 30
0.0
  0
LWPOLYLINE
  5
1e0
100
AcDbEntity
  8
Default
 62
7
100
AcDbPolyline
 90
2
 70
0
 10
87.618621
 20
32.519531
 30
0.0
 10
87.473025
 20
32.715861
 30
0.0
  0
LWPOLYLINE
  5
1e1
100
AcDbEntity
  8
Default
 62
7
100
AcDbPolyline
 90
2
 70
0
 10
87.782775
 20
32.338456
 30
0.0
 10
87.618621
 20
32.519531
 30
0.0
  0
LWPOLYLINE
  5
1e2
100
AcDbEntity
  8
Default
 62
7
100
AcDbPolyline
 90
2
 70
0
 10
87.963883
 20
32.174318
 30
0.0
 10
87.782775
 20
32.338456
 30
0.0
  0
LWPOLYLINE
  5
1e3
100
AcDbEntity
  8
Default
 62
7
100
AcDbPolyline
 90
2
 70
0
 10
88.160205
 20
32.028674
 30
0.0
 10
87.963883
 20
32.174318
 30
0.0
  0
LWPOLYLINE
  5
1e4
100
AcDbEntity
  8
Default
 62
7
100
AcDbPolyline
 90
2
 70
0
 10
88.369862
 20
31.903017
 30
0.0
 10
88.160205
 20
32.028674
 30
0.0
  0
LWPOLYLINE
  5
1e5
100
AcDbEntity
  8
Default
 62
7
100
AcDbPolyline
 90
2
 70
0
 10
88.590814
 20
31.798532
 30
0.0
 10
88.369862
 20
31.903017
 30
0.0
  0
LWPOLYLINE
  5
1e6
100
AcDbEntity
  8
Default
 62
7
100
AcDbPolyline
 90
2
 70
0
 10
88.820955
 20
31.716214
 30
0.0
 10
88.590814
 20
31.798532
 30
0.0
  0
LWPOLYLINE
  5
1e7
100
AcDbEntity
  8
Default
 62
7
100
AcDbPolyline
 90
2
 70
0
 10
89.058061
 20
31.656810
 30
0.0
 10
88.820955
 20
31.716214
 30
0.0
  0
LWPOLYLINE
  5
1e8
100
AcDbEntity
  8
Default
 62
7
100
AcDbPolyline
 90
2
 70
0
 10
89.299841
 20
31.620944
 30
0.0
 10
89.058061
 20
31.656810
 30
0.0
  0
LWPOLYLINE
  5
1e9
100
AcDbEntity
  8
Default
 62
7
100
AcDbPolyline
 90
2
 70
0
 10
89.543977
 20
31.608927
 30
0.0
 10
89.299841
 20
31.620944
 30
0.0
  0
LWPOLYLINE
  5
1ea
100
AcDbEntity
  8
Default
 62
7
100
AcDbPolyline
 90
2
 70
0
 10
89.788094
 20
31.620944
 30
0.0
 10
89.543977
 20
31.608927
 30
0.0
  0
LWPOLYLINE
  5
1eb
100
AcDbEntity
  8
Default
 62
7
100
AcDbPolyline
 90
2
 70
0
 10
90.029874
 20
31.656810
 30
0.0
 10
89.788094
 20
31.620944
 30
0.0
  0
LWPOLYLINE
  5
1ec
100
AcDbEntity
  8
Default
 62
7
100
AcDbPolyline
 90
2
 70
0
 10
90.266980
 20
31.716214
 30
0.0
 10
90.029874
 20
31.656810
 30
0.0
  0
LWPOLYLINE
  5
1ed
100
AcDbEntity
  8
Default
 62
7
100
AcDbPolyline
 90
2
 70
0
 10
90.497124
 20
31.798532
 30
0.0
 10
90.266980
 20
31.716214
 30
0.0
  0
LWPOLYLINE
  5
1ee
100
AcDbEntity
  8
Default
 62
7
100
AcDbPolyline
 90
2
 70
0
 10
90.718073
 20
31.903017
 30
0.0
 10
90.497124
 20
31.798532
 30
0.0
  0
LWPOLYLINE
  5
1ef
100
AcDbEntity
  8
Default
 62
7
100
AcDbPolyline
 90
2
 70
0
 10
90.927730
 20
32.028674
 30
0.0
 10
90.718073
 20
31.903017
 30
0.0
  0
LWPOLYLINE
  5
1f0
100
AcDbEntity
  8
Default
 62
7
100
AcDbPolyline
 90
2
 70
0
 10
91.124055
 20
32.174318
 30
0.0
 10
90.927730
 20
32.028674
 30
0.0
  0
LWPOLYLINE
  5
1f1
100
AcDbEntity
  8
Default
 62
7
100
AcDbPolyline
 90
2
 70
0
 10
91.305160
 20
32.338456
 30
0.0
 10
91.124055
 20
32.174318
 30
0.0
  0
LWPOLYLINE
  5
1f2
100
AcDbEntity
  8
Default
 62
7
100
AcDbPolyline
 90
2
 70
0
 10
91.469317
 20
32.519531
 30
0.0
 10
91.305160
 20
32.338456
 30
0.0
  0
LWPOLYLINE
  5
1f3
100
AcDbEntity
  8
Default
 62
7
100
AcDbPolyline
 90
2
 70
0
 10
91.614910
 20
32.715861
 30
0.0
 10
91.469317
 20
32.519531
 30
0.0
  0
LWPOLYLINE
  5
1f4
100
AcDbEntity
  8
Default
 62
7
100
AcDbPolyline
 90
2
 70
0
 10
91.740572
 20
32.925517
 30
0.0
 10
91.614910
 20
32.715861
 30
0.0
  0
LWPOLYLINE
  5
1f5
100
AcDbEntity
  8
Default
 62
7
100
AcDbPolyline
 90
2
 70
0
 10
91.845085
 20
33.146505
 30
0.0
 10
91.740572
 20
32.925517
 30
0.0
  0
LWPOLYLINE
  5
1f6
100
AcDbEntity
  8
Default
 62
7
100
AcDbPolyline
 90
2
 70
0
 10
91.927426
 20
33.376647
 30
0.0
 10
91.845085
 20
33.146505
 30
0.0
  0
LWPOLYLINE
  5
1f7
100
AcDbEntity
  8
Default
 62
7
100
AcDbPolyline
 90
2
 70
0
 10
91.986811
 20
33.613763
 30
0.0
 10
91.927426
 20
33.376647
 30
0.0
  0
LWPOLYLINE
  5
1f8
100
AcDbEntity
  8
Default
 62
7
100
AcDbPolyline
 90
2
 70
0
 10
92.022679
 20
33.855549
 30
0.0
 10
91.986811
 20
33.613763
 30
0.0
  0
LWPOLYLINE
  5
1f9
100
AcDbEntity
  8
Default
 62
7
100
AcDbPolyline
 90
2
 70
0
 10
80.810918
 20
34.130772
 30
0.0
 10
80.799037
 20
33.888177
 30
0.0
  0
LWPOLYLINE
  5
1fa
100
AcDbEntity
  8
Default
 62
7
100
AcDbPolyline
 90
2
 70
0
 10
80.799037
 20
34.373368
 30
0.0
 10
80.810918
 20
34.130772
 30
0.0
  0
LWPOLYLINE
  5
1fb
100
AcDbEntity
  8
Default
 62
7
100
AcDbPolyline
 90
2
 70
0
 10
80.763347
 20
34.613659
 30
0.0
 10
80.799026
 20
34.373368
 30
0.0
  0
LWPOLYLINE
  5
1fc
100
AcDbEntity
  8
Default
 62
7
100
AcDbPolyline
 90
2
 70
0
 10
80.704317
 20
34.849281
 30
0.0
 10
80.763347
 20
34.613659
 30
0.0
  0
LWPOLYLINE
  5
1fd
100
AcDbEntity
  8
Default
 62
7
100
AcDbPolyline
 90
2
 70
0
 10
80.622496
 20
35.077990
 30
0.0
 10
80.704317
 20
34.849281
 30
0.0
  0
LWPOLYLINE
  5
1fe
100
AcDbEntity
  8
Default
 62
7
100
AcDbPolyline
 90
2
 70
0
 10
80.518635
 20
35.297546
 30
0.0
 10
80.622496
 20
35.077990
 30
0.0
  0
LWPOLYLINE
  5
1ff
100
AcDbEntity
  8
Default
 62
7
100
AcDbPolyline
 90
2
 70
0
 10
80.393786
 20
35.505894
 30
0.0
 10
80.518635
 20
35.297546
 30
0.0
  0
LWPOLYLINE
  5
200
100
AcDbEntity
  8
Default
 62
7
100
AcDbPolyline
 90
2
 70
0
 10
80.249076
 20
35.700980
 30
0.0
 10
80.393786
 20
35.505894
 30
0.0
  0
LWPOLYLINE
  5
201
100
AcDbEntity
  8
Default
 62
7
100
AcDbPolyline
 90
2
 70
0
 10
80.085935
 20
35.880996
 30
0.0
 10
80.249076
 20
35.700980
 30
0.0
  0
LWPOLYLINE
  5
202
100
AcDbEntity
  8
Default
 62
7
100
AcDbPolyline
 90
2
 70
0
 10
79.905981
 20
36.044075
 30
0.0
 10
80.085935
 20
35.880996
 30
0.0
  0
LWPOLYLINE
  5
203
100
AcDbEntity
  8
Default
 62
7
100
AcDbPolyline
 90
2
 70
0
 10
79.710895
 20
36.188785
 30
0.0
 10
79.905981
 20
36.044075
 30
0.0
  0
LWPOLYLINE
  5
204
100
AcDbEntity
  8
Default
 62
7
100
AcDbPolyline
 90
2
 70
0
 10
79.502548
 20
36.313694
 30
0.0
 10
79.710895
 20
36.188785
 30
0.0
  0
LWPOLYLINE
  5
205
100
AcDbEntity
  8
Default
 62
7
100
AcDbPolyline
 90
2
 70
0
 10
79.282993
 20
36.417495
 30
0.0
 10
79.502548
 20
36.313694
 30
0.0
  0
LWPOLYLINE
  5
206
100
AcDbEntity
  8
Default
 62
7
100
AcDbPolyline
 90
2
 70
0
 10
79.054283
 20
36.499377
 30
0.0
 10
79.282993
 20
36.417495
 30
0.0
  0
LWPOLYLINE
  5
207
100
AcDbEntity
  8
Default
 62
7
100
AcDbPolyline
 90
2
 70
0
 10
78.818661
 20
36.558345
 30
0.0
 10
79.054283
 20
36.499377
 30
0.0
  0
LWPOLYLINE
  5
208
100
AcDbEntity
  8
Default
 62
7
100
AcDbPolyline
 90
2
 70
0
 10
78.578369
 20
36.594024
 30
0.0
 10
78.818661
 20
36.558345
 30
0.0
  0
LWPOLYLINE
  5
209
100
AcDbEntity
  8
Default
 62
7
100
AcDbPolyline
 90
2
 70
0
 10
78.335773
 20
36.605917
 30
0.0
 10
78.578369
 20
36.594024
 30
0.0
  0
LWPOLYLINE
  5
20a
100
AcDbEntity
  8
Default
 62
7
100
AcDbPolyline
 90
2
 70
0
 10
78.093178
 20
36.594024
 30
0.0
 10
78.335773
 20
36.605917
 30
0.0
  0
LWPOLYLINE
  5
20b
100
AcDbEntity
  8
Default
 62
7
100
AcDbPolyline
 90
2
 70
0
 10
77.852888
 20
36.558345
 30
0.0
 10
78.093178
 20
36.594024
 30
0.0
  0
LWPOLYLINE
  5
20c
100
AcDbEntity
  8
Default
 62
7
100
AcDbPolyline
 90
2
 70
0
 10
77.617266
 20
36.499377
 30
0.0
 10
77.852888
 20
36.558345
 30
0.0
  0
LWPOLYLINE
  5
20d
100
AcDbEntity
  8
Default
 62
7
100
AcDbPolyline
 90
2
 70
0
 10
77.388556
 20
36.417495
 30
0.0
 10
77.617266
 20
36.499377
 30
0.0
  0
LWPOLYLINE
  5
20e
100
AcDbEntity
  8
Default
 62
7
100
AcDbPolyline
 90
2
 70
0
 10
77.168999
 20
36.313694
 30
0.0
 10
77.388556
 20
36.417495
 30
0.0
  0
LWPOLYLINE
  5
20f
100
AcDbEntity
  8
Default
 62
7
100
AcDbPolyline
 90
2
 70
0
 10
76.960651
 20
36.188785
 30
0.0
 10
77.168999
 20
36.313694
 30
0.0
  0
LWPOLYLINE
  5
210
100
AcDbEntity
  8
Default
 62
7
100
AcDbPolyline
 90
2
 70
0
 10
76.765568
 20
36.044075
 30
0.0
 10
76.960651
 20
36.188785
 30
0.0
  0
LWPOLYLINE
  5
211
100
AcDbEntity
  8
Default
 62
7
100
AcDbPolyline
 90
2
 70
0
 10
76.585549
 20
35.880996
 30
0.0
 10
76.765568
 20
36.044075
 30
0.0
  0
LWPOLYLINE
  5
212
100
AcDbEntity
  8
Default
 62
7
100
AcDbPolyline
 90
2
 70
0
 10
76.422470
 20
35.700980
 30
0.0
 10
76.585549
 20
35.880996
 30
0.0
  0
LWPOLYLINE
  5
213
100
AcDbEntity
  8
Default
 62
7
100
AcDbPolyline
 90
2
 70
0
 10
76.277761
 20
35.505894
 30
0.0
 10
76.422470
 20
35.700980
 30
0.0
  0
LWPOLYLINE
  5
214
100
AcDbEntity
  8
Default
 62
7
100
AcDbPolyline
 90
2
 70
0
 10
76.152914
 20
35.297546
 30
0.0
 10
76.277761
 20
35.505894
 30
0.0
  0
LWPOLYLINE
  5
215
100
AcDbEntity
  8
Default
 62
7
100
AcDbPolyline
 90
2
 70
0
 10
76.049051
 20
35.077990
 30
0.0
 10
76.152914
 20
35.297546
 30
0.0
  0
LWPOLYLINE
  5
216
100
AcDbEntity
  8
Default
 62
7
100
AcDbPolyline
 90
2
 70
0
 10
75.967232
 20
34.849281
 30
0.0
 10
76.049051
 20
35.077990
 30
0.0
  0
LWPOLYLINE
  5
217
100
AcDbEntity
  8
Default
 62
7
100
AcDbPolyline
 90
2
 70
0
 10
75.908202
 20
34.613659
 30
0.0
 10
75.967232
 20
34.849281
 30
0.0
  0
LWPOLYLINE
  5
218
100
AcDbEntity
  8
Default
 62
7
100
AcDbPolyline
 90
2
 70
0
 10
75.872523
 20
34.373368
 30
0.0
 10
75.908202
 20
34.613659
 30
0.0
  0
LWPOLYLINE
  5
219
100
AcDbEntity
  8
Default
 62
7
100
AcDbPolyline
 90
2
 70
0
 10
75.860628
 20
34.130772
 30
0.0
 10
75.872509
 20
34.373368
 30
0.0
  0
LWPOLYLINE
  5
21a
100
AcDbEntity
  8
Default
 62
7
100
AcDbPolyline
 90
2
 70
0
 10
75.872509
 20
33.888177
 30
0.0
 10
75.860628
 20
34.130772
 30
0.0
  0
LWPOLYLINE
  5
21b
100
AcDbEntity
  8
Default
 62
7
100
AcDbPolyline
 90
2
 70
0
 10
75.908202
 20
33.647886
 30
0.0
 10
75.872523
 20
33.888177
 30
0.0
  0
LWPOLYLINE
  5
21c
100
AcDbEntity
  8
Default
 62
7
100
AcDbPolyline
 90
2
 70
0
 10
75.967232
 20
33.412264
 30
0.0
 10
75.908202
 20
33.647886
 30
0.0
  0
LWPOLYLINE
  5
21d
100
AcDbEntity
  8
Default
 62
7
100
AcDbPolyline
 90
2
 70
0
 10
76.049051
 20
33.183617
 30
0.0
 10
75.967232
 20
33.412264
 30
0.0
  0
LWPOLYLINE
  5
21e
100
AcDbEntity
  8
Default
 62
7
100
AcDbPolyline
 90
2
 70
0
 10
76.152914
 20
32.963998
 30
0.0
 10
76.049051
 20
33.183617
 30
0.0
  0
LWPOLYLINE
  5
21f
100
AcDbEntity
  8
Default
 62
7
100
AcDbPolyline
 90
2
 70
0
 10
76.277761
 20
32.755650
 30
0.0
 10
76.152914
 20
32.963998
 30
0.0
  0
LWPOLYLINE
  5
220
100
AcDbEntity
  8
Default
 62
7
100
AcDbPolyline
 90
2
 70
0
 10
76.422470
 20
32.560565
 30
0.0
 10
76.277761
 20
32.755650
 30
0.0
  0
LWPOLYLINE
  5
221
100
AcDbEntity
  8
Default
 62
7
100
AcDbPolyline
 90
2
 70
0
 10
76.585549
 20
32.380611
 30
0.0
 10
76.422470
 20
32.560565
 30
0.0
  0
LWPOLYLINE
  5
222
100
AcDbEntity
  8
Default
 62
7
100
AcDbPolyline
 90
2
 70
0
 10
76.765568
 20
32.217470
 30
0.0
 10
76.585549
 20
32.380611
 30
0.0
  0
LWPOLYLINE
  5
223
100
AcDbEntity
  8
Default
 62
7
100
AcDbPolyline
 90
2
 70
0
 10
76.960651
 20
32.072759
 30
0.0
 10
76.765568
 20
32.217470
 30
0.0
  0
LWPOLYLINE
  5
224
100
AcDbEntity
  8
Default
 62
7
100
AcDbPolyline
 90
2
 70
0
 10
77.168999
 20
31.947912
 30
0.0
 10
76.960651
 20
32.072759
 30
0.0
  0
LWPOLYLINE
  5
225
100
AcDbEntity
  8
Default
 62
7
100
AcDbPolyline
 90
2
 70
0
 10
77.388556
 20
31.844050
 30
0.0
 10
77.168999
 20
31.947912
 30
0.0
  0
LWPOLYLINE
  5
226
100
AcDbEntity
  8
Default
 62
7
100
AcDbPolyline
 90
2
 70
0
 10
77.617266
 20
31.762230
 30
0.0
 10
77.388556
 20
31.844050
 30
0.0
  0
LWPOLYLINE
  5
227
100
AcDbEntity
  8
Default
 62
7
100
AcDbPolyline
 90
2
 70
0
 10
77.852888
 20
31.703200
 30
0.0
 10
77.617266
 20
31.762230
 30
0.0
  0
LWPOLYLINE
  5
228
100
AcDbEntity
  8
Default
 62
7
100
AcDbPolyline
 90
2
 70
0
 10
78.093178
 20
31.667583
 30
0.0
 10
77.852888
 20
31.703200
 30
0.0
  0
LWPOLYLINE
  5
229
100
AcDbEntity
  8
Default
 62
7
100
AcDbPolyline
 90
2
 70
0
 10
78.335773
 20
31.655627
 30
0.0
 10
78.093178
 20
31.667582
 30
0.0
  0
LWPOLYLINE
  5
22a
100
AcDbEntity
  8
Default
 62
7
100
AcDbPolyline
 90
2
 70
0
 10
78.578369
 20
31.667582
 30
0.0
 10
78.335773
 20
31.655627
 30
0.0
  0
LWPOLYLINE
  5
22b
100
AcDbEntity
  8
Default
 62
7
100
AcDbPolyline
 90
2
 70
0
 10
78.818661
 20
31.703200
 30
0.0
 10
78.578369
 20
31.667583
 30
0.0
  0
LWPOLYLINE
  5
22c
100
AcDbEntity
  8
Default
 62
7
100
AcDbPolyline
 90
2
 70
0
 10
79.054283
 20
31.762230
 30
0.0
 10
78.818661
 20
31.703200
 30
0.0
  0
LWPOLYLINE
  5
22d
100
AcDbEntity
  8
Default
 62
7
100
AcDbPolyline
 90
2
 70
0
 10
79.282993
 20
31.844050
 30
0.0
 10
79.054283
 20
31.762230
 30
0.0
  0
LWPOLYLINE
  5
22e
100
AcDbEntity
  8
Default
 62
7
100
AcDbPolyline
 90
2
 70
0
 10
79.502548
 20
31.947912
 30
0.0
 10
79.282993
 20
31.844050
 30
0.0
  0
LWPOLYLINE
  5
22f
100
AcDbEntity
  8
Default
 62
7
100
AcDbPolyline
 90
2
 70
0
 10
79.710895
 20
32.072759
 30
0.0
 10
79.502548
 20
31.947912
 30
0.0
  0
LWPOLYLINE
  5
230
100
AcDbEntity
  8
Default
 62
7
100
AcDbPolyline
 90
2
 70
0
 10
79.905981
 20
32.217470
 30
0.0
 10
79.710895
 20
32.072759
 30
0.0
  0
LWPOLYLINE
  5
231
100
AcDbEntity
  8
Default
 62
7
100
AcDbPolyline
 90
2
 70
0
 10
80.085935
 20
32.380611
 30
0.0
 10
79.905981
 20
32.217470
 30
0.0
  0
LWPOLYLINE
  5
232
100
AcDbEntity
  8
Default
 62
7
100
AcDbPolyline
 90
2
 70
0
 10
80.249076
 20
32.560565
 30
0.0
 10
80.085935
 20
32.380611
 30
0.0
  0
LWPOLYLINE
  5
233
100
AcDbEntity
  8
Default
 62
7
100
AcDbPolyline
 90
2
 70
0
 10
80.393786
 20
32.755650
 30
0.0
 10
80.249076
 20
32.560565
 30
0.0
  0
LWPOLYLINE
  5
234
100
AcDbEntity
  8
Default
 62
7
100
AcDbPolyline
 90
2
 70
0
 10
80.518635
 20
32.963998
 30
0.0
 10
80.393786
 20
32.755650
 30
0.0
  0
LWPOLYLINE
  5
235
100
AcDbEntity
  8
Default
 62
7
100
AcDbPolyline
 90
2
 70
0
 10
80.622496
 20
33.183617
 30
0.0
 10
80.518635
 20
32.963998
 30
0.0
  0
LWPOLYLINE
  5
236
100
AcDbEntity
  8
Default
 62
7
100
AcDbPolyline
 90
2
 70
0
 10
80.704317
 20
33.412264
 30
0.0
 10
80.622496
 20
33.183617
 30
0.0
  0
LWPOLYLINE
  5
237
100
AcDbEntity
  8
Default
 62
7
100
AcDbPolyline
 90
2
 70
0
 10
80.763347
 20
33.647886
 30
0.0
 10
80.704317
 20
33.412264
 30
0.0
  0
LWPOLYLINE
  5
238
100
AcDbEntity
  8
Default
 62
7
100
AcDbPolyline
 90
2
 70
0
 10
80.799026
 20
33.888177
 30
0.0
 10
80.763347
 20
33.647886
 30
0.0
  0
LWPOLYLINE
  5
239
100
AcDbEntity
  8
Default
 62
7
100
AcDbPolyline
 90
2
 70
0
 10
90.784375
 20
32.723792
 30
0.0
 10
91.148826
 20
33.174426
 30
0.0
  0
LWPOLYLINE
  5
23a
100
AcDbEntity
  8
Default
 62
7
100
AcDbPolyline
 90
2
 70
0
 10
90.298470
 20
32.407796
 30
0.0
 10
90.784375
 20
32.723792
 30
0.0
  0
LWPOLYLINE
  5
23b
100
AcDbEntity
  8
Default
 62
7
100
AcDbPolyline
 90
2
 70
0
 10
89.738762
 20
32.257470
 30
0.0
 10
90.298470
 20
32.407796
 30
0.0
  0
LWPOLYLINE
  5
23c
100
AcDbEntity
  8
Default
 62
7
100
AcDbPolyline
 90
2
 70
0
 10
89.159941
 20
32.287428
 30
0.0
 10
89.738762
 20
32.257470
 30
0.0
  0
LWPOLYLINE
  5
23d
100
AcDbEntity
  8
Default
 62
7
100
AcDbPolyline
 90
2
 70
0
 10
88.618737
 20
32.494792
 30
0.0
 10
89.159941
 20
32.287428
 30
0.0
  0
LWPOLYLINE
  5
23e
100
AcDbEntity
  8
Default
 62
7
100
AcDbPolyline
 90
2
 70
0
 10
88.168096
 20
32.859244
 30
0.0
 10
88.618737
 20
32.494792
 30
0.0
  0
LWPOLYLINE
  5
23f
100
AcDbEntity
  8
Default
 62
7
100
AcDbPolyline
 90
2
 70
0
 10
87.852134
 20
33.345144
 30
0.0
 10
88.168096
 20
32.859244
 30
0.0
  0
LWPOLYLINE
  5
240
100
AcDbEntity
  8
Default
 62
7
100
AcDbPolyline
 90
2
 70
0
 10
87.701766
 20
33.904842
 30
0.0
 10
87.852134
 20
33.345144
 30
0.0
  0
LWPOLYLINE
  5
241
100
AcDbEntity
  8
Default
 62
7
100
AcDbPolyline
 90
2
 70
0
 10
87.731752
 20
34.483685
 30
0.0
 10
87.701766
 20
33.904842
 30
0.0
  0
LWPOLYLINE
  5
242
100
AcDbEntity
  8
Default
 62
7
100
AcDbPolyline
 90
2
 70
0
 10
87.939112
 20
35.024882
 30
0.0
 10
87.731752
 20
34.483685
 30
0.0
  0
LWPOLYLINE
  5
243
100
AcDbEntity
  8
Default
 62
7
100
AcDbPolyline
 90
2
 70
0
 10
88.303560
 20
35.475516
 30
0.0
 10
87.939112
 20
35.024882
 30
0.0
  0
LWPOLYLINE
  5
244
100
AcDbEntity
  8
Default
 62
7
100
AcDbPolyline
 90
2
 70
0
 10
88.789465
 20
35.791512
 30
0.0
 10
88.303560
 20
35.475516
 30
0.0
  0
LWPOLYLINE
  5
245
100
AcDbEntity
  8
Default
 62
7
100
AcDbPolyline
 90
2
 70
0
 10
89.349174
 20
35.941838
 30
0.0
 10
88.789465
 20
35.791512
 30
0.0
  0
LWPOLYLINE
  5
246
100
AcDbEntity
  8
Default
 62
7
100
AcDbPolyline
 90
2
 70
0
 10
89.927994
 20
35.911880
 30
0.0
 10
89.349174
 20
35.941838
 30
0.0
  0
LWPOLYLINE
  5
247
100
AcDbEntity
  8
Default
 62
7
100
AcDbPolyline
 90
2
 70
0
 10
90.469201
 20
35.704516
 30
0.0
 10
89.927994
 20
35.911880
 30
0.0
  0
LWPOLYLINE
  5
248
100
AcDbEntity
  8
Default
 62
7
100
AcDbPolyline
 90
2
 70
0
 10
90.919839
 20
35.340064
 30
0.0
 10
90.469201
 20
35.704516
 30
0.0
  0
LWPOLYLINE
  5
249
100
AcDbEntity
  8
Default
 62
7
100
AcDbPolyline
 90
2
 70
0
 10
91.235801
 20
34.854164
 30
0.0
 10
90.919839
 20
35.340064
 30
0.0
  0
LWPOLYLINE
  5
24a
100
AcDbEntity
  8
Default
 62
7
100
AcDbPolyline
 90
2
 70
0
 10
91.386169
 20
34.294466
 30
0.0
 10
91.235801
 20
34.854164
 30
0.0
  0
LWPOLYLINE
  5
24b
100
AcDbEntity
  8
Default
 62
7
100
AcDbPolyline
 90
2
 70
0
 10
91.356186
 20
33.715624
 30
0.0
 10
91.386169
 20
34.294466
 30
0.0
  0
LWPOLYLINE
  5
24c
100
AcDbEntity
  8
Default
 62
7
100
AcDbPolyline
 90
2
 70
0
 10
91.148826
 20
33.174426
 30
0.0
 10
91.356186
 20
33.715624
 30
0.0
  0
LWPOLYLINE
  5
24d
100
AcDbEntity
  8
Default
 62
7
100
AcDbPolyline
 90
2
 70
0
 10
93.586912
 20
36.437234
 30
0.0
 10
93.589819
 20
31.767145
 30
0.0
  0
LWPOLYLINE
  5
24e
100
AcDbEntity
  8
Default
 62
7
100
AcDbPolyline
 90
2
 70
0
 10
89.541056
 20
38.769737
 30
0.0
 10
93.586904
 20
36.437234
 30
0.0
  0
LWPOLYLINE
  5
24f
100
AcDbEntity
  8
Default
 62
7
100
AcDbPolyline
 90
2
 70
0
 10
85.498102
 20
36.432165
 30
0.0
 10
89.541056
 20
38.769738
 30
0.0
  0
LWPOLYLINE
  5
250
100
AcDbEntity
  8
Default
 62
7
100
AcDbPolyline
 90
2
 70
0
 10
85.501014
 20
31.762076
 30
0.0
 10
85.498107
 20
36.432165
 30
0.0
  0
LWPOLYLINE
  5
251
100
AcDbEntity
  8
Default
 62
7
100
AcDbPolyline
 90
2
 70
0
 10
89.546867
 20
29.429573
 30
0.0
 10
85.501020
 20
31.762076
 30
0.0
  0
LWPOLYLINE
  5
252
100
AcDbEntity
  8
Default
 62
7
100
AcDbPolyline
 90
2
 70
0
 10
93.589825
 20
31.767145
 30
0.0
 10
89.546867
 20
29.429571
 30
0.0
  0
LWPOLYLINE
  5
253
100
AcDbEntity
  8
Default
 62
7
100
AcDbPolyline
 90
2
 70
0
 10
71.328882
 20
48.798894
 30
0.0
 10
71.328882
 20
54.698766
 30
0.0
  0
LWPOLYLINE
  5
254
100
AcDbEntity
  8
Default
 62
7
100
AcDbPolyline
 90
2
 70
0
 10
76.666164
 20
48.798894
 30
0.0
 10
71.328882
 20
48.798894
 30
0.0
  0
LWPOLYLINE
  5
255
100
AcDbEntity
  8
Default
 62
7
100
AcDbPolyline
 90
2
 70
0
 10
76.666164
 20
52.534960
 30
0.0
 10
76.666164
 20
48.798894
 30
0.0
  0
LWPOLYLINE
  5
256
100
AcDbEntity
  8
Default
 62
7
100
AcDbPolyline
 90
2
 70
0
 10
82.003387
 20
52.534960
 30
0.0
 10
76.666164
 20
52.534960
 30
0.0
  0
LWPOLYLINE
  5
257
100
AcDbEntity
  8
Default
 62
7
100
AcDbPolyline
 90
2
 70
0
 10
82.003387
 20
48.798894
 30
0.0
 10
82.003387
 20
52.534960
 30
0.0
  0
LWPOLYLINE
  5
258
100
AcDbEntity
  8
Default
 62
7
100
AcDbPolyline
 90
2
 70
0
 10
87.340616
 20
48.798894
 30
0.0
 10
82.003387
 20
48.798894
 30
0.0
  0
LWPOLYLINE
  5
259
100
AcDbEntity
  8
Default
 62
7
100
AcDbPolyline
 90
2
 70
0
 10
87.340616
 20
52.534960
 30
0.0
 10
87.340616
 20
48.798894
 30
0.0
  0
LWPOLYLINE
  5
25a
100
AcDbEntity
  8
Default
 62
7
100
AcDbPolyline
 90
2
 70
0
 10
92.677844
 20
52.534960
 30
0.0
 10
87.340616
 20
52.534960
 30
0.0
  0
LWPOLYLINE
  5
25b
100
AcDbEntity
  8
Default
 62
7
100
AcDbPolyline
 90
2
 70
0
 10
92.677844
 20
48.798894
 30
0.0
 10
92.677844
 20
52.534960
 30
0.0
  0
LWPOLYLINE
  5
25c
100
AcDbEntity
  8
Default
 62
7
100
AcDbPolyline
 90
2
 70
0
 10
98.015053
 20
48.798894
 30
0.0
 10
92.677844
 20
48.798894
 30
0.0
  0
LWPOLYLINE
  5
25d
100
AcDbEntity
  8
Default
 62
7
100
AcDbPolyline
 90
2
 70
0
 10
98.015053
 20
52.534960
 30
0.0
 10
98.015053
 20
48.798894
 30
0.0
  0
LWPOLYLINE
  5
25e
100
AcDbEntity
  8
Default
 62
7
100
AcDbPolyline
 90
2
 70
0
 10
103.352335
 20
52.534960
 30
0.0
 10
98.015053
 20
52.534960
 30
0.0
  0
LWPOLYLINE
  5
25f
100
AcDbEntity
  8
Default
 62
7
100
AcDbPolyline
 90
2
 70
0
 10
103.352335
 20
48.798894
 30
0.0
 10
103.352335
 20
52.534960
 30
0.0
  0
LWPOLYLINE
  5
260
100
AcDbEntity
  8
Default
 62
7
100
AcDbPolyline
 90
2
 70
0
 10
108.689558
 20
48.798894
 30
0.0
 10
103.352335
 20
48.798894
 30
0.0
  0
LWPOLYLINE
  5
261
100
AcDbEntity
  8
Default
 62
7
100
AcDbPolyline
 90
2
 70
0
 10
108.689558
 20
54.698766
 30
0.0
 10
108.689558
 20
48.798894
 30
0.0
  0
LWPOLYLINE
  5
262
100
AcDbEntity
  8
Default
 62
7
100
AcDbPolyline
 90
2
 70
0
 10
112.425627
 20
54.698766
 30
0.0
 10
108.689558
 20
54.698766
 30
0.0
  0
LWPOLYLINE
  5
263
100
AcDbEntity
  8
Default
 62
7
100
AcDbPolyline
 90
2
 70
0
 10
112.425627
 20
59.586790
 30
0.0
 10
112.425627
 20
54.698766
 30
0.0
  0
LWPOLYLINE
  5
264
100
AcDbEntity
  8
Default
 62
7
100
AcDbPolyline
 90
2
 70
0
 10
108.689558
 20
59.586790
 30
0.0
 10
112.425627
 20
59.586790
 30
0.0
  0
LWPOLYLINE
  5
265
100
AcDbEntity
  8
Default
 62
7
100
AcDbPolyline
 90
2
 70
0
 10
108.689558
 20
64.163472
 30
0.0
 10
108.689558
 20
59.586790
 30
0.0
  0
LWPOLYLINE
  5
266
100
AcDbEntity
  8
Default
 62
7
100
AcDbPolyline
 90
2
 70
0
 10
112.425627
 20
64.163472
 30
0.0
 10
108.689558
 20
64.163472
 30
0.0
  0
LWPOLYLINE
  5
267
100
AcDbEntity
  8
Default
 62
7
100
AcDbPolyline
 90
2
 70
0
 10
112.425627
 20
69.051494
 30
0.0
 10
112.425627
 20
64.163472
 30
0.0
  0
LWPOLYLINE
  5
268
100
AcDbEntity
  8
Default
 62
7
100
AcDbPolyline
 90
2
 70
0
 10
108.689558
 20
69.051494
 30
0.0
 10
112.425627
 20
69.051494
 30
0.0
  0
LWPOLYLINE
  5
269
100
AcDbEntity
  8
Default
 62
7
100
AcDbPolyline
 90
2
 70
0
 10
108.689558
 20
74.951369
 30
0.0
 10
108.689558
 20
69.051494
 30
0.0
  0
LWPOLYLINE
  5
26a
100
AcDbEntity
  8
Default
 62
7
100
AcDbPolyline
 90
2
 70
0
 10
103.352273
 20
74.951369
 30
0.0
 10
108.689558
 20
74.951369
 30
0.0
  0
LWPOLYLINE
  5
26b
100
AcDbEntity
  8
Default
 62
7
100
AcDbPolyline
 90
2
 70
0
 10
103.352273
 20
71.215300
 30
0.0
 10
103.352273
 20
74.951369
 30
0.0
  0
LWPOLYLINE
  5
26c
100
AcDbEntity
  8
Default
 62
7
100
AcDbPolyline
 90
2
 70
0
 10
98.015053
 20
71.215300
 30
0.0
 10
103.352273
 20
71.215300
 30
0.0
  0
LWPOLYLINE
  5
26d
100
AcDbEntity
  8
Default
 62
7
100
AcDbPolyline
 90
2
 70
0
 10
98.015053
 20
74.951369
 30
0.0
 10
98.015053
 20
71.215300
 30
0.0
  0
LWPOLYLINE
  5
26e
100
AcDbEntity
  8
Default
 62
7
100
AcDbPolyline
 90
2
 70
0
 10
92.677824
 20
74.951369
 30
0.0
 10
98.015053
 20
74.951369
 30
0.0
  0
LWPOLYLINE
  5
26f
100
AcDbEntity
  8
Default
 62
7
100
AcDbPolyline
 90
2
 70
0
 10
92.677824
 20
71.215300
 30
0.0
 10
92.677824
 20
74.951369
 30
0.0
  0
LWPOLYLINE
  5
270
100
AcDbEntity
  8
Default
 62
7
100
AcDbPolyline
 90
2
 70
0
 10
87.340596
 20
71.215300
 30
0.0
 10
92.677824
 20
71.215300
 30
0.0
  0
LWPOLYLINE
  5
271
100
AcDbEntity
  8
Default
 62
7
100
AcDbPolyline
 90
2
 70
0
 10
87.340596
 20
74.951369
 30
0.0
 10
87.340596
 20
71.215300
 30
0.0
  0
LWPOLYLINE
  5
272
100
AcDbEntity
  8
Default
 62
7
100
AcDbPolyline
 90
2
 70
0
 10
82.003387
 20
74.951369
 30
0.0
 10
87.340596
 20
74.951369
 30
0.0
  0
LWPOLYLINE
  5
273
100
AcDbEntity
  8
Default
 62
7
100
AcDbPolyline
 90
2
 70
0
 10
82.003387
 20
71.215300
 30
0.0
 10
82.003387
 20
74.951369
 30
0.0
  0
LWPOLYLINE
  5
274
100
AcDbEntity
  8
Default
 62
7
100
AcDbPolyline
 90
2
 70
0
 10
76.666102
 20
71.215300
 30
0.0
 10
82.003387
 20
71.215300
 30
0.0
  0
LWPOLYLINE
  5
275
100
AcDbEntity
  8
Default
 62
7
100
AcDbPolyline
 90
2
 70
0
 10
76.666102
 20
74.951369
 30
0.0
 10
76.666102
 20
71.215300
 30
0.0
  0
LWPOLYLINE
  5
276
100
AcDbEntity
  8
Default
 62
7
100
AcDbPolyline
 90
2
 70
0
 10
71.328882
 20
74.951369
 30
0.0
 10
76.666102
 20
74.951369
 30
0.0
  0
LWPOLYLINE
  5
277
100
AcDbEntity
  8
Default
 62
7
100
AcDbPolyline
 90
2
 70
0
 10
71.328882
 20
69.051494
 30
0.0
 10
71.328882
 20
74.951369
 30
0.0
  0
LWPOLYLINE
  5
278
100
AcDbEntity
  8
Default
 62
7
100
AcDbPolyline
 90
2
 70
0
 10
67.592813
 20
69.051494
 30
0.0
 10
71.328882
 20
69.051494
 30
0.0
  0
LWPOLYLINE
  5
279
100
AcDbEntity
  8
Default
 62
7
100
AcDbPolyline
 90
2
 70
0
 10
67.592813
 20
64.163472
 30
0.0
 10
67.592813
 20
69.051494
 30
0.0
  0
LWPOLYLINE
  5
27a
100
AcDbEntity
  8
Default
 62
7
100
AcDbPolyline
 90
2
 70
0
 10
71.328882
 20
64.163472
 30
0.0
 10
67.592813
 20
64.163472
 30
0.0
  0
LWPOLYLINE
  5
27b
100
AcDbEntity
  8
Default
 62
7
100
AcDbPolyline
 90
2
 70
0
 10
71.328882
 20
59.586790
 30
0.0
 10
71.328882
 20
64.163472
 30
0.0
  0
LWPOLYLINE
  5
27c
100
AcDbEntity
  8
Default
 62
7
100
AcDbPolyline
 90
2
 70
0
 10
67.592813
 20
59.586790
 30
0.0
 10
71.328882
 20
59.586790
 30
0.0
  0
LWPOLYLINE
  5
27d
100
AcDbEntity
  8
Default
 62
7
100
AcDbPolyline
 90
2
 70
0
 10
67.592813
 20
54.698766
 30
0.0
 10
67.592813
 20
59.586790
 30
0.0
  0
LWPOLYLINE
  5
27e
100
AcDbEntity
  8
Default
 62
7
100
AcDbPolyline
 90
2
 70
0
 10
71.328882
 20
54.698766
 30
0.0
 10
67.592813
 20
54.698766
 30
0.0
  0
SPLINE
  5
27f
100
AcDbEntity
  8
Default
 62
7
100
AcDbSpline
 70
8
 71
3
 72
8
 73
4
 74
0
 40
0
 40
0
 40
0
 40
0
 40
1
 40
1
 40
1
 40
1
 10
94.990636
 20
63.120469
 30
0.0
 10
94.990636
 20
64.900161
 30
0.0
 10
94.041181
 20
66.544663
 30
0.0
 10
92.499924
 20
67.434509
 30
0.0
  0
SPLINE
  5
280
100
AcDbEntity
  8
Default
 62
7
100
AcDbSpline
 70
8
 71
3
 72
8
 73
4
 74
0
 40
0
 40
0
 40
0
 40
0
 40
1
 40
1
 40
1
 40
1
 10
92.499924
 20
67.434509
 30
0.0
 10
90.958666
 20
68.324355
 30
0.0
 10
89.059757
 20
68.324355
 30
0.0
 10
87.518500
 20
67.434509
 30
0.0
  0
SPLINE
  5
281
100
AcDbEntity
  8
Default
 62
7
100
AcDbSpline
 70
8
 71
3
 72
8
 73
4
 74
0
 40
0
 40
0
 40
0
 40
0
 40
1
 40
1
 40
1
 40
1
 10
87.518500
 20
67.434509
 30
0.0
 10
85.977242
 20
66.544663
 30
0.0
 10
85.027787
 20
64.900161
 30
0.0
 10
85.027787
 20
63.120469
 30
0.0
  0
SPLINE
  5
282
100
AcDbEntity
  8
Default
 62
7
100
AcDbSpline
 70
8
 71
3
 72
8
 73
4
 74
0
 40
0
 40
0
 40
0
 40
0
 40
1
 40
1
 40
1
 40
1
 10
85.027787
 20
63.120469
 30
0.0
 10
85.027787
 20
61.340778
 30
0.0
 10
85.977242
 20
59.696275
 30
0.0
 10
87.518500
 20
58.806430
 30
0.0
  0
SPLINE
  5
283
100
AcDbEntity
  8
Default
 62
7
100
AcDbSpline
 70
8
 71
3
 72
8
 73
4
 74
0
 40
0
 40
0
 40
0
 40
0
 40
1
 40
1
 40
1
 40
1
 10
87.518500
 20
58.806430
 30
0.0
 10
89.059757
 20
57.916584
 30
0.0
 10
90.958666
 20
57.916584
 30
0.0
 10
92.499924
 20
58.806430
 30
0.0
  0
SPLINE
  5
284
100
AcDbEntity
  8
Default
 62
7
100
AcDbSpline
 70
8
 71
3
 72
8
 73
4
 74
0
 40
0
 40
0
 40
0
 40
0
 40
1
 40
1
 40
1
 40
1
 10
92.499924
 20
58.806430
 30
0.0
 10
94.041181
 20
59.696275
 30
0.0
 10
94.990636
 20
61.340778
 30
0.0
 10
94.990636
 20
63.120469
 30
0.0
  0
LWPOLYLINE
  5
285
100
AcDbEntity
  8
Default
 62
7
100
AcDbPolyline
 90
2
 70
0
 10
92.677844
 20
48.798894
 30
0.0
 10
98.015053
 20
48.798894
 30
0.0
  0
LWPOLYLINE
  5
286
100
AcDbEntity
  8
Default
 62
7
100
AcDbPolyline
 90
2
 70
0
 10
94.990636
 20
63.120469
 30
0.0
 10
94.990636
 20
63.120469
 30
0.0
  0
LWPOLYLINE
  5
287
100
AcDbEntity
  8
Default
 62
7
100
AcDbPolyline
 90
2
 70
0
 10
81.276160
 20
63.089352
 30
0.0
 10
81.264278
 20
62.846756
 30
0.0
  0
LWPOLYLINE
  5
288
100
AcDbEntity
  8
Default
 62
7
100
AcDbPolyline
 90
2
 70
0
 10
81.264278
 20
63.331947
 30
0.0
 10
81.276160
 20
63.089352
 30
0.0
  0
LWPOLYLINE
  5
289
100
AcDbEntity
  8
Default
 62
7
100
AcDbPolyline
 90
2
 70
0
 10
81.228588
 20
63.572239
 30
0.0
 10
81.264267
 20
63.331947
 30
0.0
  0
LWPOLYLINE
  5
28a
100
AcDbEntity
  8
Default
 62
7
100
AcDbPolyline
 90
2
 70
0
 10
81.169559
 20
63.807861
 30
0.0
 10
81.228588
 20
63.572239
 30
0.0
  0
LWPOLYLINE
  5
28b
100
AcDbEntity
  8
Default
 62
7
100
AcDbPolyline
 90
2
 70
0
 10
81.087739
 20
64.036509
 30
0.0
 10
81.169559
 20
63.807861
 30
0.0
  0
LWPOLYLINE
  5
28c
100
AcDbEntity
  8
Default
 62
7
100
AcDbPolyline
 90
2
 70
0
 10
80.983876
 20
64.256126
 30
0.0
 10
81.087739
 20
64.036509
 30
0.0
  0
LWPOLYLINE
  5
28d
100
AcDbEntity
  8
Default
 62
7
100
AcDbPolyline
 90
2
 70
0
 10
80.859029
 20
64.464474
 30
0.0
 10
80.983876
 20
64.256126
 30
0.0
  0
LWPOLYLINE
  5
28e
100
AcDbEntity
  8
Default
 62
7
100
AcDbPolyline
 90
2
 70
0
 10
80.714317
 20
64.659560
 30
0.0
 10
80.859029
 20
64.464474
 30
0.0
  0
LWPOLYLINE
  5
28f
100
AcDbEntity
  8
Default
 62
7
100
AcDbPolyline
 90
2
 70
0
 10
80.551176
 20
64.839513
 30
0.0
 10
80.714317
 20
64.659560
 30
0.0
  0
LWPOLYLINE
  5
290
100
AcDbEntity
  8
Default
 62
7
100
AcDbPolyline
 90
2
 70
0
 10
80.371222
 20
65.002655
 30
0.0
 10
80.551176
 20
64.839513
 30
0.0
  0
LWPOLYLINE
  5
291
100
AcDbEntity
  8
Default
 62
7
100
AcDbPolyline
 90
2
 70
0
 10
80.176139
 20
65.147364
 30
0.0
 10
80.371222
 20
65.002655
 30
0.0
  0
LWPOLYLINE
  5
292
100
AcDbEntity
  8
Default
 62
7
100
AcDbPolyline
 90
2
 70
0
 10
79.967789
 20
65.272214
 30
0.0
 10
80.176139
 20
65.147364
 30
0.0
  0
LWPOLYLINE
  5
293
100
AcDbEntity
  8
Default
 62
7
100
AcDbPolyline
 90
2
 70
0
 10
79.748234
 20
65.376074
 30
0.0
 10
79.967789
 20
65.272214
 30
0.0
  0
LWPOLYLINE
  5
294
100
AcDbEntity
  8
Default
 62
7
100
AcDbPolyline
 90
2
 70
0
 10
79.519524
 20
65.457896
 30
0.0
 10
79.748234
 20
65.376074
 30
0.0
  0
LWPOLYLINE
  5
295
100
AcDbEntity
  8
Default
 62
7
100
AcDbPolyline
 90
2
 70
0
 10
79.283902
 20
65.516926
 30
0.0
 10
79.519524
 20
65.457896
 30
0.0
  0
LWPOLYLINE
  5
296
100
AcDbEntity
  8
Default
 62
7
100
AcDbPolyline
 90
2
 70
0
 10
79.043612
 20
65.552542
 30
0.0
 10
79.283902
 20
65.516926
 30
0.0
  0
LWPOLYLINE
  5
297
100
AcDbEntity
  8
Default
 62
7
100
AcDbPolyline
 90
2
 70
0
 10
78.801017
 20
65.564497
 30
0.0
 10
79.043612
 20
65.552531
 30
0.0
  0
LWPOLYLINE
  5
298
100
AcDbEntity
  8
Default
 62
7
100
AcDbPolyline
 90
2
 70
0
 10
78.558422
 20
65.552531
 30
0.0
 10
78.801017
 20
65.564497
 30
0.0
  0
LWPOLYLINE
  5
299
100
AcDbEntity
  8
Default
 62
7
100
AcDbPolyline
 90
2
 70
0
 10
78.318129
 20
65.516926
 30
0.0
 10
78.558422
 20
65.552542
 30
0.0
  0
LWPOLYLINE
  5
29a
100
AcDbEntity
  8
Default
 62
7
100
AcDbPolyline
 90
2
 70
0
 10
78.082507
 20
65.457896
 30
0.0
 10
78.318129
 20
65.516926
 30
0.0
  0
LWPOLYLINE
  5
29b
100
AcDbEntity
  8
Default
 62
7
100
AcDbPolyline
 90
2
 70
0
 10
77.853797
 20
65.376074
 30
0.0
 10
78.082507
 20
65.457896
 30
0.0
  0
LWPOLYLINE
  5
29c
100
AcDbEntity
  8
Default
 62
7
100
AcDbPolyline
 90
2
 70
0
 10
77.634243
 20
65.272214
 30
0.0
 10
77.853797
 20
65.376074
 30
0.0
  0
LWPOLYLINE
  5
29d
100
AcDbEntity
  8
Default
 62
7
100
AcDbPolyline
 90
2
 70
0
 10
77.425895
 20
65.147364
 30
0.0
 10
77.634243
 20
65.272214
 30
0.0
  0
LWPOLYLINE
  5
29e
100
AcDbEntity
  8
Default
 62
7
100
AcDbPolyline
 90
2
 70
0
 10
77.230809
 20
65.002655
 30
0.0
 10
77.425895
 20
65.147364
 30
0.0
  0
LWPOLYLINE
  5
29f
100
AcDbEntity
  8
Default
 62
7
100
AcDbPolyline
 90
2
 70
0
 10
77.050793
 20
64.839513
 30
0.0
 10
77.230809
 20
65.002655
 30
0.0
  0
LWPOLYLINE
  5
2a0
100
AcDbEntity
  8
Default
 62
7
100
AcDbPolyline
 90
2
 70
0
 10
76.887714
 20
64.659560
 30
0.0
 10
77.050793
 20
64.839513
 30
0.0
  0
LWPOLYLINE
  5
2a1
100
AcDbEntity
  8
Default
 62
7
100
AcDbPolyline
 90
2
 70
0
 10
76.743002
 20
64.464474
 30
0.0
 10
76.887714
 20
64.659560
 30
0.0
  0
LWPOLYLINE
  5
2a2
100
AcDbEntity
  8
Default
 62
7
100
AcDbPolyline
 90
2
 70
0
 10
76.618155
 20
64.256126
 30
0.0
 10
76.743002
 20
64.464474
 30
0.0
  0
LWPOLYLINE
  5
2a3
100
AcDbEntity
  8
Default
 62
7
100
AcDbPolyline
 90
2
 70
0
 10
76.514295
 20
64.036509
 30
0.0
 10
76.618155
 20
64.256126
 30
0.0
  0
LWPOLYLINE
  5
2a4
100
AcDbEntity
  8
Default
 62
7
100
AcDbPolyline
 90
2
 70
0
 10
76.432473
 20
63.807861
 30
0.0
 10
76.514295
 20
64.036509
 30
0.0
  0
LWPOLYLINE
  5
2a5
100
AcDbEntity
  8
Default
 62
7
100
AcDbPolyline
 90
2
 70
0
 10
76.373443
 20
63.572239
 30
0.0
 10
76.432473
 20
63.807861
 30
0.0
  0
LWPOLYLINE
  5
2a6
100
AcDbEntity
  8
Default
 62
7
100
AcDbPolyline
 90
2
 70
0
 10
76.337765
 20
63.331947
 30
0.0
 10
76.373443
 20
63.572239
 30
0.0
  0
LWPOLYLINE
  5
2a7
100
AcDbEntity
  8
Default
 62
7
100
AcDbPolyline
 90
2
 70
0
 10
76.325872
 20
63.089352
 30
0.0
 10
76.337753
 20
63.331947
 30
0.0
  0
LWPOLYLINE
  5
2a8
100
AcDbEntity
  8
Default
 62
7
100
AcDbPolyline
 90
2
 70
0
 10
76.337753
 20
62.846756
 30
0.0
 10
76.325872
 20
63.089352
 30
0.0
  0
LWPOLYLINE
  5
2a9
100
AcDbEntity
  8
Default
 62
7
100
AcDbPolyline
 90
2
 70
0
 10
76.373443
 20
62.606467
 30
0.0
 10
76.337765
 20
62.846756
 30
0.0
  0
LWPOLYLINE
  5
2aa
100
AcDbEntity
  8
Default
 62
7
100
AcDbPolyline
 90
2
 70
0
 10
76.432473
 20
62.370845
 30
0.0
 10
76.373443
 20
62.606467
 30
0.0
  0
LWPOLYLINE
  5
2ab
100
AcDbEntity
  8
Default
 62
7
100
AcDbPolyline
 90
2
 70
0
 10
76.514295
 20
62.142135
 30
0.0
 10
76.432473
 20
62.370845
 30
0.0
  0
LWPOLYLINE
  5
2ac
100
AcDbEntity
  8
Default
 62
7
100
AcDbPolyline
 90
2
 70
0
 10
76.618155
 20
61.922580
 30
0.0
 10
76.514295
 20
62.142135
 30
0.0
  0
LWPOLYLINE
  5
2ad
100
AcDbEntity
  8
Default
 62
7
100
AcDbPolyline
 90
2
 70
0
 10
76.743002
 20
61.714229
 30
0.0
 10
76.618155
 20
61.922580
 30
0.0
  0
LWPOLYLINE
  5
2ae
100
AcDbEntity
  8
Default
 62
7
100
AcDbPolyline
 90
2
 70
0
 10
76.887714
 20
61.519146
 30
0.0
 10
76.743002
 20
61.714229
 30
0.0
  0
LWPOLYLINE
  5
2af
100
AcDbEntity
  8
Default
 62
7
100
AcDbPolyline
 90
2
 70
0
 10
77.050793
 20
61.339131
 30
0.0
 10
76.887714
 20
61.519146
 30
0.0
  0
LWPOLYLINE
  5
2b0
100
AcDbEntity
  8
Default
 62
7
100
AcDbPolyline
 90
2
 70
0
 10
77.230809
 20
61.176049
 30
0.0
 10
77.050793
 20
61.339131
 30
0.0
  0
LWPOLYLINE
  5
2b1
100
AcDbEntity
  8
Default
 62
7
100
AcDbPolyline
 90
2
 70
0
 10
77.425895
 20
61.031339
 30
0.0
 10
77.230809
 20
61.176049
 30
0.0
  0
LWPOLYLINE
  5
2b2
100
AcDbEntity
  8
Default
 62
7
100
AcDbPolyline
 90
2
 70
0
 10
77.634243
 20
60.906430
 30
0.0
 10
77.425895
 20
61.031339
 30
0.0
  0
LWPOLYLINE
  5
2b3
100
AcDbEntity
  8
Default
 62
7
100
AcDbPolyline
 90
2
 70
0
 10
77.853797
 20
60.802629
 30
0.0
 10
77.634243
 20
60.906430
 30
0.0
  0
LWPOLYLINE
  5
2b4
100
AcDbEntity
  8
Default
 62
7
100
AcDbPolyline
 90
2
 70
0
 10
78.082507
 20
60.720748
 30
0.0
 10
77.853797
 20
60.802629
 30
0.0
  0
LWPOLYLINE
  5
2b5
100
AcDbEntity
  8
Default
 62
7
100
AcDbPolyline
 90
2
 70
0
 10
78.318129
 20
60.661780
 30
0.0
 10
78.082507
 20
60.720748
 30
0.0
  0
LWPOLYLINE
  5
2b6
100
AcDbEntity
  8
Default
 62
7
100
AcDbPolyline
 90
2
 70
0
 10
78.558422
 20
60.626102
 30
0.0
 10
78.318129
 20
60.661780
 30
0.0
  0
LWPOLYLINE
  5
2b7
100
AcDbEntity
  8
Default
 62
7
100
AcDbPolyline
 90
2
 70
0
 10
78.801017
 20
60.614206
 30
0.0
 10
78.558422
 20
60.626088
 30
0.0
  0
LWPOLYLINE
  5
2b8
100
AcDbEntity
  8
Default
 62
7
100
AcDbPolyline
 90
2
 70
0
 10
79.043612
 20
60.626088
 30
0.0
 10
78.801017
 20
60.614206
 30
0.0
  0
LWPOLYLINE
  5
2b9
100
AcDbEntity
  8
Default
 62
7
100
AcDbPolyline
 90
2
 70
0
 10
79.283902
 20
60.661780
 30
0.0
 10
79.043612
 20
60.626102
 30
0.0
  0
LWPOLYLINE
  5
2ba
100
AcDbEntity
  8
Default
 62
7
100
AcDbPolyline
 90
2
 70
0
 10
79.519524
 20
60.720748
 30
0.0
 10
79.283902
 20
60.661780
 30
0.0
  0
LWPOLYLINE
  5
2bb
100
AcDbEntity
  8
Default
 62
7
100
AcDbPolyline
 90
2
 70
0
 10
79.748234
 20
60.802629
 30
0.0
 10
79.519524
 20
60.720748
 30
0.0
  0
LWPOLYLINE
  5
2bc
100
AcDbEntity
  8
Default
 62
7
100
AcDbPolyline
 90
2
 70
0
 10
79.967789
 20
60.906430
 30
0.0
 10
79.748234
 20
60.802629
 30
0.0
  0
LWPOLYLINE
  5
2bd
100
AcDbEntity
  8
Default
 62
7
100
AcDbPolyline
 90
2
 70
0
 10
80.176139
 20
61.031339
 30
0.0
 10
79.967789
 20
60.906430
 30
0.0
  0
LWPOLYLINE
  5
2be
100
AcDbEntity
  8
Default
 62
7
100
AcDbPolyline
 90
2
 70
0
 10
80.371222
 20
61.176049
 30
0.0
 10
80.176139
 20
61.031339
 30
0.0
  0
LWPOLYLINE
  5
2bf
100
AcDbEntity
  8
Default
 62
7
100
AcDbPolyline
 90
2
 70
0
 10
80.551176
 20
61.339131
 30
0.0
 10
80.371222
 20
61.176049
 30
0.0
  0
LWPOLYLINE
  5
2c0
100
AcDbEntity
  8
Default
 62
7
100
AcDbPolyline
 90
2
 70
0
 10
80.714317
 20
61.519146
 30
0.0
 10
80.551176
 20
61.339131
 30
0.0
  0
LWPOLYLINE
  5
2c1
100
AcDbEntity
  8
Default
 62
7
100
AcDbPolyline
 90
2
 70
0
 10
80.859029
 20
61.714229
 30
0.0
 10
80.714317
 20
61.519146
 30
0.0
  0
LWPOLYLINE
  5
2c2
100
AcDbEntity
  8
Default
 62
7
100
AcDbPolyline
 90
2
 70
0
 10
80.983876
 20
61.922580
 30
0.0
 10
80.859029
 20
61.714229
 30
0.0
  0
LWPOLYLINE
  5
2c3
100
AcDbEntity
  8
Default
 62
7
100
AcDbPolyline
 90
2
 70
0
 10
81.087739
 20
62.142135
 30
0.0
 10
80.983876
 20
61.922580
 30
0.0
  0
LWPOLYLINE
  5
2c4
100
AcDbEntity
  8
Default
 62
7
100
AcDbPolyline
 90
2
 70
0
 10
81.169559
 20
62.370845
 30
0.0
 10
81.087739
 20
62.142135
 30
0.0
  0
LWPOLYLINE
  5
2c5
100
AcDbEntity
  8
Default
 62
7
100
AcDbPolyline
 90
2
 70
0
 10
81.228588
 20
62.606467
 30
0.0
 10
81.169559
 20
62.370845
 30
0.0
  0
LWPOLYLINE
  5
2c6
100
AcDbEntity
  8
Default
 62
7
100
AcDbPolyline
 90
2
 70
0
 10
81.264267
 20
62.846756
 30
0.0
 10
81.228588
 20
62.606467
 30
0.0
  0
LWPOLYLINE
  5
2c7
100
AcDbEntity
  8
Default
 62
7
100
AcDbPolyline
 90
2
 70
0
 10
103.692568
 20
63.089352
 30
0.0
 10
103.680602
 20
62.846756
 30
0.0
  0
LWPOLYLINE
  5
2c8
100
AcDbEntity
  8
Default
 62
7
100
AcDbPolyline
 90
2
 70
0
 10
103.680602
 20
63.331947
 30
0.0
 10
103.692568
 20
63.089352
 30
0.0
  0
LWPOLYLINE
  5
2c9
100
AcDbEntity
  8
Default
 62
7
100
AcDbPolyline
 90
2
 70
0
 10
103.644994
 20
63.572239
 30
0.0
 10
103.680613
 20
63.331947
 30
0.0
  0
LWPOLYLINE
  5
2ca
100
AcDbEntity
  8
Default
 62
7
100
AcDbPolyline
 90
2
 70
0
 10
103.585964
 20
63.807861
 30
0.0
 10
103.644994
 20
63.572239
 30
0.0
  0
LWPOLYLINE
  5
2cb
100
AcDbEntity
  8
Default
 62
7
100
AcDbPolyline
 90
2
 70
0
 10
103.504145
 20
64.036509
 30
0.0
 10
103.585964
 20
63.807861
 30
0.0
  0
LWPOLYLINE
  5
2cc
100
AcDbEntity
  8
Default
 62
7
100
AcDbPolyline
 90
2
 70
0
 10
103.400282
 20
64.256126
 30
0.0
 10
103.504145
 20
64.036509
 30
0.0
  0
LWPOLYLINE
  5
2cd
100
AcDbEntity
  8
Default
 62
7
100
AcDbPolyline
 90
2
 70
0
 10
103.275435
 20
64.464474
 30
0.0
 10
103.400282
 20
64.256126
 30
0.0
  0
LWPOLYLINE
  5
2ce
100
AcDbEntity
  8
Default
 62
7
100
AcDbPolyline
 90
2
 70
0
 10
103.130726
 20
64.659560
 30
0.0
 10
103.275435
 20
64.464474
 30
0.0
  0
LWPOLYLINE
  5
2cf
100
AcDbEntity
  8
Default
 62
7
100
AcDbPolyline
 90
2
 70
0
 10
102.967585
 20
64.839513
 30
0.0
 10
103.130726
 20
64.659560
 30
0.0
  0
LWPOLYLINE
  5
2d0
100
AcDbEntity
  8
Default
 62
7
100
AcDbPolyline
 90
2
 70
0
 10
102.787631
 20
65.002655
 30
0.0
 10
102.967585
 20
64.839513
 30
0.0
  0
LWPOLYLINE
  5
2d1
100
AcDbEntity
  8
Default
 62
7
100
AcDbPolyline
 90
2
 70
0
 10
102.592545
 20
65.147364
 30
0.0
 10
102.787631
 20
65.002655
 30
0.0
  0
LWPOLYLINE
  5
2d2
100
AcDbEntity
  8
Default
 62
7
100
AcDbPolyline
 90
2
 70
0
 10
102.384197
 20
65.272214
 30
0.0
 10
102.592545
 20
65.147364
 30
0.0
  0
LWPOLYLINE
  5
2d3
100
AcDbEntity
  8
Default
 62
7
100
AcDbPolyline
 90
2
 70
0
 10
102.164578
 20
65.376074
 30
0.0
 10
102.384197
 20
65.272214
 30
0.0
  0
LWPOLYLINE
  5
2d4
100
AcDbEntity
  8
Default
 62
7
100
AcDbPolyline
 90
2
 70
0
 10
101.935930
 20
65.457896
 30
0.0
 10
102.164578
 20
65.376074
 30
0.0
  0
LWPOLYLINE
  5
2d5
100
AcDbEntity
  8
Default
 62
7
100
AcDbPolyline
 90
2
 70
0
 10
101.700311
 20
65.516926
 30
0.0
 10
101.935930
 20
65.457896
 30
0.0
  0
LWPOLYLINE
  5
2d6
100
AcDbEntity
  8
Default
 62
7
100
AcDbPolyline
 90
2
 70
0
 10
101.460018
 20
65.552542
 30
0.0
 10
101.700311
 20
65.516926
 30
0.0
  0
LWPOLYLINE
  5
2d7
100
AcDbEntity
  8
Default
 62
7
100
AcDbPolyline
 90
2
 70
0
 10
101.217423
 20
65.564497
 30
0.0
 10
101.460018
 20
65.552531
 30
0.0
  0
LWPOLYLINE
  5
2d8
100
AcDbEntity
  8
Default
 62
7
100
AcDbPolyline
 90
2
 70
0
 10
100.974828
 20
65.552531
 30
0.0
 10
101.217423
 20
65.564497
 30
0.0
  0
LWPOLYLINE
  5
2d9
100
AcDbEntity
  8
Default
 62
7
100
AcDbPolyline
 90
2
 70
0
 10
100.734535
 20
65.516926
 30
0.0
 10
100.974828
 20
65.552542
 30
0.0
  0
LWPOLYLINE
  5
2da
100
AcDbEntity
  8
Default
 62
7
100
AcDbPolyline
 90
2
 70
0
 10
100.498913
 20
65.457896
 30
0.0
 10
100.734535
 20
65.516926
 30
0.0
  0
LWPOLYLINE
  5
2db
100
AcDbEntity
  8
Default
 62
7
100
AcDbPolyline
 90
2
 70
0
 10
100.270206
 20
65.376074
 30
0.0
 10
100.498913
 20
65.457896
 30
0.0
  0
LWPOLYLINE
  5
2dc
100
AcDbEntity
  8
Default
 62
7
100
AcDbPolyline
 90
2
 70
0
 10
100.050649
 20
65.272214
 30
0.0
 10
100.270206
 20
65.376074
 30
0.0
  0
LWPOLYLINE
  5
2dd
100
AcDbEntity
  8
Default
 62
7
100
AcDbPolyline
 90
2
 70
0
 10
99.842301
 20
65.147364
 30
0.0
 10
100.050649
 20
65.272214
 30
0.0
  0
LWPOLYLINE
  5
2de
100
AcDbEntity
  8
Default
 62
7
100
AcDbPolyline
 90
2
 70
0
 10
99.647215
 20
65.002655
 30
0.0
 10
99.842301
 20
65.147364
 30
0.0
  0
LWPOLYLINE
  5
2df
100
AcDbEntity
  8
Default
 62
7
100
AcDbPolyline
 90
2
 70
0
 10
99.467199
 20
64.839513
 30
0.0
 10
99.647215
 20
65.002655
 30
0.0
  0
LWPOLYLINE
  5
2e0
100
AcDbEntity
  8
Default
 62
7
100
AcDbPolyline
 90
2
 70
0
 10
99.304120
 20
64.659560
 30
0.0
 10
99.467199
 20
64.839513
 30
0.0
  0
LWPOLYLINE
  5
2e1
100
AcDbEntity
  8
Default
 62
7
100
AcDbPolyline
 90
2
 70
0
 10
99.159411
 20
64.464474
 30
0.0
 10
99.304120
 20
64.659560
 30
0.0
  0
LWPOLYLINE
  5
2e2
100
AcDbEntity
  8
Default
 62
7
100
AcDbPolyline
 90
2
 70
0
 10
99.034502
 20
64.256126
 30
0.0
 10
99.159411
 20
64.464474
 30
0.0
  0
LWPOLYLINE
  5
2e3
100
AcDbEntity
  8
Default
 62
7
100
AcDbPolyline
 90
2
 70
0
 10
98.930700
 20
64.036509
 30
0.0
 10
99.034502
 20
64.256126
 30
0.0
  0
LWPOLYLINE
  5
2e4
100
AcDbEntity
  8
Default
 62
7
100
AcDbPolyline
 90
2
 70
0
 10
98.848819
 20
63.807861
 30
0.0
 10
98.930700
 20
64.036509
 30
0.0
  0
LWPOLYLINE
  5
2e5
100
AcDbEntity
  8
Default
 62
7
100
AcDbPolyline
 90
2
 70
0
 10
98.789790
 20
63.572239
 30
0.0
 10
98.848819
 20
63.807861
 30
0.0
  0
LWPOLYLINE
  5
2e6
100
AcDbEntity
  8
Default
 62
7
100
AcDbPolyline
 90
2
 70
0
 10
98.754170
 20
63.331947
 30
0.0
 10
98.789790
 20
63.572239
 30
0.0
  0
LWPOLYLINE
  5
2e7
100
AcDbEntity
  8
Default
 62
7
100
AcDbPolyline
 90
2
 70
0
 10
98.742278
 20
63.089352
 30
0.0
 10
98.754159
 20
63.331947
 30
0.0
  0
LWPOLYLINE
  5
2e8
100
AcDbEntity
  8
Default
 62
7
100
AcDbPolyline
 90
2
 70
0
 10
98.754159
 20
62.846756
 30
0.0
 10
98.742278
 20
63.089352
 30
0.0
  0
LWPOLYLINE
  5
2e9
100
AcDbEntity
  8
Default
 62
7
100
AcDbPolyline
 90
2
 70
0
 10
98.789790
 20
62.606467
 30
0.0
 10
98.754170
 20
62.846756
 30
0.0
  0
LWPOLYLINE
  5
2ea
100
AcDbEntity
  8
Default
 62
7
100
AcDbPolyline
 90
2
 70
0
 10
98.848819
 20
62.370845
 30
0.0
 10
98.789790
 20
62.606467
 30
0.0
  0
LWPOLYLINE
  5
2eb
100
AcDbEntity
  8
Default
 62
7
100
AcDbPolyline
 90
2
 70
0
 10
98.930700
 20
62.142135
 30
0.0
 10
98.848819
 20
62.370845
 30
0.0
  0
LWPOLYLINE
  5
2ec
100
AcDbEntity
  8
Default
 62
7
100
AcDbPolyline
 90
2
 70
0
 10
99.034502
 20
61.922580
 30
0.0
 10
98.930700
 20
62.142135
 30
0.0
  0
LWPOLYLINE
  5
2ed
100
AcDbEntity
  8
Default
 62
7
100
AcDbPolyline
 90
2
 70
0
 10
99.159411
 20
61.714229
 30
0.0
 10
99.034502
 20
61.922580
 30
0.0
  0
LWPOLYLINE
  5
2ee
100
AcDbEntity
  8
Default
 62
7
100
AcDbPolyline
 90
2
 70
0
 10
99.304120
 20
61.519146
 30
0.0
 10
99.159411
 20
61.714229
 30
0.0
  0
LWPOLYLINE
  5
2ef
100
AcDbEntity
  8
Default
 62
7
100
AcDbPolyline
 90
2
 70
0
 10
99.467199
 20
61.339131
 30
0.0
 10
99.304120
 20
61.519146
 30
0.0
  0
LWPOLYLINE
  5
2f0
100
AcDbEntity
  8
Default
 62
7
100
AcDbPolyline
 90
2
 70
0
 10
99.647215
 20
61.176049
 30
0.0
 10
99.467199
 20
61.339131
 30
0.0
  0
LWPOLYLINE
  5
2f1
100
AcDbEntity
  8
Default
 62
7
100
AcDbPolyline
 90
2
 70
0
 10
99.842301
 20
61.031339
 30
0.0
 10
99.647215
 20
61.176049
 30
0.0
  0
LWPOLYLINE
  5
2f2
100
AcDbEntity
  8
Default
 62
7
100
AcDbPolyline
 90
2
 70
0
 10
100.050649
 20
60.906430
 30
0.0
 10
99.842301
 20
61.031339
 30
0.0
  0
LWPOLYLINE
  5
2f3
100
AcDbEntity
  8
Default
 62
7
100
AcDbPolyline
 90
2
 70
0
 10
100.270206
 20
60.802629
 30
0.0
 10
100.050649
 20
60.906430
 30
0.0
  0
LWPOLYLINE
  5
2f4
100
AcDbEntity
  8
Default
 62
7
100
AcDbPolyline
 90
2
 70
0
 10
100.498913
 20
60.720748
 30
0.0
 10
100.270206
 20
60.802629
 30
0.0
  0
LWPOLYLINE
  5
2f5
100
AcDbEntity
  8
Default
 62
7
100
AcDbPolyline
 90
2
 70
0
 10
100.734535
 20
60.661780
 30
0.0
 10
100.498913
 20
60.720748
 30
0.0
  0
LWPOLYLINE
  5
2f6
100
AcDbEntity
  8
Default
 62
7
100
AcDbPolyline
 90
2
 70
0
 10
100.974828
 20
60.626102
 30
0.0
 10
100.734535
 20
60.661780
 30
0.0
  0
LWPOLYLINE
  5
2f7
100
AcDbEntity
  8
Default
 62
7
100
AcDbPolyline
 90
2
 70
0
 10
101.217423
 20
60.614206
 30
0.0
 10
100.974828
 20
60.626088
 30
0.0
  0
LWPOLYLINE
  5
2f8
100
AcDbEntity
  8
Default
 62
7
100
AcDbPolyline
 90
2
 70
0
 10
101.460018
 20
60.626088
 30
0.0
 10
101.217423
 20
60.614206
 30
0.0
  0
LWPOLYLINE
  5
2f9
100
AcDbEntity
  8
Default
 62
7
100
AcDbPolyline
 90
2
 70
0
 10
101.700311
 20
60.661780
 30
0.0
 10
101.460018
 20
60.626102
 30
0.0
  0
LWPOLYLINE
  5
2fa
100
AcDbEntity
  8
Default
 62
7
100
AcDbPolyline
 90
2
 70
0
 10
101.935930
 20
60.720748
 30
0.0
 10
101.700311
 20
60.661780
 30
0.0
  0
LWPOLYLINE
  5
2fb
100
AcDbEntity
  8
Default
 62
7
100
AcDbPolyline
 90
2
 70
0
 10
102.164578
 20
60.802629
 30
0.0
 10
101.935930
 20
60.720748
 30
0.0
  0
LWPOLYLINE
  5
2fc
100
AcDbEntity
  8
Default
 62
7
100
AcDbPolyline
 90
2
 70
0
 10
102.384197
 20
60.906430
 30
0.0
 10
102.164578
 20
60.802629
 30
0.0
  0
LWPOLYLINE
  5
2fd
100
AcDbEntity
  8
Default
 62
7
100
AcDbPolyline
 90
2
 70
0
 10
102.592545
 20
61.031339
 30
0.0
 10
102.384197
 20
60.906430
 30
0.0
  0
LWPOLYLINE
  5
2fe
100
AcDbEntity
  8
Default
 62
7
100
AcDbPolyline
 90
2
 70
0
 10
102.787631
 20
61.176049
 30
0.0
 10
102.592545
 20
61.031339
 30
0.0
  0
LWPOLYLINE
  5
2ff
100
AcDbEntity
  8
Default
 62
7
100
AcDbPolyline
 90
2
 70
0
 10
102.967585
 20
61.339131
 30
0.0
 10
102.787631
 20
61.176049
 30
0.0
  0
LWPOLYLINE
  5
300
100
AcDbEntity
  8
Default
 62
7
100
AcDbPolyline
 90
2
 70
0
 10
103.130726
 20
61.519146
 30
0.0
 10
102.967585
 20
61.339131
 30
0.0
  0
LWPOLYLINE
  5
301
100
AcDbEntity
  8
Default
 62
7
100
AcDbPolyline
 90
2
 70
0
 10
103.275435
 20
61.714229
 30
0.0
 10
103.130726
 20
61.519146
 30
0.0
  0
LWPOLYLINE
  5
302
100
AcDbEntity
  8
Default
 62
7
100
AcDbPolyline
 90
2
 70
0
 10
103.400282
 20
61.922580
 30
0.0
 10
103.275435
 20
61.714229
 30
0.0
  0
LWPOLYLINE
  5
303
100
AcDbEntity
  8
Default
 62
7
100
AcDbPolyline
 90
2
 70
0
 10
103.504145
 20
62.142135
 30
0.0
 10
103.400282
 20
61.922580
 30
0.0
  0
LWPOLYLINE
  5
304
100
AcDbEntity
  8
Default
 62
7
100
AcDbPolyline
 90
2
 70
0
 10
103.585964
 20
62.370845
 30
0.0
 10
103.504145
 20
62.142135
 30
0.0
  0
LWPOLYLINE
  5
305
100
AcDbEntity
  8
Default
 62
7
100
AcDbPolyline
 90
2
 70
0
 10
103.644994
 20
62.606467
 30
0.0
 10
103.585964
 20
62.370845
 30
0.0
  0
LWPOLYLINE
  5
306
100
AcDbEntity
  8
Default
 62
7
100
AcDbPolyline
 90
2
 70
0
 10
103.680613
 20
62.846756
 30
0.0
 10
103.644994
 20
62.606467
 30
0.0
  0
LWPOLYLINE
  5
307
100
AcDbEntity
  8
Default
 62
7
100
AcDbPolyline
 90
2
 70
0
 10
92.332379
 20
59.101986
 30
0.0
 10
87.662290
 20
59.099079
 30
0.0
  0
LWPOLYLINE
  5
308
100
AcDbEntity
  8
Default
 62
7
100
AcDbPolyline
 90
2
 70
0
 10
94.664883
 20
63.147842
 30
0.0
 10
92.332379
 20
59.101995
 30
0.0
  0
LWPOLYLINE
  5
309
100
AcDbEntity
  8
Default
 62
7
100
AcDbPolyline
 90
2
 70
0
 10
92.327299
 20
67.190797
 30
0.0
 10
94.664872
 20
63.147842
 30
0.0
  0
LWPOLYLINE
  5
30a
100
AcDbEntity
  8
Default
 62
7
100
AcDbPolyline
 90
2
 70
0
 10
87.657210
 20
67.187884
 30
0.0
 10
92.327299
 20
67.190791
 30
0.0
  0
LWPOLYLINE
  5
30b
100
AcDbEntity
  8
Default
 62
7
100
AcDbPolyline
 90
2
 70
0
 10
85.324705
 20
63.142028
 30
0.0
 10
87.657210
 20
67.187879
 30
0.0
  0
LWPOLYLINE
  5
30c
100
AcDbEntity
  8
Default
 62
7
100
AcDbPolyline
 90
2
 70
0
 10
87.662290
 20
59.099074
 30
0.0
 10
85.324716
 20
63.142028
 30
0.0
  0
LWPOLYLINE
  5
30d
100
AcDbEntity
  8
Default
 62
7
100
AcDbPolyline
 90
2
 70
0
 10
88.618938
 20
61.904523
 30
0.0
 10
89.069571
 20
61.540076
 30
0.0
  0
LWPOLYLINE
  5
30e
100
AcDbEntity
  8
Default
 62
7
100
AcDbPolyline
 90
2
 70
0
 10
88.302943
 20
62.390431
 30
0.0
 10
88.618938
 20
61.904523
 30
0.0
  0
LWPOLYLINE
  5
30f
100
AcDbEntity
  8
Default
 62
7
100
AcDbPolyline
 90
2
 70
0
 10
88.152617
 20
62.950140
 30
0.0
 10
88.302943
 20
62.390431
 30
0.0
  0
LWPOLYLINE
  5
310
100
AcDbEntity
  8
Default
 62
7
100
AcDbPolyline
 90
2
 70
0
 10
88.182575
 20
63.528961
 30
0.0
 10
88.152617
 20
62.950140
 30
0.0
  0
LWPOLYLINE
  5
311
100
AcDbEntity
  8
Default
 62
7
100
AcDbPolyline
 90
2
 70
0
 10
88.389938
 20
64.070164
 30
0.0
 10
88.182575
 20
63.528961
 30
0.0
  0
LWPOLYLINE
  5
312
100
AcDbEntity
  8
Default
 62
7
100
AcDbPolyline
 90
2
 70
0
 10
88.754391
 20
64.520805
 30
0.0
 10
88.389938
 20
64.070164
 30
0.0
  0
LWPOLYLINE
  5
313
100
AcDbEntity
  8
Default
 62
7
100
AcDbPolyline
 90
2
 70
0
 10
89.240290
 20
64.836767
 30
0.0
 10
88.754391
 20
64.520805
 30
0.0
  0
LWPOLYLINE
  5
314
100
AcDbEntity
  8
Default
 62
7
100
AcDbPolyline
 90
2
 70
0
 10
89.799987
 20
64.987135
 30
0.0
 10
89.240290
 20
64.836767
 30
0.0
  0
LWPOLYLINE
  5
315
100
AcDbEntity
  8
Default
 62
7
100
AcDbPolyline
 90
2
 70
0
 10
90.378831
 20
64.957149
 30
0.0
 10
89.799987
 20
64.987135
 30
0.0
  0
LWPOLYLINE
  5
316
100
AcDbEntity
  8
Default
 62
7
100
AcDbPolyline
 90
2
 70
0
 10
90.920029
 20
64.749789
 30
0.0
 10
90.378831
 20
64.957149
 30
0.0
  0
LWPOLYLINE
  5
317
100
AcDbEntity
  8
Default
 62
7
100
AcDbPolyline
 90
2
 70
0
 10
91.370661
 20
64.385341
 30
0.0
 10
90.920029
 20
64.749789
 30
0.0
  0
LWPOLYLINE
  5
318
100
AcDbEntity
  8
Default
 62
7
100
AcDbPolyline
 90
2
 70
0
 10
91.686657
 20
63.899437
 30
0.0
 10
91.370661
 20
64.385341
 30
0.0
  0
LWPOLYLINE
  5
319
100
AcDbEntity
  8
Default
 62
7
100
AcDbPolyline
 90
2
 70
0
 10
91.836983
 20
63.339725
 30
0.0
 10
91.686657
 20
63.899437
 30
0.0
  0
LWPOLYLINE
  5
31a
100
AcDbEntity
  8
Default
 62
7
100
AcDbPolyline
 90
2
 70
0
 10
91.807025
 20
62.760907
 30
0.0
 10
91.836983
 20
63.339725
 30
0.0
  0
LWPOLYLINE
  5
31b
100
AcDbEntity
  8
Default
 62
7
100
AcDbPolyline
 90
2
 70
0
 10
91.599662
 20
62.219701
 30
0.0
 10
91.807025
 20
62.760907
 30
0.0
  0
LWPOLYLINE
  5
31c
100
AcDbEntity
  8
Default
 62
7
100
AcDbPolyline
 90
2
 70
0
 10
91.235209
 20
61.769062
 30
0.0
 10
91.599662
 20
62.219701
 30
0.0
  0
LWPOLYLINE
  5
31d
100
AcDbEntity
  8
Default
 62
7
100
AcDbPolyline
 90
2
 70
0
 10
90.749310
 20
61.453101
 30
0.0
 10
91.235209
 20
61.769062
 30
0.0
  0
LWPOLYLINE
  5
31e
100
AcDbEntity
  8
Default
 62
7
100
AcDbPolyline
 90
2
 70
0
 10
90.189612
 20
61.302733
 30
0.0
 10
90.749310
 20
61.453101
 30
0.0
  0
LWPOLYLINE
  5
31f
100
AcDbEntity
  8
Default
 62
7
100
AcDbPolyline
 90
2
 70
0
 10
89.610769
 20
61.332716
 30
0.0
 10
90.189612
 20
61.302733
 30
0.0
  0
SPLINE
  5
320
100
AcDbEntity
  8
Default
 62
7
100
AcDbSpline
 70
8
 71
3
 72
8
 73
4
 74
0
 40
0
 40
0
 40
0
 40
0
 40
1
 40
1
 40
1
 40
1
 10
125.525510
 20
93.796800
 30
0.0
 10
125.525510
 20
94.241723
 30
0.0
 10
125.288147
 20
94.652849
 30
0.0
 10
124.902832
 20
94.875310
 30
0.0
  0
SPLINE
  5
321
100
AcDbEntity
  8
Default
 62
7
100
AcDbSpline
 70
8
 71
3
 72
8
 73
4
 74
0
 40
0
 40
0
 40
0
 40
0
 40
1
 40
1
 40
1
 40
1
 10
124.902832
 20
94.875310
 30
0.0
 10
124.517517
 20
95.097772
 30
0.0
 10
124.042790
 20
95.097772
 30
0.0
 10
123.657476
 20
94.875310
 30
0.0
  0
SPLINE
  5
322
100
AcDbEntity
  8
Default
 62
7
100
AcDbSpline
 70
8
 71
3
 72
8
 73
4
 74
0
 40
0
 40
0
 40
0
 40
0
 40
1
 40
1
 40
1
 40
1
 10
123.657476
 20
94.875310
 30
0.0
 10
123.272161
 20
94.652849
 30
0.0
 10
123.034798
 20
94.241723
 30
0.0
 10
123.034798
 20
93.796800
 30
0.0
  0
SPLINE
  5
323
100
AcDbEntity
  8
Default
 62
7
100
AcDbSpline
 70
8
 71
3
 72
8
 73
4
 74
0
 40
0
 40
0
 40
0
 40
0
 40
1
 40
1
 40
1
 40
1
 10
123.034798
 20
93.796800
 30
0.0
 10
123.034798
 20
93.351877
 30
0.0
 10
123.272161
 20
92.940751
 30
0.0
 10
123.657476
 20
92.718290
 30
0.0
  0
SPLINE
  5
324
100
AcDbEntity
  8
Default
 62
7
100
AcDbSpline
 70
8
 71
3
 72
8
 73
4
 74
0
 40
0
 40
0
 40
0
 40
0
 40
1
 40
1
 40
1
 40
1
 10
123.657476
 20
92.718290
 30
0.0
 10
124.042790
 20
92.495828
 30
0.0
 10
124.517517
 20
92.495828
 30
0.0
 10
124.902832
 20
92.718290
 30
0.0
  0
SPLINE
  5
325
100
AcDbEntity
  8
Default
 62
7
100
AcDbSpline
 70
8
 71
3
 72
8
 73
4
 74
0
 40
0
 40
0
 40
0
 40
0
 40
1
 40
1
 40
1
 40
1
 10
124.902832
 20
92.718290
 30
0.0
 10
125.288147
 20
92.940751
 30
0.0
 10
125.525510
 20
93.351877
 30
0.0
 10
125.525510
 20
93.796800
 30
0.0
  0
LWPOLYLINE
  5
326
100
AcDbEntity
  8
Default
 62
7
100
AcDbPolyline
 90
2
 70
0
 10
89.069571
 20
61.540076
 30
0.0
 10
89.610769
 20
61.332716
 30
0.0
  0
SPLINE
  5
327
100
AcDbEntity
  8
Default
 62
7
100
AcDbSpline
 70
8
 71
3
 72
8
 73
4
 74
0
 40
0
 40
0
 40
0
 40
0
 40
1
 40
1
 40
1
 40
1
 10
150.432629
 20
93.796800
 30
0.0
 10
150.432629
 20
94.241723
 30
0.0
 10
150.195265
 20
94.652849
 30
0.0
 10
149.809951
 20
94.875310
 30
0.0
  0
SPLINE
  5
328
100
AcDbEntity
  8
Default
 62
7
100
AcDbSpline
 70
8
 71
3
 72
8
 73
4
 74
0
 40
0
 40
0
 40
0
 40
0
 40
1
 40
1
 40
1
 40
1
 10
149.809951
 20
94.875310
 30
0.0
 10
149.424636
 20
95.097772
 30
0.0
 10
148.949909
 20
95.097772
 30
0.0
 10
148.564594
 20
94.875310
 30
0.0
  0
SPLINE
  5
329
100
AcDbEntity
  8
Default
 62
7
100
AcDbSpline
 70
8
 71
3
 72
8
 73
4
 74
0
 40
0
 40
0
 40
0
 40
0
 40
1
 40
1
 40
1
 40
1
 10
148.564594
 20
94.875310
 30
0.0
 10
148.179280
 20
94.652849
 30
0.0
 10
147.941916
 20
94.241723
 30
0.0
 10
147.941916
 20
93.796800
 30
0.0
  0
SPLINE
  5
32a
100
AcDbEntity
  8
Default
 62
7
100
AcDbSpline
 70
8
 71
3
 72
8
 73
4
 74
0
 40
0
 40
0
 40
0
 40
0
 40
1
 40
1
 40
1
 40
1
 10
147.941916
 20
93.796800
 30
0.0
 10
147.941916
 20
93.351877
 30
0.0
 10
148.179280
 20
92.940751
 30
0.0
 10
148.564594
 20
92.718290
 30
0.0
  0
SPLINE
  5
32b
100
AcDbEntity
  8
Default
 62
7
100
AcDbSpline
 70
8
 71
3
 72
8
 73
4
 74
0
 40
0
 40
0
 40
0
 40
0
 40
1
 40
1
 40
1
 40
1
 10
148.564594
 20
92.718290
 30
0.0
 10
148.949909
 20
92.495828
 30
0.0
 10
149.424636
 20
92.495828
 30
0.0
 10
149.809951
 20
92.718290
 30
0.0
  0
SPLINE
  5
32c
100
AcDbEntity
  8
Default
 62
7
100
AcDbSpline
 70
8
 71
3
 72
8
 73
4
 74
0
 40
0
 40
0
 40
0
 40
0
 40
1
 40
1
 40
1
 40
1
 10
149.809951
 20
92.718290
 30
0.0
 10
150.195265
 20
92.940751
 30
0.0
 10
150.432629
 20
93.351877
 30
0.0
 10
150.432629
 20
93.796800
 30
0.0
  0
LWPOLYLINE
  5
32d
100
AcDbEntity
  8
Default
 62
7
100
AcDbPolyline
 90
2
 70
0
 10
125.525510
 20
93.796800
 30
0.0
 10
125.525510
 20
93.796800
 30
0.0
  0
SPLINE
  5
32e
100
AcDbEntity
  8
Default
 62
7
100
AcDbSpline
 70
8
 71
3
 72
8
 73
4
 74
0
 40
0
 40
0
 40
0
 40
0
 40
1
 40
1
 40
1
 40
1
 10
137.979068
 20
93.796800
 30
0.0
 10
137.979668
 20
94.242122
 30
0.0
 10
137.742436
 20
94.653873
 30
0.0
 10
137.356875
 20
94.876707
 30
0.0
  0
SPLINE
  5
32f
100
AcDbEntity
  8
Default
 62
7
100
AcDbSpline
 70
8
 71
3
 72
8
 73
4
 74
0
 40
0
 40
0
 40
0
 40
0
 40
1
 40
1
 40
1
 40
1
 10
137.356875
 20
94.876707
 30
0.0
 10
136.971315
 20
95.099541
 30
0.0
 10
136.496112
 20
95.099541
 30
0.0
 10
136.110551
 20
94.876707
 30
0.0
  0
SPLINE
  5
330
100
AcDbEntity
  8
Default
 62
7
100
AcDbSpline
 70
8
 71
3
 72
8
 73
4
 74
0
 40
0
 40
0
 40
0
 40
0
 40
1
 40
1
 40
1
 40
1
 10
136.110551
 20
94.876707
 30
0.0
 10
135.724991
 20
94.653873
 30
0.0
 10
135.487759
 20
94.242122
 30
0.0
 10
135.488358
 20
93.796800
 30
0.0
  0
SPLINE
  5
331
100
AcDbEntity
  8
Default
 62
7
100
AcDbSpline
 70
8
 71
3
 72
8
 73
4
 74
0
 40
0
 40
0
 40
0
 40
0
 40
1
 40
1
 40
1
 40
1
 10
135.488358
 20
93.796800
 30
0.0
 10
135.487759
 20
93.351478
 30
0.0
 10
135.724991
 20
92.939727
 30
0.0
 10
136.110551
 20
92.716893
 30
0.0
  0
SPLINE
  5
332
100
AcDbEntity
  8
Default
 62
7
100
AcDbSpline
 70
8
 71
3
 72
8
 73
4
 74
0
 40
0
 40
0
 40
0
 40
0
 40
1
 40
1
 40
1
 40
1
 10
136.110551
 20
92.716893
 30
0.0
 10
136.496112
 20
92.494058
 30
0.0
 10
136.971315
 20
92.494058
 30
0.0
 10
137.356875
 20
92.716893
 30
0.0
  0
SPLINE
  5
333
100
AcDbEntity
  8
Default
 62
7
100
AcDbSpline
 70
8
 71
3
 72
8
 73
4
 74
0
 40
0
 40
0
 40
0
 40
0
 40
1
 40
1
 40
1
 40
1
 10
137.356875
 20
92.716893
 30
0.0
 10
137.742436
 20
92.939727
 30
0.0
 10
137.979668
 20
93.351478
 30
0.0
 10
137.979068
 20
93.796800
 30
0.0
  0
LWPOLYLINE
  5
334
100
AcDbEntity
  8
Default
 62
7
100
AcDbPolyline
 90
2
 70
0
 10
150.432629
 20
93.796800
 30
0.0
 10
150.432629
 20
93.796800
 30
0.0
  0
SPLINE
  5
335
100
AcDbEntity
  8
Default
 62
7
100
AcDbSpline
 70
8
 71
3
 72
8
 73
4
 74
0
 40
0
 40
0
 40
0
 40
0
 40
1
 40
1
 40
1
 40
1
 10
125.525510
 20
106.250361
 30
0.0
 10
125.525510
 20
106.695284
 30
0.0
 10
125.288147
 20
107.106409
 30
0.0
 10
124.902832
 20
107.328871
 30
0.0
  0
SPLINE
  5
336
100
AcDbEntity
  8
Default
 62
7
100
AcDbSpline
 70
8
 71
3
 72
8
 73
4
 74
0
 40
0
 40
0
 40
0
 40
0
 40
1
 40
1
 40
1
 40
1
 10
124.902832
 20
107.328871
 30
0.0
 10
124.517517
 20
107.551332
 30
0.0
 10
124.042790
 20
107.551332
 30
0.0
 10
123.657476
 20
107.328871
 30
0.0
  0
SPLINE
  5
337
100
AcDbEntity
  8
Default
 62
7
100
AcDbSpline
 70
8
 71
3
 72
8
 73
4
 74
0
 40
0
 40
0
 40
0
 40
0
 40
1
 40
1
 40
1
 40
1
 10
123.657476
 20
107.328871
 30
0.0
 10
123.272161
 20
107.106409
 30
0.0
 10
123.034798
 20
106.695284
 30
0.0
 10
123.034798
 20
106.250361
 30
0.0
  0
SPLINE
  5
338
100
AcDbEntity
  8
Default
 62
7
100
AcDbSpline
 70
8
 71
3
 72
8
 73
4
 74
0
 40
0
 40
0
 40
0
 40
0
 40
1
 40
1
 40
1
 40
1
 10
123.034798
 20
106.250361
 30
0.0
 10
123.034798
 20
105.805438
 30
0.0
 10
123.272161
 20
105.394312
 30
0.0
 10
123.657476
 20
105.171850
 30
0.0
  0
SPLINE
  5
339
100
AcDbEntity
  8
Default
 62
7
100
AcDbSpline
 70
8
 71
3
 72
8
 73
4
 74
0
 40
0
 40
0
 40
0
 40
0
 40
1
 40
1
 40
1
 40
1
 10
123.657476
 20
105.171850
 30
0.0
 10
124.042790
 20
104.949389
 30
0.0
 10
124.517517
 20
104.949389
 30
0.0
 10
124.902832
 20
105.171850
 30
0.0
  0
SPLINE
  5
33a
100
AcDbEntity
  8
Default
 62
7
100
AcDbSpline
 70
8
 71
3
 72
8
 73
4
 74
0
 40
0
 40
0
 40
0
 40
0
 40
1
 40
1
 40
1
 40
1
 10
124.902832
 20
105.171850
 30
0.0
 10
125.288147
 20
105.394312
 30
0.0
 10
125.525510
 20
105.805438
 30
0.0
 10
125.525510
 20
106.250361
 30
0.0
  0
LWPOLYLINE
  5
33b
100
AcDbEntity
  8
Default
 62
7
100
AcDbPolyline
 90
2
 70
0
 10
137.979068
 20
93.796800
 30
0.0
 10
137.979068
 20
93.796800
 30
0.0
  0
SPLINE
  5
33c
100
AcDbEntity
  8
Default
 62
7
100
AcDbSpline
 70
8
 71
3
 72
8
 73
4
 74
0
 40
0
 40
0
 40
0
 40
0
 40
1
 40
1
 40
1
 40
1
 10
150.432629
 20
106.250361
 30
0.0
 10
150.432629
 20
106.695284
 30
0.0
 10
150.195265
 20
107.106409
 30
0.0
 10
149.809951
 20
107.328871
 30
0.0
  0
SPLINE
  5
33d
100
AcDbEntity
  8
Default
 62
7
100
AcDbSpline
 70
8
 71
3
 72
8
 73
4
 74
0
 40
0
 40
0
 40
0
 40
0
 40
1
 40
1
 40
1
 40
1
 10
149.809951
 20
107.328871
 30
0.0
 10
149.424636
 20
107.551332
 30
0.0
 10
148.949909
 20
107.551332
 30
0.0
 10
148.564594
 20
107.328871
 30
0.0
  0
SPLINE
  5
33e
100
AcDbEntity
  8
Default
 62
7
100
AcDbSpline
 70
8
 71
3
 72
8
 73
4
 74
0
 40
0
 40
0
 40
0
 40
0
 40
1
 40
1
 40
1
 40
1
 10
148.564594
 20
107.328871
 30
0.0
 10
148.179280
 20
107.106409
 30
0.0
 10
147.941916
 20
106.695284
 30
0.0
 10
147.941916
 20
106.250361
 30
0.0
  0
SPLINE
  5
33f
100
AcDbEntity
  8
Default
 62
7
100
AcDbSpline
 70
8
 71
3
 72
8
 73
4
 74
0
 40
0
 40
0
 40
0
 40
0
 40
1
 40
1
 40
1
 40
1
 10
147.941916
 20
106.250361
 30
0.0
 10
147.941916
 20
105.805438
 30
0.0
 10
148.179280
 20
105.394312
 30
0.0
 10
148.564594
 20
105.171850
 30
0.0
  0
SPLINE
  5
340
100
AcDbEntity
  8
Default
 62
7
100
AcDbSpline
 70
8
 71
3
 72
8
 73
4
 74
0
 40
0
 40
0
 40
0
 40
0
 40
1
 40
1
 40
1
 40
1
 10
148.564594
 20
105.171850
 30
0.0
 10
148.949909
 20
104.949389
 30
0.0
 10
149.424636
 20
104.949389
 30
0.0
 10
149.809951
 20
105.171850
 30
0.0
  0
SPLINE
  5
341
100
AcDbEntity
  8
Default
 62
7
100
AcDbSpline
 70
8
 71
3
 72
8
 73
4
 74
0
 40
0
 40
0
 40
0
 40
0
 40
1
 40
1
 40
1
 40
1
 10
149.809951
 20
105.171850
 30
0.0
 10
150.195265
 20
105.394312
 30
0.0
 10
150.432629
 20
105.805438
 30
0.0
 10
150.432629
 20
106.250361
 30
0.0
  0
LWPOLYLINE
  5
342
100
AcDbEntity
  8
Default
 62
7
100
AcDbPolyline
 90
2
 70
0
 10
125.525510
 20
106.250361
 30
0.0
 10
125.525510
 20
106.250361
 30
0.0
  0
SPLINE
  5
343
100
AcDbEntity
  8
Default
 62
7
100
AcDbSpline
 70
8
 71
3
 72
8
 73
4
 74
0
 40
0
 40
0
 40
0
 40
0
 40
1
 40
1
 40
1
 40
1
 10
137.979068
 20
106.250361
 30
0.0
 10
137.979668
 20
106.695682
 30
0.0
 10
137.742436
 20
107.107434
 30
0.0
 10
137.356875
 20
107.330268
 30
0.0
  0
SPLINE
  5
344
100
AcDbEntity
  8
Default
 62
7
100
AcDbSpline
 70
8
 71
3
 72
8
 73
4
 74
0
 40
0
 40
0
 40
0
 40
0
 40
1
 40
1
 40
1
 40
1
 10
137.356875
 20
107.330268
 30
0.0
 10
136.971315
 20
107.553102
 30
0.0
 10
136.496112
 20
107.553102
 30
0.0
 10
136.110551
 20
107.330268
 30
0.0
  0
SPLINE
  5
345
100
AcDbEntity
  8
Default
 62
7
100
AcDbSpline
 70
8
 71
3
 72
8
 73
4
 74
0
 40
0
 40
0
 40
0
 40
0
 40
1
 40
1
 40
1
 40
1
 10
136.110551
 20
107.330268
 30
0.0
 10
135.724991
 20
107.107434
 30
0.0
 10
135.487759
 20
106.695682
 30
0.0
 10
135.488358
 20
106.250361
 30
0.0
  0
SPLINE
  5
346
100
AcDbEntity
  8
Default
 62
7
100
AcDbSpline
 70
8
 71
3
 72
8
 73
4
 74
0
 40
0
 40
0
 40
0
 40
0
 40
1
 40
1
 40
1
 40
1
 10
135.488358
 20
106.250361
 30
0.0
 10
135.487759
 20
105.805039
 30
0.0
 10
135.724991
 20
105.393288
 30
0.0
 10
136.110551
 20
105.170453
 30
0.0
  0
SPLINE
  5
347
100
AcDbEntity
  8
Default
 62
7
100
AcDbSpline
 70
8
 71
3
 72
8
 73
4
 74
0
 40
0
 40
0
 40
0
 40
0
 40
1
 40
1
 40
1
 40
1
 10
136.110551
 20
105.170453
 30
0.0
 10
136.496112
 20
104.947619
 30
0.0
 10
136.971315
 20
104.947619
 30
0.0
 10
137.356875
 20
105.170453
 30
0.0
  0
SPLINE
  5
348
100
AcDbEntity
  8
Default
 62
7
100
AcDbSpline
 70
8
 71
3
 72
8
 73
4
 74
0
 40
0
 40
0
 40
0
 40
0
 40
1
 40
1
 40
1
 40
1
 10
137.356875
 20
105.170453
 30
0.0
 10
137.742436
 20
105.393288
 30
0.0
 10
137.979668
 20
105.805039
 30
0.0
 10
137.979068
 20
106.250361
 30
0.0
  0
LWPOLYLINE
  5
349
100
AcDbEntity
  8
Default
 62
7
100
AcDbPolyline
 90
2
 70
0
 10
150.432629
 20
106.250361
 30
0.0
 10
150.432629
 20
106.250361
 30
0.0
  0
SPLINE
  5
34a
100
AcDbEntity
  8
Default
 62
7
100
AcDbSpline
 70
8
 71
3
 72
8
 73
4
 74
0
 40
0
 40
0
 40
0
 40
0
 40
1
 40
1
 40
1
 40
1
 10
150.432629
 20
118.703919
 30
0.0
 10
150.432629
 20
119.148842
 30
0.0
 10
150.195265
 20
119.559967
 30
0.0
 10
149.809951
 20
119.782429
 30
0.0
  0
SPLINE
  5
34b
100
AcDbEntity
  8
Default
 62
7
100
AcDbSpline
 70
8
 71
3
 72
8
 73
4
 74
0
 40
0
 40
0
 40
0
 40
0
 40
1
 40
1
 40
1
 40
1
 10
149.809951
 20
119.782429
 30
0.0
 10
149.424636
 20
120.004890
 30
0.0
 10
148.949909
 20
120.004890
 30
0.0
 10
148.564594
 20
119.782429
 30
0.0
  0
SPLINE
  5
34c
100
AcDbEntity
  8
Default
 62
7
100
AcDbSpline
 70
8
 71
3
 72
8
 73
4
 74
0
 40
0
 40
0
 40
0
 40
0
 40
1
 40
1
 40
1
 40
1
 10
148.564594
 20
119.782429
 30
0.0
 10
148.179280
 20
119.559967
 30
0.0
 10
147.941916
 20
119.148842
 30
0.0
 10
147.941916
 20
118.703919
 30
0.0
  0
SPLINE
  5
34d
100
AcDbEntity
  8
Default
 62
7
100
AcDbSpline
 70
8
 71
3
 72
8
 73
4
 74
0
 40
0
 40
0
 40
0
 40
0
 40
1
 40
1
 40
1
 40
1
 10
147.941916
 20
118.703919
 30
0.0
 10
147.941916
 20
118.258996
 30
0.0
 10
148.179280
 20
117.847870
 30
0.0
 10
148.564594
 20
117.625408
 30
0.0
  0
SPLINE
  5
34e
100
AcDbEntity
  8
Default
 62
7
100
AcDbSpline
 70
8
 71
3
 72
8
 73
4
 74
0
 40
0
 40
0
 40
0
 40
0
 40
1
 40
1
 40
1
 40
1
 10
148.564594
 20
117.625408
 30
0.0
 10
148.949909
 20
117.402947
 30
0.0
 10
149.424636
 20
117.402947
 30
0.0
 10
149.809951
 20
117.625408
 30
0.0
  0
SPLINE
  5
34f
100
AcDbEntity
  8
Default
 62
7
100
AcDbSpline
 70
8
 71
3
 72
8
 73
4
 74
0
 40
0
 40
0
 40
0
 40
0
 40
1
 40
1
 40
1
 40
1
 10
149.809951
 20
117.625408
 30
0.0
 10
150.195265
 20
117.847870
 30
0.0
 10
150.432629
 20
118.258996
 30
0.0
 10
150.432629
 20
118.703919
 30
0.0
  0
LWPOLYLINE
  5
350
100
AcDbEntity
  8
Default
 62
7
100
AcDbPolyline
 90
2
 70
0
 10
137.979068
 20
106.250361
 30
0.0
 10
137.979068
 20
106.250361
 30
0.0
  0
SPLINE
  5
351
100
AcDbEntity
  8
Default
 62
7
100
AcDbSpline
 70
8
 71
3
 72
8
 73
4
 74
0
 40
0
 40
0
 40
0
 40
0
 40
1
 40
1
 40
1
 40
1
 10
137.979068
 20
118.703919
 30
0.0
 10
137.979668
 20
119.149240
 30
0.0
 10
137.742436
 20
119.560992
 30
0.0
 10
137.356875
 20
119.783826
 30
0.0
  0
SPLINE
  5
352
100
AcDbEntity
  8
Default
 62
7
100
AcDbSpline
 70
8
 71
3
 72
8
 73
4
 74
0
 40
0
 40
0
 40
0
 40
0
 40
1
 40
1
 40
1
 40
1
 10
137.356875
 20
119.783826
 30
0.0
 10
136.971315
 20
120.006660
 30
0.0
 10
136.496112
 20
120.006660
 30
0.0
 10
136.110551
 20
119.783826
 30
0.0
  0
SPLINE
  5
353
100
AcDbEntity
  8
Default
 62
7
100
AcDbSpline
 70
8
 71
3
 72
8
 73
4
 74
0
 40
0
 40
0
 40
0
 40
0
 40
1
 40
1
 40
1
 40
1
 10
136.110551
 20
119.783826
 30
0.0
 10
135.724991
 20
119.560992
 30
0.0
 10
135.487759
 20
119.149240
 30
0.0
 10
135.488358
 20
118.703919
 30
0.0
  0
SPLINE
  5
354
100
AcDbEntity
  8
Default
 62
7
100
AcDbSpline
 70
8
 71
3
 72
8
 73
4
 74
0
 40
0
 40
0
 40
0
 40
0
 40
1
 40
1
 40
1
 40
1
 10
135.488358
 20
118.703919
 30
0.0
 10
135.487759
 20
118.258597
 30
0.0
 10
135.724991
 20
117.846845
 30
0.0
 10
136.110551
 20
117.624011
 30
0.0
  0
SPLINE
  5
355
100
AcDbEntity
  8
Default
 62
7
100
AcDbSpline
 70
8
 71
3
 72
8
 73
4
 74
0
 40
0
 40
0
 40
0
 40
0
 40
1
 40
1
 40
1
 40
1
 10
136.110551
 20
117.624011
 30
0.0
 10
136.496112
 20
117.401177
 30
0.0
 10
136.971315
 20
117.401177
 30
0.0
 10
137.356875
 20
117.624011
 30
0.0
  0
SPLINE
  5
356
100
AcDbEntity
  8
Default
 62
7
100
AcDbSpline
 70
8
 71
3
 72
8
 73
4
 74
0
 40
0
 40
0
 40
0
 40
0
 40
1
 40
1
 40
1
 40
1
 10
137.356875
 20
117.624011
 30
0.0
 10
137.742436
 20
117.846845
 30
0.0
 10
137.979668
 20
118.258597
 30
0.0
 10
137.979068
 20
118.703919
 30
0.0
  0
LWPOLYLINE
  5
357
100
AcDbEntity
  8
Default
 62
7
100
AcDbPolyline
 90
2
 70
0
 10
150.432629
 20
118.703919
 30
0.0
 10
150.432629
 20
118.703919
 30
0.0
  0
SPLINE
  5
358
100
AcDbEntity
  8
Default
 62
7
100
AcDbSpline
 70
8
 71
3
 72
8
 73
4
 74
0
 40
0
 40
0
 40
0
 40
0
 40
1
 40
1
 40
1
 40
1
 10
125.525510
 20
118.703919
 30
0.0
 10
125.525510
 20
119.148841
 30
0.0
 10
125.288147
 20
119.559967
 30
0.0
 10
124.902832
 20
119.782429
 30
0.0
  0
SPLINE
  5
359
100
AcDbEntity
  8
Default
 62
7
100
AcDbSpline
 70
8
 71
3
 72
8
 73
4
 74
0
 40
0
 40
0
 40
0
 40
0
 40
1
 40
1
 40
1
 40
1
 10
124.902832
 20
119.782429
 30
0.0
 10
124.517517
 20
120.004890
 30
0.0
 10
124.042790
 20
120.004890
 30
0.0
 10
123.657476
 20
119.782429
 30
0.0
  0
SPLINE
  5
35a
100
AcDbEntity
  8
Default
 62
7
100
AcDbSpline
 70
8
 71
3
 72
8
 73
4
 74
0
 40
0
 40
0
 40
0
 40
0
 40
1
 40
1
 40
1
 40
1
 10
123.657476
 20
119.782429
 30
0.0
 10
123.272161
 20
119.559967
 30
0.0
 10
123.034798
 20
119.148841
 30
0.0
 10
123.034798
 20
118.703919
 30
0.0
  0
SPLINE
  5
35b
100
AcDbEntity
  8
Default
 62
7
100
AcDbSpline
 70
8
 71
3
 72
8
 73
4
 74
0
 40
0
 40
0
 40
0
 40
0
 40
1
 40
1
 40
1
 40
1
 10
123.034798
 20
118.703919
 30
0.0
 10
123.034798
 20
118.258996
 30
0.0
 10
123.272161
 20
117.847870
 30
0.0
 10
123.657476
 20
117.625408
 30
0.0
  0
SPLINE
  5
35c
100
AcDbEntity
  8
Default
 62
7
100
AcDbSpline
 70
8
 71
3
 72
8
 73
4
 74
0
 40
0
 40
0
 40
0
 40
0
 40
1
 40
1
 40
1
 40
1
 10
123.657476
 20
117.625408
 30
0.0
 10
124.042790
 20
117.402947
 30
0.0
 10
124.517517
 20
117.402947
 30
0.0
 10
124.902832
 20
117.625408
 30
0.0
  0
SPLINE
  5
35d
100
AcDbEntity
  8
Default
 62
7
100
AcDbSpline
 70
8
 71
3
 72
8
 73
4
 74
0
 40
0
 40
0
 40
0
 40
0
 40
1
 40
1
 40
1
 40
1
 10
124.902832
 20
117.625408
 30
0.0
 10
125.288147
 20
117.847870
 30
0.0
 10
125.525510
 20
118.258996
 30
0.0
 10
125.525510
 20
118.703919
 30
0.0
  0
LWPOLYLINE
  5
35e
100
AcDbEntity
  8
Default
 62
7
100
AcDbPolyline
 90
2
 70
0
 10
137.979068
 20
118.703919
 30
0.0
 10
137.979068
 20
118.703919
 30
0.0
  0
LWPOLYLINE
  5
35f
100
AcDbEntity
  8
Default
 62
7
100
AcDbPolyline
 90
2
 70
0
 10
125.525510
 20
118.703919
 30
0.0
 10
125.525510
 20
118.703919
 30
0.0
  0
LWPOLYLINE
  5
360
100
AcDbEntity
  8
Default
 62
7
100
AcDbPolyline
 90
2
 70
0
 10
155.414051
 20
119.671311
 30
0.0
 10
155.414051
 20
124.930697
 30
0.0
  0
LWPOLYLINE
  5
361
100
AcDbEntity
  8
Default
 62
7
100
AcDbPolyline
 90
2
 70
0
 10
159.150121
 20
119.671311
 30
0.0
 10
155.414051
 20
119.671311
 30
0.0
  0
LWPOLYLINE
  5
362
100
AcDbEntity
  8
Default
 62
7
100
AcDbPolyline
 90
2
 70
0
 10
159.150121
 20
114.178358
 30
0.0
 10
159.150121
 20
119.671311
 30
0.0
  0
LWPOLYLINE
  5
363
100
AcDbEntity
  8
Default
 62
7
100
AcDbPolyline
 90
2
 70
0
 10
155.414051
 20
114.178358
 30
0.0
 10
159.150121
 20
114.178358
 30
0.0
  0
LWPOLYLINE
  5
364
100
AcDbEntity
  8
Default
 62
7
100
AcDbPolyline
 90
2
 70
0
 10
155.414051
 20
108.996812
 30
0.0
 10
155.414051
 20
114.178358
 30
0.0
  0
LWPOLYLINE
  5
365
100
AcDbEntity
  8
Default
 62
7
100
AcDbPolyline
 90
2
 70
0
 10
159.150121
 20
108.996812
 30
0.0
 10
155.414051
 20
108.996812
 30
0.0
  0
LWPOLYLINE
  5
366
100
AcDbEntity
  8
Default
 62
7
100
AcDbPolyline
 90
2
 70
0
 10
159.150121
 20
103.503901
 30
0.0
 10
159.150121
 20
108.996812
 30
0.0
  0
LWPOLYLINE
  5
367
100
AcDbEntity
  8
Default
 62
7
100
AcDbPolyline
 90
2
 70
0
 10
155.414051
 20
103.503901
 30
0.0
 10
159.150121
 20
103.503901
 30
0.0
  0
LWPOLYLINE
  5
368
100
AcDbEntity
  8
Default
 62
7
100
AcDbPolyline
 90
2
 70
0
 10
155.414051
 20
98.322360
 30
0.0
 10
155.414051
 20
103.503901
 30
0.0
  0
LWPOLYLINE
  5
369
100
AcDbEntity
  8
Default
 62
7
100
AcDbPolyline
 90
2
 70
0
 10
159.150121
 20
98.322360
 30
0.0
 10
155.414051
 20
98.322360
 30
0.0
  0
LWPOLYLINE
  5
36a
100
AcDbEntity
  8
Default
 62
7
100
AcDbPolyline
 90
2
 70
0
 10
159.150121
 20
92.829407
 30
0.0
 10
159.150121
 20
98.322360
 30
0.0
  0
LWPOLYLINE
  5
36b
100
AcDbEntity
  8
Default
 62
7
100
AcDbPolyline
 90
2
 70
0
 10
155.414051
 20
92.829407
 30
0.0
 10
159.150121
 20
92.829407
 30
0.0
  0
LWPOLYLINE
  5
36c
100
AcDbEntity
  8
Default
 62
7
100
AcDbPolyline
 90
2
 70
0
 10
155.414051
 20
87.570021
 30
0.0
 10
155.414051
 20
92.829407
 30
0.0
  0
LWPOLYLINE
  5
36d
100
AcDbEntity
  8
Default
 62
7
100
AcDbPolyline
 90
2
 70
0
 10
150.154665
 20
87.570021
 30
0.0
 10
155.414051
 20
87.570021
 30
0.0
  0
LWPOLYLINE
  5
36e
100
AcDbEntity
  8
Default
 62
7
100
AcDbPolyline
 90
2
 70
0
 10
150.154665
 20
83.833952
 30
0.0
 10
150.154665
 20
87.570021
 30
0.0
  0
LWPOLYLINE
  5
36f
100
AcDbEntity
  8
Default
 62
7
100
AcDbPolyline
 90
2
 70
0
 10
144.661712
 20
83.833952
 30
0.0
 10
150.154665
 20
83.833952
 30
0.0
  0
LWPOLYLINE
  5
370
100
AcDbEntity
  8
Default
 62
7
100
AcDbPolyline
 90
2
 70
0
 10
144.661712
 20
87.570021
 30
0.0
 10
144.661712
 20
83.833952
 30
0.0
  0
LWPOLYLINE
  5
371
100
AcDbEntity
  8
Default
 62
7
100
AcDbPolyline
 90
2
 70
0
 10
139.480166
 20
87.570021
 30
0.0
 10
144.661712
 20
87.570021
 30
0.0
  0
LWPOLYLINE
  5
372
100
AcDbEntity
  8
Default
 62
7
100
AcDbPolyline
 90
2
 70
0
 10
139.480166
 20
83.833952
 30
0.0
 10
139.480166
 20
87.570021
 30
0.0
  0
LWPOLYLINE
  5
373
100
AcDbEntity
  8
Default
 62
7
100
AcDbPolyline
 90
2
 70
0
 10
133.987255
 20
83.833952
 30
0.0
 10
139.480166
 20
83.833952
 30
0.0
  0
LWPOLYLINE
  5
374
100
AcDbEntity
  8
Default
 62
7
100
AcDbPolyline
 90
2
 70
0
 10
133.987255
 20
87.570021
 30
0.0
 10
133.987255
 20
83.833952
 30
0.0
  0
LWPOLYLINE
  5
375
100
AcDbEntity
  8
Default
 62
7
100
AcDbPolyline
 90
2
 70
0
 10
128.805714
 20
87.570021
 30
0.0
 10
133.987255
 20
87.570021
 30
0.0
  0
LWPOLYLINE
  5
376
100
AcDbEntity
  8
Default
 62
7
100
AcDbPolyline
 90
2
 70
0
 10
128.805714
 20
83.833952
 30
0.0
 10
128.805714
 20
87.570021
 30
0.0
  0
LWPOLYLINE
  5
377
100
AcDbEntity
  8
Default
 62
7
100
AcDbPolyline
 90
2
 70
0
 10
123.312761
 20
83.833952
 30
0.0
 10
128.805714
 20
83.833952
 30
0.0
  0
LWPOLYLINE
  5
378
100
AcDbEntity
  8
Default
 62
7
100
AcDbPolyline
 90
2
 70
0
 10
123.312761
 20
87.570021
 30
0.0
 10
123.312761
 20
83.833952
 30
0.0
  0
LWPOLYLINE
  5
379
100
AcDbEntity
  8
Default
 62
7
100
AcDbPolyline
 90
2
 70
0
 10
118.053375
 20
87.570021
 30
0.0
 10
123.312761
 20
87.570021
 30
0.0
  0
LWPOLYLINE
  5
37a
100
AcDbEntity
  8
Default
 62
7
100
AcDbPolyline
 90
2
 70
0
 10
118.053375
 20
92.829407
 30
0.0
 10
118.053375
 20
87.570021
 30
0.0
  0
LWPOLYLINE
  5
37b
100
AcDbEntity
  8
Default
 62
7
100
AcDbPolyline
 90
2
 70
0
 10
114.317306
 20
92.829407
 30
0.0
 10
118.053375
 20
92.829407
 30
0.0
  0
LWPOLYLINE
  5
37c
100
AcDbEntity
  8
Default
 62
7
100
AcDbPolyline
 90
2
 70
0
 10
114.317306
 20
98.322360
 30
0.0
 10
114.317306
 20
92.829407
 30
0.0
  0
LWPOLYLINE
  5
37d
100
AcDbEntity
  8
Default
 62
7
100
AcDbPolyline
 90
2
 70
0
 10
118.053375
 20
98.322360
 30
0.0
 10
114.317306
 20
98.322360
 30
0.0
  0
LWPOLYLINE
  5
37e
100
AcDbEntity
  8
Default
 62
7
100
AcDbPolyline
 90
2
 70
0
 10
118.053375
 20
103.503907
 30
0.0
 10
118.053375
 20
98.322360
 30
0.0
  0
LWPOLYLINE
  5
37f
100
AcDbEntity
  8
Default
 62
7
100
AcDbPolyline
 90
2
 70
0
 10
114.317306
 20
103.503907
 30
0.0
 10
118.053375
 20
103.503907
 30
0.0
  0
LWPOLYLINE
  5
380
100
AcDbEntity
  8
Default
 62
7
100
AcDbPolyline
 90
2
 70
0
 10
114.317306
 20
108.996817
 30
0.0
 10
114.317306
 20
103.503907
 30
0.0
  0
LWPOLYLINE
  5
381
100
AcDbEntity
  8
Default
 62
7
100
AcDbPolyline
 90
2
 70
0
 10
118.053375
 20
108.996817
 30
0.0
 10
114.317306
 20
108.996817
 30
0.0
  0
LWPOLYLINE
  5
382
100
AcDbEntity
  8
Default
 62
7
100
AcDbPolyline
 90
2
 70
0
 10
118.053375
 20
114.178358
 30
0.0
 10
118.053375
 20
108.996817
 30
0.0
  0
LWPOLYLINE
  5
383
100
AcDbEntity
  8
Default
 62
7
100
AcDbPolyline
 90
2
 70
0
 10
114.317306
 20
114.178358
 30
0.0
 10
118.053375
 20
114.178358
 30
0.0
  0
LWPOLYLINE
  5
384
100
AcDbEntity
  8
Default
 62
7
100
AcDbPolyline
 90
2
 70
0
 10
114.317306
 20
119.671311
 30
0.0
 10
114.317306
 20
114.178358
 30
0.0
  0
LWPOLYLINE
  5
385
100
AcDbEntity
  8
Default
 62
7
100
AcDbPolyline
 90
2
 70
0
 10
118.053375
 20
119.671311
 30
0.0
 10
114.317306
 20
119.671311
 30
0.0
  0
LWPOLYLINE
  5
386
100
AcDbEntity
  8
Default
 62
7
100
AcDbPolyline
 90
2
 70
0
 10
118.053375
 20
124.930697
 30
0.0
 10
118.053375
 20
119.671311
 30
0.0
  0
LWPOLYLINE
  5
387
100
AcDbEntity
  8
Default
 62
7
100
AcDbPolyline
 90
2
 70
0
 10
123.312761
 20
124.930697
 30
0.0
 10
118.053375
 20
124.930697
 30
0.0
  0
LWPOLYLINE
  5
388
100
AcDbEntity
  8
Default
 62
7
100
AcDbPolyline
 90
2
 70
0
 10
123.312761
 20
128.666767
 30
0.0
 10
123.312761
 20
124.930697
 30
0.0
  0
LWPOLYLINE
  5
389
100
AcDbEntity
  8
Default
 62
7
100
AcDbPolyline
 90
2
 70
0
 10
128.805714
 20
128.666767
 30
0.0
 10
123.312761
 20
128.666767
 30
0.0
  0
LWPOLYLINE
  5
38a
100
AcDbEntity
  8
Default
 62
7
100
AcDbPolyline
 90
2
 70
0
 10
128.805714
 20
124.930697
 30
0.0
 10
128.805714
 20
128.666767
 30
0.0
  0
LWPOLYLINE
  5
38b
100
AcDbEntity
  8
Default
 62
7
100
AcDbPolyline
 90
2
 70
0
 10
133.987261
 20
124.930697
 30
0.0
 10
128.805714
 20
124.930697
 30
0.0
  0
LWPOLYLINE
  5
38c
100
AcDbEntity
  8
Default
 62
7
100
AcDbPolyline
 90
2
 70
0
 10
133.987261
 20
128.666767
 30
0.0
 10
133.987261
 20
124.930697
 30
0.0
  0
LWPOLYLINE
  5
38d
100
AcDbEntity
  8
Default
 62
7
100
AcDbPolyline
 90
2
 70
0
 10
139.480171
 20
128.666767
 30
0.0
 10
133.987261
 20
128.666767
 30
0.0
  0
LWPOLYLINE
  5
38e
100
AcDbEntity
  8
Default
 62
7
100
AcDbPolyline
 90
2
 70
0
 10
139.480171
 20
124.930697
 30
0.0
 10
139.480171
 20
128.666767
 30
0.0
  0
LWPOLYLINE
  5
38f
100
AcDbEntity
  8
Default
 62
7
100
AcDbPolyline
 90
2
 70
0
 10
144.661712
 20
124.930697
 30
0.0
 10
139.480171
 20
124.930697
 30
0.0
  0
LWPOLYLINE
  5
390
100
AcDbEntity
  8
Default
 62
7
100
AcDbPolyline
 90
2
 70
0
 10
144.661712
 20
128.666767
 30
0.0
 10
144.661712
 20
124.930697
 30
0.0
  0
LWPOLYLINE
  5
391
100
AcDbEntity
  8
Default
 62
7
100
AcDbPolyline
 90
2
 70
0
 10
150.154665
 20
128.666767
 30
0.0
 10
144.661712
 20
128.666767
 30
0.0
  0
LWPOLYLINE
  5
392
100
AcDbEntity
  8
Default
 62
7
100
AcDbPolyline
 90
2
 70
0
 10
150.154665
 20
124.930697
 30
0.0
 10
150.154665
 20
128.666767
 30
0.0
  0
SPLINE
  5
393
100
AcDbEntity
  8
Default
 62
7
100
AcDbSpline
 70
8
 71
3
 72
8
 73
4
 74
0
 40
0
 40
0
 40
0
 40
0
 40
1
 40
1
 40
1
 40
1
 10
125.074496
 20
30.182114
 30
0.0
 10
125.074496
 20
30.627037
 30
0.0
 10
124.837133
 20
31.038163
 30
0.0
 10
124.451818
 20
31.260625
 30
0.0
  0
SPLINE
  5
394
100
AcDbEntity
  8
Default
 62
7
100
AcDbSpline
 70
8
 71
3
 72
8
 73
4
 74
0
 40
0
 40
0
 40
0
 40
0
 40
1
 40
1
 40
1
 40
1
 10
124.451818
 20
31.260625
 30
0.0
 10
124.066503
 20
31.483086
 30
0.0
 10
123.591776
 20
31.483086
 30
0.0
 10
123.206462
 20
31.260625
 30
0.0
  0
SPLINE
  5
395
100
AcDbEntity
  8
Default
 62
7
100
AcDbSpline
 70
8
 71
3
 72
8
 73
4
 74
0
 40
0
 40
0
 40
0
 40
0
 40
1
 40
1
 40
1
 40
1
 10
123.206462
 20
31.260625
 30
0.0
 10
122.821147
 20
31.038163
 30
0.0
 10
122.583784
 20
30.627037
 30
0.0
 10
122.583784
 20
30.182114
 30
0.0
  0
SPLINE
  5
396
100
AcDbEntity
  8
Default
 62
7
100
AcDbSpline
 70
8
 71
3
 72
8
 73
4
 74
0
 40
0
 40
0
 40
0
 40
0
 40
1
 40
1
 40
1
 40
1
 10
122.583784
 20
30.182114
 30
0.0
 10
122.583784
 20
29.737191
 30
0.0
 10
122.821147
 20
29.326066
 30
0.0
 10
123.206462
 20
29.103604
 30
0.0
  0
SPLINE
  5
397
100
AcDbEntity
  8
Default
 62
7
100
AcDbSpline
 70
8
 71
3
 72
8
 73
4
 74
0
 40
0
 40
0
 40
0
 40
0
 40
1
 40
1
 40
1
 40
1
 10
123.206462
 20
29.103604
 30
0.0
 10
123.591776
 20
28.881143
 30
0.0
 10
124.066503
 20
28.881143
 30
0.0
 10
124.451818
 20
29.103604
 30
0.0
  0
SPLINE
  5
398
100
AcDbEntity
  8
Default
 62
7
100
AcDbSpline
 70
8
 71
3
 72
8
 73
4
 74
0
 40
0
 40
0
 40
0
 40
0
 40
1
 40
1
 40
1
 40
1
 10
124.451818
 20
29.103604
 30
0.0
 10
124.837133
 20
29.326066
 30
0.0
 10
125.074496
 20
29.737191
 30
0.0
 10
125.074496
 20
30.182114
 30
0.0
  0
LWPOLYLINE
  5
399
100
AcDbEntity
  8
Default
 62
7
100
AcDbPolyline
 90
2
 70
0
 10
155.414051
 20
124.930697
 30
0.0
 10
150.154665
 20
124.930697
 30
0.0
  0
SPLINE
  5
39a
100
AcDbEntity
  8
Default
 62
7
100
AcDbSpline
 70
8
 71
3
 72
8
 73
4
 74
0
 40
0
 40
0
 40
0
 40
0
 40
1
 40
1
 40
1
 40
1
 10
149.981615
 20
30.182114
 30
0.0
 10
149.982215
 20
30.627436
 30
0.0
 10
149.744982
 20
31.039187
 30
0.0
 10
149.359422
 20
31.262022
 30
0.0
  0
SPLINE
  5
39b
100
AcDbEntity
  8
Default
 62
7
100
AcDbSpline
 70
8
 71
3
 72
8
 73
4
 74
0
 40
0
 40
0
 40
0
 40
0
 40
1
 40
1
 40
1
 40
1
 10
149.359422
 20
31.262022
 30
0.0
 10
148.973862
 20
31.484856
 30
0.0
 10
148.498658
 20
31.484856
 30
0.0
 10
148.113098
 20
31.262022
 30
0.0
  0
SPLINE
  5
39c
100
AcDbEntity
  8
Default
 62
7
100
AcDbSpline
 70
8
 71
3
 72
8
 73
4
 74
0
 40
0
 40
0
 40
0
 40
0
 40
1
 40
1
 40
1
 40
1
 10
148.113098
 20
31.262022
 30
0.0
 10
147.727538
 20
31.039187
 30
0.0
 10
147.490305
 20
30.627436
 30
0.0
 10
147.490905
 20
30.182114
 30
0.0
  0
SPLINE
  5
39d
100
AcDbEntity
  8
Default
 62
7
100
AcDbSpline
 70
8
 71
3
 72
8
 73
4
 74
0
 40
0
 40
0
 40
0
 40
0
 40
1
 40
1
 40
1
 40
1
 10
147.490905
 20
30.182114
 30
0.0
 10
147.490305
 20
29.736793
 30
0.0
 10
147.727538
 20
29.325041
 30
0.0
 10
148.113098
 20
29.102207
 30
0.0
  0
SPLINE
  5
39e
100
AcDbEntity
  8
Default
 62
7
100
AcDbSpline
 70
8
 71
3
 72
8
 73
4
 74
0
 40
0
 40
0
 40
0
 40
0
 40
1
 40
1
 40
1
 40
1
 10
148.113098
 20
29.102207
 30
0.0
 10
148.498658
 20
28.879373
 30
0.0
 10
148.973862
 20
28.879373
 30
0.0
 10
149.359422
 20
29.102207
 30
0.0
  0
SPLINE
  5
39f
100
AcDbEntity
  8
Default
 62
7
100
AcDbSpline
 70
8
 71
3
 72
8
 73
4
 74
0
 40
0
 40
0
 40
0
 40
0
 40
1
 40
1
 40
1
 40
1
 10
149.359422
 20
29.102207
 30
0.0
 10
149.744982
 20
29.325041
 30
0.0
 10
149.982215
 20
29.736793
 30
0.0
 10
149.981615
 20
30.182114
 30
0.0
  0
LWPOLYLINE
  5
3a0
100
AcDbEntity
  8
Default
 62
7
100
AcDbPolyline
 90
2
 70
0
 10
125.074496
 20
30.182114
 30
0.0
 10
125.074496
 20
30.182114
 30
0.0
  0
SPLINE
  5
3a1
100
AcDbEntity
  8
Default
 62
7
100
AcDbSpline
 70
8
 71
3
 72
8
 73
4
 74
0
 40
0
 40
0
 40
0
 40
0
 40
1
 40
1
 40
1
 40
1
 10
137.528057
 20
30.182114
 30
0.0
 10
137.528057
 20
30.627037
 30
0.0
 10
137.290693
 20
31.038163
 30
0.0
 10
136.905379
 20
31.260625
 30
0.0
  0
SPLINE
  5
3a2
100
AcDbEntity
  8
Default
 62
7
100
AcDbSpline
 70
8
 71
3
 72
8
 73
4
 74
0
 40
0
 40
0
 40
0
 40
0
 40
1
 40
1
 40
1
 40
1
 10
136.905379
 20
31.260625
 30
0.0
 10
136.520064
 20
31.483086
 30
0.0
 10
136.045337
 20
31.483086
 30
0.0
 10
135.660022
 20
31.260625
 30
0.0
  0
SPLINE
  5
3a3
100
AcDbEntity
  8
Default
 62
7
100
AcDbSpline
 70
8
 71
3
 72
8
 73
4
 74
0
 40
0
 40
0
 40
0
 40
0
 40
1
 40
1
 40
1
 40
1
 10
135.660022
 20
31.260625
 30
0.0
 10
135.274708
 20
31.038163
 30
0.0
 10
135.037344
 20
30.627037
 30
0.0
 10
135.037344
 20
30.182114
 30
0.0
  0
SPLINE
  5
3a4
100
AcDbEntity
  8
Default
 62
7
100
AcDbSpline
 70
8
 71
3
 72
8
 73
4
 74
0
 40
0
 40
0
 40
0
 40
0
 40
1
 40
1
 40
1
 40
1
 10
135.037344
 20
30.182114
 30
0.0
 10
135.037344
 20
29.737191
 30
0.0
 10
135.274708
 20
29.326066
 30
0.0
 10
135.660022
 20
29.103604
 30
0.0
  0
SPLINE
  5
3a5
100
AcDbEntity
  8
Default
 62
7
100
AcDbSpline
 70
8
 71
3
 72
8
 73
4
 74
0
 40
0
 40
0
 40
0
 40
0
 40
1
 40
1
 40
1
 40
1
 10
135.660022
 20
29.103604
 30
0.0
 10
136.045337
 20
28.881143
 30
0.0
 10
136.520064
 20
28.881143
 30
0.0
 10
136.905379
 20
29.103604
 30
0.0
  0
SPLINE
  5
3a6
100
AcDbEntity
  8
Default
 62
7
100
AcDbSpline
 70
8
 71
3
 72
8
 73
4
 74
0
 40
0
 40
0
 40
0
 40
0
 40
1
 40
1
 40
1
 40
1
 10
136.905379
 20
29.103604
 30
0.0
 10
137.290693
 20
29.326066
 30
0.0
 10
137.528057
 20
29.737191
 30
0.0
 10
137.528057
 20
30.182114
 30
0.0
  0
LWPOLYLINE
  5
3a7
100
AcDbEntity
  8
Default
 62
7
100
AcDbPolyline
 90
2
 70
0
 10
149.981615
 20
30.182114
 30
0.0
 10
149.981615
 20
30.182114
 30
0.0
  0
SPLINE
  5
3a8
100
AcDbEntity
  8
Default
 62
7
100
AcDbSpline
 70
8
 71
3
 72
8
 73
4
 74
0
 40
0
 40
0
 40
0
 40
0
 40
1
 40
1
 40
1
 40
1
 10
125.074496
 20
42.635675
 30
0.0
 10
125.074496
 20
43.080598
 30
0.0
 10
124.837133
 20
43.491724
 30
0.0
 10
124.451818
 20
43.714185
 30
0.0
  0
SPLINE
  5
3a9
100
AcDbEntity
  8
Default
 62
7
100
AcDbSpline
 70
8
 71
3
 72
8
 73
4
 74
0
 40
0
 40
0
 40
0
 40
0
 40
1
 40
1
 40
1
 40
1
 10
124.451818
 20
43.714185
 30
0.0
 10
124.066503
 20
43.936647
 30
0.0
 10
123.591776
 20
43.936647
 30
0.0
 10
123.206462
 20
43.714185
 30
0.0
  0
SPLINE
  5
3aa
100
AcDbEntity
  8
Default
 62
7
100
AcDbSpline
 70
8
 71
3
 72
8
 73
4
 74
0
 40
0
 40
0
 40
0
 40
0
 40
1
 40
1
 40
1
 40
1
 10
123.206462
 20
43.714185
 30
0.0
 10
122.821147
 20
43.491724
 30
0.0
 10
122.583784
 20
43.080598
 30
0.0
 10
122.583784
 20
42.635675
 30
0.0
  0
SPLINE
  5
3ab
100
AcDbEntity
  8
Default
 62
7
100
AcDbSpline
 70
8
 71
3
 72
8
 73
4
 74
0
 40
0
 40
0
 40
0
 40
0
 40
1
 40
1
 40
1
 40
1
 10
122.583784
 20
42.635675
 30
0.0
 10
122.583784
 20
42.190752
 30
0.0
 10
122.821147
 20
41.779626
 30
0.0
 10
123.206462
 20
41.557165
 30
0.0
  0
SPLINE
  5
3ac
100
AcDbEntity
  8
Default
 62
7
100
AcDbSpline
 70
8
 71
3
 72
8
 73
4
 74
0
 40
0
 40
0
 40
0
 40
0
 40
1
 40
1
 40
1
 40
1
 10
123.206462
 20
41.557165
 30
0.0
 10
123.591776
 20
41.334703
 30
0.0
 10
124.066503
 20
41.334703
 30
0.0
 10
124.451818
 20
41.557165
 30
0.0
  0
SPLINE
  5
3ad
100
AcDbEntity
  8
Default
 62
7
100
AcDbSpline
 70
8
 71
3
 72
8
 73
4
 74
0
 40
0
 40
0
 40
0
 40
0
 40
1
 40
1
 40
1
 40
1
 10
124.451818
 20
41.557165
 30
0.0
 10
124.837133
 20
41.779626
 30
0.0
 10
125.074496
 20
42.190752
 30
0.0
 10
125.074496
 20
42.635675
 30
0.0
  0
LWPOLYLINE
  5
3ae
100
AcDbEntity
  8
Default
 62
7
100
AcDbPolyline
 90
2
 70
0
 10
137.528057
 20
30.182114
 30
0.0
 10
137.528057
 20
30.182114
 30
0.0
  0
SPLINE
  5
3af
100
AcDbEntity
  8
Default
 62
7
100
AcDbSpline
 70
8
 71
3
 72
8
 73
4
 74
0
 40
0
 40
0
 40
0
 40
0
 40
1
 40
1
 40
1
 40
1
 10
149.981615
 20
42.635675
 30
0.0
 10
149.982215
 20
43.080997
 30
0.0
 10
149.744982
 20
43.492748
 30
0.0
 10
149.359422
 20
43.715582
 30
0.0
  0
SPLINE
  5
3b0
100
AcDbEntity
  8
Default
 62
7
100
AcDbSpline
 70
8
 71
3
 72
8
 73
4
 74
0
 40
0
 40
0
 40
0
 40
0
 40
1
 40
1
 40
1
 40
1
 10
149.359422
 20
43.715582
 30
0.0
 10
148.973862
 20
43.938417
 30
0.0
 10
148.498658
 20
43.938417
 30
0.0
 10
148.113098
 20
43.715582
 30
0.0
  0
SPLINE
  5
3b1
100
AcDbEntity
  8
Default
 62
7
100
AcDbSpline
 70
8
 71
3
 72
8
 73
4
 74
0
 40
0
 40
0
 40
0
 40
0
 40
1
 40
1
 40
1
 40
1
 10
148.113098
 20
43.715582
 30
0.0
 10
147.727538
 20
43.492748
 30
0.0
 10
147.490305
 20
43.080997
 30
0.0
 10
147.490905
 20
42.635675
 30
0.0
  0
SPLINE
  5
3b2
100
AcDbEntity
  8
Default
 62
7
100
AcDbSpline
 70
8
 71
3
 72
8
 73
4
 74
0
 40
0
 40
0
 40
0
 40
0
 40
1
 40
1
 40
1
 40
1
 10
147.490905
 20
42.635675
 30
0.0
 10
147.490305
 20
42.190353
 30
0.0
 10
147.727538
 20
41.778602
 30
0.0
 10
148.113098
 20
41.555768
 30
0.0
  0
SPLINE
  5
3b3
100
AcDbEntity
  8
Default
 62
7
100
AcDbSpline
 70
8
 71
3
 72
8
 73
4
 74
0
 40
0
 40
0
 40
0
 40
0
 40
1
 40
1
 40
1
 40
1
 10
148.113098
 20
41.555768
 30
0.0
 10
148.498658
 20
41.332934
 30
0.0
 10
148.973862
 20
41.332934
 30
0.0
 10
149.359422
 20
41.555768
 30
0.0
  0
SPLINE
  5
3b4
100
AcDbEntity
  8
Default
 62
7
100
AcDbSpline
 70
8
 71
3
 72
8
 73
4
 74
0
 40
0
 40
0
 40
0
 40
0
 40
1
 40
1
 40
1
 40
1
 10
149.359422
 20
41.555768
 30
0.0
 10
149.744982
 20
41.778602
 30
0.0
 10
149.982215
 20
42.190353
 30
0.0
 10
149.981615
 20
42.635675
 30
0.0
  0
LWPOLYLINE
  5
3b5
100
AcDbEntity
  8
Default
 62
7
100
AcDbPolyline
 90
2
 70
0
 10
125.074496
 20
42.635675
 30
0.0
 10
125.074496
 20
42.635675
 30
0.0
  0
SPLINE
  5
3b6
100
AcDbEntity
  8
Default
 62
7
100
AcDbSpline
 70
8
 71
3
 72
8
 73
4
 74
0
 40
0
 40
0
 40
0
 40
0
 40
1
 40
1
 40
1
 40
1
 10
137.528057
 20
42.635675
 30
0.0
 10
137.528057
 20
43.080598
 30
0.0
 10
137.290693
 20
43.491724
 30
0.0
 10
136.905379
 20
43.714185
 30
0.0
  0
SPLINE
  5
3b7
100
AcDbEntity
  8
Default
 62
7
100
AcDbSpline
 70
8
 71
3
 72
8
 73
4
 74
0
 40
0
 40
0
 40
0
 40
0
 40
1
 40
1
 40
1
 40
1
 10
136.905379
 20
43.714185
 30
0.0
 10
136.520064
 20
43.936647
 30
0.0
 10
136.045337
 20
43.936647
 30
0.0
 10
135.660022
 20
43.714185
 30
0.0
  0
SPLINE
  5
3b8
100
AcDbEntity
  8
Default
 62
7
100
AcDbSpline
 70
8
 71
3
 72
8
 73
4
 74
0
 40
0
 40
0
 40
0
 40
0
 40
1
 40
1
 40
1
 40
1
 10
135.660022
 20
43.714185
 30
0.0
 10
135.274708
 20
43.491724
 30
0.0
 10
135.037344
 20
43.080598
 30
0.0
 10
135.037344
 20
42.635675
 30
0.0
  0
SPLINE
  5
3b9
100
AcDbEntity
  8
Default
 62
7
100
AcDbSpline
 70
8
 71
3
 72
8
 73
4
 74
0
 40
0
 40
0
 40
0
 40
0
 40
1
 40
1
 40
1
 40
1
 10
135.037344
 20
42.635675
 30
0.0
 10
135.037344
 20
42.190752
 30
0.0
 10
135.274708
 20
41.779626
 30
0.0
 10
135.660022
 20
41.557165
 30
0.0
  0
SPLINE
  5
3ba
100
AcDbEntity
  8
Default
 62
7
100
AcDbSpline
 70
8
 71
3
 72
8
 73
4
 74
0
 40
0
 40
0
 40
0
 40
0
 40
1
 40
1
 40
1
 40
1
 10
135.660022
 20
41.557165
 30
0.0
 10
136.045337
 20
41.334703
 30
0.0
 10
136.520064
 20
41.334703
 30
0.0
 10
136.905379
 20
41.557165
 30
0.0
  0
SPLINE
  5
3bb
100
AcDbEntity
  8
Default
 62
7
100
AcDbSpline
 70
8
 71
3
 72
8
 73
4
 74
0
 40
0
 40
0
 40
0
 40
0
 40
1
 40
1
 40
1
 40
1
 10
136.905379
 20
41.557165
 30
0.0
 10
137.290693
 20
41.779626
 30
0.0
 10
137.528057
 20
42.190752
 30
0.0
 10
137.528057
 20
42.635675
 30
0.0
  0
LWPOLYLINE
  5
3bc
100
AcDbEntity
  8
Default
 62
7
100
AcDbPolyline
 90
2
 70
0
 10
149.981615
 20
42.635675
 30
0.0
 10
149.981615
 20
42.635675
 30
0.0
  0
SPLINE
  5
3bd
100
AcDbEntity
  8
Default
 62
7
100
AcDbSpline
 70
8
 71
3
 72
8
 73
4
 74
0
 40
0
 40
0
 40
0
 40
0
 40
1
 40
1
 40
1
 40
1
 10
149.981615
 20
55.089233
 30
0.0
 10
149.982215
 20
55.534555
 30
0.0
 10
149.744982
 20
55.946306
 30
0.0
 10
149.359422
 20
56.169140
 30
0.0
  0
SPLINE
  5
3be
100
AcDbEntity
  8
Default
 62
7
100
AcDbSpline
 70
8
 71
3
 72
8
 73
4
 74
0
 40
0
 40
0
 40
0
 40
0
 40
1
 40
1
 40
1
 40
1
 10
149.359422
 20
56.169140
 30
0.0
 10
148.973862
 20
56.391975
 30
0.0
 10
148.498658
 20
56.391975
 30
0.0
 10
148.113098
 20
56.169140
 30
0.0
  0
SPLINE
  5
3bf
100
AcDbEntity
  8
Default
 62
7
100
AcDbSpline
 70
8
 71
3
 72
8
 73
4
 74
0
 40
0
 40
0
 40
0
 40
0
 40
1
 40
1
 40
1
 40
1
 10
148.113098
 20
56.169140
 30
0.0
 10
147.727538
 20
55.946306
 30
0.0
 10
147.490305
 20
55.534555
 30
0.0
 10
147.490905
 20
55.089233
 30
0.0
  0
SPLINE
  5
3c0
100
AcDbEntity
  8
Default
 62
7
100
AcDbSpline
 70
8
 71
3
 72
8
 73
4
 74
0
 40
0
 40
0
 40
0
 40
0
 40
1
 40
1
 40
1
 40
1
 10
147.490905
 20
55.089233
 30
0.0
 10
147.490305
 20
54.643911
 30
0.0
 10
147.727538
 20
54.232160
 30
0.0
 10
148.113098
 20
54.009326
 30
0.0
  0
SPLINE
  5
3c1
100
AcDbEntity
  8
Default
 62
7
100
AcDbSpline
 70
8
 71
3
 72
8
 73
4
 74
0
 40
0
 40
0
 40
0
 40
0
 40
1
 40
1
 40
1
 40
1
 10
148.113098
 20
54.009326
 30
0.0
 10
148.498658
 20
53.786492
 30
0.0
 10
148.973862
 20
53.786492
 30
0.0
 10
149.359422
 20
54.009326
 30
0.0
  0
SPLINE
  5
3c2
100
AcDbEntity
  8
Default
 62
7
100
AcDbSpline
 70
8
 71
3
 72
8
 73
4
 74
0
 40
0
 40
0
 40
0
 40
0
 40
1
 40
1
 40
1
 40
1
 10
149.359422
 20
54.009326
 30
0.0
 10
149.744982
 20
54.232160
 30
0.0
 10
149.982215
 20
54.643911
 30
0.0
 10
149.981615
 20
55.089233
 30
0.0
  0
LWPOLYLINE
  5
3c3
100
AcDbEntity
  8
Default
 62
7
100
AcDbPolyline
 90
2
 70
0
 10
137.528057
 20
42.635675
 30
0.0
 10
137.528057
 20
42.635675
 30
0.0
  0
SPLINE
  5
3c4
100
AcDbEntity
  8
Default
 62
7
100
AcDbSpline
 70
8
 71
3
 72
8
 73
4
 74
0
 40
0
 40
0
 40
0
 40
0
 40
1
 40
1
 40
1
 40
1
 10
137.528057
 20
55.089233
 30
0.0
 10
137.528057
 20
55.534156
 30
0.0
 10
137.290693
 20
55.945282
 30
0.0
 10
136.905379
 20
56.167743
 30
0.0
  0
SPLINE
  5
3c5
100
AcDbEntity
  8
Default
 62
7
100
AcDbSpline
 70
8
 71
3
 72
8
 73
4
 74
0
 40
0
 40
0
 40
0
 40
0
 40
1
 40
1
 40
1
 40
1
 10
136.905379
 20
56.167743
 30
0.0
 10
136.520064
 20
56.390205
 30
0.0
 10
136.045337
 20
56.390205
 30
0.0
 10
135.660022
 20
56.167743
 30
0.0
  0
SPLINE
  5
3c6
100
AcDbEntity
  8
Default
 62
7
100
AcDbSpline
 70
8
 71
3
 72
8
 73
4
 74
0
 40
0
 40
0
 40
0
 40
0
 40
1
 40
1
 40
1
 40
1
 10
135.660022
 20
56.167743
 30
0.0
 10
135.274708
 20
55.945282
 30
0.0
 10
135.037344
 20
55.534156
 30
0.0
 10
135.037344
 20
55.089233
 30
0.0
  0
SPLINE
  5
3c7
100
AcDbEntity
  8
Default
 62
7
100
AcDbSpline
 70
8
 71
3
 72
8
 73
4
 74
0
 40
0
 40
0
 40
0
 40
0
 40
1
 40
1
 40
1
 40
1
 10
135.037344
 20
55.089233
 30
0.0
 10
135.037344
 20
54.644310
 30
0.0
 10
135.274708
 20
54.233184
 30
0.0
 10
135.660022
 20
54.010723
 30
0.0
  0
SPLINE
  5
3c8
100
AcDbEntity
  8
Default
 62
7
100
AcDbSpline
 70
8
 71
3
 72
8
 73
4
 74
0
 40
0
 40
0
 40
0
 40
0
 40
1
 40
1
 40
1
 40
1
 10
135.660022
 20
54.010723
 30
0.0
 10
136.045337
 20
53.788261
 30
0.0
 10
136.520064
 20
53.788261
 30
0.0
 10
136.905379
 20
54.010723
 30
0.0
  0
SPLINE
  5
3c9
100
AcDbEntity
  8
Default
 62
7
100
AcDbSpline
 70
8
 71
3
 72
8
 73
4
 74
0
 40
0
 40
0
 40
0
 40
0
 40
1
 40
1
 40
1
 40
1
 10
136.905379
 20
54.010723
 30
0.0
 10
137.290693
 20
54.233184
 30
0.0
 10
137.528057
 20
54.644310
 30
0.0
 10
137.528057
 20
55.089233
 30
0.0
  0
LWPOLYLINE
  5
3ca
100
AcDbEntity
  8
Default
 62
7
100
AcDbPolyline
 90
2
 70
0
 10
149.981615
 20
55.089233
 30
0.0
 10
149.981615
 20
55.089233
 30
0.0
  0
SPLINE
  5
3cb
100
AcDbEntity
  8
Default
 62
7
100
AcDbSpline
 70
8
 71
3
 72
8
 73
4
 74
0
 40
0
 40
0
 40
0
 40
0
 40
1
 40
1
 40
1
 40
1
 10
125.074496
 20
55.089233
 30
0.0
 10
125.074496
 20
55.534156
 30
0.0
 10
124.837133
 20
55.945282
 30
0.0
 10
124.451818
 20
56.167743
 30
0.0
  0
SPLINE
  5
3cc
100
AcDbEntity
  8
Default
 62
7
100
AcDbSpline
 70
8
 71
3
 72
8
 73
4
 74
0
 40
0
 40
0
 40
0
 40
0
 40
1
 40
1
 40
1
 40
1
 10
124.451818
 20
56.167743
 30
0.0
 10
124.066503
 20
56.390205
 30
0.0
 10
123.591776
 20
56.390205
 30
0.0
 10
123.206462
 20
56.167743
 30
0.0
  0
SPLINE
  5
3cd
100
AcDbEntity
  8
Default
 62
7
100
AcDbSpline
 70
8
 71
3
 72
8
 73
4
 74
0
 40
0
 40
0
 40
0
 40
0
 40
1
 40
1
 40
1
 40
1
 10
123.206462
 20
56.167743
 30
0.0
 10
122.821147
 20
55.945282
 30
0.0
 10
122.583784
 20
55.534156
 30
0.0
 10
122.583784
 20
55.089233
 30
0.0
  0
SPLINE
  5
3ce
100
AcDbEntity
  8
Default
 62
7
100
AcDbSpline
 70
8
 71
3
 72
8
 73
4
 74
0
 40
0
 40
0
 40
0
 40
0
 40
1
 40
1
 40
1
 40
1
 10
122.583784
 20
55.089233
 30
0.0
 10
122.583784
 20
54.644310
 30
0.0
 10
122.821147
 20
54.233184
 30
0.0
 10
123.206462
 20
54.010723
 30
0.0
  0
SPLINE
  5
3cf
100
AcDbEntity
  8
Default
 62
7
100
AcDbSpline
 70
8
 71
3
 72
8
 73
4
 74
0
 40
0
 40
0
 40
0
 40
0
 40
1
 40
1
 40
1
 40
1
 10
123.206462
 20
54.010723
 30
0.0
 10
123.591776
 20
53.788261
 30
0.0
 10
124.066503
 20
53.788261
 30
0.0
 10
124.451818
 20
54.010723
 30
0.0
  0
SPLINE
  5
3d0
100
AcDbEntity
  8
Default
 62
7
100
AcDbSpline
 70
8
 71
3
 72
8
 73
4
 74
0
 40
0
 40
0
 40
0
 40
0
 40
1
 40
1
 40
1
 40
1
 10
124.451818
 20
54.010723
 30
0.0
 10
124.837133
 20
54.233184
 30
0.0
 10
125.074496
 20
54.644310
 30
0.0
 10
125.074496
 20
55.089233
 30
0.0
  0
LWPOLYLINE
  5
3d1
100
AcDbEntity
  8
Default
 62
7
100
AcDbPolyline
 90
2
 70
0
 10
137.528057
 20
55.089233
 30
0.0
 10
137.528057
 20
55.089233
 30
0.0
  0
LWPOLYLINE
  5
3d2
100
AcDbEntity
  8
Default
 62
7
100
AcDbPolyline
 90
2
 70
0
 10
125.074496
 20
55.089233
 30
0.0
 10
125.074496
 20
55.089233
 30
0.0
  0
LWPOLYLINE
  5
3d3
100
AcDbEntity
  8
Default
 62
7
100
AcDbPolyline
 90
2
 70
0
 10
154.963040
 20
56.056626
 30
0.0
 10
154.963040
 20
61.316012
 30
0.0
  0
LWPOLYLINE
  5
3d4
100
AcDbEntity
  8
Default
 62
7
100
AcDbPolyline
 90
2
 70
0
 10
158.699107
 20
56.056626
 30
0.0
 10
154.963040
 20
56.056626
 30
0.0
  0
LWPOLYLINE
  5
3d5
100
AcDbEntity
  8
Default
 62
7
100
AcDbPolyline
 90
2
 70
0
 10
158.699107
 20
50.563673
 30
0.0
 10
158.699107
 20
56.056626
 30
0.0
  0
LWPOLYLINE
  5
3d6
100
AcDbEntity
  8
Default
 62
7
100
AcDbPolyline
 90
2
 70
0
 10
154.963040
 20
50.563673
 30
0.0
 10
158.699107
 20
50.563673
 30
0.0
  0
LWPOLYLINE
  5
3d7
100
AcDbEntity
  8
Default
 62
7
100
AcDbPolyline
 90
2
 70
0
 10
154.963040
 20
45.382126
 30
0.0
 10
154.963040
 20
50.563673
 30
0.0
  0
LWPOLYLINE
  5
3d8
100
AcDbEntity
  8
Default
 62
7
100
AcDbPolyline
 90
2
 70
0
 10
158.699107
 20
45.382126
 30
0.0
 10
154.963040
 20
45.382126
 30
0.0
  0
LWPOLYLINE
  5
3d9
100
AcDbEntity
  8
Default
 62
7
100
AcDbPolyline
 90
2
 70
0
 10
158.699107
 20
39.889216
 30
0.0
 10
158.699107
 20
45.382126
 30
0.0
  0
LWPOLYLINE
  5
3da
100
AcDbEntity
  8
Default
 62
7
100
AcDbPolyline
 90
2
 70
0
 10
154.963040
 20
39.889216
 30
0.0
 10
158.699107
 20
39.889216
 30
0.0
  0
LWPOLYLINE
  5
3db
100
AcDbEntity
  8
Default
 62
7
100
AcDbPolyline
 90
2
 70
0
 10
154.963040
 20
34.707675
 30
0.0
 10
154.963040
 20
39.889216
 30
0.0
  0
LWPOLYLINE
  5
3dc
100
AcDbEntity
  8
Default
 62
7
100
AcDbPolyline
 90
2
 70
0
 10
158.699107
 20
34.707675
 30
0.0
 10
154.963040
 20
34.707675
 30
0.0
  0
LWPOLYLINE
  5
3dd
100
AcDbEntity
  8
Default
 62
7
100
AcDbPolyline
 90
2
 70
0
 10
158.699107
 20
29.214722
 30
0.0
 10
158.699107
 20
34.707675
 30
0.0
  0
LWPOLYLINE
  5
3de
100
AcDbEntity
  8
Default
 62
7
100
AcDbPolyline
 90
2
 70
0
 10
154.963040
 20
29.214722
 30
0.0
 10
158.699107
 20
29.214722
 30
0.0
  0
LWPOLYLINE
  5
3df
100
AcDbEntity
  8
Default
 62
7
100
AcDbPolyline
 90
2
 70
0
 10
154.963040
 20
23.955335
 30
0.0
 10
154.963040
 20
29.214722
 30
0.0
  0
LWPOLYLINE
  5
3e0
100
AcDbEntity
  8
Default
 62
7
100
AcDbPolyline
 90
2
 70
0
 10
149.703651
 20
23.955335
 30
0.0
 10
154.963040
 20
23.955335
 30
0.0
  0
LWPOLYLINE
  5
3e1
100
AcDbEntity
  8
Default
 62
7
100
AcDbPolyline
 90
2
 70
0
 10
149.703651
 20
20.219266
 30
0.0
 10
149.703651
 20
23.955335
 30
0.0
  0
LWPOLYLINE
  5
3e2
100
AcDbEntity
  8
Default
 62
7
100
AcDbPolyline
 90
2
 70
0
 10
144.210698
 20
20.219266
 30
0.0
 10
149.703651
 20
20.219266
 30
0.0
  0
LWPOLYLINE
  5
3e3
100
AcDbEntity
  8
Default
 62
7
100
AcDbPolyline
 90
2
 70
0
 10
144.210698
 20
23.955335
 30
0.0
 10
144.210698
 20
20.219266
 30
0.0
  0
LWPOLYLINE
  5
3e4
100
AcDbEntity
  8
Default
 62
7
100
AcDbPolyline
 90
2
 70
0
 10
139.029152
 20
23.955335
 30
0.0
 10
144.210698
 20
23.955335
 30
0.0
  0
LWPOLYLINE
  5
3e5
100
AcDbEntity
  8
Default
 62
7
100
AcDbPolyline
 90
2
 70
0
 10
139.029152
 20
20.219266
 30
0.0
 10
139.029152
 20
23.955335
 30
0.0
  0
LWPOLYLINE
  5
3e6
100
AcDbEntity
  8
Default
 62
7
100
AcDbPolyline
 90
2
 70
0
 10
133.536241
 20
20.219266
 30
0.0
 10
139.029152
 20
20.219266
 30
0.0
  0
LWPOLYLINE
  5
3e7
100
AcDbEntity
  8
Default
 62
7
100
AcDbPolyline
 90
2
 70
0
 10
133.536241
 20
23.955335
 30
0.0
 10
133.536241
 20
20.219266
 30
0.0
  0
LWPOLYLINE
  5
3e8
100
AcDbEntity
  8
Default
 62
7
100
AcDbPolyline
 90
2
 70
0
 10
128.354703
 20
23.955335
 30
0.0
 10
133.536241
 20
23.955335
 30
0.0
  0
LWPOLYLINE
  5
3e9
100
AcDbEntity
  8
Default
 62
7
100
AcDbPolyline
 90
2
 70
0
 10
128.354703
 20
20.219266
 30
0.0
 10
128.354703
 20
23.955335
 30
0.0
  0
LWPOLYLINE
  5
3ea
100
AcDbEntity
  8
Default
 62
7
100
AcDbPolyline
 90
2
 70
0
 10
122.861750
 20
20.219266
 30
0.0
 10
128.354703
 20
20.219266
 30
0.0
  0
LWPOLYLINE
  5
3eb
100
AcDbEntity
  8
Default
 62
7
100
AcDbPolyline
 90
2
 70
0
 10
122.861750
 20
23.955335
 30
0.0
 10
122.861750
 20
20.219266
 30
0.0
  0
LWPOLYLINE
  5
3ec
100
AcDbEntity
  8
Default
 62
7
100
AcDbPolyline
 90
2
 70
0
 10
117.602361
 20
23.955335
 30
0.0
 10
122.861750
 20
23.955335
 30
0.0
  0
LWPOLYLINE
  5
3ed
100
AcDbEntity
  8
Default
 62
7
100
AcDbPolyline
 90
2
 70
0
 10
117.602361
 20
29.214722
 30
0.0
 10
117.602361
 20
23.955335
 30
0.0
  0
LWPOLYLINE
  5
3ee
100
AcDbEntity
  8
Default
 62
7
100
AcDbPolyline
 90
2
 70
0
 10
113.866295
 20
29.214722
 30
0.0
 10
117.602361
 20
29.214722
 30
0.0
  0
LWPOLYLINE
  5
3ef
100
AcDbEntity
  8
Default
 62
7
100
AcDbPolyline
 90
2
 70
0
 10
113.866295
 20
34.707675
 30
0.0
 10
113.866295
 20
29.214722
 30
0.0
  0
LWPOLYLINE
  5
3f0
100
AcDbEntity
  8
Default
 62
7
100
AcDbPolyline
 90
2
 70
0
 10
117.602361
 20
34.707675
 30
0.0
 10
113.866295
 20
34.707675
 30
0.0
  0
LWPOLYLINE
  5
3f1
100
AcDbEntity
  8
Default
 62
7
100
AcDbPolyline
 90
2
 70
0
 10
117.602361
 20
39.889221
 30
0.0
 10
117.602361
 20
34.707675
 30
0.0
  0
LWPOLYLINE
  5
3f2
100
AcDbEntity
  8
Default
 62
7
100
AcDbPolyline
 90
2
 70
0
 10
113.866295
 20
39.889221
 30
0.0
 10
117.602361
 20
39.889221
 30
0.0
  0
LWPOLYLINE
  5
3f3
100
AcDbEntity
  8
Default
 62
7
100
AcDbPolyline
 90
2
 70
0
 10
113.866295
 20
45.382132
 30
0.0
 10
113.866295
 20
39.889221
 30
0.0
  0
LWPOLYLINE
  5
3f4
100
AcDbEntity
  8
Default
 62
7
100
AcDbPolyline
 90
2
 70
0
 10
117.602361
 20
45.382132
 30
0.0
 10
113.866295
 20
45.382132
 30
0.0
  0
LWPOLYLINE
  5
3f5
100
AcDbEntity
  8
Default
 62
7
100
AcDbPolyline
 90
2
 70
0
 10
117.602361
 20
50.563673
 30
0.0
 10
117.602361
 20
45.382132
 30
0.0
  0
LWPOLYLINE
  5
3f6
100
AcDbEntity
  8
Default
 62
7
100
AcDbPolyline
 90
2
 70
0
 10
113.866295
 20
50.563673
 30
0.0
 10
117.602361
 20
50.563673
 30
0.0
  0
LWPOLYLINE
  5
3f7
100
AcDbEntity
  8
Default
 62
7
100
AcDbPolyline
 90
2
 70
0
 10
113.866295
 20
56.056626
 30
0.0
 10
113.866295
 20
50.563673
 30
0.0
  0
LWPOLYLINE
  5
3f8
100
AcDbEntity
  8
Default
 62
7
100
AcDbPolyline
 90
2
 70
0
 10
117.602361
 20
56.056626
 30
0.0
 10
113.866295
 20
56.056626
 30
0.0
  0
LWPOLYLINE
  5
3f9
100
AcDbEntity
  8
Default
 62
7
100
AcDbPolyline
 90
2
 70
0
 10
117.602361
 20
61.316012
 30
0.0
 10
117.602361
 20
56.056626
 30
0.0
  0
LWPOLYLINE
  5
3fa
100
AcDbEntity
  8
Default
 62
7
100
AcDbPolyline
 90
2
 70
0
 10
122.861750
 20
61.316012
 30
0.0
 10
117.602361
 20
61.316012
 30
0.0
  0
LWPOLYLINE
  5
3fb
100
AcDbEntity
  8
Default
 62
7
100
AcDbPolyline
 90
2
 70
0
 10
122.861750
 20
65.052081
 30
0.0
 10
122.861750
 20
61.316012
 30
0.0
  0
LWPOLYLINE
  5
3fc
100
AcDbEntity
  8
Default
 62
7
100
AcDbPolyline
 90
2
 70
0
 10
128.354703
 20
65.052081
 30
0.0
 10
122.861750
 20
65.052081
 30
0.0
  0
LWPOLYLINE
  5
3fd
100
AcDbEntity
  8
Default
 62
7
100
AcDbPolyline
 90
2
 70
0
 10
128.354703
 20
61.316012
 30
0.0
 10
128.354703
 20
65.052081
 30
0.0
  0
LWPOLYLINE
  5
3fe
100
AcDbEntity
  8
Default
 62
7
100
AcDbPolyline
 90
2
 70
0
 10
133.536249
 20
61.316012
 30
0.0
 10
128.354703
 20
61.316012
 30
0.0
  0
LWPOLYLINE
  5
3ff
100
AcDbEntity
  8
Default
 62
7
100
AcDbPolyline
 90
2
 70
0
 10
133.536249
 20
65.052081
 30
0.0
 10
133.536249
 20
61.316012
 30
0.0
  0
LWPOLYLINE
  5
400
100
AcDbEntity
  8
Default
 62
7
100
AcDbPolyline
 90
2
 70
0
 10
139.029157
 20
65.052081
 30
0.0
 10
133.536249
 20
65.052081
 30
0.0
  0
LWPOLYLINE
  5
401
100
AcDbEntity
  8
Default
 62
7
100
AcDbPolyline
 90
2
 70
0
 10
139.029157
 20
61.316012
 30
0.0
 10
139.029157
 20
65.052081
 30
0.0
  0
LWPOLYLINE
  5
402
100
AcDbEntity
  8
Default
 62
7
100
AcDbPolyline
 90
2
 70
0
 10
144.210698
 20
61.316012
 30
0.0
 10
139.029157
 20
61.316012
 30
0.0
  0
LWPOLYLINE
  5
403
100
AcDbEntity
  8
Default
 62
7
100
AcDbPolyline
 90
2
 70
0
 10
144.210698
 20
65.052081
 30
0.0
 10
144.210698
 20
61.316012
 30
0.0
  0
LWPOLYLINE
  5
404
100
AcDbEntity
  8
Default
 62
7
100
AcDbPolyline
 90
2
 70
0
 10
149.703651
 20
65.052081
 30
0.0
 10
144.210698
 20
65.052081
 30
0.0
  0
LWPOLYLINE
  5
405
100
AcDbEntity
  8
Default
 62
7
100
AcDbPolyline
 90
2
 70
0
 10
149.703651
 20
61.316012
 30
0.0
 10
149.703651
 20
65.052081
 30
0.0
  0
LWPOLYLINE
  5
406
100
AcDbEntity
  8
Default
 62
7
100
AcDbPolyline
 90
2
 70
0
 10
154.963040
 20
61.316012
 30
0.0
 10
149.703651
 20
61.316012
 30
0.0
  0
LWPOLYLINE
  5
407
100
AcDbEntity
  8
Default
 62
7
100
AcDbPolyline
 90
2
 70
0
 10
72.079823
 20
118.530343
 30
0.0
 10
68.343754
 20
118.530343
 30
0.0
  0
LWPOLYLINE
  5
408
100
AcDbEntity
  8
Default
 62
7
100
AcDbPolyline
 90
2
 70
0
 10
72.079823
 20
123.262696
 30
0.0
 10
72.079823
 20
118.530343
 30
0.0
  0
LWPOLYLINE
  5
409
100
AcDbEntity
  8
Default
 62
7
100
AcDbPolyline
 90
2
 70
0
 10
68.343754
 20
123.262696
 30
0.0
 10
72.079823
 20
123.262696
 30
0.0
  0
LWPOLYLINE
  5
40a
100
AcDbEntity
  8
Default
 62
7
100
AcDbPolyline
 90
2
 70
0
 10
68.343754
 20
129.240403
 30
0.0
 10
68.343754
 20
123.262696
 30
0.0
  0
LWPOLYLINE
  5
40b
100
AcDbEntity
  8
Default
 62
7
100
AcDbPolyline
 90
2
 70
0
 10
77.417046
 20
129.240403
 30
0.0
 10
68.343754
 20
129.240403
 30
0.0
  0
LWPOLYLINE
  5
40c
100
AcDbEntity
  8
Default
 62
7
100
AcDbPolyline
 90
2
 70
0
 10
77.417046
 20
125.504336
 30
0.0
 10
77.417046
 20
129.240403
 30
0.0
  0
LWPOLYLINE
  5
40d
100
AcDbEntity
  8
Default
 62
7
100
AcDbPolyline
 90
2
 70
0
 10
82.754328
 20
125.504336
 30
0.0
 10
77.417046
 20
125.504336
 30
0.0
  0
LWPOLYLINE
  5
40e
100
AcDbEntity
  8
Default
 62
7
100
AcDbPolyline
 90
2
 70
0
 10
82.754328
 20
129.240403
 30
0.0
 10
82.754328
 20
125.504336
 30
0.0
  0
LWPOLYLINE
  5
40f
100
AcDbEntity
  8
Default
 62
7
100
AcDbPolyline
 90
2
 70
0
 10
88.091540
 20
129.240403
 30
0.0
 10
82.754328
 20
129.240403
 30
0.0
  0
LWPOLYLINE
  5
410
100
AcDbEntity
  8
Default
 62
7
100
AcDbPolyline
 90
2
 70
0
 10
88.091540
 20
125.504336
 30
0.0
 10
88.091540
 20
129.240403
 30
0.0
  0
LWPOLYLINE
  5
411
100
AcDbEntity
  8
Default
 62
7
100
AcDbPolyline
 90
2
 70
0
 10
93.428780
 20
125.504336
 30
0.0
 10
88.091540
 20
125.504336
 30
0.0
  0
LWPOLYLINE
  5
412
100
AcDbEntity
  8
Default
 62
7
100
AcDbPolyline
 90
2
 70
0
 10
93.428780
 20
129.240403
 30
0.0
 10
93.428780
 20
125.504336
 30
0.0
  0
LWPOLYLINE
  5
413
100
AcDbEntity
  8
Default
 62
7
100
AcDbPolyline
 90
2
 70
0
 10
98.765994
 20
129.240403
 30
0.0
 10
93.428780
 20
129.240403
 30
0.0
  0
LWPOLYLINE
  5
414
100
AcDbEntity
  8
Default
 62
7
100
AcDbPolyline
 90
2
 70
0
 10
98.765994
 20
125.504336
 30
0.0
 10
98.765994
 20
129.240403
 30
0.0
  0
LWPOLYLINE
  5
415
100
AcDbEntity
  8
Default
 62
7
100
AcDbPolyline
 90
2
 70
0
 10
104.103279
 20
125.504336
 30
0.0
 10
98.765994
 20
125.504336
 30
0.0
  0
LWPOLYLINE
  5
416
100
AcDbEntity
  8
Default
 62
7
100
AcDbPolyline
 90
2
 70
0
 10
104.103279
 20
129.240403
 30
0.0
 10
104.103279
 20
125.504336
 30
0.0
  0
LWPOLYLINE
  5
417
100
AcDbEntity
  8
Default
 62
7
100
AcDbPolyline
 90
2
 70
0
 10
113.176568
 20
129.240403
 30
0.0
 10
104.103279
 20
129.240403
 30
0.0
  0
LWPOLYLINE
  5
418
100
AcDbEntity
  8
Default
 62
7
100
AcDbPolyline
 90
2
 70
0
 10
113.176568
 20
123.262696
 30
0.0
 10
113.176568
 20
129.240403
 30
0.0
  0
LWPOLYLINE
  5
419
100
AcDbEntity
  8
Default
 62
7
100
AcDbPolyline
 90
2
 70
0
 10
109.440499
 20
123.262696
 30
0.0
 10
113.176568
 20
123.262696
 30
0.0
  0
LWPOLYLINE
  5
41a
100
AcDbEntity
  8
Default
 62
7
100
AcDbPolyline
 90
2
 70
0
 10
109.440499
 20
118.530343
 30
0.0
 10
109.440499
 20
123.262696
 30
0.0
  0
LWPOLYLINE
  5
41b
100
AcDbEntity
  8
Default
 62
7
100
AcDbPolyline
 90
2
 70
0
 10
113.176568
 20
118.530343
 30
0.0
 10
109.440499
 20
118.530343
 30
0.0
  0
LWPOLYLINE
  5
41c
100
AcDbEntity
  8
Default
 62
7
100
AcDbPolyline
 90
2
 70
0
 10
113.176568
 20
113.797990
 30
0.0
 10
113.176568
 20
118.530343
 30
0.0
  0
LWPOLYLINE
  5
41d
100
AcDbEntity
  8
Default
 62
7
100
AcDbPolyline
 90
2
 70
0
 10
109.440499
 20
113.797990
 30
0.0
 10
113.176568
 20
113.797990
 30
0.0
  0
LWPOLYLINE
  5
41e
100
AcDbEntity
  8
Default
 62
7
100
AcDbPolyline
 90
2
 70
0
 10
109.440499
 20
109.065637
 30
0.0
 10
109.440499
 20
113.797990
 30
0.0
  0
LWPOLYLINE
  5
41f
100
AcDbEntity
  8
Default
 62
7
100
AcDbPolyline
 90
2
 70
0
 10
113.176568
 20
109.065637
 30
0.0
 10
109.440499
 20
109.065637
 30
0.0
  0
LWPOLYLINE
  5
420
100
AcDbEntity
  8
Default
 62
7
100
AcDbPolyline
 90
2
 70
0
 10
113.176568
 20
103.087928
 30
0.0
 10
113.176568
 20
109.065637
 30
0.0
  0
LWPOLYLINE
  5
421
100
AcDbEntity
  8
Default
 62
7
100
AcDbPolyline
 90
2
 70
0
 10
104.103279
 20
103.087928
 30
0.0
 10
113.176568
 20
103.087928
 30
0.0
  0
LWPOLYLINE
  5
422
100
AcDbEntity
  8
Default
 62
7
100
AcDbPolyline
 90
2
 70
0
 10
104.103279
 20
106.823997
 30
0.0
 10
104.103279
 20
103.087928
 30
0.0
  0
LWPOLYLINE
  5
423
100
AcDbEntity
  8
Default
 62
7
100
AcDbPolyline
 90
2
 70
0
 10
98.765994
 20
106.823997
 30
0.0
 10
104.103279
 20
106.823997
 30
0.0
  0
LWPOLYLINE
  5
424
100
AcDbEntity
  8
Default
 62
7
100
AcDbPolyline
 90
2
 70
0
 10
98.765994
 20
103.087928
 30
0.0
 10
98.765994
 20
106.823997
 30
0.0
  0
LWPOLYLINE
  5
425
100
AcDbEntity
  8
Default
 62
7
100
AcDbPolyline
 90
2
 70
0
 10
93.428785
 20
103.087928
 30
0.0
 10
98.765994
 20
103.087928
 30
0.0
  0
LWPOLYLINE
  5
426
100
AcDbEntity
  8
Default
 62
7
100
AcDbPolyline
 90
2
 70
0
 10
93.428782
 20
106.823997
 30
0.0
 10
93.428785
 20
103.087928
 30
0.0
  0
LWPOLYLINE
  5
427
100
AcDbEntity
  8
Default
 62
7
100
AcDbPolyline
 90
2
 70
0
 10
88.091543
 20
106.823997
 30
0.0
 10
93.428782
 20
106.823997
 30
0.0
  0
LWPOLYLINE
  5
428
100
AcDbEntity
  8
Default
 62
7
100
AcDbPolyline
 90
2
 70
0
 10
88.091545
 20
103.087928
 30
0.0
 10
88.091543
 20
106.823997
 30
0.0
  0
LWPOLYLINE
  5
429
100
AcDbEntity
  8
Default
 62
7
100
AcDbPolyline
 90
2
 70
0
 10
82.754328
 20
103.087928
 30
0.0
 10
88.091545
 20
103.087928
 30
0.0
  0
LWPOLYLINE
  5
42a
100
AcDbEntity
  8
Default
 62
7
100
AcDbPolyline
 90
2
 70
0
 10
82.754328
 20
106.823997
 30
0.0
 10
82.754328
 20
103.087928
 30
0.0
  0
LWPOLYLINE
  5
42b
100
AcDbEntity
  8
Default
 62
7
100
AcDbPolyline
 90
2
 70
0
 10
77.417046
 20
106.823997
 30
0.0
 10
82.754328
 20
106.823997
 30
0.0
  0
LWPOLYLINE
  5
42c
100
AcDbEntity
  8
Default
 62
7
100
AcDbPolyline
 90
2
 70
0
 10
77.417046
 20
103.087928
 30
0.0
 10
77.417046
 20
106.823997
 30
0.0
  0
LWPOLYLINE
  5
42d
100
AcDbEntity
  8
Default
 62
7
100
AcDbPolyline
 90
2
 70
0
 10
68.343754
 20
103.087928
 30
0.0
 10
77.417046
 20
103.087928
 30
0.0
  0
LWPOLYLINE
  5
42e
100
AcDbEntity
  8
Default
 62
7
100
AcDbPolyline
 90
2
 70
0
 10
68.343754
 20
109.065637
 30
0.0
 10
68.343754
 20
103.087928
 30
0.0
  0
LWPOLYLINE
  5
42f
100
AcDbEntity
  8
Default
 62
7
100
AcDbPolyline
 90
2
 70
0
 10
72.079823
 20
109.065637
 30
0.0
 10
68.343754
 20
109.065637
 30
0.0
  0
LWPOLYLINE
  5
430
100
AcDbEntity
  8
Default
 62
7
100
AcDbPolyline
 90
2
 70
0
 10
72.079823
 20
113.797990
 30
0.0
 10
72.079823
 20
109.065637
 30
0.0
  0
LWPOLYLINE
  5
431
100
AcDbEntity
  8
Default
 62
7
100
AcDbPolyline
 90
2
 70
0
 10
68.343754
 20
113.797990
 30
0.0
 10
72.079823
 20
113.797990
 30
0.0
  0
LWPOLYLINE
  5
432
100
AcDbEntity
  8
Default
 62
7
100
AcDbPolyline
 90
2
 70
0
 10
68.343754
 20
118.530343
 30
0.0
 10
68.343754
 20
113.797990
 30
0.0
  0
LWPOLYLINE
  5
433
100
AcDbEntity
  8
Default
 62
7
100
AcDbPolyline
 90
2
 70
0
 10
79.551958
 20
114.903243
 30
0.0
 10
79.370385
 20
114.912133
 30
0.0
  0
LWPOLYLINE
  5
434
100
AcDbEntity
  8
Default
 62
7
100
AcDbPolyline
 90
2
 70
0
 10
79.733531
 20
114.912133
 30
0.0
 10
79.551958
 20
114.903243
 30
0.0
  0
LWPOLYLINE
  5
435
100
AcDbEntity
  8
Default
 62
7
100
AcDbPolyline
 90
2
 70
0
 10
79.913361
 20
114.938859
 30
0.0
 10
79.733531
 20
114.912133
 30
0.0
  0
LWPOLYLINE
  5
436
100
AcDbEntity
  8
Default
 62
7
100
AcDbPolyline
 90
2
 70
0
 10
80.089702
 20
114.982993
 30
0.0
 10
79.913361
 20
114.938845
 30
0.0
  0
LWPOLYLINE
  5
437
100
AcDbEntity
  8
Default
 62
7
100
AcDbPolyline
 90
2
 70
0
 10
80.260878
 20
115.044204
 30
0.0
 10
80.089702
 20
114.982993
 30
0.0
  0
LWPOLYLINE
  5
438
100
AcDbEntity
  8
Default
 62
7
100
AcDbPolyline
 90
2
 70
0
 10
80.425202
 20
115.121976
 30
0.0
 10
80.260878
 20
115.044204
 30
0.0
  0
LWPOLYLINE
  5
439
100
AcDbEntity
  8
Default
 62
7
100
AcDbPolyline
 90
2
 70
0
 10
80.581121
 20
115.215440
 30
0.0
 10
80.425202
 20
115.121976
 30
0.0
  0
LWPOLYLINE
  5
43a
100
AcDbEntity
  8
Default
 62
7
100
AcDbPolyline
 90
2
 70
0
 10
80.727137
 20
115.323723
 30
0.0
 10
80.581121
 20
115.215440
 30
0.0
  0
LWPOLYLINE
  5
43b
100
AcDbEntity
  8
Default
 62
7
100
AcDbPolyline
 90
2
 70
0
 10
80.861825
 20
115.445770
 30
0.0
 10
80.727137
 20
115.323723
 30
0.0
  0
LWPOLYLINE
  5
43c
100
AcDbEntity
  8
Default
 62
7
100
AcDbPolyline
 90
2
 70
0
 10
80.983931
 20
115.580517
 30
0.0
 10
80.861825
 20
115.445770
 30
0.0
  0
LWPOLYLINE
  5
43d
100
AcDbEntity
  8
Default
 62
7
100
AcDbPolyline
 90
2
 70
0
 10
81.092214
 20
115.726533
 30
0.0
 10
80.983931
 20
115.580517
 30
0.0
  0
LWPOLYLINE
  5
43e
100
AcDbEntity
  8
Default
 62
7
100
AcDbPolyline
 90
2
 70
0
 10
81.185678
 20
115.882452
 30
0.0
 10
81.092214
 20
115.726533
 30
0.0
  0
LWPOLYLINE
  5
43f
100
AcDbEntity
  8
Default
 62
7
100
AcDbPolyline
 90
2
 70
0
 10
81.263388
 20
116.046776
 30
0.0
 10
81.185678
 20
115.882452
 30
0.0
  0
LWPOLYLINE
  5
440
100
AcDbEntity
  8
Default
 62
7
100
AcDbPolyline
 90
2
 70
0
 10
81.324661
 20
116.217953
 30
0.0
 10
81.263388
 20
116.046776
 30
0.0
  0
LWPOLYLINE
  5
441
100
AcDbEntity
  8
Default
 62
7
100
AcDbPolyline
 90
2
 70
0
 10
81.368809
 20
116.394293
 30
0.0
 10
81.324661
 20
116.217953
 30
0.0
  0
LWPOLYLINE
  5
442
100
AcDbEntity
  8
Default
 62
7
100
AcDbPolyline
 90
2
 70
0
 10
81.395521
 20
116.574123
 30
0.0
 10
81.368823
 20
116.394293
 30
0.0
  0
LWPOLYLINE
  5
443
100
AcDbEntity
  8
Default
 62
7
100
AcDbPolyline
 90
2
 70
0
 10
81.404439
 20
116.755696
 30
0.0
 10
81.395521
 20
116.574123
 30
0.0
  0
LWPOLYLINE
  5
444
100
AcDbEntity
  8
Default
 62
7
100
AcDbPolyline
 90
2
 70
0
 10
81.395521
 20
116.937269
 30
0.0
 10
81.404439
 20
116.755696
 30
0.0
  0
LWPOLYLINE
  5
445
100
AcDbEntity
  8
Default
 62
7
100
AcDbPolyline
 90
2
 70
0
 10
81.368823
 20
117.117098
 30
0.0
 10
81.395521
 20
116.937269
 30
0.0
  0
LWPOLYLINE
  5
446
100
AcDbEntity
  8
Default
 62
7
100
AcDbPolyline
 90
2
 70
0
 10
81.324661
 20
117.293442
 30
0.0
 10
81.368809
 20
117.117098
 30
0.0
  0
LWPOLYLINE
  5
447
100
AcDbEntity
  8
Default
 62
7
100
AcDbPolyline
 90
2
 70
0
 10
81.263388
 20
117.464616
 30
0.0
 10
81.324661
 20
117.293442
 30
0.0
  0
LWPOLYLINE
  5
448
100
AcDbEntity
  8
Default
 62
7
100
AcDbPolyline
 90
2
 70
0
 10
81.185678
 20
117.628939
 30
0.0
 10
81.263388
 20
117.464616
 30
0.0
  0
LWPOLYLINE
  5
449
100
AcDbEntity
  8
Default
 62
7
100
AcDbPolyline
 90
2
 70
0
 10
81.092214
 20
117.784859
 30
0.0
 10
81.185678
 20
117.628939
 30
0.0
  0
LWPOLYLINE
  5
44a
100
AcDbEntity
  8
Default
 62
7
100
AcDbPolyline
 90
2
 70
0
 10
80.983931
 20
117.930878
 30
0.0
 10
81.092214
 20
117.784859
 30
0.0
  0
LWPOLYLINE
  5
44b
100
AcDbEntity
  8
Default
 62
7
100
AcDbPolyline
 90
2
 70
0
 10
80.861825
 20
118.065563
 30
0.0
 10
80.983931
 20
117.930878
 30
0.0
  0
LWPOLYLINE
  5
44c
100
AcDbEntity
  8
Default
 62
7
100
AcDbPolyline
 90
2
 70
0
 10
80.727137
 20
118.187669
 30
0.0
 10
80.861825
 20
118.065563
 30
0.0
  0
LWPOLYLINE
  5
44d
100
AcDbEntity
  8
Default
 62
7
100
AcDbPolyline
 90
2
 70
0
 10
80.581121
 20
118.295952
 30
0.0
 10
80.727137
 20
118.187669
 30
0.0
  0
LWPOLYLINE
  5
44e
100
AcDbEntity
  8
Default
 62
7
100
AcDbPolyline
 90
2
 70
0
 10
80.425202
 20
118.389415
 30
0.0
 10
80.581121
 20
118.295952
 30
0.0
  0
LWPOLYLINE
  5
44f
100
AcDbEntity
  8
Default
 62
7
100
AcDbPolyline
 90
2
 70
0
 10
80.260878
 20
118.467128
 30
0.0
 10
80.425202
 20
118.389415
 30
0.0
  0
LWPOLYLINE
  5
450
100
AcDbEntity
  8
Default
 62
7
100
AcDbPolyline
 90
2
 70
0
 10
80.089702
 20
118.528399
 30
0.0
 10
80.260878
 20
118.467128
 30
0.0
  0
LWPOLYLINE
  5
451
100
AcDbEntity
  8
Default
 62
7
100
AcDbPolyline
 90
2
 70
0
 10
79.913361
 20
118.572547
 30
0.0
 10
80.089702
 20
118.528399
 30
0.0
  0
LWPOLYLINE
  5
452
100
AcDbEntity
  8
Default
 62
7
100
AcDbPolyline
 90
2
 70
0
 10
79.733531
 20
118.599259
 30
0.0
 10
79.913361
 20
118.572533
 30
0.0
  0
LWPOLYLINE
  5
453
100
AcDbEntity
  8
Default
 62
7
100
AcDbPolyline
 90
2
 70
0
 10
79.551958
 20
118.608149
 30
0.0
 10
79.733531
 20
118.599231
 30
0.0
  0
LWPOLYLINE
  5
454
100
AcDbEntity
  8
Default
 62
7
100
AcDbPolyline
 90
2
 70
0
 10
79.370385
 20
118.599231
 30
0.0
 10
79.551958
 20
118.608149
 30
0.0
  0
LWPOLYLINE
  5
455
100
AcDbEntity
  8
Default
 62
7
100
AcDbPolyline
 90
2
 70
0
 10
79.190556
 20
118.572533
 30
0.0
 10
79.370385
 20
118.599259
 30
0.0
  0
LWPOLYLINE
  5
456
100
AcDbEntity
  8
Default
 62
7
100
AcDbPolyline
 90
2
 70
0
 10
79.014215
 20
118.528399
 30
0.0
 10
79.190556
 20
118.572547
 30
0.0
  0
LWPOLYLINE
  5
457
100
AcDbEntity
  8
Default
 62
7
100
AcDbPolyline
 90
2
 70
0
 10
78.843038
 20
118.467128
 30
0.0
 10
79.014215
 20
118.528399
 30
0.0
  0
LWPOLYLINE
  5
458
100
AcDbEntity
  8
Default
 62
7
100
AcDbPolyline
 90
2
 70
0
 10
78.678715
 20
118.389415
 30
0.0
 10
78.843038
 20
118.467128
 30
0.0
  0
LWPOLYLINE
  5
459
100
AcDbEntity
  8
Default
 62
7
100
AcDbPolyline
 90
2
 70
0
 10
78.522795
 20
118.295952
 30
0.0
 10
78.678715
 20
118.389415
 30
0.0
  0
LWPOLYLINE
  5
45a
100
AcDbEntity
  8
Default
 62
7
100
AcDbPolyline
 90
2
 70
0
 10
78.376779
 20
118.187669
 30
0.0
 10
78.522795
 20
118.295952
 30
0.0
  0
LWPOLYLINE
  5
45b
100
AcDbEntity
  8
Default
 62
7
100
AcDbPolyline
 90
2
 70
0
 10
78.242029
 20
118.065563
 30
0.0
 10
78.376779
 20
118.187669
 30
0.0
  0
LWPOLYLINE
  5
45c
100
AcDbEntity
  8
Default
 62
7
100
AcDbPolyline
 90
2
 70
0
 10
78.119985
 20
117.930878
 30
0.0
 10
78.242029
 20
118.065563
 30
0.0
  0
LWPOLYLINE
  5
45d
100
AcDbEntity
  8
Default
 62
7
100
AcDbPolyline
 90
2
 70
0
 10
78.011702
 20
117.784859
 30
0.0
 10
78.119985
 20
117.930878
 30
0.0
  0
LWPOLYLINE
  5
45e
100
AcDbEntity
  8
Default
 62
7
100
AcDbPolyline
 90
2
 70
0
 10
77.918239
 20
117.628939
 30
0.0
 10
78.011702
 20
117.784859
 30
0.0
  0
LWPOLYLINE
  5
45f
100
AcDbEntity
  8
Default
 62
7
100
AcDbPolyline
 90
2
 70
0
 10
77.840467
 20
117.464616
 30
0.0
 10
77.918239
 20
117.628939
 30
0.0
  0
LWPOLYLINE
  5
460
100
AcDbEntity
  8
Default
 62
7
100
AcDbPolyline
 90
2
 70
0
 10
77.779255
 20
117.293442
 30
0.0
 10
77.840467
 20
117.464616
 30
0.0
  0
LWPOLYLINE
  5
461
100
AcDbEntity
  8
Default
 62
7
100
AcDbPolyline
 90
2
 70
0
 10
77.735107
 20
117.117098
 30
0.0
 10
77.779255
 20
117.293442
 30
0.0
  0
LWPOLYLINE
  5
462
100
AcDbEntity
  8
Default
 62
7
100
AcDbPolyline
 90
2
 70
0
 10
77.708395
 20
116.937269
 30
0.0
 10
77.735122
 20
117.117098
 30
0.0
  0
LWPOLYLINE
  5
463
100
AcDbEntity
  8
Default
 62
7
100
AcDbPolyline
 90
2
 70
0
 10
77.699505
 20
116.755696
 30
0.0
 10
77.708423
 20
116.937269
 30
0.0
  0
LWPOLYLINE
  5
464
100
AcDbEntity
  8
Default
 62
7
100
AcDbPolyline
 90
2
 70
0
 10
77.708423
 20
116.574123
 30
0.0
 10
77.699505
 20
116.755696
 30
0.0
  0
LWPOLYLINE
  5
465
100
AcDbEntity
  8
Default
 62
7
100
AcDbPolyline
 90
2
 70
0
 10
77.735122
 20
116.394293
 30
0.0
 10
77.708395
 20
116.574123
 30
0.0
  0
LWPOLYLINE
  5
466
100
AcDbEntity
  8
Default
 62
7
100
AcDbPolyline
 90
2
 70
0
 10
77.779255
 20
116.217953
 30
0.0
 10
77.735107
 20
116.394293
 30
0.0
  0
LWPOLYLINE
  5
467
100
AcDbEntity
  8
Default
 62
7
100
AcDbPolyline
 90
2
 70
0
 10
77.840467
 20
116.046776
 30
0.0
 10
77.779255
 20
116.217953
 30
0.0
  0
LWPOLYLINE
  5
468
100
AcDbEntity
  8
Default
 62
7
100
AcDbPolyline
 90
2
 70
0
 10
77.918239
 20
115.882452
 30
0.0
 10
77.840467
 20
116.046776
 30
0.0
  0
LWPOLYLINE
  5
469
100
AcDbEntity
  8
Default
 62
7
100
AcDbPolyline
 90
2
 70
0
 10
78.011702
 20
115.726533
 30
0.0
 10
77.918239
 20
115.882452
 30
0.0
  0
LWPOLYLINE
  5
46a
100
AcDbEntity
  8
Default
 62
7
100
AcDbPolyline
 90
2
 70
0
 10
78.119985
 20
115.580517
 30
0.0
 10
78.011702
 20
115.726533
 30
0.0
  0
LWPOLYLINE
  5
46b
100
AcDbEntity
  8
Default
 62
7
100
AcDbPolyline
 90
2
 70
0
 10
78.242029
 20
115.445770
 30
0.0
 10
78.119985
 20
115.580517
 30
0.0
  0
LWPOLYLINE
  5
46c
100
AcDbEntity
  8
Default
 62
7
100
AcDbPolyline
 90
2
 70
0
 10
78.376779
 20
115.323723
 30
0.0
 10
78.242029
 20
115.445770
 30
0.0
  0
LWPOLYLINE
  5
46d
100
AcDbEntity
  8
Default
 62
7
100
AcDbPolyline
 90
2
 70
0
 10
78.522795
 20
115.215440
 30
0.0
 10
78.376779
 20
115.323723
 30
0.0
  0
LWPOLYLINE
  5
46e
100
AcDbEntity
  8
Default
 62
7
100
AcDbPolyline
 90
2
 70
0
 10
78.678715
 20
115.121976
 30
0.0
 10
78.522795
 20
115.215440
 30
0.0
  0
LWPOLYLINE
  5
46f
100
AcDbEntity
  8
Default
 62
7
100
AcDbPolyline
 90
2
 70
0
 10
78.843038
 20
115.044204
 30
0.0
 10
78.678715
 20
115.121976
 30
0.0
  0
LWPOLYLINE
  5
470
100
AcDbEntity
  8
Default
 62
7
100
AcDbPolyline
 90
2
 70
0
 10
79.014215
 20
114.982993
 30
0.0
 10
78.843038
 20
115.044204
 30
0.0
  0
LWPOLYLINE
  5
471
100
AcDbEntity
  8
Default
 62
7
100
AcDbPolyline
 90
2
 70
0
 10
79.190556
 20
114.938845
 30
0.0
 10
79.014215
 20
114.982993
 30
0.0
  0
LWPOLYLINE
  5
472
100
AcDbEntity
  8
Default
 62
7
100
AcDbPolyline
 90
2
 70
0
 10
79.370385
 20
114.912133
 30
0.0
 10
79.190556
 20
114.938859
 30
0.0
  0
LWPOLYLINE
  5
473
100
AcDbEntity
  8
Default
 62
7
100
AcDbPolyline
 90
2
 70
0
 10
101.968364
 20
114.903243
 30
0.0
 10
101.786791
 20
114.912133
 30
0.0
  0
LWPOLYLINE
  5
474
100
AcDbEntity
  8
Default
 62
7
100
AcDbPolyline
 90
2
 70
0
 10
102.149937
 20
114.912133
 30
0.0
 10
101.968364
 20
114.903243
 30
0.0
  0
LWPOLYLINE
  5
475
100
AcDbEntity
  8
Default
 62
7
100
AcDbPolyline
 90
2
 70
0
 10
102.329767
 20
114.938859
 30
0.0
 10
102.149937
 20
114.912133
 30
0.0
  0
LWPOLYLINE
  5
476
100
AcDbEntity
  8
Default
 62
7
100
AcDbPolyline
 90
2
 70
0
 10
102.506110
 20
114.982993
 30
0.0
 10
102.329767
 20
114.938845
 30
0.0
  0
LWPOLYLINE
  5
477
100
AcDbEntity
  8
Default
 62
7
100
AcDbPolyline
 90
2
 70
0
 10
102.677284
 20
115.044204
 30
0.0
 10
102.506110
 20
114.982993
 30
0.0
  0
LWPOLYLINE
  5
478
100
AcDbEntity
  8
Default
 62
7
100
AcDbPolyline
 90
2
 70
0
 10
102.841608
 20
115.121976
 30
0.0
 10
102.677284
 20
115.044204
 30
0.0
  0
LWPOLYLINE
  5
479
100
AcDbEntity
  8
Default
 62
7
100
AcDbPolyline
 90
2
 70
0
 10
102.997527
 20
115.215440
 30
0.0
 10
102.841608
 20
115.121976
 30
0.0
  0
LWPOLYLINE
  5
47a
100
AcDbEntity
  8
Default
 62
7
100
AcDbPolyline
 90
2
 70
0
 10
103.143546
 20
115.323723
 30
0.0
 10
102.997527
 20
115.215440
 30
0.0
  0
LWPOLYLINE
  5
47b
100
AcDbEntity
  8
Default
 62
7
100
AcDbPolyline
 90
2
 70
0
 10
103.278231
 20
115.445770
 30
0.0
 10
103.143546
 20
115.323723
 30
0.0
  0
LWPOLYLINE
  5
47c
100
AcDbEntity
  8
Default
 62
7
100
AcDbPolyline
 90
2
 70
0
 10
103.400337
 20
115.580517
 30
0.0
 10
103.278231
 20
115.445770
 30
0.0
  0
LWPOLYLINE
  5
47d
100
AcDbEntity
  8
Default
 62
7
100
AcDbPolyline
 90
2
 70
0
 10
103.508620
 20
115.726533
 30
0.0
 10
103.400337
 20
115.580517
 30
0.0
  0
LWPOLYLINE
  5
47e
100
AcDbEntity
  8
Default
 62
7
100
AcDbPolyline
 90
2
 70
0
 10
103.602086
 20
115.882452
 30
0.0
 10
103.508620
 20
115.726533
 30
0.0
  0
LWPOLYLINE
  5
47f
100
AcDbEntity
  8
Default
 62
7
100
AcDbPolyline
 90
2
 70
0
 10
103.679796
 20
116.046776
 30
0.0
 10
103.602086
 20
115.882452
 30
0.0
  0
LWPOLYLINE
  5
480
100
AcDbEntity
  8
Default
 62
7
100
AcDbPolyline
 90
2
 70
0
 10
103.741067
 20
116.217953
 30
0.0
 10
103.679796
 20
116.046776
 30
0.0
  0
LWPOLYLINE
  5
481
100
AcDbEntity
  8
Default
 62
7
100
AcDbPolyline
 90
2
 70
0
 10
103.785215
 20
116.394293
 30
0.0
 10
103.741067
 20
116.217953
 30
0.0
  0
LWPOLYLINE
  5
482
100
AcDbEntity
  8
Default
 62
7
100
AcDbPolyline
 90
2
 70
0
 10
103.811927
 20
116.574123
 30
0.0
 10
103.785201
 20
116.394293
 30
0.0
  0
LWPOLYLINE
  5
483
100
AcDbEntity
  8
Default
 62
7
100
AcDbPolyline
 90
2
 70
0
 10
103.820817
 20
116.755696
 30
0.0
 10
103.811927
 20
116.574123
 30
0.0
  0
LWPOLYLINE
  5
484
100
AcDbEntity
  8
Default
 62
7
100
AcDbPolyline
 90
2
 70
0
 10
103.811927
 20
116.937269
 30
0.0
 10
103.820817
 20
116.755696
 30
0.0
  0
LWPOLYLINE
  5
485
100
AcDbEntity
  8
Default
 62
7
100
AcDbPolyline
 90
2
 70
0
 10
103.785201
 20
117.117098
 30
0.0
 10
103.811927
 20
116.937269
 30
0.0
  0
LWPOLYLINE
  5
486
100
AcDbEntity
  8
Default
 62
7
100
AcDbPolyline
 90
2
 70
0
 10
103.741067
 20
117.293442
 30
0.0
 10
103.785215
 20
117.117098
 30
0.0
  0
LWPOLYLINE
  5
487
100
AcDbEntity
  8
Default
 62
7
100
AcDbPolyline
 90
2
 70
0
 10
103.679796
 20
117.464616
 30
0.0
 10
103.741067
 20
117.293442
 30
0.0
  0
LWPOLYLINE
  5
488
100
AcDbEntity
  8
Default
 62
7
100
AcDbPolyline
 90
2
 70
0
 10
103.602086
 20
117.628939
 30
0.0
 10
103.679796
 20
117.464616
 30
0.0
  0
LWPOLYLINE
  5
489
100
AcDbEntity
  8
Default
 62
7
100
AcDbPolyline
 90
2
 70
0
 10
103.508620
 20
117.784859
 30
0.0
 10
103.602086
 20
117.628939
 30
0.0
  0
LWPOLYLINE
  5
48a
100
AcDbEntity
  8
Default
 62
7
100
AcDbPolyline
 90
2
 70
0
 10
103.400337
 20
117.930878
 30
0.0
 10
103.508620
 20
117.784859
 30
0.0
  0
LWPOLYLINE
  5
48b
100
AcDbEntity
  8
Default
 62
7
100
AcDbPolyline
 90
2
 70
0
 10
103.278231
 20
118.065563
 30
0.0
 10
103.400337
 20
117.930878
 30
0.0
  0
LWPOLYLINE
  5
48c
100
AcDbEntity
  8
Default
 62
7
100
AcDbPolyline
 90
2
 70
0
 10
103.143546
 20
118.187669
 30
0.0
 10
103.278231
 20
118.065563
 30
0.0
  0
LWPOLYLINE
  5
48d
100
AcDbEntity
  8
Default
 62
7
100
AcDbPolyline
 90
2
 70
0
 10
102.997527
 20
118.295952
 30
0.0
 10
103.143546
 20
118.187669
 30
0.0
  0
LWPOLYLINE
  5
48e
100
AcDbEntity
  8
Default
 62
7
100
AcDbPolyline
 90
2
 70
0
 10
102.841608
 20
118.389415
 30
0.0
 10
102.997527
 20
118.295952
 30
0.0
  0
LWPOLYLINE
  5
48f
100
AcDbEntity
  8
Default
 62
7
100
AcDbPolyline
 90
2
 70
0
 10
102.677284
 20
118.467128
 30
0.0
 10
102.841608
 20
118.389415
 30
0.0
  0
LWPOLYLINE
  5
490
100
AcDbEntity
  8
Default
 62
7
100
AcDbPolyline
 90
2
 70
0
 10
102.506110
 20
118.528399
 30
0.0
 10
102.677284
 20
118.467128
 30
0.0
  0
LWPOLYLINE
  5
491
100
AcDbEntity
  8
Default
 62
7
100
AcDbPolyline
 90
2
 70
0
 10
102.329767
 20
118.572547
 30
0.0
 10
102.506110
 20
118.528399
 30
0.0
  0
LWPOLYLINE
  5
492
100
AcDbEntity
  8
Default
 62
7
100
AcDbPolyline
 90
2
 70
0
 10
102.149937
 20
118.599259
 30
0.0
 10
102.329767
 20
118.572533
 30
0.0
  0
LWPOLYLINE
  5
493
100
AcDbEntity
  8
Default
 62
7
100
AcDbPolyline
 90
2
 70
0
 10
101.968364
 20
118.608149
 30
0.0
 10
102.149937
 20
118.599231
 30
0.0
  0
LWPOLYLINE
  5
494
100
AcDbEntity
  8
Default
 62
7
100
AcDbPolyline
 90
2
 70
0
 10
101.786791
 20
118.599231
 30
0.0
 10
101.968364
 20
118.608149
 30
0.0
  0
LWPOLYLINE
  5
495
100
AcDbEntity
  8
Default
 62
7
100
AcDbPolyline
 90
2
 70
0
 10
101.606962
 20
118.572533
 30
0.0
 10
101.786791
 20
118.599259
 30
0.0
  0
LWPOLYLINE
  5
496
100
AcDbEntity
  8
Default
 62
7
100
AcDbPolyline
 90
2
 70
0
 10
101.430621
 20
118.528399
 30
0.0
 10
101.606962
 20
118.572547
 30
0.0
  0
LWPOLYLINE
  5
497
100
AcDbEntity
  8
Default
 62
7
100
AcDbPolyline
 90
2
 70
0
 10
101.259447
 20
118.467128
 30
0.0
 10
101.430621
 20
118.528399
 30
0.0
  0
LWPOLYLINE
  5
498
100
AcDbEntity
  8
Default
 62
7
100
AcDbPolyline
 90
2
 70
0
 10
101.095121
 20
118.389415
 30
0.0
 10
101.259447
 20
118.467128
 30
0.0
  0
LWPOLYLINE
  5
499
100
AcDbEntity
  8
Default
 62
7
100
AcDbPolyline
 90
2
 70
0
 10
100.939204
 20
118.295952
 30
0.0
 10
101.095121
 20
118.389415
 30
0.0
  0
LWPOLYLINE
  5
49a
100
AcDbEntity
  8
Default
 62
7
100
AcDbPolyline
 90
2
 70
0
 10
100.793185
 20
118.187669
 30
0.0
 10
100.939204
 20
118.295952
 30
0.0
  0
LWPOLYLINE
  5
49b
100
AcDbEntity
  8
Default
 62
7
100
AcDbPolyline
 90
2
 70
0
 10
100.658438
 20
118.065563
 30
0.0
 10
100.793185
 20
118.187669
 30
0.0
  0
LWPOLYLINE
  5
49c
100
AcDbEntity
  8
Default
 62
7
100
AcDbPolyline
 90
2
 70
0
 10
100.536391
 20
117.930878
 30
0.0
 10
100.658438
 20
118.065563
 30
0.0
  0
LWPOLYLINE
  5
49d
100
AcDbEntity
  8
Default
 62
7
100
AcDbPolyline
 90
2
 70
0
 10
100.428108
 20
117.784859
 30
0.0
 10
100.536391
 20
117.930878
 30
0.0
  0
LWPOLYLINE
  5
49e
100
AcDbEntity
  8
Default
 62
7
100
AcDbPolyline
 90
2
 70
0
 10
100.334645
 20
117.628939
 30
0.0
 10
100.428108
 20
117.784859
 30
0.0
  0
LWPOLYLINE
  5
49f
100
AcDbEntity
  8
Default
 62
7
100
AcDbPolyline
 90
2
 70
0
 10
100.256873
 20
117.464616
 30
0.0
 10
100.334645
 20
117.628939
 30
0.0
  0
LWPOLYLINE
  5
4a0
100
AcDbEntity
  8
Default
 62
7
100
AcDbPolyline
 90
2
 70
0
 10
100.195664
 20
117.293442
 30
0.0
 10
100.256873
 20
117.464616
 30
0.0
  0
LWPOLYLINE
  5
4a1
100
AcDbEntity
  8
Default
 62
7
100
AcDbPolyline
 90
2
 70
0
 10
100.151516
 20
117.117098
 30
0.0
 10
100.195664
 20
117.293442
 30
0.0
  0
LWPOLYLINE
  5
4a2
100
AcDbEntity
  8
Default
 62
7
100
AcDbPolyline
 90
2
 70
0
 10
100.124801
 20
116.937269
 30
0.0
 10
100.151527
 20
117.117098
 30
0.0
  0
LWPOLYLINE
  5
4a3
100
AcDbEntity
  8
Default
 62
7
100
AcDbPolyline
 90
2
 70
0
 10
100.115908
 20
116.755696
 30
0.0
 10
100.124798
 20
116.937269
 30
0.0
  0
LWPOLYLINE
  5
4a4
100
AcDbEntity
  8
Default
 62
7
100
AcDbPolyline
 90
2
 70
0
 10
100.124798
 20
116.574123
 30
0.0
 10
100.115908
 20
116.755696
 30
0.0
  0
LWPOLYLINE
  5
4a5
100
AcDbEntity
  8
Default
 62
7
100
AcDbPolyline
 90
2
 70
0
 10
100.151527
 20
116.394293
 30
0.0
 10
100.124801
 20
116.574123
 30
0.0
  0
LWPOLYLINE
  5
4a6
100
AcDbEntity
  8
Default
 62
7
100
AcDbPolyline
 90
2
 70
0
 10
100.195664
 20
116.217953
 30
0.0
 10
100.151516
 20
116.394293
 30
0.0
  0
LWPOLYLINE
  5
4a7
100
AcDbEntity
  8
Default
 62
7
100
AcDbPolyline
 90
2
 70
0
 10
100.256873
 20
116.046776
 30
0.0
 10
100.195664
 20
116.217953
 30
0.0
  0
LWPOLYLINE
  5
4a8
100
AcDbEntity
  8
Default
 62
7
100
AcDbPolyline
 90
2
 70
0
 10
100.334645
 20
115.882452
 30
0.0
 10
100.256873
 20
116.046776
 30
0.0
  0
LWPOLYLINE
  5
4a9
100
AcDbEntity
  8
Default
 62
7
100
AcDbPolyline
 90
2
 70
0
 10
100.428108
 20
115.726533
 30
0.0
 10
100.334645
 20
115.882452
 30
0.0
  0
LWPOLYLINE
  5
4aa
100
AcDbEntity
  8
Default
 62
7
100
AcDbPolyline
 90
2
 70
0
 10
100.536391
 20
115.580517
 30
0.0
 10
100.428108
 20
115.726533
 30
0.0
  0
LWPOLYLINE
  5
4ab
100
AcDbEntity
  8
Default
 62
7
100
AcDbPolyline
 90
2
 70
0
 10
100.658438
 20
115.445770
 30
0.0
 10
100.536391
 20
115.580517
 30
0.0
  0
LWPOLYLINE
  5
4ac
100
AcDbEntity
  8
Default
 62
7
100
AcDbPolyline
 90
2
 70
0
 10
100.793185
 20
115.323723
 30
0.0
 10
100.658438
 20
115.445770
 30
0.0
  0
LWPOLYLINE
  5
4ad
100
AcDbEntity
  8
Default
 62
7
100
AcDbPolyline
 90
2
 70
0
 10
100.939204
 20
115.215440
 30
0.0
 10
100.793185
 20
115.323723
 30
0.0
  0
LWPOLYLINE
  5
4ae
100
AcDbEntity
  8
Default
 62
7
100
AcDbPolyline
 90
2
 70
0
 10
101.095121
 20
115.121976
 30
0.0
 10
100.939204
 20
115.215440
 30
0.0
  0
LWPOLYLINE
  5
4af
100
AcDbEntity
  8
Default
 62
7
100
AcDbPolyline
 90
2
 70
0
 10
101.259447
 20
115.044204
 30
0.0
 10
101.095121
 20
115.121976
 30
0.0
  0
LWPOLYLINE
  5
4b0
100
AcDbEntity
  8
Default
 62
7
100
AcDbPolyline
 90
2
 70
0
 10
101.430621
 20
114.982993
 30
0.0
 10
101.259447
 20
115.044204
 30
0.0
  0
LWPOLYLINE
  5
4b1
100
AcDbEntity
  8
Default
 62
7
100
AcDbPolyline
 90
2
 70
0
 10
101.606962
 20
114.938845
 30
0.0
 10
101.430621
 20
114.982993
 30
0.0
  0
LWPOLYLINE
  5
4b2
100
AcDbEntity
  8
Default
 62
7
100
AcDbPolyline
 90
2
 70
0
 10
101.786791
 20
114.912133
 30
0.0
 10
101.606962
 20
114.938859
 30
0.0
  0
LWPOLYLINE
  5
4b3
100
AcDbEntity
  8
Default
 62
7
100
AcDbPolyline
 90
2
 70
0
 10
90.760163
 20
114.918822
 30
0.0
 10
90.516026
 20
114.930844
 30
0.0
  0
LWPOLYLINE
  5
4b4
100
AcDbEntity
  8
Default
 62
7
100
AcDbPolyline
 90
2
 70
0
 10
91.004288
 20
114.930844
 30
0.0
 10
90.760163
 20
114.918822
 30
0.0
  0
LWPOLYLINE
  5
4b5
100
AcDbEntity
  8
Default
 62
7
100
AcDbPolyline
 90
2
 70
0
 10
91.246067
 20
114.966706
 30
0.0
 10
91.004288
 20
114.930839
 30
0.0
  0
LWPOLYLINE
  5
4b6
100
AcDbEntity
  8
Default
 62
7
100
AcDbPolyline
 90
2
 70
0
 10
91.483171
 20
115.026046
 30
0.0
 10
91.246067
 20
114.966706
 30
0.0
  0
LWPOLYLINE
  5
4b7
100
AcDbEntity
  8
Default
 62
7
100
AcDbPolyline
 90
2
 70
0
 10
91.713314
 20
115.108427
 30
0.0
 10
91.483171
 20
115.026046
 30
0.0
  0
LWPOLYLINE
  5
4b8
100
AcDbEntity
  8
Default
 62
7
100
AcDbPolyline
 90
2
 70
0
 10
91.934263
 20
115.212914
 30
0.0
 10
91.713314
 20
115.108427
 30
0.0
  0
LWPOLYLINE
  5
4b9
100
AcDbEntity
  8
Default
 62
7
100
AcDbPolyline
 90
2
 70
0
 10
92.143921
 20
115.338568
 30
0.0
 10
91.934263
 20
115.212914
 30
0.0
  0
LWPOLYLINE
  5
4ba
100
AcDbEntity
  8
Default
 62
7
100
AcDbPolyline
 90
2
 70
0
 10
92.340251
 20
115.484152
 30
0.0
 10
92.143921
 20
115.338568
 30
0.0
  0
LWPOLYLINE
  5
4bb
100
AcDbEntity
  8
Default
 62
7
100
AcDbPolyline
 90
2
 70
0
 10
92.521351
 20
115.648352
 30
0.0
 10
92.340251
 20
115.484152
 30
0.0
  0
LWPOLYLINE
  5
4bc
100
AcDbEntity
  8
Default
 62
7
100
AcDbPolyline
 90
2
 70
0
 10
92.685508
 20
115.829426
 30
0.0
 10
92.521351
 20
115.648352
 30
0.0
  0
LWPOLYLINE
  5
4bd
100
AcDbEntity
  8
Default
 62
7
100
AcDbPolyline
 90
2
 70
0
 10
92.831106
 20
116.025756
 30
0.0
 10
92.685508
 20
115.829426
 30
0.0
  0
LWPOLYLINE
  5
4be
100
AcDbEntity
  8
Default
 62
7
100
AcDbPolyline
 90
2
 70
0
 10
92.956771
 20
116.235411
 30
0.0
 10
92.831106
 20
116.025756
 30
0.0
  0
LWPOLYLINE
  5
4bf
100
AcDbEntity
  8
Default
 62
7
100
AcDbPolyline
 90
2
 70
0
 10
93.061276
 20
116.456399
 30
0.0
 10
92.956771
 20
116.235411
 30
0.0
  0
LWPOLYLINE
  5
4c0
100
AcDbEntity
  8
Default
 62
7
100
AcDbPolyline
 90
2
 70
0
 10
93.143622
 20
116.686543
 30
0.0
 10
93.061276
 20
116.456399
 30
0.0
  0
LWPOLYLINE
  5
4c1
100
AcDbEntity
  8
Default
 62
7
100
AcDbPolyline
 90
2
 70
0
 10
93.203008
 20
116.923596
 30
0.0
 10
93.143622
 20
116.686543
 30
0.0
  0
LWPOLYLINE
  5
4c2
100
AcDbEntity
  8
Default
 62
7
100
AcDbPolyline
 90
2
 70
0
 10
93.238875
 20
117.165381
 30
0.0
 10
93.203008
 20
116.923596
 30
0.0
  0
LWPOLYLINE
  5
4c3
100
AcDbEntity
  8
Default
 62
7
100
AcDbPolyline
 90
2
 70
0
 10
93.250872
 20
117.409534
 30
0.0
 10
93.238878
 20
117.165381
 30
0.0
  0
LWPOLYLINE
  5
4c4
100
AcDbEntity
  8
Default
 62
7
100
AcDbPolyline
 90
2
 70
0
 10
93.238878
 20
117.653685
 30
0.0
 10
93.250872
 20
117.409534
 30
0.0
  0
LWPOLYLINE
  5
4c5
100
AcDbEntity
  8
Default
 62
7
100
AcDbPolyline
 90
2
 70
0
 10
93.203008
 20
117.895408
 30
0.0
 10
93.238875
 20
117.653685
 30
0.0
  0
LWPOLYLINE
  5
4c6
100
AcDbEntity
  8
Default
 62
7
100
AcDbPolyline
 90
2
 70
0
 10
93.143622
 20
118.132525
 30
0.0
 10
93.203008
 20
117.895408
 30
0.0
  0
LWPOLYLINE
  5
4c7
100
AcDbEntity
  8
Default
 62
7
100
AcDbPolyline
 90
2
 70
0
 10
93.061276
 20
118.362666
 30
0.0
 10
93.143622
 20
118.132525
 30
0.0
  0
LWPOLYLINE
  5
4c8
100
AcDbEntity
  8
Default
 62
7
100
AcDbPolyline
 90
2
 70
0
 10
92.956771
 20
118.583655
 30
0.0
 10
93.061276
 20
118.362666
 30
0.0
  0
LWPOLYLINE
  5
4c9
100
AcDbEntity
  8
Default
 62
7
100
AcDbPolyline
 90
2
 70
0
 10
92.831106
 20
118.793309
 30
0.0
 10
92.956771
 20
118.583655
 30
0.0
  0
LWPOLYLINE
  5
4ca
100
AcDbEntity
  8
Default
 62
7
100
AcDbPolyline
 90
2
 70
0
 10
92.685508
 20
118.989640
 30
0.0
 10
92.831106
 20
118.793309
 30
0.0
  0
LWPOLYLINE
  5
4cb
100
AcDbEntity
  8
Default
 62
7
100
AcDbPolyline
 90
2
 70
0
 10
92.521351
 20
119.170717
 30
0.0
 10
92.685508
 20
118.989640
 30
0.0
  0
LWPOLYLINE
  5
4cc
100
AcDbEntity
  8
Default
 62
7
100
AcDbPolyline
 90
2
 70
0
 10
92.340251
 20
119.334854
 30
0.0
 10
92.521351
 20
119.170717
 30
0.0
  0
LWPOLYLINE
  5
4cd
100
AcDbEntity
  8
Default
 62
7
100
AcDbPolyline
 90
2
 70
0
 10
92.143921
 20
119.480498
 30
0.0
 10
92.340251
 20
119.334854
 30
0.0
  0
LWPOLYLINE
  5
4ce
100
AcDbEntity
  8
Default
 62
7
100
AcDbPolyline
 90
2
 70
0
 10
91.934263
 20
119.606154
 30
0.0
 10
92.143921
 20
119.480498
 30
0.0
  0
LWPOLYLINE
  5
4cf
100
AcDbEntity
  8
Default
 62
7
100
AcDbPolyline
 90
2
 70
0
 10
91.713314
 20
119.710639
 30
0.0
 10
91.934263
 20
119.606154
 30
0.0
  0
LWPOLYLINE
  5
4d0
100
AcDbEntity
  8
Default
 62
7
100
AcDbPolyline
 90
2
 70
0
 10
91.483171
 20
119.793019
 30
0.0
 10
91.713314
 20
119.710639
 30
0.0
  0
LWPOLYLINE
  5
4d1
100
AcDbEntity
  8
Default
 62
7
100
AcDbPolyline
 90
2
 70
0
 10
91.246067
 20
119.852362
 30
0.0
 10
91.483171
 20
119.793019
 30
0.0
  0
LWPOLYLINE
  5
4d2
100
AcDbEntity
  8
Default
 62
7
100
AcDbPolyline
 90
2
 70
0
 10
91.004288
 20
119.888227
 30
0.0
 10
91.246067
 20
119.852362
 30
0.0
  0
LWPOLYLINE
  5
4d3
100
AcDbEntity
  8
Default
 62
7
100
AcDbPolyline
 90
2
 70
0
 10
90.760163
 20
119.900247
 30
0.0
 10
91.004288
 20
119.888224
 30
0.0
  0
LWPOLYLINE
  5
4d4
100
AcDbEntity
  8
Default
 62
7
100
AcDbPolyline
 90
2
 70
0
 10
90.516026
 20
119.888224
 30
0.0
 10
90.760163
 20
119.900247
 30
0.0
  0
LWPOLYLINE
  5
4d5
100
AcDbEntity
  8
Default
 62
7
100
AcDbPolyline
 90
2
 70
0
 10
90.274246
 20
119.852362
 30
0.0
 10
90.516026
 20
119.888227
 30
0.0
  0
LWPOLYLINE
  5
4d6
100
AcDbEntity
  8
Default
 62
7
100
AcDbPolyline
 90
2
 70
0
 10
90.037140
 20
119.793019
 30
0.0
 10
90.274246
 20
119.852362
 30
0.0
  0
LWPOLYLINE
  5
4d7
100
AcDbEntity
  8
Default
 62
7
100
AcDbPolyline
 90
2
 70
0
 10
89.806996
 20
119.710639
 30
0.0
 10
90.037140
 20
119.793019
 30
0.0
  0
LWPOLYLINE
  5
4d8
100
AcDbEntity
  8
Default
 62
7
100
AcDbPolyline
 90
2
 70
0
 10
89.586048
 20
119.606154
 30
0.0
 10
89.806996
 20
119.710639
 30
0.0
  0
LWPOLYLINE
  5
4d9
100
AcDbEntity
  8
Default
 62
7
100
AcDbPolyline
 90
2
 70
0
 10
89.376390
 20
119.480498
 30
0.0
 10
89.586048
 20
119.606154
 30
0.0
  0
LWPOLYLINE
  5
4da
100
AcDbEntity
  8
Default
 62
7
100
AcDbPolyline
 90
2
 70
0
 10
89.180065
 20
119.334854
 30
0.0
 10
89.376390
 20
119.480498
 30
0.0
  0
LWPOLYLINE
  5
4db
100
AcDbEntity
  8
Default
 62
7
100
AcDbPolyline
 90
2
 70
0
 10
88.998960
 20
119.170717
 30
0.0
 10
89.180065
 20
119.334854
 30
0.0
  0
LWPOLYLINE
  5
4dc
100
AcDbEntity
  8
Default
 62
7
100
AcDbPolyline
 90
2
 70
0
 10
88.834803
 20
118.989640
 30
0.0
 10
88.998960
 20
119.170717
 30
0.0
  0
LWPOLYLINE
  5
4dd
100
AcDbEntity
  8
Default
 62
7
100
AcDbPolyline
 90
2
 70
0
 10
88.689210
 20
118.793309
 30
0.0
 10
88.834803
 20
118.989640
 30
0.0
  0
LWPOLYLINE
  5
4de
100
AcDbEntity
  8
Default
 62
7
100
AcDbPolyline
 90
2
 70
0
 10
88.563548
 20
118.583655
 30
0.0
 10
88.689210
 20
118.793309
 30
0.0
  0
LWPOLYLINE
  5
4df
100
AcDbEntity
  8
Default
 62
7
100
AcDbPolyline
 90
2
 70
0
 10
88.459035
 20
118.362666
 30
0.0
 10
88.563548
 20
118.583655
 30
0.0
  0
LWPOLYLINE
  5
4e0
100
AcDbEntity
  8
Default
 62
7
100
AcDbPolyline
 90
2
 70
0
 10
88.376694
 20
118.132525
 30
0.0
 10
88.459035
 20
118.362666
 30
0.0
  0
LWPOLYLINE
  5
4e1
100
AcDbEntity
  8
Default
 62
7
100
AcDbPolyline
 90
2
 70
0
 10
88.317309
 20
117.895408
 30
0.0
 10
88.376694
 20
118.132525
 30
0.0
  0
LWPOLYLINE
  5
4e2
100
AcDbEntity
  8
Default
 62
7
100
AcDbPolyline
 90
2
 70
0
 10
88.281441
 20
117.653685
 30
0.0
 10
88.317309
 20
117.895408
 30
0.0
  0
LWPOLYLINE
  5
4e3
100
AcDbEntity
  8
Default
 62
7
100
AcDbPolyline
 90
2
 70
0
 10
88.269450
 20
117.409534
 30
0.0
 10
88.281444
 20
117.653685
 30
0.0
  0
LWPOLYLINE
  5
4e4
100
AcDbEntity
  8
Default
 62
7
100
AcDbPolyline
 90
2
 70
0
 10
88.281444
 20
117.165381
 30
0.0
 10
88.269450
 20
117.409534
 30
0.0
  0
LWPOLYLINE
  5
4e5
100
AcDbEntity
  8
Default
 62
7
100
AcDbPolyline
 90
2
 70
0
 10
88.317309
 20
116.923596
 30
0.0
 10
88.281441
 20
117.165381
 30
0.0
  0
LWPOLYLINE
  5
4e6
100
AcDbEntity
  8
Default
 62
7
100
AcDbPolyline
 90
2
 70
0
 10
88.376694
 20
116.686543
 30
0.0
 10
88.317309
 20
116.923596
 30
0.0
  0
LWPOLYLINE
  5
4e7
100
AcDbEntity
  8
Default
 62
7
100
AcDbPolyline
 90
2
 70
0
 10
88.459035
 20
116.456399
 30
0.0
 10
88.376694
 20
116.686543
 30
0.0
  0
LWPOLYLINE
  5
4e8
100
AcDbEntity
  8
Default
 62
7
100
AcDbPolyline
 90
2
 70
0
 10
88.563548
 20
116.235411
 30
0.0
 10
88.459035
 20
116.456399
 30
0.0
  0
LWPOLYLINE
  5
4e9
100
AcDbEntity
  8
Default
 62
7
100
AcDbPolyline
 90
2
 70
0
 10
88.689210
 20
116.025756
 30
0.0
 10
88.563548
 20
116.235411
 30
0.0
  0
LWPOLYLINE
  5
4ea
100
AcDbEntity
  8
Default
 62
7
100
AcDbPolyline
 90
2
 70
0
 10
88.834803
 20
115.829426
 30
0.0
 10
88.689210
 20
116.025756
 30
0.0
  0
LWPOLYLINE
  5
4eb
100
AcDbEntity
  8
Default
 62
7
100
AcDbPolyline
 90
2
 70
0
 10
88.998960
 20
115.648352
 30
0.0
 10
88.834803
 20
115.829426
 30
0.0
  0
LWPOLYLINE
  5
4ec
100
AcDbEntity
  8
Default
 62
7
100
AcDbPolyline
 90
2
 70
0
 10
89.180065
 20
115.484152
 30
0.0
 10
88.998960
 20
115.648352
 30
0.0
  0
LWPOLYLINE
  5
4ed
100
AcDbEntity
  8
Default
 62
7
100
AcDbPolyline
 90
2
 70
0
 10
89.376390
 20
115.338568
 30
0.0
 10
89.180065
 20
115.484152
 30
0.0
  0
LWPOLYLINE
  5
4ee
100
AcDbEntity
  8
Default
 62
7
100
AcDbPolyline
 90
2
 70
0
 10
89.586048
 20
115.212914
 30
0.0
 10
89.376390
 20
115.338568
 30
0.0
  0
LWPOLYLINE
  5
4ef
100
AcDbEntity
  8
Default
 62
7
100
AcDbPolyline
 90
2
 70
0
 10
89.806996
 20
115.108427
 30
0.0
 10
89.586048
 20
115.212914
 30
0.0
  0
LWPOLYLINE
  5
4f0
100
AcDbEntity
  8
Default
 62
7
100
AcDbPolyline
 90
2
 70
0
 10
90.037140
 20
115.026046
 30
0.0
 10
89.806996
 20
115.108427
 30
0.0
  0
LWPOLYLINE
  5
4f1
100
AcDbEntity
  8
Default
 62
7
100
AcDbPolyline
 90
2
 70
0
 10
90.274246
 20
114.966706
 30
0.0
 10
90.037140
 20
115.026046
 30
0.0
  0
SPLINE
  5
4f2
100
AcDbEntity
  8
Default
 62
7
100
AcDbSpline
 70
8
 71
3
 72
8
 73
4
 74
0
 40
0
 40
0
 40
0
 40
0
 40
1
 40
1
 40
1
 40
1
 10
95.473746
 20
87.588961
 30
0.0
 10
95.473746
 20
89.368652
 30
0.0
 10
94.524292
 20
91.013155
 30
0.0
 10
92.983034
 20
91.903000
 30
0.0
  0
SPLINE
  5
4f3
100
AcDbEntity
  8
Default
 62
7
100
AcDbSpline
 70
8
 71
3
 72
8
 73
4
 74
0
 40
0
 40
0
 40
0
 40
0
 40
1
 40
1
 40
1
 40
1
 10
92.983034
 20
91.903000
 30
0.0
 10
91.441776
 20
92.792846
 30
0.0
 10
89.542868
 20
92.792846
 30
0.0
 10
88.001610
 20
91.903000
 30
0.0
  0
SPLINE
  5
4f4
100
AcDbEntity
  8
Default
 62
7
100
AcDbSpline
 70
8
 71
3
 72
8
 73
4
 74
0
 40
0
 40
0
 40
0
 40
0
 40
1
 40
1
 40
1
 40
1
 10
88.001610
 20
91.903000
 30
0.0
 10
86.460352
 20
91.013155
 30
0.0
 10
85.510898
 20
89.368652
 30
0.0
 10
85.510898
 20
87.588961
 30
0.0
  0
SPLINE
  5
4f5
100
AcDbEntity
  8
Default
 62
7
100
AcDbSpline
 70
8
 71
3
 72
8
 73
4
 74
0
 40
0
 40
0
 40
0
 40
0
 40
1
 40
1
 40
1
 40
1
 10
85.510898
 20
87.588961
 30
0.0
 10
85.510898
 20
85.809269
 30
0.0
 10
86.460352
 20
84.164767
 30
0.0
 10
88.001610
 20
83.274921
 30
0.0
  0
SPLINE
  5
4f6
100
AcDbEntity
  8
Default
 62
7
100
AcDbSpline
 70
8
 71
3
 72
8
 73
4
 74
0
 40
0
 40
0
 40
0
 40
0
 40
1
 40
1
 40
1
 40
1
 10
88.001610
 20
83.274921
 30
0.0
 10
89.542868
 20
82.385075
 30
0.0
 10
91.441776
 20
82.385075
 30
0.0
 10
92.983034
 20
83.274921
 30
0.0
  0
SPLINE
  5
4f7
100
AcDbEntity
  8
Default
 62
7
100
AcDbSpline
 70
8
 71
3
 72
8
 73
4
 74
0
 40
0
 40
0
 40
0
 40
0
 40
1
 40
1
 40
1
 40
1
 10
92.983034
 20
83.274921
 30
0.0
 10
94.524292
 20
84.164767
 30
0.0
 10
95.473746
 20
85.809269
 30
0.0
 10
95.473746
 20
87.588961
 30
0.0
  0
LWPOLYLINE
  5
4f8
100
AcDbEntity
  8
Default
 62
7
100
AcDbPolyline
 90
2
 70
0
 10
90.516026
 20
114.930839
 30
0.0
 10
90.274246
 20
114.966706
 30
0.0
  0
LWPOLYLINE
  5
4f9
100
AcDbEntity
  8
Default
 62
7
100
AcDbPolyline
 90
2
 70
0
 10
95.473746
 20
87.588961
 30
0.0
 10
95.473746
 20
87.588961
 30
0.0
  0
LWPOLYLINE
  5
4fa
100
AcDbEntity
  8
Default
 62
7
100
AcDbPolyline
 90
2
 70
0
 10
71.811983
 20
91.200477
 30
0.0
 10
68.075914
 20
91.200477
 30
0.0
  0
LWPOLYLINE
  5
4fb
100
AcDbEntity
  8
Default
 62
7
100
AcDbPolyline
 90
2
 70
0
 10
71.811983
 20
95.932830
 30
0.0
 10
71.811983
 20
91.200477
 30
0.0
  0
LWPOLYLINE
  5
4fc
100
AcDbEntity
  8
Default
 62
7
100
AcDbPolyline
 90
2
 70
0
 10
68.075914
 20
95.932830
 30
0.0
 10
71.811983
 20
95.932830
 30
0.0
  0
LWPOLYLINE
  5
4fd
100
AcDbEntity
  8
Default
 62
7
100
AcDbPolyline
 90
2
 70
0
 10
68.075914
 20
101.910536
 30
0.0
 10
68.075914
 20
95.932830
 30
0.0
  0
LWPOLYLINE
  5
4fe
100
AcDbEntity
  8
Default
 62
7
100
AcDbPolyline
 90
2
 70
0
 10
77.149206
 20
101.910536
 30
0.0
 10
68.075914
 20
101.910536
 30
0.0
  0
LWPOLYLINE
  5
4ff
100
AcDbEntity
  8
Default
 62
7
100
AcDbPolyline
 90
2
 70
0
 10
77.149206
 20
98.174470
 30
0.0
 10
77.149206
 20
101.910536
 30
0.0
  0
LWPOLYLINE
  5
500
100
AcDbEntity
  8
Default
 62
7
100
AcDbPolyline
 90
2
 70
0
 10
82.486489
 20
98.174470
 30
0.0
 10
77.149206
 20
98.174470
 30
0.0
  0
LWPOLYLINE
  5
501
100
AcDbEntity
  8
Default
 62
7
100
AcDbPolyline
 90
2
 70
0
 10
82.486489
 20
101.910536
 30
0.0
 10
82.486489
 20
98.174470
 30
0.0
  0
LWPOLYLINE
  5
502
100
AcDbEntity
  8
Default
 62
7
100
AcDbPolyline
 90
2
 70
0
 10
87.823698
 20
101.910536
 30
0.0
 10
82.486489
 20
101.910536
 30
0.0
  0
LWPOLYLINE
  5
503
100
AcDbEntity
  8
Default
 62
7
100
AcDbPolyline
 90
2
 70
0
 10
87.823698
 20
98.174470
 30
0.0
 10
87.823698
 20
101.910536
 30
0.0
  0
LWPOLYLINE
  5
504
100
AcDbEntity
  8
Default
 62
7
100
AcDbPolyline
 90
2
 70
0
 10
93.160940
 20
98.174470
 30
0.0
 10
87.823698
 20
98.174470
 30
0.0
  0
LWPOLYLINE
  5
505
100
AcDbEntity
  8
Default
 62
7
100
AcDbPolyline
 90
2
 70
0
 10
93.160940
 20
101.910536
 30
0.0
 10
93.160940
 20
98.174470
 30
0.0
  0
LWPOLYLINE
  5
506
100
AcDbEntity
  8
Default
 62
7
100
AcDbPolyline
 90
2
 70
0
 10
98.498155
 20
101.910536
 30
0.0
 10
93.160940
 20
101.910536
 30
0.0
  0
LWPOLYLINE
  5
507
100
AcDbEntity
  8
Default
 62
7
100
AcDbPolyline
 90
2
 70
0
 10
98.498155
 20
98.174470
 30
0.0
 10
98.498155
 20
101.910536
 30
0.0
  0
LWPOLYLINE
  5
508
100
AcDbEntity
  8
Default
 62
7
100
AcDbPolyline
 90
2
 70
0
 10
103.835440
 20
98.174470
 30
0.0
 10
98.498155
 20
98.174470
 30
0.0
  0
LWPOLYLINE
  5
509
100
AcDbEntity
  8
Default
 62
7
100
AcDbPolyline
 90
2
 70
0
 10
103.835440
 20
101.910536
 30
0.0
 10
103.835440
 20
98.174470
 30
0.0
  0
LWPOLYLINE
  5
50a
100
AcDbEntity
  8
Default
 62
7
100
AcDbPolyline
 90
2
 70
0
 10
112.908729
 20
101.910536
 30
0.0
 10
103.835440
 20
101.910536
 30
0.0
  0
LWPOLYLINE
  5
50b
100
AcDbEntity
  8
Default
 62
7
100
AcDbPolyline
 90
2
 70
0
 10
112.908729
 20
95.932830
 30
0.0
 10
112.908729
 20
101.910536
 30
0.0
  0
LWPOLYLINE
  5
50c
100
AcDbEntity
  8
Default
 62
7
100
AcDbPolyline
 90
2
 70
0
 10
109.172663
 20
95.932830
 30
0.0
 10
112.908729
 20
95.932830
 30
0.0
  0
LWPOLYLINE
  5
50d
100
AcDbEntity
  8
Default
 62
7
100
AcDbPolyline
 90
2
 70
0
 10
109.172663
 20
91.200477
 30
0.0
 10
109.172663
 20
95.932830
 30
0.0
  0
LWPOLYLINE
  5
50e
100
AcDbEntity
  8
Default
 62
7
100
AcDbPolyline
 90
2
 70
0
 10
112.908729
 20
91.200477
 30
0.0
 10
109.172663
 20
91.200477
 30
0.0
  0
LWPOLYLINE
  5
50f
100
AcDbEntity
  8
Default
 62
7
100
AcDbPolyline
 90
2
 70
0
 10
112.908729
 20
86.468115
 30
0.0
 10
112.908729
 20
91.200477
 30
0.0
  0
LWPOLYLINE
  5
510
100
AcDbEntity
  8
Default
 62
7
100
AcDbPolyline
 90
2
 70
0
 10
109.172663
 20
86.468115
 30
0.0
 10
112.908729
 20
86.468115
 30
0.0
  0
LWPOLYLINE
  5
511
100
AcDbEntity
  8
Default
 62
7
100
AcDbPolyline
 90
2
 70
0
 10
109.172663
 20
81.735785
 30
0.0
 10
109.172663
 20
86.468115
 30
0.0
  0
LWPOLYLINE
  5
512
100
AcDbEntity
  8
Default
 62
7
100
AcDbPolyline
 90
2
 70
0
 10
112.908729
 20
81.735785
 30
0.0
 10
109.172663
 20
81.735785
 30
0.0
  0
LWPOLYLINE
  5
513
100
AcDbEntity
  8
Default
 62
7
100
AcDbPolyline
 90
2
 70
0
 10
112.908729
 20
75.758064
 30
0.0
 10
112.908729
 20
81.735785
 30
0.0
  0
LWPOLYLINE
  5
514
100
AcDbEntity
  8
Default
 62
7
100
AcDbPolyline
 90
2
 70
0
 10
103.835440
 20
75.758064
 30
0.0
 10
112.908729
 20
75.758064
 30
0.0
  0
LWPOLYLINE
  5
515
100
AcDbEntity
  8
Default
 62
7
100
AcDbPolyline
 90
2
 70
0
 10
103.835440
 20
79.494122
 30
0.0
 10
103.835440
 20
75.758064
 30
0.0
  0
LWPOLYLINE
  5
516
100
AcDbEntity
  8
Default
 62
7
100
AcDbPolyline
 90
2
 70
0
 10
98.498155
 20
79.494122
 30
0.0
 10
103.835440
 20
79.494122
 30
0.0
  0
LWPOLYLINE
  5
517
100
AcDbEntity
  8
Default
 62
7
100
AcDbPolyline
 90
2
 70
0
 10
98.498155
 20
75.758064
 30
0.0
 10
98.498155
 20
79.494122
 30
0.0
  0
LWPOLYLINE
  5
518
100
AcDbEntity
  8
Default
 62
7
100
AcDbPolyline
 90
2
 70
0
 10
93.160946
 20
75.758064
 30
0.0
 10
98.498155
 20
75.758064
 30
0.0
  0
LWPOLYLINE
  5
519
100
AcDbEntity
  8
Default
 62
7
100
AcDbPolyline
 90
2
 70
0
 10
93.160943
 20
79.494122
 30
0.0
 10
93.160946
 20
75.758064
 30
0.0
  0
LWPOLYLINE
  5
51a
100
AcDbEntity
  8
Default
 62
7
100
AcDbPolyline
 90
2
 70
0
 10
87.823703
 20
79.494122
 30
0.0
 10
93.160943
 20
79.494122
 30
0.0
  0
LWPOLYLINE
  5
51b
100
AcDbEntity
  8
Default
 62
7
100
AcDbPolyline
 90
2
 70
0
 10
87.823706
 20
75.758064
 30
0.0
 10
87.823703
 20
79.494122
 30
0.0
  0
LWPOLYLINE
  5
51c
100
AcDbEntity
  8
Default
 62
7
100
AcDbPolyline
 90
2
 70
0
 10
82.486489
 20
75.758064
 30
0.0
 10
87.823706
 20
75.758064
 30
0.0
  0
LWPOLYLINE
  5
51d
100
AcDbEntity
  8
Default
 62
7
100
AcDbPolyline
 90
2
 70
0
 10
82.486489
 20
79.494122
 30
0.0
 10
82.486489
 20
75.758064
 30
0.0
  0
LWPOLYLINE
  5
51e
100
AcDbEntity
  8
Default
 62
7
100
AcDbPolyline
 90
2
 70
0
 10
77.149206
 20
79.494122
 30
0.0
 10
82.486489
 20
79.494122
 30
0.0
  0
LWPOLYLINE
  5
51f
100
AcDbEntity
  8
Default
 62
7
100
AcDbPolyline
 90
2
 70
0
 10
77.149206
 20
75.758064
 30
0.0
 10
77.149206
 20
79.494122
 30
0.0
  0
LWPOLYLINE
  5
520
100
AcDbEntity
  8
Default
 62
7
100
AcDbPolyline
 90
2
 70
0
 10
68.075914
 20
75.758064
 30
0.0
 10
77.149206
 20
75.758064
 30
0.0
  0
LWPOLYLINE
  5
521
100
AcDbEntity
  8
Default
 62
7
100
AcDbPolyline
 90
2
 70
0
 10
68.075914
 20
81.735785
 30
0.0
 10
68.075914
 20
75.758064
 30
0.0
  0
LWPOLYLINE
  5
522
100
AcDbEntity
  8
Default
 62
7
100
AcDbPolyline
 90
2
 70
0
 10
71.811983
 20
81.735785
 30
0.0
 10
68.075914
 20
81.735785
 30
0.0
  0
LWPOLYLINE
  5
523
100
AcDbEntity
  8
Default
 62
7
100
AcDbPolyline
 90
2
 70
0
 10
71.811983
 20
86.468115
 30
0.0
 10
71.811983
 20
81.735785
 30
0.0
  0
LWPOLYLINE
  5
524
100
AcDbEntity
  8
Default
 62
7
100
AcDbPolyline
 90
2
 70
0
 10
68.075914
 20
86.468115
 30
0.0
 10
71.811983
 20
86.468115
 30
0.0
  0
LWPOLYLINE
  5
525
100
AcDbEntity
  8
Default
 62
7
100
AcDbPolyline
 90
2
 70
0
 10
68.075914
 20
91.200477
 30
0.0
 10
68.075914
 20
86.468115
 30
0.0
  0
LWPOLYLINE
  5
526
100
AcDbEntity
  8
Default
 62
7
100
AcDbPolyline
 90
2
 70
0
 10
101.700525
 20
86.390278
 30
0.0
 10
101.518954
 20
86.399309
 30
0.0
  0
LWPOLYLINE
  5
527
100
AcDbEntity
  8
Default
 62
7
100
AcDbPolyline
 90
2
 70
0
 10
101.882098
 20
86.399309
 30
0.0
 10
101.700525
 20
86.390278
 30
0.0
  0
LWPOLYLINE
  5
528
100
AcDbEntity
  8
Default
 62
7
100
AcDbPolyline
 90
2
 70
0
 10
102.061927
 20
86.425895
 30
0.0
 10
101.882098
 20
86.399083
 30
0.0
  0
LWPOLYLINE
  5
529
100
AcDbEntity
  8
Default
 62
7
100
AcDbPolyline
 90
2
 70
0
 10
102.238271
 20
86.469949
 30
0.0
 10
102.061927
 20
86.425782
 30
0.0
  0
LWPOLYLINE
  5
52a
100
AcDbEntity
  8
Default
 62
7
100
AcDbPolyline
 90
2
 70
0
 10
102.409444
 20
86.531220
 30
0.0
 10
102.238271
 20
86.469949
 30
0.0
  0
LWPOLYLINE
  5
52b
100
AcDbEntity
  8
Default
 62
7
100
AcDbPolyline
 90
2
 70
0
 10
102.573768
 20
86.608916
 30
0.0
 10
102.409444
 20
86.531220
 30
0.0
  0
LWPOLYLINE
  5
52c
100
AcDbEntity
  8
Default
 62
7
100
AcDbPolyline
 90
2
 70
0
 10
102.729688
 20
86.702388
 30
0.0
 10
102.573768
 20
86.608916
 30
0.0
  0
LWPOLYLINE
  5
52d
100
AcDbEntity
  8
Default
 62
7
100
AcDbPolyline
 90
2
 70
0
 10
102.875707
 20
86.810676
 30
0.0
 10
102.729688
 20
86.702388
 30
0.0
  0
LWPOLYLINE
  5
52e
100
AcDbEntity
  8
Default
 62
7
100
AcDbPolyline
 90
2
 70
0
 10
103.010391
 20
86.932766
 30
0.0
 10
102.875707
 20
86.810676
 30
0.0
  0
LWPOLYLINE
  5
52f
100
AcDbEntity
  8
Default
 62
7
100
AcDbPolyline
 90
2
 70
0
 10
103.132498
 20
87.067470
 30
0.0
 10
103.010391
 20
86.932766
 30
0.0
  0
LWPOLYLINE
  5
530
100
AcDbEntity
  8
Default
 62
7
100
AcDbPolyline
 90
2
 70
0
 10
103.240781
 20
87.213492
 30
0.0
 10
103.132498
 20
87.067470
 30
0.0
  0
LWPOLYLINE
  5
531
100
AcDbEntity
  8
Default
 62
7
100
AcDbPolyline
 90
2
 70
0
 10
103.334247
 20
87.369392
 30
0.0
 10
103.240781
 20
87.213492
 30
0.0
  0
LWPOLYLINE
  5
532
100
AcDbEntity
  8
Default
 62
7
100
AcDbPolyline
 90
2
 70
0
 10
103.411957
 20
87.533730
 30
0.0
 10
103.334247
 20
87.369392
 30
0.0
  0
LWPOLYLINE
  5
533
100
AcDbEntity
  8
Default
 62
7
100
AcDbPolyline
 90
2
 70
0
 10
103.473227
 20
87.704897
 30
0.0
 10
103.411957
 20
87.533730
 30
0.0
  0
LWPOLYLINE
  5
534
100
AcDbEntity
  8
Default
 62
7
100
AcDbPolyline
 90
2
 70
0
 10
103.517375
 20
87.881230
 30
0.0
 10
103.473227
 20
87.704897
 30
0.0
  0
LWPOLYLINE
  5
535
100
AcDbEntity
  8
Default
 62
7
100
AcDbPolyline
 90
2
 70
0
 10
103.544088
 20
88.061062
 30
0.0
 10
103.517361
 20
87.881230
 30
0.0
  0
LWPOLYLINE
  5
536
100
AcDbEntity
  8
Default
 62
7
100
AcDbPolyline
 90
2
 70
0
 10
103.552978
 20
88.242644
 30
0.0
 10
103.544060
 20
88.061062
 30
0.0
  0
LWPOLYLINE
  5
537
100
AcDbEntity
  8
Default
 62
7
100
AcDbPolyline
 90
2
 70
0
 10
103.544060
 20
88.424225
 30
0.0
 10
103.552978
 20
88.242644
 30
0.0
  0
LWPOLYLINE
  5
538
100
AcDbEntity
  8
Default
 62
7
100
AcDbPolyline
 90
2
 70
0
 10
103.517361
 20
88.604057
 30
0.0
 10
103.544088
 20
88.424225
 30
0.0
  0
LWPOLYLINE
  5
539
100
AcDbEntity
  8
Default
 62
7
100
AcDbPolyline
 90
2
 70
0
 10
103.473227
 20
88.780390
 30
0.0
 10
103.517375
 20
88.604057
 30
0.0
  0
LWPOLYLINE
  5
53a
100
AcDbEntity
  8
Default
 62
7
100
AcDbPolyline
 90
2
 70
0
 10
103.411957
 20
88.951558
 30
0.0
 10
103.473227
 20
88.780390
 30
0.0
  0
LWPOLYLINE
  5
53b
100
AcDbEntity
  8
Default
 62
7
100
AcDbPolyline
 90
2
 70
0
 10
103.334247
 20
89.115896
 30
0.0
 10
103.411957
 20
88.951558
 30
0.0
  0
LWPOLYLINE
  5
53c
100
AcDbEntity
  8
Default
 62
7
100
AcDbPolyline
 90
2
 70
0
 10
103.240781
 20
89.271795
 30
0.0
 10
103.334247
 20
89.115896
 30
0.0
  0
LWPOLYLINE
  5
53d
100
AcDbEntity
  8
Default
 62
7
100
AcDbPolyline
 90
2
 70
0
 10
103.132498
 20
89.417817
 30
0.0
 10
103.240781
 20
89.271795
 30
0.0
  0
LWPOLYLINE
  5
53e
100
AcDbEntity
  8
Default
 62
7
100
AcDbPolyline
 90
2
 70
0
 10
103.010391
 20
89.552578
 30
0.0
 10
103.132498
 20
89.417817
 30
0.0
  0
LWPOLYLINE
  5
53f
100
AcDbEntity
  8
Default
 62
7
100
AcDbPolyline
 90
2
 70
0
 10
102.875707
 20
89.674611
 30
0.0
 10
103.010391
 20
89.552578
 30
0.0
  0
LWPOLYLINE
  5
540
100
AcDbEntity
  8
Default
 62
7
100
AcDbPolyline
 90
2
 70
0
 10
102.729688
 20
89.782900
 30
0.0
 10
102.875707
 20
89.674611
 30
0.0
  0
LWPOLYLINE
  5
541
100
AcDbEntity
  8
Default
 62
7
100
AcDbPolyline
 90
2
 70
0
 10
102.573768
 20
89.876372
 30
0.0
 10
102.729688
 20
89.782900
 30
0.0
  0
LWPOLYLINE
  5
542
100
AcDbEntity
  8
Default
 62
7
100
AcDbPolyline
 90
2
 70
0
 10
102.409444
 20
89.954124
 30
0.0
 10
102.573768
 20
89.876372
 30
0.0
  0
LWPOLYLINE
  5
543
100
AcDbEntity
  8
Default
 62
7
100
AcDbPolyline
 90
2
 70
0
 10
102.238271
 20
90.015338
 30
0.0
 10
102.409444
 20
89.954124
 30
0.0
  0
LWPOLYLINE
  5
544
100
AcDbEntity
  8
Default
 62
7
100
AcDbPolyline
 90
2
 70
0
 10
102.061927
 20
90.059506
 30
0.0
 10
102.238271
 20
90.015338
 30
0.0
  0
LWPOLYLINE
  5
545
100
AcDbEntity
  8
Default
 62
7
100
AcDbPolyline
 90
2
 70
0
 10
101.882098
 20
90.086204
 30
0.0
 10
102.061927
 20
90.059393
 30
0.0
  0
LWPOLYLINE
  5
546
100
AcDbEntity
  8
Default
 62
7
100
AcDbPolyline
 90
2
 70
0
 10
101.700525
 20
90.095009
 30
0.0
 10
101.882098
 20
90.085978
 30
0.0
  0
LWPOLYLINE
  5
547
100
AcDbEntity
  8
Default
 62
7
100
AcDbPolyline
 90
2
 70
0
 10
101.518954
 20
90.085978
 30
0.0
 10
101.700525
 20
90.095009
 30
0.0
  0
LWPOLYLINE
  5
548
100
AcDbEntity
  8
Default
 62
7
100
AcDbPolyline
 90
2
 70
0
 10
101.339122
 20
90.059393
 30
0.0
 10
101.518954
 20
90.086204
 30
0.0
  0
LWPOLYLINE
  5
549
100
AcDbEntity
  8
Default
 62
7
100
AcDbPolyline
 90
2
 70
0
 10
101.162781
 20
90.015338
 30
0.0
 10
101.339122
 20
90.059506
 30
0.0
  0
LWPOLYLINE
  5
54a
100
AcDbEntity
  8
Default
 62
7
100
AcDbPolyline
 90
2
 70
0
 10
100.991608
 20
89.954124
 30
0.0
 10
101.162781
 20
90.015338
 30
0.0
  0
LWPOLYLINE
  5
54b
100
AcDbEntity
  8
Default
 62
7
100
AcDbPolyline
 90
2
 70
0
 10
100.827281
 20
89.876372
 30
0.0
 10
100.991608
 20
89.954124
 30
0.0
  0
LWPOLYLINE
  5
54c
100
AcDbEntity
  8
Default
 62
7
100
AcDbPolyline
 90
2
 70
0
 10
100.671365
 20
89.782900
 30
0.0
 10
100.827281
 20
89.876372
 30
0.0
  0
LWPOLYLINE
  5
54d
100
AcDbEntity
  8
Default
 62
7
100
AcDbPolyline
 90
2
 70
0
 10
100.525346
 20
89.674611
 30
0.0
 10
100.671365
 20
89.782900
 30
0.0
  0
LWPOLYLINE
  5
54e
100
AcDbEntity
  8
Default
 62
7
100
AcDbPolyline
 90
2
 70
0
 10
100.390599
 20
89.552578
 30
0.0
 10
100.525346
 20
89.674611
 30
0.0
  0
LWPOLYLINE
  5
54f
100
AcDbEntity
  8
Default
 62
7
100
AcDbPolyline
 90
2
 70
0
 10
100.268555
 20
89.417817
 30
0.0
 10
100.390599
 20
89.552578
 30
0.0
  0
LWPOLYLINE
  5
550
100
AcDbEntity
  8
Default
 62
7
100
AcDbPolyline
 90
2
 70
0
 10
100.160269
 20
89.271795
 30
0.0
 10
100.268555
 20
89.417817
 30
0.0
  0
LWPOLYLINE
  5
551
100
AcDbEntity
  8
Default
 62
7
100
AcDbPolyline
 90
2
 70
0
 10
100.066805
 20
89.115896
 30
0.0
 10
100.160269
 20
89.271795
 30
0.0
  0
LWPOLYLINE
  5
552
100
AcDbEntity
  8
Default
 62
7
100
AcDbPolyline
 90
2
 70
0
 10
99.989033
 20
88.951558
 30
0.0
 10
100.066805
 20
89.115896
 30
0.0
  0
LWPOLYLINE
  5
553
100
AcDbEntity
  8
Default
 62
7
100
AcDbPolyline
 90
2
 70
0
 10
99.927825
 20
88.780390
 30
0.0
 10
99.989033
 20
88.951558
 30
0.0
  0
LWPOLYLINE
  5
554
100
AcDbEntity
  8
Default
 62
7
100
AcDbPolyline
 90
2
 70
0
 10
99.883677
 20
88.604057
 30
0.0
 10
99.927825
 20
88.780390
 30
0.0
  0
LWPOLYLINE
  5
555
100
AcDbEntity
  8
Default
 62
7
100
AcDbPolyline
 90
2
 70
0
 10
99.856965
 20
88.424225
 30
0.0
 10
99.883691
 20
88.604057
 30
0.0
  0
LWPOLYLINE
  5
556
100
AcDbEntity
  8
Default
 62
7
100
AcDbPolyline
 90
2
 70
0
 10
99.848072
 20
88.242644
 30
0.0
 10
99.856990
 20
88.424225
 30
0.0
  0
LWPOLYLINE
  5
557
100
AcDbEntity
  8
Default
 62
7
100
AcDbPolyline
 90
2
 70
0
 10
99.856990
 20
88.061062
 30
0.0
 10
99.848072
 20
88.242644
 30
0.0
  0
LWPOLYLINE
  5
558
100
AcDbEntity
  8
Default
 62
7
100
AcDbPolyline
 90
2
 70
0
 10
99.883691
 20
87.881230
 30
0.0
 10
99.856965
 20
88.061062
 30
0.0
  0
LWPOLYLINE
  5
559
100
AcDbEntity
  8
Default
 62
7
100
AcDbPolyline
 90
2
 70
0
 10
99.927825
 20
87.704897
 30
0.0
 10
99.883677
 20
87.881230
 30
0.0
  0
LWPOLYLINE
  5
55a
100
AcDbEntity
  8
Default
 62
7
100
AcDbPolyline
 90
2
 70
0
 10
99.989033
 20
87.533730
 30
0.0
 10
99.927825
 20
87.704897
 30
0.0
  0
LWPOLYLINE
  5
55b
100
AcDbEntity
  8
Default
 62
7
100
AcDbPolyline
 90
2
 70
0
 10
100.066805
 20
87.369392
 30
0.0
 10
99.989033
 20
87.533730
 30
0.0
  0
LWPOLYLINE
  5
55c
100
AcDbEntity
  8
Default
 62
7
100
AcDbPolyline
 90
2
 70
0
 10
100.160269
 20
87.213492
 30
0.0
 10
100.066805
 20
87.369392
 30
0.0
  0
LWPOLYLINE
  5
55d
100
AcDbEntity
  8
Default
 62
7
100
AcDbPolyline
 90
2
 70
0
 10
100.268555
 20
87.067470
 30
0.0
 10
100.160269
 20
87.213492
 30
0.0
  0
LWPOLYLINE
  5
55e
100
AcDbEntity
  8
Default
 62
7
100
AcDbPolyline
 90
2
 70
0
 10
100.390599
 20
86.932766
 30
0.0
 10
100.268555
 20
87.067470
 30
0.0
  0
LWPOLYLINE
  5
55f
100
AcDbEntity
  8
Default
 62
7
100
AcDbPolyline
 90
2
 70
0
 10
100.525346
 20
86.810676
 30
0.0
 10
100.390599
 20
86.932766
 30
0.0
  0
LWPOLYLINE
  5
560
100
AcDbEntity
  8
Default
 62
7
100
AcDbPolyline
 90
2
 70
0
 10
100.671365
 20
86.702388
 30
0.0
 10
100.525346
 20
86.810676
 30
0.0
  0
LWPOLYLINE
  5
561
100
AcDbEntity
  8
Default
 62
7
100
AcDbPolyline
 90
2
 70
0
 10
100.827281
 20
86.608916
 30
0.0
 10
100.671365
 20
86.702388
 30
0.0
  0
LWPOLYLINE
  5
562
100
AcDbEntity
  8
Default
 62
7
100
AcDbPolyline
 90
2
 70
0
 10
100.991608
 20
86.531220
 30
0.0
 10
100.827281
 20
86.608916
 30
0.0
  0
LWPOLYLINE
  5
563
100
AcDbEntity
  8
Default
 62
7
100
AcDbPolyline
 90
2
 70
0
 10
101.162781
 20
86.469949
 30
0.0
 10
100.991608
 20
86.531220
 30
0.0
  0
LWPOLYLINE
  5
564
100
AcDbEntity
  8
Default
 62
7
100
AcDbPolyline
 90
2
 70
0
 10
101.339122
 20
86.425782
 30
0.0
 10
101.162781
 20
86.469949
 30
0.0
  0
LWPOLYLINE
  5
565
100
AcDbEntity
  8
Default
 62
7
100
AcDbPolyline
 90
2
 70
0
 10
101.518954
 20
86.399083
 30
0.0
 10
101.339122
 20
86.425895
 30
0.0
  0
LWPOLYLINE
  5
566
100
AcDbEntity
  8
Default
 62
7
100
AcDbPolyline
 90
2
 70
0
 10
79.284119
 20
86.390278
 30
0.0
 10
79.102545
 20
86.399309
 30
0.0
  0
LWPOLYLINE
  5
567
100
AcDbEntity
  8
Default
 62
7
100
AcDbPolyline
 90
2
 70
0
 10
79.465692
 20
86.399309
 30
0.0
 10
79.284119
 20
86.390278
 30
0.0
  0
LWPOLYLINE
  5
568
100
AcDbEntity
  8
Default
 62
7
100
AcDbPolyline
 90
2
 70
0
 10
79.645521
 20
86.425895
 30
0.0
 10
79.465692
 20
86.399083
 30
0.0
  0
LWPOLYLINE
  5
569
100
AcDbEntity
  8
Default
 62
7
100
AcDbPolyline
 90
2
 70
0
 10
79.821865
 20
86.469949
 30
0.0
 10
79.645521
 20
86.425782
 30
0.0
  0
LWPOLYLINE
  5
56a
100
AcDbEntity
  8
Default
 62
7
100
AcDbPolyline
 90
2
 70
0
 10
79.993038
 20
86.531220
 30
0.0
 10
79.821865
 20
86.469949
 30
0.0
  0
LWPOLYLINE
  5
56b
100
AcDbEntity
  8
Default
 62
7
100
AcDbPolyline
 90
2
 70
0
 10
80.157362
 20
86.608916
 30
0.0
 10
79.993038
 20
86.531220
 30
0.0
  0
LWPOLYLINE
  5
56c
100
AcDbEntity
  8
Default
 62
7
100
AcDbPolyline
 90
2
 70
0
 10
80.313282
 20
86.702388
 30
0.0
 10
80.157362
 20
86.608916
 30
0.0
  0
LWPOLYLINE
  5
56d
100
AcDbEntity
  8
Default
 62
7
100
AcDbPolyline
 90
2
 70
0
 10
80.459298
 20
86.810676
 30
0.0
 10
80.313282
 20
86.702388
 30
0.0
  0
LWPOLYLINE
  5
56e
100
AcDbEntity
  8
Default
 62
7
100
AcDbPolyline
 90
2
 70
0
 10
80.593986
 20
86.932766
 30
0.0
 10
80.459298
 20
86.810676
 30
0.0
  0
LWPOLYLINE
  5
56f
100
AcDbEntity
  8
Default
 62
7
100
AcDbPolyline
 90
2
 70
0
 10
80.716092
 20
87.067470
 30
0.0
 10
80.593986
 20
86.932766
 30
0.0
  0
LWPOLYLINE
  5
570
100
AcDbEntity
  8
Default
 62
7
100
AcDbPolyline
 90
2
 70
0
 10
80.824375
 20
87.213492
 30
0.0
 10
80.716092
 20
87.067470
 30
0.0
  0
LWPOLYLINE
  5
571
100
AcDbEntity
  8
Default
 62
7
100
AcDbPolyline
 90
2
 70
0
 10
80.917838
 20
87.369392
 30
0.0
 10
80.824375
 20
87.213492
 30
0.0
  0
LWPOLYLINE
  5
572
100
AcDbEntity
  8
Default
 62
7
100
AcDbPolyline
 90
2
 70
0
 10
80.995548
 20
87.533730
 30
0.0
 10
80.917838
 20
87.369392
 30
0.0
  0
LWPOLYLINE
  5
573
100
AcDbEntity
  8
Default
 62
7
100
AcDbPolyline
 90
2
 70
0
 10
81.056821
 20
87.704897
 30
0.0
 10
80.995548
 20
87.533730
 30
0.0
  0
LWPOLYLINE
  5
574
100
AcDbEntity
  8
Default
 62
7
100
AcDbPolyline
 90
2
 70
0
 10
81.100970
 20
87.881230
 30
0.0
 10
81.056821
 20
87.704897
 30
0.0
  0
LWPOLYLINE
  5
575
100
AcDbEntity
  8
Default
 62
7
100
AcDbPolyline
 90
2
 70
0
 10
81.127682
 20
88.061062
 30
0.0
 10
81.100955
 20
87.881230
 30
0.0
  0
LWPOLYLINE
  5
576
100
AcDbEntity
  8
Default
 62
7
100
AcDbPolyline
 90
2
 70
0
 10
81.136572
 20
88.242644
 30
0.0
 10
81.127654
 20
88.061062
 30
0.0
  0
LWPOLYLINE
  5
577
100
AcDbEntity
  8
Default
 62
7
100
AcDbPolyline
 90
2
 70
0
 10
81.127654
 20
88.424225
 30
0.0
 10
81.136572
 20
88.242644
 30
0.0
  0
LWPOLYLINE
  5
578
100
AcDbEntity
  8
Default
 62
7
100
AcDbPolyline
 90
2
 70
0
 10
81.100955
 20
88.604057
 30
0.0
 10
81.127682
 20
88.424225
 30
0.0
  0
LWPOLYLINE
  5
579
100
AcDbEntity
  8
Default
 62
7
100
AcDbPolyline
 90
2
 70
0
 10
81.056821
 20
88.780390
 30
0.0
 10
81.100970
 20
88.604057
 30
0.0
  0
LWPOLYLINE
  5
57a
100
AcDbEntity
  8
Default
 62
7
100
AcDbPolyline
 90
2
 70
0
 10
80.995548
 20
88.951558
 30
0.0
 10
81.056821
 20
88.780390
 30
0.0
  0
LWPOLYLINE
  5
57b
100
AcDbEntity
  8
Default
 62
7
100
AcDbPolyline
 90
2
 70
0
 10
80.917838
 20
89.115896
 30
0.0
 10
80.995548
 20
88.951558
 30
0.0
  0
LWPOLYLINE
  5
57c
100
AcDbEntity
  8
Default
 62
7
100
AcDbPolyline
 90
2
 70
0
 10
80.824375
 20
89.271795
 30
0.0
 10
80.917838
 20
89.115896
 30
0.0
  0
LWPOLYLINE
  5
57d
100
AcDbEntity
  8
Default
 62
7
100
AcDbPolyline
 90
2
 70
0
 10
80.716092
 20
89.417817
 30
0.0
 10
80.824375
 20
89.271795
 30
0.0
  0
LWPOLYLINE
  5
57e
100
AcDbEntity
  8
Default
 62
7
100
AcDbPolyline
 90
2
 70
0
 10
80.593986
 20
89.552578
 30
0.0
 10
80.716092
 20
89.417817
 30
0.0
  0
LWPOLYLINE
  5
57f
100
AcDbEntity
  8
Default
 62
7
100
AcDbPolyline
 90
2
 70
0
 10
80.459298
 20
89.674611
 30
0.0
 10
80.593986
 20
89.552578
 30
0.0
  0
LWPOLYLINE
  5
580
100
AcDbEntity
  8
Default
 62
7
100
AcDbPolyline
 90
2
 70
0
 10
80.313282
 20
89.782900
 30
0.0
 10
80.459298
 20
89.674611
 30
0.0
  0
LWPOLYLINE
  5
581
100
AcDbEntity
  8
Default
 62
7
100
AcDbPolyline
 90
2
 70
0
 10
80.157362
 20
89.876372
 30
0.0
 10
80.313282
 20
89.782900
 30
0.0
  0
LWPOLYLINE
  5
582
100
AcDbEntity
  8
Default
 62
7
100
AcDbPolyline
 90
2
 70
0
 10
79.993038
 20
89.954124
 30
0.0
 10
80.157362
 20
89.876372
 30
0.0
  0
LWPOLYLINE
  5
583
100
AcDbEntity
  8
Default
 62
7
100
AcDbPolyline
 90
2
 70
0
 10
79.821865
 20
90.015338
 30
0.0
 10
79.993038
 20
89.954124
 30
0.0
  0
LWPOLYLINE
  5
584
100
AcDbEntity
  8
Default
 62
7
100
AcDbPolyline
 90
2
 70
0
 10
79.645521
 20
90.059506
 30
0.0
 10
79.821865
 20
90.015338
 30
0.0
  0
LWPOLYLINE
  5
585
100
AcDbEntity
  8
Default
 62
7
100
AcDbPolyline
 90
2
 70
0
 10
79.465692
 20
90.086204
 30
0.0
 10
79.645521
 20
90.059393
 30
0.0
  0
LWPOLYLINE
  5
586
100
AcDbEntity
  8
Default
 62
7
100
AcDbPolyline
 90
2
 70
0
 10
79.284119
 20
90.095009
 30
0.0
 10
79.465692
 20
90.085978
 30
0.0
  0
LWPOLYLINE
  5
587
100
AcDbEntity
  8
Default
 62
7
100
AcDbPolyline
 90
2
 70
0
 10
79.102545
 20
90.085978
 30
0.0
 10
79.284119
 20
90.095009
 30
0.0
  0
LWPOLYLINE
  5
588
100
AcDbEntity
  8
Default
 62
7
100
AcDbPolyline
 90
2
 70
0
 10
78.922716
 20
90.059393
 30
0.0
 10
79.102545
 20
90.086204
 30
0.0
  0
LWPOLYLINE
  5
589
100
AcDbEntity
  8
Default
 62
7
100
AcDbPolyline
 90
2
 70
0
 10
78.746375
 20
90.015338
 30
0.0
 10
78.922716
 20
90.059506
 30
0.0
  0
LWPOLYLINE
  5
58a
100
AcDbEntity
  8
Default
 62
7
100
AcDbPolyline
 90
2
 70
0
 10
78.575199
 20
89.954124
 30
0.0
 10
78.746375
 20
90.015338
 30
0.0
  0
LWPOLYLINE
  5
58b
100
AcDbEntity
  8
Default
 62
7
100
AcDbPolyline
 90
2
 70
0
 10
78.410875
 20
89.876372
 30
0.0
 10
78.575199
 20
89.954124
 30
0.0
  0
LWPOLYLINE
  5
58c
100
AcDbEntity
  8
Default
 62
7
100
AcDbPolyline
 90
2
 70
0
 10
78.254956
 20
89.782900
 30
0.0
 10
78.410875
 20
89.876372
 30
0.0
  0
LWPOLYLINE
  5
58d
100
AcDbEntity
  8
Default
 62
7
100
AcDbPolyline
 90
2
 70
0
 10
78.108940
 20
89.674611
 30
0.0
 10
78.254956
 20
89.782900
 30
0.0
  0
LWPOLYLINE
  5
58e
100
AcDbEntity
  8
Default
 62
7
100
AcDbPolyline
 90
2
 70
0
 10
77.974190
 20
89.552578
 30
0.0
 10
78.108940
 20
89.674611
 30
0.0
  0
LWPOLYLINE
  5
58f
100
AcDbEntity
  8
Default
 62
7
100
AcDbPolyline
 90
2
 70
0
 10
77.852146
 20
89.417817
 30
0.0
 10
77.974190
 20
89.552578
 30
0.0
  0
LWPOLYLINE
  5
590
100
AcDbEntity
  8
Default
 62
7
100
AcDbPolyline
 90
2
 70
0
 10
77.743863
 20
89.271795
 30
0.0
 10
77.852146
 20
89.417817
 30
0.0
  0
LWPOLYLINE
  5
591
100
AcDbEntity
  8
Default
 62
7
100
AcDbPolyline
 90
2
 70
0
 10
77.650399
 20
89.115896
 30
0.0
 10
77.743863
 20
89.271795
 30
0.0
  0
LWPOLYLINE
  5
592
100
AcDbEntity
  8
Default
 62
7
100
AcDbPolyline
 90
2
 70
0
 10
77.572627
 20
88.951558
 30
0.0
 10
77.650399
 20
89.115896
 30
0.0
  0
LWPOLYLINE
  5
593
100
AcDbEntity
  8
Default
 62
7
100
AcDbPolyline
 90
2
 70
0
 10
77.511416
 20
88.780390
 30
0.0
 10
77.572627
 20
88.951558
 30
0.0
  0
LWPOLYLINE
  5
594
100
AcDbEntity
  8
Default
 62
7
100
AcDbPolyline
 90
2
 70
0
 10
77.467268
 20
88.604057
 30
0.0
 10
77.511416
 20
88.780390
 30
0.0
  0
LWPOLYLINE
  5
595
100
AcDbEntity
  8
Default
 62
7
100
AcDbPolyline
 90
2
 70
0
 10
77.440556
 20
88.424225
 30
0.0
 10
77.467254
 20
88.604057
 30
0.0
  0
LWPOLYLINE
  5
596
100
AcDbEntity
  8
Default
 62
7
100
AcDbPolyline
 90
2
 70
0
 10
77.431638
 20
88.242644
 30
0.0
 10
77.440556
 20
88.424225
 30
0.0
  0
LWPOLYLINE
  5
597
100
AcDbEntity
  8
Default
 62
7
100
AcDbPolyline
 90
2
 70
0
 10
77.440556
 20
88.061062
 30
0.0
 10
77.431638
 20
88.242644
 30
0.0
  0
LWPOLYLINE
  5
598
100
AcDbEntity
  8
Default
 62
7
100
AcDbPolyline
 90
2
 70
0
 10
77.467254
 20
87.881230
 30
0.0
 10
77.440556
 20
88.061062
 30
0.0
  0
LWPOLYLINE
  5
599
100
AcDbEntity
  8
Default
 62
7
100
AcDbPolyline
 90
2
 70
0
 10
77.511416
 20
87.704897
 30
0.0
 10
77.467268
 20
87.881230
 30
0.0
  0
LWPOLYLINE
  5
59a
100
AcDbEntity
  8
Default
 62
7
100
AcDbPolyline
 90
2
 70
0
 10
77.572627
 20
87.533730
 30
0.0
 10
77.511416
 20
87.704897
 30
0.0
  0
LWPOLYLINE
  5
59b
100
AcDbEntity
  8
Default
 62
7
100
AcDbPolyline
 90
2
 70
0
 10
77.650399
 20
87.369392
 30
0.0
 10
77.572627
 20
87.533730
 30
0.0
  0
LWPOLYLINE
  5
59c
100
AcDbEntity
  8
Default
 62
7
100
AcDbPolyline
 90
2
 70
0
 10
77.743863
 20
87.213492
 30
0.0
 10
77.650399
 20
87.369392
 30
0.0
  0
LWPOLYLINE
  5
59d
100
AcDbEntity
  8
Default
 62
7
100
AcDbPolyline
 90
2
 70
0
 10
77.852146
 20
87.067470
 30
0.0
 10
77.743863
 20
87.213492
 30
0.0
  0
LWPOLYLINE
  5
59e
100
AcDbEntity
  8
Default
 62
7
100
AcDbPolyline
 90
2
 70
0
 10
77.974190
 20
86.932766
 30
0.0
 10
77.852146
 20
87.067470
 30
0.0
  0
LWPOLYLINE
  5
59f
100
AcDbEntity
  8
Default
 62
7
100
AcDbPolyline
 90
2
 70
0
 10
78.108940
 20
86.810676
 30
0.0
 10
77.974190
 20
86.932766
 30
0.0
  0
LWPOLYLINE
  5
5a0
100
AcDbEntity
  8
Default
 62
7
100
AcDbPolyline
 90
2
 70
0
 10
78.254956
 20
86.702388
 30
0.0
 10
78.108940
 20
86.810676
 30
0.0
  0
LWPOLYLINE
  5
5a1
100
AcDbEntity
  8
Default
 62
7
100
AcDbPolyline
 90
2
 70
0
 10
78.410875
 20
86.608916
 30
0.0
 10
78.254956
 20
86.702388
 30
0.0
  0
LWPOLYLINE
  5
5a2
100
AcDbEntity
  8
Default
 62
7
100
AcDbPolyline
 90
2
 70
0
 10
78.575199
 20
86.531220
 30
0.0
 10
78.410875
 20
86.608916
 30
0.0
  0
LWPOLYLINE
  5
5a3
100
AcDbEntity
  8
Default
 62
7
100
AcDbPolyline
 90
2
 70
0
 10
78.746375
 20
86.469949
 30
0.0
 10
78.575199
 20
86.531220
 30
0.0
  0
LWPOLYLINE
  5
5a4
100
AcDbEntity
  8
Default
 62
7
100
AcDbPolyline
 90
2
 70
0
 10
78.922716
 20
86.425782
 30
0.0
 10
78.746375
 20
86.469949
 30
0.0
  0
LWPOLYLINE
  5
5a5
100
AcDbEntity
  8
Default
 62
7
100
AcDbPolyline
 90
2
 70
0
 10
79.102545
 20
86.399083
 30
0.0
 10
78.922716
 20
86.425895
 30
0.0
  0
LWPOLYLINE
  5
5a6
100
AcDbEntity
  8
Default
 62
7
100
AcDbPolyline
 90
2
 70
0
 10
89.096616
 20
86.488943
 30
0.0
 10
89.547248
 20
86.124509
 30
0.0
  0
LWPOLYLINE
  5
5a7
100
AcDbEntity
  8
Default
 62
7
100
AcDbPolyline
 90
2
 70
0
 10
88.780617
 20
86.974845
 30
0.0
 10
89.096616
 20
86.488943
 30
0.0
  0
LWPOLYLINE
  5
5a8
100
AcDbEntity
  8
Default
 62
7
100
AcDbPolyline
 90
2
 70
0
 10
88.630292
 20
87.534576
 30
0.0
 10
88.780617
 20
86.974845
 30
0.0
  0
LWPOLYLINE
  5
5a9
100
AcDbEntity
  8
Default
 62
7
100
AcDbPolyline
 90
2
 70
0
 10
88.660249
 20
88.113386
 30
0.0
 10
88.630292
 20
87.534576
 30
0.0
  0
LWPOLYLINE
  5
5aa
100
AcDbEntity
  8
Default
 62
7
100
AcDbPolyline
 90
2
 70
0
 10
88.867615
 20
88.654575
 30
0.0
 10
88.660249
 20
88.113386
 30
0.0
  0
LWPOLYLINE
  5
5ab
100
AcDbEntity
  8
Default
 62
7
100
AcDbPolyline
 90
2
 70
0
 10
89.232065
 20
89.105228
 30
0.0
 10
88.867615
 20
88.654575
 30
0.0
  0
LWPOLYLINE
  5
5ac
100
AcDbEntity
  8
Default
 62
7
100
AcDbPolyline
 90
2
 70
0
 10
89.717967
 20
89.421204
 30
0.0
 10
89.232065
 20
89.105228
 30
0.0
  0
LWPOLYLINE
  5
5ad
100
AcDbEntity
  8
Default
 62
7
100
AcDbPolyline
 90
2
 70
0
 10
90.277665
 20
89.571572
 30
0.0
 10
89.717967
 20
89.421204
 30
0.0
  0
LWPOLYLINE
  5
5ae
100
AcDbEntity
  8
Default
 62
7
100
AcDbPolyline
 90
2
 70
0
 10
90.856506
 20
89.541571
 30
0.0
 10
90.277665
 20
89.571572
 30
0.0
  0
LWPOLYLINE
  5
5af
100
AcDbEntity
  8
Default
 62
7
100
AcDbPolyline
 90
2
 70
0
 10
91.397703
 20
89.334223
 30
0.0
 10
90.856506
 20
89.541571
 30
0.0
  0
LWPOLYLINE
  5
5b0
100
AcDbEntity
  8
Default
 62
7
100
AcDbPolyline
 90
2
 70
0
 10
91.848339
 20
88.969761
 30
0.0
 10
91.397703
 20
89.334223
 30
0.0
  0
LWPOLYLINE
  5
5b1
100
AcDbEntity
  8
Default
 62
7
100
AcDbPolyline
 90
2
 70
0
 10
92.164335
 20
88.483859
 30
0.0
 10
91.848339
 20
88.969761
 30
0.0
  0
LWPOLYLINE
  5
5b2
100
AcDbEntity
  8
Default
 62
7
100
AcDbPolyline
 90
2
 70
0
 10
92.314660
 20
87.924156
 30
0.0
 10
92.164335
 20
88.483859
 30
0.0
  0
LWPOLYLINE
  5
5b3
100
AcDbEntity
  8
Default
 62
7
100
AcDbPolyline
 90
2
 70
0
 10
92.284702
 20
87.345318
 30
0.0
 10
92.314660
 20
87.924156
 30
0.0
  0
LWPOLYLINE
  5
5b4
100
AcDbEntity
  8
Default
 62
7
100
AcDbPolyline
 90
2
 70
0
 10
92.077337
 20
86.804129
 30
0.0
 10
92.284702
 20
87.345318
 30
0.0
  0
LWPOLYLINE
  5
5b5
100
AcDbEntity
  8
Default
 62
7
100
AcDbPolyline
 90
2
 70
0
 10
91.712886
 20
86.353476
 30
0.0
 10
92.077337
 20
86.804129
 30
0.0
  0
LWPOLYLINE
  5
5b6
100
AcDbEntity
  8
Default
 62
7
100
AcDbPolyline
 90
2
 70
0
 10
91.226987
 20
86.037529
 30
0.0
 10
91.712886
 20
86.353476
 30
0.0
  0
LWPOLYLINE
  5
5b7
100
AcDbEntity
  8
Default
 62
7
100
AcDbPolyline
 90
2
 70
0
 10
90.667290
 20
85.887161
 30
0.0
 10
91.226987
 20
86.037529
 30
0.0
  0
LWPOLYLINE
  5
5b8
100
AcDbEntity
  8
Default
 62
7
100
AcDbPolyline
 90
2
 70
0
 10
90.088446
 20
85.917133
 30
0.0
 10
90.667290
 20
85.887161
 30
0.0
  0
LWPOLYLINE
  5
5b9
100
AcDbEntity
  8
Default
 62
7
100
AcDbPolyline
 90
2
 70
0
 10
89.547248
 20
86.124509
 30
0.0
 10
90.088446
 20
85.917133
 30
0.0
  0
LWPOLYLINE
  5
5ba
100
AcDbEntity
  8
Default
 62
7
100
AcDbPolyline
 90
2
 70
0
 10
92.810056
 20
83.686420
 30
0.0
 10
88.139967
 20
83.683598
 30
0.0
  0
LWPOLYLINE
  5
5bb
100
AcDbEntity
  8
Default
 62
7
100
AcDbPolyline
 90
2
 70
0
 10
95.142558
 20
87.732386
 30
0.0
 10
92.810056
 20
83.686533
 30
0.0
  0
LWPOLYLINE
  5
5bc
100
AcDbEntity
  8
Default
 62
7
100
AcDbPolyline
 90
2
 70
0
 10
92.804976
 20
91.775329
 30
0.0
 10
95.142550
 20
87.732386
 30
0.0
  0
LWPOLYLINE
  5
5bd
100
AcDbEntity
  8
Default
 62
7
100
AcDbPolyline
 90
2
 70
0
 10
88.134887
 20
91.772414
 30
0.0
 10
92.804976
 20
91.775321
 30
0.0
  0
LWPOLYLINE
  5
5be
100
AcDbEntity
  8
Default
 62
7
100
AcDbPolyline
 90
2
 70
0
 10
85.802385
 20
87.726572
 30
0.0
 10
88.134887
 20
91.772405
 30
0.0
  0
LWPOLYLINE
  5
5bf
100
AcDbEntity
  8
Default
 62
7
100
AcDbPolyline
 90
2
 70
0
 10
88.139967
 20
83.683598
 30
0.0
 10
85.802394
 20
87.726572
 30
0.0
  0
ENDSEC
  0
SECTION
  2
OBJECTS
  0
DICTIONARY
  5
C
330
0
100
AcDbDictionary
  3
ACAD_GROUP
350
D
  3
ACAD_MLINESTYLE
350
17
  0
DICTIONARY
  5
D
330
C
100
AcDbDictionary
  0
DICTIONARY
  5
1A
330
C
100
AcDbDictionary
  0
DICTIONARY
  5
17
330
C
100
AcDbDictionary
  3
STANDARD
350
18
  0
DICTIONARY
  5
19
330
C
100
AcDbDictionary
  0
ENDSEC
  0
EOF
