0
SECTION
2
HEADER
9
$INSUNITS
70
4
9
$ACADVER
1
AC1014
9
$HANDSEED
5
FFFF
0
ENDSEC
0
SECTION
2
TABLES
0
TABLE
2
VPORT
5
8
100
AcDbSymbolTable
0
ENDTAB
0
TABLE
2
LTYPE
5
5
100
AcDbSymbolTable
0
LTYPE
5
14
100
AcDbSymbolTableRecord
100
AcDbLinetypeTableRecord
2
BYBLOCK
70
0
0
LTYPE
5
15
100
AcDbSymbolTableRecord
100
AcDbLinetypeTableRecord
2
BYLAYER
70
0
0
ENDTAB
0
TABLE
2
LAYER
5
2
100
AcDbSymbolTable
70
2
0
LAYER
5
50
100
AcDbSymbolTableRecord
100
AcDbLayerTableRecord
2
0
70
0
6
CONTINUOUS
0
ENDTAB
0
TABLE
2
STYLE
5
3
100
AcDbSymbolTable
70
1
0
STYLE
5
11
100
AcDbSymbolTableRecord
100
AcDbTextStyleTableRecord
2
STANDARD
70
0
0
ENDTAB
0
TABLE
2
VIEW
5
6
100
AcDbSymbolTable
70
0
0
ENDTAB
0
TABLE
2
UCS
5
7
100
AcDbSymbolTable
70
0
0
ENDTAB
0
TABLE
2
APPID
5
9
100
AcDbSymbolTable
70
2
0
APPID
5
12
100
AcDbSymbolTableRecord
100
AcDbRegAppTableRecord
2
ACAD
70
0
0
ENDTAB
0
TABLE
2
DIMSTYLE
5
A
100
AcDbSymbolTable
70
1
0
ENDTAB
0
TABLE
2
BLOCK_RECORD
5
1
100
AcDbSymbolTable
70
1
0
BLOCK_RECORD
5
1F
100
AcDbSymbolTableRecord
100
AcDbBlockTableRecord
2
*MODEL_SPACE
0
BLOCK_RECORD
5
1B
100
AcDbSymbolTableRecord
100
AcDbBlockTableRecord
2
*PAPER_SPACE
0
ENDTAB
0
ENDSEC
0
SECTION
2
BLOCKS
0
BLOCK
5
20
100
AcDbEntity
100
AcDbBlockBegin
2
*MODEL_SPACE
0
ENDBLK
5
21
100
AcDbEntity
100
AcDbBlockEnd
0
BLOCK
5
1C
100
AcDbEntity
100
AcDbBlockBegin
2
*PAPER_SPACE
0
ENDBLK
5
1D
100
AcDbEntity
100
AcDbBlockEnd
0
ENDSEC
0
SECTION
2
ENTITIES
0
LWPOLYLINE
5
100
100
AcDbEntity
8
0
100
AcDbPolyline
90
4
70
1
43
0.0
10
453.61524089447596
20
80.994773790884494
10
-10.384759105523585
20
80.994773790884437
10
-10.384759105523642
20
270.99477379088444
10
453.6152408944759
20
270.99477379088449
0
LWPOLYLINE
5
101
100
AcDbEntity
8
0
100
AcDbPolyline
90
4
70
1
43
0.0
10
-10.384759105523642
20
80.994773790884494
10
453.61524089447596
20
80.99477379088448
10
453.61524089447596
20
270.99477379088444
10
-10.384759105523642
20
270.99477379088444
0
LWPOLYLINE
5
102
100
AcDbEntity
8
0
100
AcDbPolyline
90
8
70
1
43
0.0
10
75
20
92.000000000000014
10
274.99999999999994
20
91.999999999999972
42
0.41421356237309503
10
299.99999999999994
20
116.99999999999997
10
300.00000000000006
20
217
42
0.41421356237309503
10
275.00000000000006
20
242
10
75.000000000000014
20
242.00000000000003
42
0.41421356237309498
10
50.000000000000014
20
217.00000000000003
10
49.999999999999993
20
117.00000000000001
42
0.41421356237309515
0
LINE
5
103
100
AcDbEntity
8
0
100
AcDbLine
10
279.99999999999994
20
167
30
0
11
300
21
167
31
-3.0814879110195778e-31
0
LINE
5
104
100
AcDbEntity
8
0
100
AcDbLine
10
175
20
92
30
0
11
175.00000000000003
21
242.00000000000003
31
-3.0814879110195774e-31
0
CIRCLE
5
105
100
AcDbEntity
8
0
100
AcDbCircle
10
273.27084899965507
20
129.7770699500397
30
0
40
6.5
0
LINE
5
106
100
AcDbEntity
8
0
100
AcDbLine
10
299.99999999999994
20
137.65297701429947
30
0
11
279.99999999999994
21
137.65297701429947
31
0
0
LINE
5
107
100
AcDbEntity
8
0
100
AcDbLine
10
279.99999999999994
20
167
30
0
11
279.95868139589686
21
92.496704735607764
31
0
0
LINE
5
108
100
AcDbEntity
8
0
100
AcDbLine
10
279.99999999999994
20
167
30
0
11
279.99999999999994
21
241.49489742783177
31
-6.0384584244422564e-31
0
CIRCLE
5
109
100
AcDbEntity
8
0
100
AcDbCircle
10
81.238549804622693
20
110.98290697870304
30
0
40
14.250000000000007
0
LINE
5
110
100
AcDbEntity
8
0
100
AcDbLine
10
112.5
20
129.93161134837362
30
-3.8136528169012452e-33
11
50
21
130
31
7.0156069707709942e-32
0
LINE
5
111
100
AcDbEntity
8
0
100
AcDbLine
10
279.97934069794843
20
129.74835236780388
30
0
11
227.48967034897419
21
129.80578753227553
31
-3.8891687670756224e-32
0
LINE
5
112
100
AcDbEntity
8
0
100
AcDbLine
10
227.48967034897419
20
129.80578753227553
30
-3.8891687670756224e-32
11
227.48967034897419
21
91.999999999999972
31
0
0
LINE
5
113
100
AcDbEntity
8
0
100
AcDbLine
10
227.48967034897419
20
167.00000000000003
30
-1.817763448861113e-31
11
227.48967034897419
21
204.41926052309668
31
-3.255255429027199e-31
0
LINE
5
114
100
AcDbEntity
8
0
100
AcDbLine
10
112.5
20
129.93161134837362
30
-3.8136528169012452e-33
11
112.5
21
92.000000000000014
31
0
0
LINE
5
115
100
AcDbEntity
8
0
100
AcDbLine
10
112.5
20
129.93161134837362
30
-3.8136528169012452e-33
11
112.5
21
242.00000000000003
31
-1.1555579666323413e-31
0
LINE
5
116
100
AcDbEntity
8
0
100
AcDbLine
10
50
20
167.00000000000003
30
3.0814879110195778e-31
11
112.5
21
167.00000000000003
31
-4.0774130849095182e-32
0
LINE
5
117
100
AcDbEntity
8
0
100
AcDbLine
10
112.5
20
167.00000000000003
30
-4.0774130849095182e-32
11
175
21
167.00000000000003
31
-1.5407439555097887e-31
0
LINE
5
118
100
AcDbEntity
8
0
100
AcDbLine
10
175
20
167.00000000000003
30
-1.5407439555097887e-31
11
227.48967034897419
21
167.00000000000003
31
-1.817763448861113e-31
0
LINE
5
119
100
AcDbEntity
8
0
100
AcDbLine
10
227.48967034897419
20
167.00000000000003
30
-1.817763448861113e-31
11
279.99999999999994
21
167
31
0
0
LINE
5
120
100
AcDbEntity
8
0
100
AcDbLine
10
81.242430013002206
20
129.96581395740608
30
3.3180167642808234e-32
11
81.234669596243208
21
92.000000000000014
31
0
0
LINE
5
121
100
AcDbEntity
8
0
100
AcDbLine
10
81.25
20
204.89775118395596
30
4.254927669386306e-31
11
81.25
21
242.00000000000003
31
-1.9259299443872342e-32
0
LINE
5
122
100
AcDbEntity
8
0
100
AcDbLine
10
81.25
20
167.00000000000003
30
1.336873301264313e-31
11
81.242430013002206
21
129.96581395740608
31
3.3180167642808234e-32
0
LINE
5
123
100
AcDbEntity
8
0
100
AcDbLine
10
81.25
20
167.00000000000003
30
1.336873301264313e-31
11
81.25
21
204.89775118395596
31
4.254927669386306e-31
0
CIRCLE
5
124
100
AcDbEntity
8
0
100
AcDbCircle
10
81.246215006501103
20
148.48290697870306
30
0
40
14.250000000000007
0
CIRCLE
5
125
100
AcDbEntity
8
0
100
AcDbCircle
10
81.25
20
185.94887559197801
30
0
40
14.250000000000007
0
CIRCLE
5
126
100
AcDbEntity
8
0
100
AcDbCircle
10
81.25
20
223.44887559197801
30
0
40
14.250000000000007
0
LINE
5
127
100
AcDbEntity
8
0
100
AcDbLine
10
175
20
129.86322269674724
30
-7.7783375341512449e-32
11
112.5
21
129.93161134837362
31
-3.8136528169012452e-33
0
LINE
5
128
100
AcDbEntity
8
0
100
AcDbLine
10
279.99999999999994
20
204.2474487139159
30
-3.0192292122211282e-31
11
227.48967034897419
21
204.41926052309668
31
-3.255255429027199e-31
0
LINE
5
129
100
AcDbEntity
8
0
100
AcDbLine
10
112.5
20
204.79550236791192
30
-7.8459605880490973e-32
11
50
21
205
31
5.3986630281296134e-31
0
LINE
5
130
100
AcDbEntity
8
0
100
AcDbLine
10
175.00000000000003
20
204.5910047358239
30
-2.3129854665532611e-31
11
112.5
21
204.79550236791192
31
-7.8459605880490973e-32
0
LINE
5
131
100
AcDbEntity
8
0
100
AcDbLine
10
227.48967034897419
20
204.41926052309668
30
-3.255255429027199e-31
11
175.00000000000003
21
204.5910047358239
31
-2.3129854665532611e-31
0
LINE
5
132
100
AcDbEntity
8
0
100
AcDbLine
10
227.48967034897419
20
129.80578753227553
30
-3.8891687670756224e-32
11
175
21
129.86322269674724
31
-7.7783375341512449e-32
0
LINE
5
133
100
AcDbEntity
8
0
100
AcDbLine
10
143.18337172556184
20
204.69510753811423
30
-1.5349343042345728e-31
11
143.18337172556184
21
242.00000000000003
31
-2.1010623570487283e-31
0
LINE
5
134
100
AcDbEntity
8
0
100
AcDbLine
10
201.22349435374565
20
129.83452846603066
30
-5.8353343770326418e-32
11
201.22349435374565
21
167.00000000000003
31
-1.679141073866199e-31
0
LINE
5
135
100
AcDbEntity
8
0
100
AcDbLine
10
253.4146123759885
20
167.00000000000003
30
-9.2031313110959688e-32
11
253.4146123759885
21
204.33443509499196
31
-3.1387266235860901e-31
0
LINE
5
136
100
AcDbEntity
8
0
100
AcDbLine
10
253.4146123759885
20
92
30
0
11
253.4146123759885
21
129.77741998301605
31
-1.968286541118175e-32
0
LINE
5
137
100
AcDbEntity
8
0
100
AcDbLine
10
253.4146123759885
20
204.33443509499196
30
-3.1387266235860901e-31
11
253.4146123759885
21
242
31
-5.4978247118585234e-31
0
LINE
5
138
100
AcDbEntity
8
0
100
AcDbLine
10
227.48967034897419
20
129.80578753227553
30
-3.8891687670756224e-32
11
227.48967034897419
21
167.00000000000003
31
-1.817763448861113e-31
0
LINE
5
139
100
AcDbEntity
8
0
100
AcDbLine
10
201.22349435374565
20
204.5052024558172
30
-2.7837373473777962e-31
11
201.22349435374565
21
242
31
-3.889561719377151e-31
0
LINE
5
140
100
AcDbEntity
8
0
100
AcDbLine
10
227.48967034897419
20
204.41926052309668
30
-3.255255429027199e-31
11
227.48967034897419
21
242
31
-4.6989507573572437e-31
0
LINE
5
141
100
AcDbEntity
8
0
100
AcDbLine
10
201.22349435374565
20
167.00000000000003
30
-1.679141073866199e-31
11
201.22349435374565
21
204.5052024558172
31
-2.7837373473777962e-31
0
LINE
5
142
100
AcDbEntity
8
0
100
AcDbLine
10
143.18337172556184
20
92.000000000000014
30
0
11
143.18337172556184
21
129.89803703765901
31
-4.0127900699450206e-32
0
LINE
5
143
100
AcDbEntity
8
0
100
AcDbLine
10
143.18337172556184
20
129.89803703765901
30
-4.0127900699450206e-32
11
143.18337172556184
21
167.00000000000003
31
-9.6397077064334377e-32
0
CIRCLE
5
144
100
AcDbEntity
8
0
100
AcDbCircle
10
143.18337172556184
20
110.94901851882952
30
0
40
14.250000000000007
0
CIRCLE
5
145
100
AcDbEntity
8
0
100
AcDbCircle
10
253.4146123759885
20
110.88870999150801
30
0
40
14.250000000000007
0
CIRCLE
5
146
100
AcDbEntity
8
0
100
AcDbCircle
10
143.18337172556184
20
148.44901851882952
30
0
40
14.250000000000007
0
CIRCLE
5
147
100
AcDbEntity
8
0
100
AcDbCircle
10
81.246215006501103
20
148.48290697870306
30
0
40
14.250000000000007
0
CIRCLE
5
148
100
AcDbEntity
8
0
100
AcDbCircle
10
201.22349435374565
20
185.75260122790863
30
0
40
14.250000000000007
0
CIRCLE
5
149
100
AcDbEntity
8
0
100
AcDbCircle
10
201.22349435374565
20
223.2526012279086
30
0
40
14.250000000000007
0
CIRCLE
5
150
100
AcDbEntity
8
0
100
AcDbCircle
10
253.4146123759885
20
223.16721754749597
30
0
40
14.250000000000007
0
LINE
5
151
100
AcDbEntity
8
0
100
AcDbLine
10
201.22349435374565
20
92.000000000000014
30
0
11
201.22349435374565
21
129.83452846603066
31
-5.8353343770326418e-32
0
LINE
5
152
100
AcDbEntity
8
0
100
AcDbLine
10
143.18337172556184
20
167.00000000000003
30
-9.6397077064334377e-32
11
143.18337172556184
21
204.69510753811423
31
-1.5349343042345728e-31
0
LINE
5
153
100
AcDbEntity
8
0
100
AcDbLine
10
253.4146123759885
20
129.77741998301605
30
-1.968286541118175e-32
11
253.4146123759885
21
167.00000000000003
31
-9.2031313110959688e-32
0
CIRCLE
5
154
100
AcDbEntity
8
0
100
AcDbCircle
10
253.4146123759885
20
148.38870999150802
30
0
40
14.250000000000007
0
CIRCLE
5
155
100
AcDbEntity
8
0
100
AcDbCircle
10
253.4146123759885
20
185.66721754749602
30
0
40
14.250000000000007
0
CIRCLE
5
156
100
AcDbEntity
8
0
100
AcDbCircle
10
201.22349435374565
20
110.91726423301535
30
0
40
14.250000000000007
0
CIRCLE
5
157
100
AcDbEntity
8
0
100
AcDbCircle
10
201.22349435374565
20
148.41726423301535
30
0
40
14.250000000000007
0
CIRCLE
5
158
100
AcDbEntity
8
0
100
AcDbCircle
10
143.18337172556184
20
185.84755376905713
30
0
40
14.250000000000007
0
CIRCLE
5
159
100
AcDbEntity
8
0
100
AcDbCircle
10
143.18337172556184
20
223.34755376905713
30
0
40
14.250000000000007
0
CIRCLE
5
160
100
AcDbEntity
8
0
100
AcDbCircle
10
367.50000000000011
20
167.00000000000003
30
0
40
1.5000000000000211
0
LINE
5
161
100
AcDbEntity
8
0
100
AcDbLine
10
367.50000000000011
20
245.99999999999997
30
0
11
367.50000000000023
21
88.000000000000114
31
0
0
ENDSEC
0
SECTION
2
OBJECTS
0
DICTIONARY
5
C
100
AcDbDictionary
3
ACAD_GROUP
350
D
3
ACAD_MLINESTYLE
350
17
0
DICTIONARY
5
D
100
AcDbDictionary
0
DICTIONARY
5
1A
330
C
100
AcDbDictionary
0
DICTIONARY
5
17
100
AcDbDictionary
0
ENDSEC
0
EOF
