  0
SECTION
  2
HEADER
  9
$ACADVER
  1
AC1009
  9
$DWGCODEPAGE
  3
ansi_1252
  9
$INSBASE
 10
0.0
 20
0.0
 30
0.0
  9
$EXTMIN
 10
5536.0
 20
4531.0
 30
0.0
  9
$EXTMAX
 10
6536.0
 20
5531.0
 30
0.0
  9
$LIMMIN
 10
0.0
 20
0.0
  9
$LIMMAX
 10
12.0
 20
9.0
  9
$ORTHOMODE
 70
     0
  9
$REGENMODE
 70
     1
  9
$FILLMODE
 70
     1
  9
$QTEXTMODE
 70
     0
  9
$MIRRTEXT
 70
     1
  9
$DRAGMODE
 70
     2
  9
$LTSCALE
 40
1.0
  9
$OSMODE
 70
    37
  9
$ATTMODE
 70
     1
  9
$TEXTSIZE
 40
0.2
  9
$TRACEWID
 40
0.05
  9
$TEXTSTYLE
  7
STANDARD
  9
$CLAYER
  8
LAYER_01
  9
$CELTYPE
  6
BYLAYER
  9
$CECOLOR
 62
   256
  9
$DIMSCALE
 40
1.0
  9
$DIMASZ
 40
0.18
  9
$DIMEXO
 40
0.0625
  9
$DIMDLI
 40
0.38
  9
$DIMRND
 40
0.0
  9
$DIMDLE
 40
0.0
  9
$DIMEXE
 40
0.18
  9
$DIMTP
 40
0.0
  9
$DIMTM
 40
0.0
  9
$DIMTXT
 40
0.18
  9
$DIMCEN
 40
0.09
  9
$DIMTSZ
 40
0.0
  9
$DIMTOL
 70
     0
  9
$DIMLIM
 70
     0
  9
$DIMTIH
 70
     1
  9
$DIMTOH
 70
     1
  9
$DIMSE1
 70
     0
  9
$DIMSE2
 70
     0
  9
$DIMTAD
 70
     0
  9
$DIMZIN
 70
     0
  9
$DIMBLK
  1

  9
$DIMASO
 70
     1
  9
$DIMSHO
 70
     1
  9
$DIMPOST
  1

  9
$DIMAPOST
  1

  9
$DIMALT
 70
     0
  9
$DIMALTD
 70
     2
  9
$DIMALTF
 40
25.4
  9
$DIMLFAC
 40
1.0
  9
$DIMTOFL
 70
     0
  9
$DIMTVP
 40
0.0
  9
$DIMTIX
 70
     0
  9
$DIMSOXD
 70
     0
  9
$DIMSAH
 70
     0
  9
$DIMBLK1
  1

  9
$DIMBLK2
  1

  9
$DIMSTYLE
  2
STANDARD
  9
$DIMCLRD
 70
     0
  9
$DIMCLRE
 70
     0
  9
$DIMCLRT
 70
     0
  9
$DIMTFAC
 40
1.0
  9
$DIMGAP
 40
0.09
  9
$LUNITS
 70
     2
  9
$LUPREC
 70
     3
  9
$SKETCHINC
 40
0.1
  9
$FILLETRAD
 40
0.5
  9
$AUNITS
 70
     0
  9
$AUPREC
 70
     0
  9
$MENU
  1
.
  9
$ELEVATION
 40
0.0
  9
$PELEVATION
 40
0.0
  9
$THICKNESS
 40
0.0
  9
$LIMCHECK
 70
     0
  9
$CHAMFERA
 40
0.0
  9
$CHAMFERB
 40
0.0
  9
$SKPOLY
 70
     0
  9
$TDCREATE
 40
2457931.885921458
  9
$TDUPDATE
 40
2457931.885938808
  9
$TDINDWG
 40
0.0000000116
  9
$TDUSRTIMER
 40
0.0000000116
  9
$USRTIMER
 70
     1
  9
$ANGBASE
 50
0.0
  9
$ANGDIR
 70
     0
  9
$PDMODE
 70
     0
  9
$PDSIZE
 40
0.0
  9
$PLINEWID
 40
0.0
  9
$COORDS
 70
     1
  9
$SPLFRAME
 70
     0
  9
$SPLINETYPE
 70
     6
  9
$SPLINESEGS
 70
     8
  9
$ATTDIA
 70
     0
  9
$ATTREQ
 70
     1
  9
$HANDLING
 70
     1
  9
$HANDSEED
  5
DE
  9
$SURFTAB1
 70
     6
  9
$SURFTAB2
 70
     6
  9
$SURFTYPE
 70
     6
  9
$SURFU
 70
     6
  9
$SURFV
 70
     6
  9
$UCSNAME
  2

  9
$UCSORG
 10
0.0
 20
0.0
 30
0.0
  9
$UCSXDIR
 10
1.0
 20
0.0
 30
0.0
  9
$UCSYDIR
 10
0.0
 20
1.0
 30
0.0
  9
$PUCSNAME
  2

  9
$PUCSORG
 10
0.0
 20
0.0
 30
0.0
  9
$PUCSXDIR
 10
1.0
 20
0.0
 30
0.0
  9
$PUCSYDIR
 10
0.0
 20
1.0
 30
0.0
  9
$USERI1
 70
     0
  9
$USERI2
 70
     0
  9
$USERI3
 70
     0
  9
$USERI4
 70
     0
  9
$USERI5
 70
     0
  9
$USERR1
 40
0.0
  9
$USERR2
 40
0.0
  9
$USERR3
 40
0.0
  9
$USERR4
 40
0.0
  9
$USERR5
 40
0.0
  9
$WORLDVIEW
 70
     1
  9
$SHADEDGE
 70
     3
  9
$SHADEDIF
 70
    70
  9
$TILEMODE
 70
     1
  9
$MAXACTVP
 70
    64
  9
$PLIMCHECK
 70
     0
  9
$PEXTMIN
 10
1.000000000000000E+20
 20
1.000000000000000E+20
 30
1.000000000000000E+20
  9
$PEXTMAX
 10
-1.000000000000000E+20
 20
-1.000000000000000E+20
 30
-1.000000000000000E+20
  9
$PLIMMIN
 10
0.0
 20
0.0
  9
$PLIMMAX
 10
12.0
 20
9.0
  9
$UNITMODE
 70
     0
  9
$VISRETAIN
 70
     1
  9
$PLINEGEN
 70
     0
  9
$PSLTSCALE
 70
     1
  0
ENDSEC
  0
SECTION
  2
TABLES
  0
TABLE
  2
VPORT
 70
     1
  0
VPORT
  2
*ACTIVE
 70
     0
 10
0.0
 20
0.0
 11
1.0
 21
1.0
 12
6036.0
 22
5031.0
 13
0.0
 23
0.0
 14
0.5
 24
0.5
 15
0.5
 25
0.5
 16
0.0
 26
0.0
 36
1.0
 17
0.0
 27
0.0
 37
0.0
 40
1020.0
 41
1.0
 42
50.0
 43
0.0
 44
0.0
 50
0.0
 51
0.0
 71
     0
 72
   100
 73
     1
 74
     3
 75
     0
 76
     0
 77
     0
 78
     0
  0
ENDTAB
  0
TABLE
  2
LTYPE
 70
     1
  0
LTYPE
  2
CONTINUOUS
 70
     0
  3
Solid line
 72
    65
 73
     0
 40
0.0
  0
ENDTAB
  0
TABLE
  2
LAYER
 70
     3
  0
LAYER
  2
0
 70
     0
 62
     7
  6
CONTINUOUS
  0
LAYER
  2
LAYER_01
 70
     0
 62
     1
  6
CONTINUOUS
  0
LAYER
  2
DEFAULT
 70
     0
 62
     7
  6
CONTINUOUS
  0
ENDTAB
  0
TABLE
  2
STYLE
 70
     1
  0
STYLE
  2
STANDARD
 70
     0
 40
0.0
 41
1.0
 50
0.0
 71
     0
 42
0.2
  3
txt
  4

  0
ENDTAB
  0
TABLE
  2
VIEW
 70
     0
  0
ENDTAB
  0
TABLE
  2
UCS
 70
     0
  0
ENDTAB
  0
TABLE
  2
APPID
 70
     1
  0
APPID
  2
ACAD
 70
     0
  0
ENDTAB
  0
TABLE
  2
DIMSTYLE
 70
     1
  0
DIMSTYLE
  2
STANDARD
 70
     0
  3

  4

  5

  6

  7

 40
1.0
 41
0.18
 42
0.0625
 43
0.38
 44
0.18
 45
0.0
 46
0.0
 47
0.0
 48
0.0
140
0.18
141
0.09
142
0.0
143
25.4
144
1.0
145
0.0
146
1.0
147
0.09
 71
     0
 72
     0
 73
     1
 74
     1
 75
     0
 76
     0
 77
     0
 78
     0
170
     0
171
     2
172
     0
173
     0
174
     0
175
     0
176
     0
177
     0
178
     0
  0
ENDTAB
  0
ENDSEC
  0
SECTION
  2
BLOCKS
  0
BLOCK
  8
0
  2
$MODEL_SPACE
 70
     0
 10
0.0
 20
0.0
 30
0.0
  3
$MODEL_SPACE
  1

  0
ENDBLK
  5
21
  8
0
  0
BLOCK
 67
     1
  8
0
  2
$PAPER_SPACE
 70
     0
 10
0.0
 20
0.0
 30
0.0
  3
$PAPER_SPACE
  1

  0
ENDBLK
  5
1D
 67
     1
  8
0
  0
ENDSEC
  0
SECTION
  2
ENTITIES
  0
LINE
  5
6B
  8
LAYER_01
 62
     1
 10
6037.093113327282
 20
4885.17150250799
 30
0.0
 11
6080.829317192272
 21
4898.097198456386
 31
0.0
  0
LINE
  5
6C
  8
LAYER_01
 62
     1
 10
6080.829317192272
 20
4898.097198456386
 30
0.0
 11
6142.987318702504
 21
4982.889444509159
 31
0.0
  0
ARC
  5
6D
  8
LAYER_01
 62
     1
 10
6101.570895625591
 20
5013.250264136002
 30
0.0
 40
51.35269680259757
 50
323.7562608076906
 51
0.0
  0
LINE
  5
6E
  8
LAYER_01
 62
     1
 10
6152.923592428188
 20
5013.250264136002
 30
0.0
 11
6152.923592428191
 21
5134.625628264503
 31
0.0
  0
ARC
  5
6F
  8
LAYER_01
 62
     1
 10
6178.599940829483
 20
5134.625628264502
 30
0.0
 40
25.67634840129176
 50
146.4060715785339
 51
179.999999999998
  0
ARC
  5
70
  8
LAYER_01
 62
     1
 10
6135.824177691218
 20
5163.039243959061
 30
0.0
 40
25.67634840130176
 50
326.406071578535
 51
56.52749066715167
  0
LINE
  5
71
  8
LAYER_01
 62
     1
 10
6149.985629267593
 20
5184.457184020492
 30
0.0
 11
6060.995275095849
 21
5243.297230624081
 31
0.0
  0
ARC
  5
72
  8
LAYER_01
 62
     1
 10
6075.15672667222
 20
5264.715170685509
 30
0.0
 40
25.67634840129729
 50
150.3625433680197
 51
236.5274906671579
  0
LINE
  5
73
  8
LAYER_01
 62
     1
 10
6052.839567857172
 20
5277.412386508231
 30
0.0
 11
6067.115075459682
 21
5302.503617119629
 31
0.0
  0
ARC
  5
74
  8
LAYER_01
 62
     1
 10
6044.797916644637
 20
5315.200832942354
 30
0.0
 40
25.67634840129801
 50
330.3625433680106
 51
90.0
  0
LINE
  5
75
  8
LAYER_01
 62
     1
 10
6044.797916644637
 20
5340.877181343652
 30
0.0
 11
5988.706459160288
 21
5340.877181343652
 31
0.0
  0
ARC
  5
76
  8
LAYER_01
 62
     1
 10
5988.70645916029
 20
5366.553529744953
 30
0.0
 40
25.67634840130111
 50
195.6938835513583
 51
269.9999999999959
  0
LINE
  5
77
  8
LAYER_01
 62
     1
 10
5963.987308899431
 20
5359.608137199814
 30
0.0
 11
5926.705052879988
 21
5492.298360627644
 31
0.0
  0
ARC
  5
78
  8
LAYER_01
 62
     1
 10
5901.985902619132
 20
5485.352968082507
 30
0.0
 40
25.67634840129858
 50
15.69388355135601
 51
116.4416232257294
  0
LINE
  5
79
  8
LAYER_01
 62
     1
 10
5890.55259023903
 20
5508.343275502023
 30
0.0
 11
5710.47258807964
 21
5418.787669283814
 31
0.0
  0
LINE
  5
7A
  8
LAYER_01
 62
     1
 10
5710.47258807964
 20
5418.787669283814
 30
0.0
 11
5733.142635327073
 21
5403.798329720445
 31
0.0
  0
LINE
  5
7B
  8
LAYER_01
 62
     1
 10
5733.142635327073
 20
5403.798329720445
 30
0.0
 11
5733.232424269667
 21
5403.794360635764
 31
0.0
  0
ARC
  5
7C
  8
LAYER_01
 62
     1
 10
5733.072338909804
 20
5400.172897163967
 30
0.0
 40
3.624999999999889
 50
270.8436964995546
 51
87.46891050136526
  0
LINE
  5
7D
  8
LAYER_01
 62
     1
 10
5733.125716127299
 20
5396.548290168354
 30
0.0
 11
5731.704028977922
 21
5395.841270771484
 31
0.0
  0
LINE
  5
7E
  8
LAYER_01
 62
     1
 10
5731.704028977922
 20
5395.841270771484
 30
0.0
 11
5731.696141192982
 21
5395.769115734941
 31
0.0
  0
ARC
  5
7F
  8
LAYER_01
 62
     1
 10
5728.092608795726
 20
5396.163043725724
 30
0.0
 40
3.624999999999889
 50
177.1361454907444
 51
353.7613594925592
  0
LINE
  5
80
  8
LAYER_01
 62
     1
 10
5724.472136147408
 20
5396.344159166199
 30
0.0
 11
5699.089764648712
 21
5413.126876077418
 31
0.0
  0
LINE
  5
81
  8
LAYER_01
 62
     1
 10
5699.089764648712
 20
5413.126876077418
 30
0.0
 11
5658.473189053317
 21
5392.927842279463
 31
0.0
  0
ARC
  5
82
  8
LAYER_01
 62
     1
 10
5669.906501433417
 20
5369.937534859948
 30
0.0
 40
25.67634840129723
 50
116.4416232257285
 51
180.000000000004
  0
LINE
  5
83
  8
LAYER_01
 62
     1
 10
5644.23015303212
 20
5369.937534859946
 30
0.0
 11
5644.23015303212
 21
5207.383348467378
 31
0.0
  0
ARC
  5
84
  8
LAYER_01
 62
     1
 10
-3623.955182658285
 20
6787.958258696667
 30
0.0
 40
9401.993217587056
 50
347.6962825340219
 51
350.322015348304
  0
ARC
  5
85
  8
LAYER_01
 62
     1
 10
5587.176874493642
 20
4778.978500313429
 30
0.0
 40
25.67634840129878
 50
167.6916508285823
 51
286.4643952233085
  0
LINE
  5
86
  8
LAYER_01
 62
     1
 10
5594.454051281673
 20
4754.354983805411
 30
0.0
 11
5699.010436140277
 21
4785.25533456099
 31
0.0
  0
LINE
  5
87
  8
LAYER_01
 62
     1
 10
5699.010436140277
 20
4785.25533456099
 30
0.0
 11
5682.555207721226
 21
4806.884869933339
 31
0.0
  0
LINE
  5
88
  8
LAYER_01
 62
     1
 10
5682.555207721226
 20
4806.884869933339
 30
0.0
 11
5682.47175597276
 21
4806.918240781744
 31
0.0
  0
ARC
  5
89
  8
LAYER_01
 62
     1
 10
5683.817704649994
 20
4810.284105775805
 30
0.0
 40
3.624999999999889
 50
71.57920728947998
 51
248.2044212913003
  0
LINE
  5
8A
  8
LAYER_01
 62
     1
 10
5684.963180596139
 20
4813.723365849833
 30
0.0
 11
5686.538527721513
 21
4813.921739771583
 31
0.0
  0
LINE
  5
8B
  8
LAYER_01
 62
     1
 10
5686.538527721513
 20
4813.921739771583
 30
0.0
 11
5686.569779901278
 21
4813.987252119347
 31
0.0
  0
ARC
  5
8C
  8
LAYER_01
 62
     1
 10
5689.841566305996
 20
4812.426470673437
 30
0.0
 40
3.624999999999889
 50
337.8716562806675
 51
154.4968702824864
  0
LINE
  5
8D
  8
LAYER_01
 62
     1
 10
5693.199557515668
 20
4811.060996383761
 30
0.0
 11
5710.294742147737
 21
4788.590272108183
 31
0.0
  0
LINE
  5
8E
  8
LAYER_01
 62
     1
 10
5710.294742147737
 20
4788.590272108183
 30
0.0
 11
5723.626184986239
 21
4771.066789170323
 31
0.0
  0
ARC
  5
8F
  8
LAYER_01
 62
     1
 10
5744.061082501239
 20
4786.613165943591
 30
0.0
 40
25.67634840129879
 50
217.2630014570841
 51
330.3625433680189
  0
LINE
  5
90
  8
LAYER_01
 62
     1
 10
5766.378241316287
 20
4773.915950120868
 30
0.0
 11
5787.750936810956
 21
4811.481495695558
 31
0.0
  0
LINE
  5
91
  8
LAYER_01
 62
     1
 10
5787.750936810956
 20
4811.481495695558
 30
0.0
 11
5897.613662106764
 21
4843.950069960009
 31
0.0
  0
ARC
  5
92
  8
LAYER_01
 62
     1
 10
5904.890838894793
 20
4819.326553451991
 30
0.0
 40
25.67634840129879
 50
20.75966295798374
 51
106.4643952233041
  0
LINE
  5
93
  8
LAYER_01
 62
     1
 10
5928.900161803411
 20
4828.427502891175
 30
0.0
 11
5946.515881573705
 21
4781.955263147515
 31
0.0
  0
ARC
  5
94
  8
LAYER_01
 62
     1
 10
5970.525204482323
 20
4791.056212586698
 30
0.0
 40
25.67634840129878
 50
200.7596629579799
 51
323.7562608076861
  0
LINE
  5
95
  8
LAYER_01
 62
     1
 10
5991.233416020778
 20
4775.875802773275
 30
0.0
 11
6070.095367401223
 21
4883.454583029777
 31
0.0
  0
LINE
  5
96
  8
LAYER_01
 62
     1
 10
6070.095367401223
 20
4883.454583029777
 30
0.0
 11
6033.361564535321
 21
4872.598360383236
 31
0.0
  0
ARC
  5
97
  8
LAYER_01
 62
     1
 10
6030.582330104704
 20
4874.925693831555
 30
0.0
 40
3.624999999999563
 50
114.8979984612234
 51
320.0571630373632
  0
LINE
  5
98
  8
LAYER_01
 62
     1
 10
6029.056190144542
 20
4878.213781698689
 30
0.0
 11
6031.137327432538
 21
4881.052745318917
 31
0.0
  0
LINE
  5
99
  8
LAYER_01
 62
     1
 10
6031.137327432538
 20
4881.052745318917
 30
0.0
 11
6031.09204223528
 21
4881.130379452873
 31
0.0
  0
ARC
  5
9A
  8
LAYER_01
 62
     1
 10
6034.223264991204
 20
4882.956870365193
 30
0.0
 40
3.624999999999889
 50
33.63046277280914
 51
210.2556767746125
  0
LINE
  5
9B
  8
LAYER_01
 10
5953.740794924948
 20
4636.162706292599
 30
0.0
 11
5937.424301714479
 21
4757.340742556954
 31
0.0
  0
LINE
  5
9C
  8
LAYER_01
 10
5937.424301714479
 20
4757.340742556954
 30
0.0
 11
5592.252735579671
 21
4662.670371278474
 31
0.0
  0
LINE
  5
9D
  8
LAYER_01
 10
5592.252735579671
 20
4662.670371278474
 30
0.0
 11
5605.000000000001
 21
4568.0
 31
0.0
  0
LINE
  5
9E
  8
LAYER_01
 10
5605.000000000001
 20
4568.0
 30
0.0
 11
5999.243710653323
 21
4567.999999999999
 31
0.0
  0
LINE
  5
9F
  8
LAYER_01
 10
5999.243710653323
 20
4567.999999999999
 30
0.0
 11
5983.453255532565
 21
4685.271298346511
 31
0.0
  0
LINE
  5
A0
  8
LAYER_01
 10
5983.453255532565
 20
4685.271298346511
 30
0.0
 11
5958.676848905277
 21
4681.935181646022
 31
0.0
  0
LINE
  5
A1
  8
LAYER_01
 10
5958.676848905277
 20
4681.935181646022
 30
0.0
 11
5970.651876164619
 21
4592.999999999999
 31
0.0
  0
LINE
  5
A2
  8
LAYER_01
 10
5970.651876164619
 20
4592.999999999999
 30
0.0
 11
5626.85938786988
 21
4593.0
 31
0.0
  0
LINE
  5
A3
  8
LAYER_01
 10
5626.85938786988
 20
4593.0
 30
0.0
 11
5619.946160964365
 21
4644.342604679455
 31
0.0
  0
LINE
  5
A4
  8
LAYER_01
 10
5619.946160964365
 20
4644.342604679455
 30
0.0
 11
5916.463322948607
 21
4725.668509155972
 31
0.0
  0
LINE
  5
A5
  8
LAYER_01
 10
5916.463322948607
 20
4725.668509155972
 30
0.0
 11
5928.964388297661
 21
4632.826589592109
 31
0.0
  0
LINE
  5
A6
  8
LAYER_01
 10
5928.964388297661
 20
4632.826589592109
 30
0.0
 11
5953.740794924948
 21
4636.162706292599
 31
0.0
  0
LINE
  5
A7
  8
LAYER_01
 10
6103.286759432244
 20
5375.716154704079
 30
0.0
 11
6072.344765563644
 21
5497.0
 31
0.0
  0
LINE
  5
A8
  8
LAYER_01
 10
6072.344765563644
 20
5497.0
 30
0.0
 11
6475.577255640137
 21
5497.0
 31
0.0
  0
LINE
  5
A9
  8
LAYER_01
 10
6475.577255640137
 20
5497.0
 30
0.0
 11
6520.318813116661
 21
5321.625776919034
 31
0.0
  0
LINE
  5
AA
  8
LAYER_01
 10
6520.318813116661
 20
5321.625776919034
 30
0.0
 11
6198.980969983733
 21
5146.251553838065
 31
0.0
  0
LINE
  5
AB
  8
LAYER_01
 10
6198.980969983733
 20
5146.251553838065
 30
0.0
 11
6126.695862625988
 21
5429.588685091047
 31
0.0
  0
LINE
  5
AC
  8
LAYER_01
 10
6126.695862625988
 20
5429.588685091047
 30
0.0
 11
6150.919958465946
 21
5435.768748257114
 31
0.0
  0
LINE
  5
AD
  8
LAYER_01
 10
6150.919958465946
 20
5435.768748257114
 30
0.0
 11
6215.250392874849
 21
5183.611680170197
 31
0.0
  0
LINE
  5
AE
  8
LAYER_01
 10
6215.250392874849
 20
5183.611680170197
 30
0.0
 11
6491.293365796611
 21
5334.265650586901
 31
0.0
  0
LINE
  5
AF
  8
LAYER_01
 10
6491.293365796611
 20
5334.265650586901
 30
0.0
 11
6456.154511280272
 21
5472.0
 31
0.0
  0
LINE
  5
B0
  8
LAYER_01
 10
6456.154511280272
 20
5472.0
 30
0.0
 11
6104.523534352444
 21
5472.0
 31
0.0
  0
LINE
  5
B1
  8
LAYER_01
 10
6104.523534352444
 20
5472.0
 30
0.0
 11
6127.510855272201
 21
5381.896217870146
 31
0.0
  0
LINE
  5
B2
  8
LAYER_01
 10
6127.510855272201
 20
5381.896217870146
 30
0.0
 11
6103.286759432244
 21
5375.716154704079
 31
0.0
  0
LINE
  5
B3
  8
LAYER_01
 10
6500.058937856124
 20
4716.104918613546
 30
0.0
 11
6500.058937856124
 21
4575.265378857142
 31
0.0
  0
LINE
  5
B4
  8
LAYER_01
 10
6500.058937856124
 20
4575.265378857142
 30
0.0
 11
6107.490697418191
 21
4631.48835294433
 31
0.0
  0
LINE
  5
B5
  8
LAYER_01
 10
6107.490697418191
 20
4631.48835294433
 30
0.0
 11
6107.490697418191
 21
4766.483648628882
 31
0.0
  0
LINE
  5
B6
  8
LAYER_01
 10
6107.490697418191
 20
4766.483648628882
 30
0.0
 11
6464.058937856125
 21
4817.550762260104
 31
0.0
  0
LINE
  5
B7
  8
LAYER_01
 10
6464.058937856125
 20
4817.550762260104
 30
0.0
 11
6464.058937856125
 21
4671.402508545107
 31
0.0
  0
LINE
  5
B8
  8
LAYER_01
 10
6464.058937856125
 20
4671.402508545107
 30
0.0
 11
6439.058937856125
 21
4671.402508545107
 31
0.0
  0
LINE
  5
B9
  8
LAYER_01
 10
6439.058937856125
 20
4671.402508545107
 30
0.0
 11
6439.058937856127
 21
4788.715211368289
 31
0.0
  0
LINE
  5
BA
  8
LAYER_01
 10
6439.058937856127
 20
4788.715211368289
 30
0.0
 11
6132.490697418189
 21
4744.809015037005
 31
0.0
  0
LINE
  5
BB
  8
LAYER_01
 10
6132.490697418189
 20
4744.809015037005
 30
0.0
 11
6132.490697418191
 21
4653.162986536206
 31
0.0
  0
LINE
  5
BC
  8
LAYER_01
 10
6132.490697418191
 20
4653.162986536206
 30
0.0
 11
6475.058937856124
 21
4604.100929748958
 31
0.0
  0
LINE
  5
BD
  8
LAYER_01
 10
6475.058937856124
 20
4604.100929748958
 30
0.0
 11
6475.058937856124
 21
4716.104918613546
 31
0.0
  0
LINE
  5
BE
  8
LAYER_01
 10
6475.058937856124
 20
4716.104918613546
 30
0.0
 11
6500.058937856124
 21
4716.104918613546
 31
0.0
  0
LINE
  5
C0
  8
DEFAULT
 10
5882.117565600865
 20
4871.0
 30
0.0
 11
5882.117565600865
 21
5007.940524806925
 31
0.0
  0
LINE
  5
C1
  8
DEFAULT
 10
5882.117565600865
 20
5007.940524806925
 30
0.0
 11
5899.23513120173
 21
5007.940524806925
 31
0.0
  0
LINE
  5
C2
  8
DEFAULT
 10
5899.23513120173
 20
5007.940524806925
 30
0.0
 11
5899.23513120173
 21
4871.0
 31
0.0
  0
LINE
  5
C3
  8
DEFAULT
 10
5899.23513120173
 20
4871.0
 30
0.0
 11
5882.117565600865
 21
4871.0
 31
0.0
  0
LINE
  5
C4
  8
DEFAULT
 10
5839.999999999999
 20
4871.0
 30
0.0
 11
5839.999999999999
 21
5007.940524806925
 31
0.0
  0
LINE
  5
C5
  8
DEFAULT
 10
5839.999999999999
 20
5007.940524806925
 30
0.0
 11
5857.117565600865
 21
5007.940524806925
 31
0.0
  0
LINE
  5
C6
  8
DEFAULT
 10
5857.117565600865
 20
5007.940524806925
 30
0.0
 11
5857.117565600865
 21
4871.0
 31
0.0
  0
LINE
  5
C7
  8
DEFAULT
 10
5857.117565600865
 20
4871.0
 30
0.0
 11
5839.999999999999
 21
4871.0
 31
0.0
  0
CIRCLE
  5
C8
  8
DEFAULT
 10
6070.798900171394
 20
5138.98237269341
 30
0.0
 40
42.79391400216465
  0
LINE
  5
C9
  8
DEFAULT
 10
5934.82295920606
 20
5033.616878808112
 30
0.0
 11
5934.82295920606
 21
5375.968190825428
 31
0.0
  0
LINE
  5
CA
  8
DEFAULT
 10
5934.82295920606
 20
5375.968190825428
 30
0.0
 11
5678.059475193072
 21
5375.968190825428
 31
0.0
  0
LINE
  5
CB
  8
DEFAULT
 10
5678.059475193072
 20
5375.968190825428
 30
0.0
 11
5678.059475193072
 21
5033.61687880811
 31
0.0
  0
LINE
  5
CC
  8
DEFAULT
 10
5678.059475193072
 20
5033.61687880811
 30
0.0
 11
5934.82295920606
 21
5033.616878808112
 31
0.0
  0
LINE
  5
CD
  8
DEFAULT
 10
5678.059475193073
 20
4870.999999999998
 30
0.0
 11
5815.0
 21
4871.0
 31
0.0
  0
LINE
  5
CE
  8
DEFAULT
 10
5815.0
 20
4871.0
 30
0.0
 11
5814.999999999999
 21
5007.940524806925
 31
0.0
  0
LINE
  5
CF
  8
DEFAULT
 10
5814.999999999999
 20
5007.940524806925
 30
0.0
 11
5678.059475193072
 21
5007.940524806925
 31
0.0
  0
LINE
  5
D0
  8
DEFAULT
 10
5678.059475193072
 20
5007.940524806925
 30
0.0
 11
5678.059475193073
 21
4870.999999999998
 31
0.0
  0
LINE
  5
D1
  8
LAYER_01
 10
5536.0
 20
4531.0
 30
0.0
 11
6536.0
 21
4531.0
 31
0.0
  0
LINE
  5
D2
  8
LAYER_01
 10
6536.0
 20
4531.0
 30
0.0
 11
6536.0
 21
5531.0
 31
0.0
  0
LINE
  5
D3
  8
LAYER_01
 10
6536.0
 20
5531.0
 30
0.0
 11
5536.0
 21
5531.0
 31
0.0
  0
LINE
  5
D4
  8
LAYER_01
 10
5536.0
 20
5531.0
 30
0.0
 11
5536.0
 21
4531.0
 31
0.0
  0
ENDSEC
  0
EOF
