  0
SECTION
  2
HEADER
  9
$ACADVER
  1
AC1014
  9
$HANDSEED
  5
FFFF
  9
$MEASUREMENT
 70
     1
  0
ENDSEC
  0
SECTION
  2
TABLES
  0
TABLE
  2
VPORT
  5
8
330
0
100
AcDbSymbolTable
 70
     4
  0
VPORT
  5
2E
330
8
100
AcDbSymbolTableRecord
100
AcDbViewportTableRecord
  2
*ACTIVE
 70
     0
 10
0.0
 20
0.0
 11
1.0
 21
1.0
 12
210.0
 22
148.5
 13
0.0
 23
0.0
 14
10.0
 24
10.0
 15
10.0
 25
10.0
 16
0.0
 26
0.0
 36
1.0
 17
0.0
 27
0.0
 37
0.0
 40
341.0
 41
1.24
 42
50.0
 43
0.0
 44
0.0
 50
0.0
 51
0.0
 71
     0
 72
   100
 73
     1
 74
     3
 75
     0
 76
     0
 77
     0
 78
     0
  0
ENDTAB
  0
TABLE
  2
LTYPE
  5
5
330
0
100
AcDbSymbolTable
 70
     1
  0
LTYPE
  5
14
330
5
100
AcDbSymbolTableRecord
100
AcDbLinetypeTableRecord
  2
BYBLOCK
 70
     0
  3

 72
    65
 73
     0
 40
0.0
  0
LTYPE
  5
15
330
5
100
AcDbSymbolTableRecord
100
AcDbLinetypeTableRecord
  2
BYLAYER
 70
     0
  3

 72
    65
 73
     0
 40
0.0
  0
LTYPE
  5
16
330
5
100
AcDbSymbolTableRecord
100
AcDbLinetypeTableRecord
  2
CONTINUOUS
 70
     0
  3
Solid line
 72
    65
 73
     0
 40
0.0
  0
ENDTAB
  0
TABLE
  2
LAYER
  5
2
100
AcDbSymbolTable
 70
2
  0
LAYER
  5
50
100
AcDbSymbolTableRecord
100
AcDbLayerTableRecord
  2
0
 70
0
  6
CONTINUOUS
  0
LAYER
  5
51
100
AcDbSymbolTableRecord
100
AcDbLayerTableRecord
  2
201605_v4
 70
0
  6
CONTINUOUS
  0
ENDTAB
  0
TABLE
  2
STYLE
  5
3
330
0
100
AcDbSymbolTable
 70
     1
  0
STYLE
  5
11
330
3
100
AcDbSymbolTableRecord
100
AcDbTextStyleTableRecord
  2
STANDARD
 70
     0
 40
0.0
 41
1.0
 50
0.0
 71
     0
 42
2.5
  3
txt
  4

  0
ENDTAB
  0
TABLE
  2
VIEW
  5
6
330
0
100
AcDbSymbolTable
 70
     0
  0
ENDTAB
  0
TABLE
  2
UCS
  5
7
330
0
100
AcDbSymbolTable
 70
     0
  0
ENDTAB
  0
TABLE
  2
APPID
  5
9
330
0
100
AcDbSymbolTable
 70
     2
  0
APPID
  5
12
330
9
100
AcDbSymbolTableRecord
100
AcDbRegAppTableRecord
  2
ACAD
 70
     0
  0
ENDTAB
  0
TABLE
  2
DIMSTYLE
  5
A
330
0
100
AcDbSymbolTable
 70
     1
  0
DIMSTYLE
105
27
330
A
100
AcDbSymbolTableRecord
100
AcDbDimStyleTableRecord
  2
ISO-25
 70
     0
  3

  4

  5

  6

  7

 40
1.0
 41
2.5
 42
0.625
 43
3.75
 44
1.25
 45
0.0
 46
0.0
 47
0.0
 48
0.0
140
2.5
141
2.5
142
0.0
143
0.03937007874016
144
1.0
145
0.0
146
1.0
147
0.625
 71
     0
 72
     0
 73
     0
 74
     0
 75
     0
 76
     0
 77
     1
 78
     8
170
     0
171
     3
172
     1
173
     0
174
     0
175
     0
176
     0
177
     0
178
     0
270
     2
271
     2
272
     2
273
     2
274
     3
340
11
275
     0
280
     0
281
     0
282
     0
283
     0
284
     8
285
     0
286
     0
287
     3
288
     0
  0
ENDTAB
  0
TABLE
  2
BLOCK_RECORD
  5
1
330
0
100
AcDbSymbolTable
 70
     1
  0
BLOCK_RECORD
  5
1F
330
1
100
AcDbSymbolTableRecord
100
AcDbBlockTableRecord
  2
*MODEL_SPACE
  0
BLOCK_RECORD
  5
1B
330
1
100
AcDbSymbolTableRecord
100
AcDbBlockTableRecord
  2
*PAPER_SPACE
  0
ENDTAB
  0
ENDSEC
  0
SECTION
  2
BLOCKS
  0
BLOCK
  5
20
330
1F
100
AcDbEntity
  8
0
100
AcDbBlockBegin
  2
*MODEL_SPACE
 70
     0
 10
0.0
 20
0.0
 30
0.0
  3
*MODEL_SPACE
  1

  0
ENDBLK
  5
21
330
1F
100
AcDbEntity
  8
0
100
AcDbBlockEnd
  0
BLOCK
  5
1C
330
1B
100
AcDbEntity
 67
     1
  8
0
100
AcDbBlockBegin
  2
*PAPER_SPACE
  1

  0
ENDBLK
  5
1D
330
1B
100
AcDbEntity
 67
     1
  8
0
100
AcDbBlockEnd
  0
ENDSEC
  0
SECTION
  2
ENTITIES
  0
LWPOLYLINE
  5
100
100
AcDbEntity
  8
201605_v4
 62
5
100
AcDbPolyline
 90
33
 70
0
 10
1.787500
 20
245.537475
 30
0.0
 10
1.787500
 20
220.537472
 30
0.0
 10
1.787500
 20
125.307475
 30
0.0
 10
1.932002
 20
125.157473
 30
0.0
 10
86.188748
 20
125.157473
 30
0.0
 10
86.188748
 20
122.167474
 30
0.0
 10
1.932002
 20
122.167474
 30
0.0
 10
1.787500
 20
122.017473
 30
0.0
 10
1.787500
 20
1.787472
 30
0.0
 10
36.162499
 20
1.787472
 30
0.0
 10
170.455004
 20
1.787472
 30
0.0
 10
170.605006
 20
1.931973
 30
0.0
 10
170.605006
 20
61.969975
 30
0.0
 10
173.595005
 20
61.969975
 30
0.0
 10
173.595005
 20
1.931973
 30
0.0
 10
173.745006
 20
1.787472
 30
0.0
 10
342.412510
 20
1.787472
 30
0.0
 10
342.412510
 20
26.787471
 30
0.0
 10
342.412510
 20
122.017473
 30
0.0
 10
342.268009
 20
122.167474
 30
0.0
 10
258.011246
 20
122.167474
 30
0.0
 10
258.011246
 20
125.157473
 30
0.0
 10
342.268009
 20
125.157473
 30
0.0
 10
342.412510
 20
125.307475
 30
0.0
 10
342.412510
 20
245.537475
 30
0.0
 10
308.037498
 20
245.537475
 30
0.0
 10
173.745006
 20
245.537475
 30
0.0
 10
173.595005
 20
245.392974
 30
0.0
 10
173.595005
 20
185.354972
 30
0.0
 10
170.605006
 20
185.354972
 30
0.0
 10
170.605006
 20
245.392974
 30
0.0
 10
170.455004
 20
245.537475
 30
0.0
 10
1.787500
 20
245.537475
 30
0.0
  0
LWPOLYLINE
  5
101
100
AcDbEntity
  8
201605_v4
 62
1
100
AcDbPolyline
 90
3
 70
0
 10
252.539355
 20
121.262468
 30
0.0
 10
252.539355
 20
126.062475
 30
0.0
 10
251.472259
 20
124.995069
 30
0.0
  0
LWPOLYLINE
  5
102
100
AcDbEntity
  8
201605_v4
 62
1
100
AcDbPolyline
 90
34
 70
0
 10
174.500043
 20
180.415265
 30
0.0
 10
174.500043
 20
178.283471
 30
0.0
 10
171.328842
 20
180.253323
 30
0.0
 10
171.328842
 20
180.253323
 30
0.0
 10
171.326020
 20
180.255792
 30
0.0
 10
171.323198
 20
180.257909
 30
0.0
 10
171.320375
 20
180.260025
 30
0.0
 10
171.317200
 20
180.262142
 30
0.0
 10
171.314025
 20
180.264259
 30
0.0
 10
171.310850
 20
180.266375
 30
0.0
 10
171.307323
 20
180.268492
 30
0.0
 10
171.303724
 20
180.270609
 30
0.0
 10
171.299914
 20
180.272725
 30
0.0
 10
171.299914
 20
180.272725
 30
0.0
 10
171.125289
 20
180.354062
 30
0.0
 10
170.944261
 20
180.401584
 30
0.0
 10
170.760937
 20
180.416436
 30
0.0
 10
170.579415
 20
180.399821
 30
0.0
 10
170.403767
 20
180.352859
 30
0.0
 10
170.238092
 20
180.276733
 30
0.0
 10
170.086475
 20
180.172618
 30
0.0
 10
169.953009
 20
180.041659
 30
0.0
 10
169.841799
 20
179.885037
 30
0.0
 10
169.841799
 20
179.885037
 30
0.0
 10
169.761613
 20
179.709918
 30
0.0
 10
169.714834
 20
179.528622
 30
0.0
 10
169.700406
 20
179.345191
 30
0.0
 10
169.717268
 20
179.163687
 30
0.0
 10
169.764357
 20
178.988163
 30
0.0
 10
169.840635
 20
178.822678
 30
0.0
 10
169.945043
 20
178.671266
 30
0.0
 10
170.076527
 20
178.537993
 30
0.0
 10
170.234042
 20
178.426911
 30
0.0
 10
170.502545
 20
178.286943
 30
0.0
  0
LWPOLYLINE
  5
103
100
AcDbEntity
  8
201605_v4
 62
1
100
AcDbPolyline
 90
46
 70
0
 10
93.260256
 20
126.062327
 30
0.0
 10
92.194352
 20
126.062327
 30
0.0
 10
92.194352
 20
126.062327
 30
0.0
 10
92.002649
 20
126.045112
 30
0.0
 10
91.822259
 20
125.995557
 30
0.0
 10
91.656193
 20
125.916662
 30
0.0
 10
91.507437
 20
125.811492
 30
0.0
 10
91.379005
 20
125.683088
 30
0.0
 10
91.273895
 20
125.534484
 30
0.0
 10
91.195091
 20
125.368731
 30
0.0
 10
91.145618
 20
125.188853
 30
0.0
 10
91.128473
 20
124.997923
 30
0.0
 10
91.128473
 20
124.464223
 30
0.0
 10
91.128473
 20
124.464223
 30
0.0
 10
91.145618
 20
124.273352
 30
0.0
 10
91.195091
 20
124.093531
 30
0.0
 10
91.273895
 20
123.927789
 30
0.0
 10
91.379005
 20
123.779174
 30
0.0
 10
91.507437
 20
123.650738
 30
0.0
 10
91.656193
 20
123.545544
 30
0.0
 10
91.822259
 20
123.466620
 30
0.0
 10
92.002649
 20
123.417030
 30
0.0
 10
92.194352
 20
123.399815
 30
0.0
 10
92.728052
 20
123.399815
 30
0.0
 10
92.194352
 20
123.399815
 30
0.0
 10
92.194352
 20
123.399815
 30
0.0
 10
92.002649
 20
123.382599
 30
0.0
 10
91.822259
 20
123.332977
 30
0.0
 10
91.656193
 20
123.253990
 30
0.0
 10
91.507437
 20
123.148633
 30
0.0
 10
91.379005
 20
123.019947
 30
0.0
 10
91.273895
 20
122.870958
 30
0.0
 10
91.195091
 20
122.704691
 30
0.0
 10
91.145618
 20
122.524167
 30
0.0
 10
91.128473
 20
122.332404
 30
0.0
 10
91.128473
 20
122.332404
 30
0.0
 10
91.145618
 20
122.141544
 30
0.0
 10
91.195091
 20
121.961723
 30
0.0
 10
91.273895
 20
121.795981
 30
0.0
 10
91.379005
 20
121.647359
 30
0.0
 10
91.507437
 20
121.518930
 30
0.0
 10
91.656193
 20
121.413725
 30
0.0
 10
91.822259
 20
121.334812
 30
0.0
 10
92.002649
 20
121.285226
 30
0.0
 10
92.194352
 20
121.268010
 30
0.0
 10
93.260256
 20
121.268010
 30
0.0
  0
LWPOLYLINE
  5
104
100
AcDbEntity
  8
201605_v4
 62
1
100
AcDbPolyline
 90
3
 70
0
 10
170.767096
 20
66.642978
 30
0.0
 10
170.767096
 20
69.308172
 30
0.0
 10
174.500000
 20
68.243778
 30
0.0
  0
LWPOLYLINE
  5
105
100
AcDbEntity
  8
201605_v4
 62
1
100
AcDbPolyline
 90
2
 70
0
 10
169.700000
 20
67.441872
 30
0.0
 10
171.831794
 20
67.441872
 30
0.0
  0
LWPOLYLINE
  5
106
100
AcDbEntity
  8
201605_v4
 62
1
100
AcDbPolyline
 90
4
 70
0
 10
142.917506
 20
105.266878
 30
0.0
 10
122.489242
 20
105.266878
 30
0.0
 10
142.917506
 20
142.058065
 30
0.0
 10
122.489242
 20
142.058065
 30
0.0
  0
LWPOLYLINE
  5
107
100
AcDbEntity
  8
201605_v4
 62
1
100
AcDbPolyline
 90
2
 70
0
 10
176.834451
 20
123.662472
 30
0.0
 10
156.717654
 20
123.662472
 30
0.0
  0
LWPOLYLINE
  5
108
100
AcDbEntity
  8
201605_v4
 62
1
100
AcDbPolyline
 90
3
 70
0
 10
211.055948
 20
113.446031
 30
0.0
 10
190.627674
 20
113.446031
 30
0.0
 10
198.786069
 20
142.058065
 30
0.0
  0
LWPOLYLINE
  5
109
100
AcDbEntity
  8
201605_v4
 62
1
100
AcDbPolyline
 90
2
 70
0
 10
204.932530
 20
105.266878
 30
0.0
 10
204.932530
 20
121.606730
 30
0.0
  0
LWPOLYLINE
  5
10a
100
AcDbEntity
  8
201605_v4
 62
5
100
AcDbPolyline
 90
33
 70
0
 10
345.587496
 20
233.037482
 30
0.0
 10
345.587496
 20
158.037474
 30
0.0
 10
345.587496
 20
119.057466
 30
0.0
 10
345.731998
 20
118.907465
 30
0.0
 10
425.301248
 20
118.907465
 30
0.0
 10
425.301248
 20
115.917468
 30
0.0
 10
345.731998
 20
115.917468
 30
0.0
 10
345.587496
 20
115.767467
 30
0.0
 10
345.587496
 20
1.787472
 30
0.0
 10
448.712502
 20
1.787472
 30
0.0
 10
504.880002
 20
1.787472
 30
0.0
 10
505.029992
 20
1.931973
 30
0.0
 10
505.029992
 20
58.844970
 30
0.0
 10
508.020003
 20
58.844970
 30
0.0
 10
508.020003
 20
1.931973
 30
0.0
 10
508.169993
 20
1.787472
 30
0.0
 10
667.462509
 20
1.787472
 30
0.0
 10
667.462509
 20
76.787470
 30
0.0
 10
667.462509
 20
115.767467
 30
0.0
 10
667.318008
 20
115.917468
 30
0.0
 10
587.748750
 20
115.917468
 30
0.0
 10
587.748750
 20
118.907465
 30
0.0
 10
667.318008
 20
118.907475
 30
0.0
 10
667.462509
 20
119.057466
 30
0.0
 10
667.462509
 20
233.037482
 30
0.0
 10
564.337496
 20
233.037482
 30
0.0
 10
508.169993
 20
233.037482
 30
0.0
 10
508.020002
 20
232.892981
 30
0.0
 10
508.020002
 20
175.979974
 30
0.0
 10
505.029992
 20
175.979974
 30
0.0
 10
505.029992
 20
232.892981
 30
0.0
 10
504.880002
 20
233.037482
 30
0.0
 10
345.587496
 20
233.037482
 30
0.0
  0
LWPOLYLINE
  5
10b
100
AcDbEntity
  8
201605_v4
 62
1
100
AcDbPolyline
 90
3
 70
0
 10
582.276839
 20
115.012474
 30
0.0
 10
582.276839
 20
119.812470
 30
0.0
 10
581.209743
 20
118.745074
 30
0.0
  0
LWPOLYLINE
  5
10c
100
AcDbEntity
  8
201605_v4
 62
1
100
AcDbPolyline
 90
34
 70
0
 10
508.925040
 20
171.040266
 30
0.0
 10
508.925040
 20
168.908472
 30
0.0
 10
505.753829
 20
170.878324
 30
0.0
 10
505.753829
 20
170.878324
 30
0.0
 10
505.751006
 20
170.880793
 30
0.0
 10
505.748184
 20
170.882910
 30
0.0
 10
505.745362
 20
170.885026
 30
0.0
 10
505.742187
 20
170.887143
 30
0.0
 10
505.739012
 20
170.889260
 30
0.0
 10
505.735837
 20
170.891376
 30
0.0
 10
505.732309
 20
170.893493
 30
0.0
 10
505.728711
 20
170.895610
 30
0.0
 10
505.724901
 20
170.897726
 30
0.0
 10
505.724901
 20
170.897726
 30
0.0
 10
505.550265
 20
170.979063
 30
0.0
 10
505.369248
 20
171.026575
 30
0.0
 10
505.185927
 20
171.041427
 30
0.0
 10
505.004402
 20
171.024811
 30
0.0
 10
504.828754
 20
170.977853
 30
0.0
 10
504.663079
 20
170.901727
 30
0.0
 10
504.511462
 20
170.797608
 30
0.0
 10
504.377995
 20
170.666650
 30
0.0
 10
504.266786
 20
170.510031
 30
0.0
 10
504.266786
 20
170.510031
 30
0.0
 10
504.186599
 20
170.334912
 30
0.0
 10
504.139821
 20
170.153612
 30
0.0
 10
504.125392
 20
169.970182
 30
0.0
 10
504.142255
 20
169.788681
 30
0.0
 10
504.189344
 20
169.613153
 30
0.0
 10
504.265621
 20
169.447658
 30
0.0
 10
504.370030
 20
169.296256
 30
0.0
 10
504.501513
 20
169.162988
 30
0.0
 10
504.659029
 20
169.051901
 30
0.0
 10
504.927531
 20
168.911937
 30
0.0
  0
LWPOLYLINE
  5
10d
100
AcDbEntity
  8
201605_v4
 62
1
100
AcDbPolyline
 90
46
 70
0
 10
432.372745
 20
119.812319
 30
0.0
 10
431.306848
 20
119.812319
 30
0.0
 10
431.306848
 20
119.812319
 30
0.0
 10
431.115145
 20
119.795138
 30
0.0
 10
430.934760
 20
119.745570
 30
0.0
 10
430.768689
 20
119.666678
 30
0.0
 10
430.619934
 20
119.561518
 30
0.0
 10
430.491505
 20
119.433111
 30
0.0
 10
430.386384
 20
119.284510
 30
0.0
 10
430.307588
 20
119.118747
 30
0.0
 10
430.258107
 20
118.938880
 30
0.0
 10
430.240962
 20
118.747935
 30
0.0
 10
430.240962
 20
118.214235
 30
0.0
 10
430.240962
 20
118.214235
 30
0.0
 10
430.258107
 20
118.023379
 30
0.0
 10
430.307588
 20
117.843554
 30
0.0
 10
430.386384
 20
117.677805
 30
0.0
 10
430.491505
 20
117.529190
 30
0.0
 10
430.619934
 20
117.400765
 30
0.0
 10
430.768689
 20
117.295560
 30
0.0
 10
430.934760
 20
117.216647
 30
0.0
 10
431.115145
 20
117.167057
 30
0.0
 10
431.306848
 20
117.149841
 30
0.0
 10
431.840548
 20
117.149841
 30
0.0
 10
431.306848
 20
117.149841
 30
0.0
 10
431.306848
 20
117.149841
 30
0.0
 10
431.115145
 20
117.132626
 30
0.0
 10
430.934760
 20
117.083004
 30
0.0
 10
430.768689
 20
117.004003
 30
0.0
 10
430.619934
 20
116.898649
 30
0.0
 10
430.491505
 20
116.769963
 30
0.0
 10
430.386384
 20
116.620985
 30
0.0
 10
430.307588
 20
116.454707
 30
0.0
 10
430.258107
 20
116.274183
 30
0.0
 10
430.240962
 20
116.082431
 30
0.0
 10
430.240962
 20
116.082431
 30
0.0
 10
430.258107
 20
115.891571
 30
0.0
 10
430.307588
 20
115.711739
 30
0.0
 10
430.386384
 20
115.545997
 30
0.0
 10
430.491505
 20
115.397382
 30
0.0
 10
430.619934
 20
115.268947
 30
0.0
 10
430.768689
 20
115.163752
 30
0.0
 10
430.934760
 20
115.084828
 30
0.0
 10
431.115145
 20
115.035238
 30
0.0
 10
431.306848
 20
115.018023
 30
0.0
 10
432.372745
 20
115.018023
 30
0.0
  0
LWPOLYLINE
  5
10e
100
AcDbEntity
  8
201605_v4
 62
1
100
AcDbPolyline
 90
3
 70
0
 10
505.192097
 20
63.517974
 30
0.0
 10
505.192097
 20
66.183171
 30
0.0
 10
508.924997
 20
65.118781
 30
0.0
  0
LWPOLYLINE
  5
10f
100
AcDbEntity
  8
201605_v4
 62
1
100
AcDbPolyline
 90
2
 70
0
 10
504.124997
 20
64.316871
 30
0.0
 10
506.256791
 20
64.316871
 30
0.0
  0
LWPOLYLINE
  5
110
100
AcDbEntity
  8
201605_v4
 62
1
100
AcDbPolyline
 90
4
 70
0
 10
474.009018
 20
94.235157
 30
0.0
 10
448.270655
 20
94.235157
 30
0.0
 10
474.009018
 20
140.589787
 30
0.0
 10
448.270655
 20
140.589787
 30
0.0
  0
LWPOLYLINE
  5
111
100
AcDbEntity
  8
201605_v4
 62
1
100
AcDbPolyline
 90
2
 70
0
 10
516.742285
 20
117.412477
 30
0.0
 10
491.396362
 20
117.412477
 30
0.0
  0
LWPOLYLINE
  5
112
100
AcDbEntity
  8
201605_v4
 62
1
100
AcDbPolyline
 90
46
 70
0
 10
534.120908
 20
94.236611
 30
0.0
 10
544.414509
 20
94.236611
 30
0.0
 10
544.414509
 20
94.236611
 30
0.0
 10
546.265837
 20
94.402684
 30
0.0
 10
548.007872
 20
94.881326
 30
0.0
 10
549.611649
 20
95.643157
 30
0.0
 10
551.048167
 20
96.658779
 30
0.0
 10
552.288488
 20
97.898843
 30
0.0
 10
553.303606
 20
99.333939
 30
0.0
 10
554.064586
 20
100.934693
 30
0.0
 10
554.542399
 20
102.671732
 30
0.0
 10
554.708109
 20
104.515677
 30
0.0
 10
554.708109
 20
109.669742
 30
0.0
 10
554.708109
 20
109.669742
 30
0.0
 10
554.542399
 20
111.512914
 30
0.0
 10
554.064586
 20
113.249555
 30
0.0
 10
553.303606
 20
114.850189
 30
0.0
 10
552.288488
 20
116.285380
 30
0.0
 10
551.048167
 20
117.525680
 30
0.0
 10
549.611649
 20
118.541617
 30
0.0
 10
548.007872
 20
119.303758
 30
0.0
 10
546.265837
 20
119.782639
 30
0.0
 10
544.414509
 20
119.948812
 30
0.0
 10
539.260450
 20
119.948812
 30
0.0
 10
544.414509
 20
119.948812
 30
0.0
 10
544.414509
 20
119.948812
 30
0.0
 10
546.265837
 20
120.115027
 30
0.0
 10
548.007872
 20
120.594184
 30
0.0
 10
549.611649
 20
121.357080
 30
0.0
 10
551.048167
 20
122.374491
 30
0.0
 10
552.288488
 20
123.617224
 30
0.0
 10
553.303606
 20
125.056046
 30
0.0
 10
554.064586
 20
126.661750
 30
0.0
 10
554.542399
 20
128.405121
 30
0.0
 10
554.708109
 20
130.256947
 30
0.0
 10
554.708109
 20
130.256947
 30
0.0
 10
554.542399
 20
132.100115
 30
0.0
 10
554.064586
 20
133.836756
 30
0.0
 10
553.303606
 20
135.437390
 30
0.0
 10
552.288488
 20
136.872585
 30
0.0
 10
551.048167
 20
138.112881
 30
0.0
 10
549.611649
 20
139.128821
 30
0.0
 10
548.007872
 20
139.890962
 30
0.0
 10
546.265837
 20
140.369840
 30
0.0
 10
544.414509
 20
140.536013
 30
0.0
 10
534.120908
 20
140.536013
 30
0.0
  0
LWPOLYLINE
  5
113
100
AcDbEntity
  8
201605_v4
 62
5
100
AcDbPolyline
 90
33
 70
0
 10
670.637505
 20
220.537472
 30
0.0
 10
670.637505
 20
112.807471
 30
0.0
 10
670.782007
 20
112.657470
 30
0.0
 10
745.663757
 20
112.657470
 30
0.0
 10
745.663757
 20
109.667470
 30
0.0
 10
670.782007
 20
109.667470
 30
0.0
 10
670.637505
 20
109.517469
 30
0.0
 10
670.637505
 20
95.537479
 30
0.0
 10
670.637505
 20
1.787472
 30
0.0
 10
820.555001
 20
1.787472
 30
0.0
 10
820.705002
 20
1.931973
 30
0.0
 10
820.705002
 20
55.719969
 30
0.0
 10
823.695002
 20
55.719969
 30
0.0
 10
823.695002
 20
1.931973
 30
0.0
 10
823.845003
 20
1.787472
 30
0.0
 10
842.512500
 20
1.787472
 30
0.0
 10
973.762499
 20
1.787472
 30
0.0
 10
973.762499
 20
109.517469
 30
0.0
 10
973.618001
 20
109.667470
 30
0.0
 10
898.736265
 20
109.667470
 30
0.0
 10
898.736265
 20
112.657470
 30
0.0
 10
973.618001
 20
112.657470
 30
0.0
 10
973.762499
 20
112.807471
 30
0.0
 10
973.762499
 20
126.787476
 30
0.0
 10
973.762499
 20
220.537472
 30
0.0
 10
823.845003
 20
220.537472
 30
0.0
 10
823.695002
 20
220.392971
 30
0.0
 10
823.695002
 20
166.604975
 30
0.0
 10
820.705002
 20
166.604975
 30
0.0
 10
820.705002
 20
220.392971
 30
0.0
 10
820.555001
 20
220.537472
 30
0.0
 10
801.887504
 20
220.537472
 30
0.0
 10
670.637505
 20
220.537472
 30
0.0
  0
LWPOLYLINE
  5
114
100
AcDbEntity
  8
201605_v4
 62
1
100
AcDbPolyline
 90
3
 70
0
 10
893.264357
 20
108.762468
 30
0.0
 10
893.264357
 20
113.562465
 30
0.0
 10
892.197260
 20
112.495065
 30
0.0
  0
LWPOLYLINE
  5
115
100
AcDbEntity
  8
201605_v4
 62
1
100
AcDbPolyline
 90
34
 70
0
 10
824.600050
 20
161.665267
 30
0.0
 10
824.600050
 20
159.533474
 30
0.0
 10
821.428839
 20
161.503314
 30
0.0
 10
821.428839
 20
161.503314
 30
0.0
 10
821.426016
 20
161.505784
 30
0.0
 10
821.423194
 20
161.507900
 30
0.0
 10
821.420372
 20
161.510017
 30
0.0
 10
821.417197
 20
161.512134
 30
0.0
 10
821.414022
 20
161.514250
 30
0.0
 10
821.410847
 20
161.516367
 30
0.0
 10
821.407319
 20
161.518484
 30
0.0
 10
821.403721
 20
161.520600
 30
0.0
 10
821.399911
 20
161.522717
 30
0.0
 10
821.399911
 20
161.522717
 30
0.0
 10
821.225275
 20
161.604053
 30
0.0
 10
821.044258
 20
161.651562
 30
0.0
 10
820.860937
 20
161.666414
 30
0.0
 10
820.679412
 20
161.649798
 30
0.0
 10
820.503757
 20
161.602840
 30
0.0
 10
820.338089
 20
161.526724
 30
0.0
 10
820.186472
 20
161.422595
 30
0.0
 10
820.053009
 20
161.291651
 30
0.0
 10
819.941796
 20
161.135018
 30
0.0
 10
819.941796
 20
161.135018
 30
0.0
 10
819.861609
 20
160.959899
 30
0.0
 10
819.814834
 20
160.778599
 30
0.0
 10
819.800406
 20
160.595179
 30
0.0
 10
819.817269
 20
160.413679
 30
0.0
 10
819.864361
 20
160.238151
 30
0.0
 10
819.940635
 20
160.072656
 30
0.0
 10
820.045043
 20
159.921243
 30
0.0
 10
820.176527
 20
159.787985
 30
0.0
 10
820.334046
 20
159.676902
 30
0.0
 10
820.602545
 20
159.536924
 30
0.0
  0
LWPOLYLINE
  5
116
100
AcDbEntity
  8
201605_v4
 62
1
100
AcDbPolyline
 90
46
 70
0
 10
752.735255
 20
113.562313
 30
0.0
 10
751.669358
 20
113.562313
 30
0.0
 10
751.669358
 20
113.562313
 30
0.0
 10
751.477655
 20
113.545133
 30
0.0
 10
751.297269
 20
113.495564
 30
0.0
 10
751.131199
 20
113.416683
 30
0.0
 10
750.982447
 20
113.311510
 30
0.0
 10
750.854014
 20
113.183106
 30
0.0
 10
750.748894
 20
113.034505
 30
0.0
 10
750.670097
 20
112.868742
 30
0.0
 10
750.620620
 20
112.688874
 30
0.0
 10
750.603475
 20
112.497941
 30
0.0
 10
750.603475
 20
111.964230
 30
0.0
 10
750.603475
 20
111.964230
 30
0.0
 10
750.620620
 20
111.773374
 30
0.0
 10
750.670097
 20
111.593549
 30
0.0
 10
750.748894
 20
111.427807
 30
0.0
 10
750.854014
 20
111.279185
 30
0.0
 10
750.982447
 20
111.150756
 30
0.0
 10
751.131199
 20
111.045554
 30
0.0
 10
751.297269
 20
110.966638
 30
0.0
 10
751.477655
 20
110.917052
 30
0.0
 10
751.669358
 20
110.899836
 30
0.0
 10
752.203058
 20
110.899836
 30
0.0
 10
751.669358
 20
110.899836
 30
0.0
 10
751.669358
 20
110.899836
 30
0.0
 10
751.477655
 20
110.882621
 30
0.0
 10
751.297269
 20
110.833002
 30
0.0
 10
751.131199
 20
110.754012
 30
0.0
 10
750.982447
 20
110.648658
 30
0.0
 10
750.854014
 20
110.519972
 30
0.0
 10
750.748894
 20
110.370983
 30
0.0
 10
750.670097
 20
110.204712
 30
0.0
 10
750.620620
 20
110.024189
 30
0.0
 10
750.603475
 20
109.832429
 30
0.0
 10
750.603475
 20
109.832429
 30
0.0
 10
750.620620
 20
109.641569
 30
0.0
 10
750.670097
 20
109.461745
 30
0.0
 10
750.748894
 20
109.295995
 30
0.0
 10
750.854014
 20
109.147381
 30
0.0
 10
750.982447
 20
109.018955
 30
0.0
 10
751.131199
 20
108.913750
 30
0.0
 10
751.297269
 20
108.834837
 30
0.0
 10
751.477655
 20
108.785247
 30
0.0
 10
751.669358
 20
108.768032
 30
0.0
 10
752.735255
 20
108.768032
 30
0.0
  0
LWPOLYLINE
  5
117
100
AcDbEntity
  8
201605_v4
 62
1
100
AcDbPolyline
 90
3
 70
0
 10
820.867107
 20
60.392977
 30
0.0
 10
820.867107
 20
63.058174
 30
0.0
 10
824.600007
 20
61.993776
 30
0.0
  0
LWPOLYLINE
  5
118
100
AcDbEntity
  8
201605_v4
 62
1
100
AcDbPolyline
 90
2
 70
0
 10
819.800011
 20
61.191874
 30
0.0
 10
821.931801
 20
61.191874
 30
0.0
  0
LWPOLYLINE
  5
119
100
AcDbEntity
  8
201605_v4
 62
1
100
AcDbPolyline
 90
4
 70
0
 10
715.786037
 20
141.440112
 30
0.0
 10
691.546993
 20
141.440112
 30
0.0
 10
715.786037
 20
185.094478
 30
0.0
 10
691.546993
 20
185.094478
 30
0.0
  0
LWPOLYLINE
  5
11a
100
AcDbEntity
  8
201605_v4
 62
1
100
AcDbPolyline
 90
2
 70
0
 10
756.029988
 20
163.267291
 30
0.0
 10
732.160528
 20
163.267291
 30
0.0
  0
LWPOLYLINE
  5
11b
100
AcDbEntity
  8
201605_v4
 62
1
100
AcDbPolyline
 90
34
 70
0
 10
791.787508
 20
141.439759
 30
0.0
 10
772.399564
 20
141.439759
 30
0.0
 10
790.314664
 20
170.280760
 30
0.0
 10
790.314664
 20
170.280760
 30
0.0
 10
790.336078
 20
170.307254
 30
0.0
 10
790.356609
 20
170.333959
 30
0.0
 10
790.376400
 20
170.361158
 30
0.0
 10
790.395591
 20
170.389028
 30
0.0
 10
790.414289
 20
170.417779
 30
0.0
 10
790.432668
 20
170.447660
 30
0.0
 10
790.450836
 20
170.478880
 30
0.0
 10
790.468934
 20
170.511689
 30
0.0
 10
790.487102
 20
170.546296
 30
0.0
 10
790.487102
 20
170.546296
 30
0.0
 10
791.226817
 20
172.134519
 30
0.0
 10
791.658941
 20
173.780852
 30
0.0
 10
791.794077
 20
175.448087
 30
0.0
 10
791.642802
 20
177.099041
 30
0.0
 10
791.215708
 20
178.696500
 30
0.0
 10
790.523406
 20
180.203267
 30
0.0
 10
789.576455
 20
181.582145
 30
0.0
 10
788.385464
 20
182.795915
 30
0.0
 10
786.961025
 20
183.807418
 30
0.0
 10
786.961025
 20
183.807418
 30
0.0
 10
785.368392
 20
184.536613
 30
0.0
 10
783.719536
 20
184.962084
 30
0.0
 10
782.051324
 20
185.093384
 30
0.0
 10
780.400628
 20
184.940120
 30
0.0
 10
778.804287
 20
184.511851
 30
0.0
 10
777.299193
 20
183.818160
 30
0.0
 10
775.922184
 20
182.868605
 30
0.0
 10
774.710135
 20
181.672791
 30
0.0
 10
773.699907
 20
180.240266
 30
0.0
 10
772.426912
 20
177.798300
 30
0.0
  0
LWPOLYLINE
  5
11c
100
AcDbEntity
  8
201605_v4
 62
5
100
AcDbPolyline
 90
33
 70
0
 10
1.787500
 20
454.962489
 30
0.0
 10
1.787500
 20
353.482476
 30
0.0
 10
1.932002
 20
353.332475
 30
0.0
 10
72.126253
 20
353.332475
 30
0.0
 10
72.126253
 20
350.342475
 30
0.0
 10
1.932002
 20
350.342475
 30
0.0
 10
1.787500
 20
350.192474
 30
0.0
 10
1.787500
 20
279.962483
 30
0.0
 10
1.787500
 20
248.712482
 30
0.0
 10
142.329997
 20
248.712482
 30
0.0
 10
142.480002
 20
248.856983
 30
0.0
 10
142.480002
 20
299.519982
 30
0.0
 10
145.469998
 20
299.519982
 30
0.0
 10
145.469998
 20
248.856983
 30
0.0
 10
145.619999
 20
248.712482
 30
0.0
 10
242.412499
 20
248.712482
 30
0.0
 10
286.162500
 20
248.712482
 30
0.0
 10
286.162500
 20
350.192474
 30
0.0
 10
286.017998
 20
350.342475
 30
0.0
 10
215.823747
 20
350.342475
 30
0.0
 10
215.823747
 20
353.332475
 30
0.0
 10
286.017998
 20
353.332475
 30
0.0
 10
286.162500
 20
353.482476
 30
0.0
 10
286.162500
 20
423.712481
 30
0.0
 10
286.162500
 20
454.962489
 30
0.0
 10
145.619999
 20
454.962489
 30
0.0
 10
145.469998
 20
454.817988
 30
0.0
 10
145.469998
 20
404.154986
 30
0.0
 10
142.480002
 20
404.154986
 30
0.0
 10
142.480002
 20
454.817988
 30
0.0
 10
142.329997
 20
454.962489
 30
0.0
 10
45.537501
 20
454.962489
 30
0.0
 10
1.787500
 20
454.962489
 30
0.0
  0
LWPOLYLINE
  5
11d
100
AcDbEntity
  8
201605_v4
 62
1
100
AcDbPolyline
 90
3
 70
0
 10
210.351857
 20
349.437480
 30
0.0
 10
210.351857
 20
354.237481
 30
0.0
 10
209.284739
 20
353.170070
 30
0.0
  0
LWPOLYLINE
  5
11e
100
AcDbEntity
  8
201605_v4
 62
1
100
AcDbPolyline
 90
34
 70
0
 10
146.375035
 20
399.215278
 30
0.0
 10
146.375035
 20
397.083485
 30
0.0
 10
143.203835
 20
399.053325
 30
0.0
 10
143.203835
 20
399.053325
 30
0.0
 10
143.201013
 20
399.055795
 30
0.0
 10
143.198190
 20
399.057911
 30
0.0
 10
143.195368
 20
399.060028
 30
0.0
 10
143.192193
 20
399.062145
 30
0.0
 10
143.189018
 20
399.064261
 30
0.0
 10
143.185843
 20
399.066378
 30
0.0
 10
143.182315
 20
399.068495
 30
0.0
 10
143.178717
 20
399.070611
 30
0.0
 10
143.174907
 20
399.072728
 30
0.0
 10
143.174907
 20
399.072728
 30
0.0
 10
143.000271
 20
399.154064
 30
0.0
 10
142.819254
 20
399.201573
 30
0.0
 10
142.635933
 20
399.216425
 30
0.0
 10
142.454408
 20
399.199809
 30
0.0
 10
142.278753
 20
399.152847
 30
0.0
 10
142.113074
 20
399.076721
 30
0.0
 10
141.961468
 20
398.972603
 30
0.0
 10
141.828005
 20
398.841648
 30
0.0
 10
141.716781
 20
398.685025
 30
0.0
 10
141.716781
 20
398.685025
 30
0.0
 10
141.636609
 20
398.509906
 30
0.0
 10
141.589831
 20
398.328607
 30
0.0
 10
141.575367
 20
398.145176
 30
0.0
 10
141.592229
 20
397.963676
 30
0.0
 10
141.639322
 20
397.788158
 30
0.0
 10
141.715596
 20
397.622663
 30
0.0
 10
141.820004
 20
397.471251
 30
0.0
 10
141.951488
 20
397.337982
 30
0.0
 10
142.108996
 20
397.226910
 30
0.0
 10
142.377509
 20
397.086931
 30
0.0
  0
LWPOLYLINE
  5
11f
100
AcDbEntity
  8
201605_v4
 62
1
100
AcDbPolyline
 90
46
 70
0
 10
79.197750
 20
354.237329
 30
0.0
 10
78.131853
 20
354.237329
 30
0.0
 10
78.131853
 20
354.237329
 30
0.0
 10
77.940147
 20
354.220149
 30
0.0
 10
77.759765
 20
354.170583
 30
0.0
 10
77.593694
 20
354.091692
 30
0.0
 10
77.444942
 20
353.986529
 30
0.0
 10
77.316510
 20
353.858124
 30
0.0
 10
77.211389
 20
353.709510
 30
0.0
 10
77.132593
 20
353.543757
 30
0.0
 10
77.083116
 20
353.363893
 30
0.0
 10
77.065971
 20
353.172949
 30
0.0
 10
77.065971
 20
352.639249
 30
0.0
 10
77.065971
 20
352.639249
 30
0.0
 10
77.083116
 20
352.448389
 30
0.0
 10
77.132593
 20
352.268557
 30
0.0
 10
77.211389
 20
352.102815
 30
0.0
 10
77.316510
 20
351.954204
 30
0.0
 10
77.444942
 20
351.825765
 30
0.0
 10
77.593694
 20
351.720570
 30
0.0
 10
77.759765
 20
351.641646
 30
0.0
 10
77.940147
 20
351.592060
 30
0.0
 10
78.131853
 20
351.574844
 30
0.0
 10
78.665553
 20
351.574844
 30
0.0
 10
78.131853
 20
351.574844
 30
0.0
 10
78.131853
 20
351.574844
 30
0.0
 10
77.940147
 20
351.557629
 30
0.0
 10
77.759765
 20
351.508021
 30
0.0
 10
77.593694
 20
351.429020
 30
0.0
 10
77.444942
 20
351.323663
 30
0.0
 10
77.316510
 20
351.194980
 30
0.0
 10
77.211389
 20
351.045988
 30
0.0
 10
77.132593
 20
350.879720
 30
0.0
 10
77.083116
 20
350.699197
 30
0.0
 10
77.065971
 20
350.507445
 30
0.0
 10
77.065971
 20
350.507445
 30
0.0
 10
77.083116
 20
350.316588
 30
0.0
 10
77.132593
 20
350.136753
 30
0.0
 10
77.211389
 20
349.971011
 30
0.0
 10
77.316510
 20
349.822400
 30
0.0
 10
77.444942
 20
349.693960
 30
0.0
 10
77.593694
 20
349.588769
 30
0.0
 10
77.759765
 20
349.509842
 30
0.0
 10
77.940147
 20
349.460256
 30
0.0
 10
78.131853
 20
349.443040
 30
0.0
 10
79.197750
 20
349.443040
 30
0.0
  0
LWPOLYLINE
  5
120
100
AcDbEntity
  8
201605_v4
 62
1
100
AcDbPolyline
 90
3
 70
0
 10
142.642103
 20
304.192982
 30
0.0
 10
142.642103
 20
306.858180
 30
0.0
 10
146.375004
 20
305.793786
 30
0.0
  0
LWPOLYLINE
  5
121
100
AcDbEntity
  8
201605_v4
 62
1
100
AcDbPolyline
 90
2
 70
0
 10
141.575007
 20
304.991879
 30
0.0
 10
143.706797
 20
304.991879
 30
0.0
  0
LWPOLYLINE
  5
122
100
AcDbEntity
  8
201605_v4
 62
1
100
AcDbPolyline
 90
4
 70
0
 10
199.777784
 20
380.242276
 30
0.0
 10
177.038074
 20
380.242276
 30
0.0
 10
199.777784
 20
421.196378
 30
0.0
 10
177.038074
 20
421.196378
 30
0.0
  0
LWPOLYLINE
  5
123
100
AcDbEntity
  8
201605_v4
 62
1
100
AcDbPolyline
 90
2
 70
0
 10
237.532436
 20
400.719322
 30
0.0
 10
215.139422
 20
400.719322
 30
0.0
  0
LWPOLYLINE
  5
124
100
AcDbEntity
  8
201605_v4
 62
1
100
AcDbPolyline
 90
3
 70
0
 10
261.992269
 20
380.242276
 30
0.0
 10
261.992269
 20
421.196378
 30
0.0
 10
252.887656
 20
412.089180
 30
0.0
  0
LWPOLYLINE
  5
125
100
AcDbEntity
  8
201605_v4
 62
5
100
AcDbPolyline
 90
30
 70
0
 10
289.337507
 20
248.712482
 30
0.0
 10
425.337506
 20
248.712482
 30
0.0
 10
442.004178
 20
337.601366
 30
0.0
 10
462.837512
 20
448.712484
 30
0.0
 10
289.337507
 20
448.712484
 30
0.0
 10
289.337507
 20
425.357481
 30
0.0
 10
289.482008
 20
425.207479
 30
0.0
 10
373.738754
 20
425.207479
 30
0.0
 10
373.738754
 20
422.217483
 30
0.0
 10
289.482008
 20
422.217483
 30
0.0
 10
289.337507
 20
422.067478
 30
0.0
 10
289.337507
 20
375.357485
 30
0.0
 10
289.482008
 20
375.207484
 30
0.0
 10
369.051258
 20
375.207484
 30
0.0
 10
369.051258
 20
372.217488
 30
0.0
 10
289.482008
 20
372.217488
 30
0.0
 10
289.337507
 20
372.067483
 30
0.0
 10
289.337507
 20
325.357479
 30
0.0
 10
289.482008
 20
325.207485
 30
0.0
 10
364.363758
 20
325.207485
 30
0.0
 10
364.363758
 20
322.217482
 30
0.0
 10
289.482008
 20
322.217482
 30
0.0
 10
289.337507
 20
322.067484
 30
0.0
 10
289.337507
 20
275.357484
 30
0.0
 10
289.482008
 20
275.207483
 30
0.0
 10
359.676259
 20
275.207483
 30
0.0
 10
359.676259
 20
272.217483
 30
0.0
 10
289.482008
 20
272.217483
 30
0.0
 10
289.337507
 20
272.067482
 30
0.0
 10
289.337507
 20
248.712482
 30
0.0
  0
LWPOLYLINE
  5
126
100
AcDbEntity
  8
201605_v4
 62
1
100
AcDbPolyline
 90
3
 70
0
 10
366.214353
 20
271.312485
 30
0.0
 10
366.214353
 20
276.112482
 30
0.0
 10
365.147253
 20
275.045082
 30
0.0
  0
LWPOLYLINE
  5
127
100
AcDbEntity
  8
201605_v4
 62
1
100
AcDbPolyline
 90
34
 70
0
 10
371.434050
 20
321.312445
 30
0.0
 10
369.302259
 20
321.312445
 30
0.0
 10
371.272103
 20
324.483649
 30
0.0
 10
371.272103
 20
324.483649
 30
0.0
 10
371.274573
 20
324.486471
 30
0.0
 10
371.276689
 20
324.489293
 30
0.0
 10
371.278806
 20
324.492116
 30
0.0
 10
371.280923
 20
324.495291
 30
0.0
 10
371.283039
 20
324.498466
 30
0.0
 10
371.285156
 20
324.501641
 30
0.0
 10
371.287273
 20
324.505168
 30
0.0
 10
371.289389
 20
324.508767
 30
0.0
 10
371.291506
 20
324.512577
 30
0.0
 10
371.291506
 20
324.512577
 30
0.0
 10
371.372843
 20
324.687212
 30
0.0
 10
371.420358
 20
324.868230
 30
0.0
 10
371.435210
 20
325.051551
 30
0.0
 10
371.418594
 20
325.233083
 30
0.0
 10
371.371633
 20
325.408727
 30
0.0
 10
371.295510
 20
325.574406
 30
0.0
 10
371.191388
 20
325.726019
 30
0.0
 10
371.060433
 20
325.859482
 30
0.0
 10
370.903810
 20
325.970699
 30
0.0
 10
370.903810
 20
325.970699
 30
0.0
 10
370.728692
 20
326.050878
 30
0.0
 10
370.547392
 20
326.097660
 30
0.0
 10
370.363962
 20
326.112089
 30
0.0
 10
370.182465
 20
326.095226
 30
0.0
 10
370.006936
 20
326.048137
 30
0.0
 10
369.841445
 20
325.971863
 30
0.0
 10
369.690036
 20
325.867455
 30
0.0
 10
369.556767
 20
325.735968
 30
0.0
 10
369.445688
 20
325.578456
 30
0.0
 10
369.305717
 20
325.309950
 30
0.0
  0
LWPOLYLINE
  5
128
100
AcDbEntity
  8
201605_v4
 62
1
100
AcDbPolyline
 90
46
 70
0
 10
373.989759
 20
371.312631
 30
0.0
 10
375.055656
 20
371.312631
 30
0.0
 10
375.055656
 20
371.312631
 30
0.0
 10
375.247359
 20
371.329811
 30
0.0
 10
375.427744
 20
371.379376
 30
0.0
 10
375.593815
 20
371.458271
 30
0.0
 10
375.742567
 20
371.563431
 30
0.0
 10
375.870999
 20
371.691838
 30
0.0
 10
375.976120
 20
371.840450
 30
0.0
 10
376.054916
 20
372.006202
 30
0.0
 10
376.104393
 20
372.186069
 30
0.0
 10
376.121538
 20
372.377014
 30
0.0
 10
376.121538
 20
372.910710
 30
0.0
 10
376.121538
 20
372.910710
 30
0.0
 10
376.104393
 20
373.101570
 30
0.0
 10
376.054916
 20
373.281406
 30
0.0
 10
375.976120
 20
373.447144
 30
0.0
 10
375.870999
 20
373.595759
 30
0.0
 10
375.742567
 20
373.724195
 30
0.0
 10
375.593815
 20
373.829390
 30
0.0
 10
375.427744
 20
373.908313
 30
0.0
 10
375.247359
 20
373.957903
 30
0.0
 10
375.055656
 20
373.975118
 30
0.0
 10
374.521956
 20
373.975118
 30
0.0
 10
375.055656
 20
373.975118
 30
0.0
 10
375.055656
 20
373.975118
 30
0.0
 10
375.247359
 20
373.992334
 30
0.0
 10
375.427744
 20
374.041945
 30
0.0
 10
375.593815
 20
374.120946
 30
0.0
 10
375.742567
 20
374.226300
 30
0.0
 10
375.870999
 20
374.354986
 30
0.0
 10
375.976120
 20
374.503975
 30
0.0
 10
376.054916
 20
374.670242
 30
0.0
 10
376.104393
 20
374.850766
 30
0.0
 10
376.121538
 20
375.042518
 30
0.0
 10
376.121538
 20
375.042518
 30
0.0
 10
376.104393
 20
375.233378
 30
0.0
 10
376.054916
 20
375.413210
 30
0.0
 10
375.976120
 20
375.578952
 30
0.0
 10
375.870999
 20
375.727567
 30
0.0
 10
375.742567
 20
375.856003
 30
0.0
 10
375.593815
 20
375.961197
 30
0.0
 10
375.427744
 20
376.040121
 30
0.0
 10
375.247359
 20
376.089711
 30
0.0
 10
375.055656
 20
376.106926
 30
0.0
 10
373.989759
 20
376.106926
 30
0.0
  0
LWPOLYLINE
  5
129
100
AcDbEntity
  8
201605_v4
 62
1
100
AcDbPolyline
 90
3
 70
0
 10
381.075748
 20
422.379585
 30
0.0
 10
378.410558
 20
422.379585
 30
0.0
 10
379.474952
 20
426.112485
 30
0.0
  0
LWPOLYLINE
  5
12a
100
AcDbEntity
  8
201605_v4
 62
1
100
AcDbPolyline
 90
2
 70
0
 10
380.276851
 20
421.312488
 30
0.0
 10
380.276851
 20
423.444278
 30
0.0
  0
LWPOLYLINE
  5
12b
100
AcDbEntity
  8
201605_v4
 62
1
100
AcDbPolyline
 90
3
 70
0
 10
392.613265
 20
375.140802
 30
0.0
 10
385.408936
 20
364.720399
 30
0.0
 10
378.203248
 20
375.140802
 30
0.0
  0
LWPOLYLINE
  5
12c
100
AcDbEntity
  8
201605_v4
 62
1
100
AcDbPolyline
 90
2
 70
0
 10
385.408936
 20
365.558955
 30
0.0
 10
385.408936
 20
353.537284
 30
0.0
  0
LWPOLYLINE
  5
12d
100
AcDbEntity
  8
201605_v4
 62
1
100
AcDbPolyline
 90
2
 70
0
 10
412.528480
 20
364.339050
 30
0.0
 10
400.716785
 20
364.339050
 30
0.0
  0
LWPOLYLINE
  5
12e
100
AcDbEntity
  8
201605_v4
 62
1
100
AcDbPolyline
 90
46
 70
0
 10
420.627263
 20
353.538642
 30
0.0
 10
425.424279
 20
353.538642
 30
0.0
 10
425.424279
 20
353.538642
 30
0.0
 10
426.287029
 20
353.616038
 30
0.0
 10
427.098855
 20
353.839096
 30
0.0
 10
427.846247
 20
354.194124
 30
0.0
 10
428.515692
 20
354.667428
 30
0.0
 10
429.093704
 20
355.245310
 30
0.0
 10
429.566768
 20
355.914099
 30
0.0
 10
429.921388
 20
356.660080
 30
0.0
 10
430.144072
 20
357.469571
 30
0.0
 10
430.221295
 20
358.328884
 30
0.0
 10
430.221295
 20
360.730786
 30
0.0
 10
430.221295
 20
360.730786
 30
0.0
 10
430.144072
 20
361.589733
 30
0.0
 10
429.921388
 20
362.399040
 30
0.0
 10
429.566768
 20
363.144968
 30
0.0
 10
429.093704
 20
363.813799
 30
0.0
 10
428.515692
 20
364.391801
 30
0.0
 10
427.846247
 20
364.865253
 30
0.0
 10
427.098855
 20
365.220423
 30
0.0
 10
426.287029
 20
365.443590
 30
0.0
 10
425.424279
 20
365.521028
 30
0.0
 10
423.022381
 20
365.521028
 30
0.0
 10
425.424279
 20
365.521028
 30
0.0
 10
425.424279
 20
365.521028
 30
0.0
 10
426.287029
 20
365.598488
 30
0.0
 10
427.098855
 20
365.821786
 30
0.0
 10
427.846247
 20
366.177308
 30
0.0
 10
428.515692
 20
366.651441
 30
0.0
 10
429.093704
 20
367.230582
 30
0.0
 10
429.566768
 20
367.901093
 30
0.0
 10
429.921388
 20
368.649391
 30
0.0
 10
430.144072
 20
369.461831
 30
0.0
 10
430.221295
 20
370.324814
 30
0.0
 10
430.221295
 20
370.324814
 30
0.0
 10
430.144072
 20
371.183775
 30
0.0
 10
429.921388
 20
371.993082
 30
0.0
 10
429.566768
 20
372.739010
 30
0.0
 10
429.093704
 20
373.407831
 30
0.0
 10
428.515692
 20
373.985832
 30
0.0
 10
427.846247
 20
374.459285
 30
0.0
 10
427.098855
 20
374.814454
 30
0.0
 10
426.287029
 20
375.037622
 30
0.0
 10
425.424279
 20
375.115060
 30
0.0
 10
420.627263
 20
375.115060
 30
0.0
  0
LWPOLYLINE
  5
12f
100
AcDbEntity
  8
201605_v4
 62
5
100
AcDbPolyline
 90
30
 70
0
 10
466.012530
 20
448.712484
 30
0.0
 10
466.012530
 20
425.357481
 30
0.0
 10
466.157031
 20
425.207479
 30
0.0
 10
550.413777
 20
425.207479
 30
0.0
 10
550.413777
 20
422.217483
 30
0.0
 10
466.157031
 20
422.217483
 30
0.0
 10
466.012530
 20
422.067478
 30
0.0
 10
466.012530
 20
375.357485
 30
0.0
 10
466.157031
 20
375.207484
 30
0.0
 10
545.726281
 20
375.207484
 30
0.0
 10
545.726281
 20
372.217488
 30
0.0
 10
466.157031
 20
372.217488
 30
0.0
 10
466.012530
 20
372.067483
 30
0.0
 10
466.012530
 20
325.357479
 30
0.0
 10
466.157031
 20
325.207485
 30
0.0
 10
541.038782
 20
325.207485
 30
0.0
 10
541.038782
 20
322.217482
 30
0.0
 10
466.157031
 20
322.217482
 30
0.0
 10
466.012530
 20
322.067484
 30
0.0
 10
466.012530
 20
275.357484
 30
0.0
 10
466.157031
 20
275.207483
 30
0.0
 10
536.351282
 20
275.207483
 30
0.0
 10
536.351282
 20
272.217483
 30
0.0
 10
466.157031
 20
272.217483
 30
0.0
 10
466.012530
 20
272.067482
 30
0.0
 10
466.012530
 20
248.712482
 30
0.0
 10
602.012530
 20
248.712482
 30
0.0
 10
618.679202
 20
337.601377
 30
0.0
 10
639.512536
 20
448.712484
 30
0.0
 10
466.012530
 20
448.712484
 30
0.0
  0
LWPOLYLINE
  5
130
100
AcDbEntity
  8
201605_v4
 62
1
100
AcDbPolyline
 90
3
 70
0
 10
542.889376
 20
271.312485
 30
0.0
 10
542.889376
 20
276.112485
 30
0.0
 10
541.822277
 20
275.045082
 30
0.0
  0
LWPOLYLINE
  5
131
100
AcDbEntity
  8
201605_v4
 62
1
100
AcDbPolyline
 90
34
 70
0
 10
548.109073
 20
321.312445
 30
0.0
 10
545.977283
 20
321.312445
 30
0.0
 10
547.947127
 20
324.483649
 30
0.0
 10
547.947127
 20
324.483649
 30
0.0
 10
547.949596
 20
324.486471
 30
0.0
 10
547.951713
 20
324.489293
 30
0.0
 10
547.953830
 20
324.492116
 30
0.0
 10
547.955946
 20
324.495291
 30
0.0
 10
547.958063
 20
324.498466
 30
0.0
 10
547.960180
 20
324.501641
 30
0.0
 10
547.962296
 20
324.505168
 30
0.0
 10
547.964413
 20
324.508767
 30
0.0
 10
547.966530
 20
324.512577
 30
0.0
 10
547.966530
 20
324.512577
 30
0.0
 10
548.047866
 20
324.687212
 30
0.0
 10
548.095382
 20
324.868230
 30
0.0
 10
548.110234
 20
325.051551
 30
0.0
 10
548.093618
 20
325.233083
 30
0.0
 10
548.046656
 20
325.408727
 30
0.0
 10
547.970534
 20
325.574406
 30
0.0
 10
547.866411
 20
325.726019
 30
0.0
 10
547.735457
 20
325.859482
 30
0.0
 10
547.578834
 20
325.970699
 30
0.0
 10
547.578834
 20
325.970699
 30
0.0
 10
547.403715
 20
326.050878
 30
0.0
 10
547.222415
 20
326.097660
 30
0.0
 10
547.038992
 20
326.112089
 30
0.0
 10
546.857488
 20
326.095226
 30
0.0
 10
546.681960
 20
326.048137
 30
0.0
 10
546.516468
 20
325.971863
 30
0.0
 10
546.365060
 20
325.867455
 30
0.0
 10
546.231791
 20
325.735968
 30
0.0
 10
546.120712
 20
325.578456
 30
0.0
 10
545.980740
 20
325.309950
 30
0.0
  0
LWPOLYLINE
  5
132
100
AcDbEntity
  8
201605_v4
 62
1
100
AcDbPolyline
 90
46
 70
0
 10
550.664782
 20
371.312631
 30
0.0
 10
551.730679
 20
371.312631
 30
0.0
 10
551.730679
 20
371.312631
 30
0.0
 10
551.922382
 20
371.329846
 30
0.0
 10
552.102768
 20
371.379401
 30
0.0
 10
552.268838
 20
371.458296
 30
0.0
 10
552.417590
 20
371.563456
 30
0.0
 10
552.546023
 20
371.691863
 30
0.0
 10
552.651143
 20
371.840474
 30
0.0
 10
552.729940
 20
372.006227
 30
0.0
 10
552.779417
 20
372.186094
 30
0.0
 10
552.796562
 20
372.377039
 30
0.0
 10
552.796562
 20
372.910735
 30
0.0
 10
552.796562
 20
372.910735
 30
0.0
 10
552.779417
 20
373.101595
 30
0.0
 10
552.729940
 20
373.281430
 30
0.0
 10
552.651143
 20
373.447169
 30
0.0
 10
552.546023
 20
373.595784
 30
0.0
 10
552.417590
 20
373.724219
 30
0.0
 10
552.268838
 20
373.829414
 30
0.0
 10
552.102768
 20
373.908338
 30
0.0
 10
551.922382
 20
373.957928
 30
0.0
 10
551.730679
 20
373.975143
 30
0.0
 10
551.196979
 20
373.975143
 30
0.0
 10
551.730679
 20
373.975143
 30
0.0
 10
551.730679
 20
373.975143
 30
0.0
 10
551.922382
 20
373.992359
 30
0.0
 10
552.102768
 20
374.041970
 30
0.0
 10
552.268838
 20
374.120971
 30
0.0
 10
552.417590
 20
374.226324
 30
0.0
 10
552.546023
 20
374.355011
 30
0.0
 10
552.651143
 20
374.503999
 30
0.0
 10
552.729940
 20
374.670267
 30
0.0
 10
552.779417
 20
374.850791
 30
0.0
 10
552.796562
 20
375.042543
 30
0.0
 10
552.796562
 20
375.042543
 30
0.0
 10
552.779417
 20
375.233403
 30
0.0
 10
552.729940
 20
375.413235
 30
0.0
 10
552.651143
 20
375.578977
 30
0.0
 10
552.546023
 20
375.727591
 30
0.0
 10
552.417590
 20
375.856027
 30
0.0
 10
552.268838
 20
375.961222
 30
0.0
 10
552.102768
 20
376.040146
 30
0.0
 10
551.922382
 20
376.089736
 30
0.0
 10
551.730679
 20
376.106951
 30
0.0
 10
550.664782
 20
376.106951
 30
0.0
  0
LWPOLYLINE
  5
133
100
AcDbEntity
  8
201605_v4
 62
1
100
AcDbPolyline
 90
3
 70
0
 10
557.750772
 20
422.379585
 30
0.0
 10
555.085582
 20
422.379585
 30
0.0
 10
556.149976
 20
426.112485
 30
0.0
  0
LWPOLYLINE
  5
134
100
AcDbEntity
  8
201605_v4
 62
1
100
AcDbPolyline
 90
2
 70
0
 10
556.951875
 20
421.312488
 30
0.0
 10
556.951875
 20
423.444278
 30
0.0
  0
LWPOLYLINE
  5
135
100
AcDbEntity
  8
201605_v4
 62
1
100
AcDbPolyline
 90
3
 70
0
 10
571.684094
 20
375.140802
 30
0.0
 10
564.479765
 20
364.720399
 30
0.0
 10
557.274067
 20
375.140802
 30
0.0
  0
LWPOLYLINE
  5
136
100
AcDbEntity
  8
201605_v4
 62
1
100
AcDbPolyline
 90
2
 70
0
 10
564.479765
 20
365.558955
 30
0.0
 10
564.479765
 20
353.537284
 30
0.0
  0
LWPOLYLINE
  5
137
100
AcDbEntity
  8
201605_v4
 62
1
100
AcDbPolyline
 90
2
 70
0
 10
591.599299
 20
364.339050
 30
0.0
 10
579.787614
 20
364.339050
 30
0.0
  0
LWPOLYLINE
  5
138
100
AcDbEntity
  8
201605_v4
 62
1
100
AcDbPolyline
 90
3
 70
0
 10
604.501190
 20
353.537965
 30
0.0
 10
604.501190
 20
375.140121
 30
0.0
 10
599.698759
 20
370.336336
 30
0.0
  0
LWPOLYLINE
  5
139
100
AcDbEntity
  8
201605_v4
 62
5
100
AcDbPolyline
 90
30
 70
0
 10
642.687522
 20
248.712482
 30
0.0
 10
741.187519
 20
248.712482
 30
0.0
 10
752.187525
 20
336.712482
 30
0.0
 10
766.187522
 20
448.712484
 30
0.0
 10
642.687522
 20
448.712484
 30
0.0
 10
642.687522
 20
425.357481
 30
0.0
 10
642.832023
 20
425.207479
 30
0.0
 10
702.870024
 20
425.207479
 30
0.0
 10
702.870024
 20
422.217483
 30
0.0
 10
642.832023
 20
422.217483
 30
0.0
 10
642.687522
 20
422.067478
 30
0.0
 10
642.687522
 20
375.357485
 30
0.0
 10
642.832023
 20
375.207484
 30
0.0
 10
699.745020
 20
375.207484
 30
0.0
 10
699.745020
 20
372.217488
 30
0.0
 10
642.832023
 20
372.217488
 30
0.0
 10
642.687522
 20
372.067483
 30
0.0
 10
642.687522
 20
325.357479
 30
0.0
 10
642.832023
 20
325.207485
 30
0.0
 10
696.620023
 20
325.207485
 30
0.0
 10
696.620019
 20
322.217482
 30
0.0
 10
642.832023
 20
322.217482
 30
0.0
 10
642.687522
 20
322.067484
 30
0.0
 10
642.687522
 20
275.357484
 30
0.0
 10
642.832023
 20
275.207483
 30
0.0
 10
693.495022
 20
275.207483
 30
0.0
 10
693.495022
 20
272.217483
 30
0.0
 10
642.832023
 20
272.217483
 30
0.0
 10
642.687522
 20
272.067482
 30
0.0
 10
642.687522
 20
248.712482
 30
0.0
  0
LWPOLYLINE
  5
13a
100
AcDbEntity
  8
201605_v4
 62
1
100
AcDbPolyline
 90
3
 70
0
 10
700.033116
 20
271.312485
 30
0.0
 10
700.033116
 20
276.112482
 30
0.0
 10
698.966016
 20
275.045082
 30
0.0
  0
LWPOLYLINE
  5
13b
100
AcDbEntity
  8
201605_v4
 62
1
100
AcDbPolyline
 90
34
 70
0
 10
703.690317
 20
321.312445
 30
0.0
 10
701.558520
 20
321.312445
 30
0.0
 10
703.528371
 20
324.483649
 30
0.0
 10
703.528371
 20
324.483649
 30
0.0
 10
703.530840
 20
324.486471
 30
0.0
 10
703.532957
 20
324.489293
 30
0.0
 10
703.535074
 20
324.492116
 30
0.0
 10
703.537190
 20
324.495291
 30
0.0
 10
703.539307
 20
324.498466
 30
0.0
 10
703.541424
 20
324.501641
 30
0.0
 10
703.543540
 20
324.505168
 30
0.0
 10
703.545657
 20
324.508767
 30
0.0
 10
703.547774
 20
324.512577
 30
0.0
 10
703.547774
 20
324.512577
 30
0.0
 10
703.629103
 20
324.687212
 30
0.0
 10
703.676619
 20
324.868230
 30
0.0
 10
703.691471
 20
325.051551
 30
0.0
 10
703.674820
 20
325.233083
 30
0.0
 10
703.627861
 20
325.408727
 30
0.0
 10
703.551735
 20
325.574406
 30
0.0
 10
703.447613
 20
325.726019
 30
0.0
 10
703.316662
 20
325.859482
 30
0.0
 10
703.160039
 20
325.970699
 30
0.0
 10
703.160039
 20
325.970699
 30
0.0
 10
702.984920
 20
326.050878
 30
0.0
 10
702.803617
 20
326.097660
 30
0.0
 10
702.620194
 20
326.112089
 30
0.0
 10
702.438690
 20
326.095226
 30
0.0
 10
702.263169
 20
326.048137
 30
0.0
 10
702.097674
 20
325.971863
 30
0.0
 10
701.946268
 20
325.867455
 30
0.0
 10
701.812996
 20
325.735968
 30
0.0
 10
701.701913
 20
325.578456
 30
0.0
 10
701.561945
 20
325.309950
 30
0.0
  0
LWPOLYLINE
  5
13c
100
AcDbEntity
  8
201605_v4
 62
1
100
AcDbPolyline
 90
46
 70
0
 10
704.683521
 20
371.312631
 30
0.0
 10
705.749418
 20
371.312631
 30
0.0
 10
705.749418
 20
371.312631
 30
0.0
 10
705.941120
 20
371.329811
 30
0.0
 10
706.121510
 20
371.379376
 30
0.0
 10
706.287580
 20
371.458271
 30
0.0
 10
706.436332
 20
371.563431
 30
0.0
 10
706.564765
 20
371.691838
 30
0.0
 10
706.669882
 20
371.840450
 30
0.0
 10
706.748678
 20
372.006202
 30
0.0
 10
706.798159
 20
372.186069
 30
0.0
 10
706.815304
 20
372.377014
 30
0.0
 10
706.815304
 20
372.910710
 30
0.0
 10
706.815304
 20
372.910710
 30
0.0
 10
706.798159
 20
373.101570
 30
0.0
 10
706.748678
 20
373.281406
 30
0.0
 10
706.669882
 20
373.447144
 30
0.0
 10
706.564765
 20
373.595759
 30
0.0
 10
706.436332
 20
373.724195
 30
0.0
 10
706.287580
 20
373.829390
 30
0.0
 10
706.121510
 20
373.908313
 30
0.0
 10
705.941120
 20
373.957903
 30
0.0
 10
705.749418
 20
373.975118
 30
0.0
 10
705.215721
 20
373.975118
 30
0.0
 10
705.749418
 20
373.975118
 30
0.0
 10
705.749418
 20
373.975118
 30
0.0
 10
705.941120
 20
373.992334
 30
0.0
 10
706.121510
 20
374.041945
 30
0.0
 10
706.287580
 20
374.120946
 30
0.0
 10
706.436332
 20
374.226300
 30
0.0
 10
706.564765
 20
374.354986
 30
0.0
 10
706.669882
 20
374.503975
 30
0.0
 10
706.748678
 20
374.670242
 30
0.0
 10
706.798159
 20
374.850766
 30
0.0
 10
706.815304
 20
375.042518
 30
0.0
 10
706.815304
 20
375.042518
 30
0.0
 10
706.798159
 20
375.233378
 30
0.0
 10
706.748678
 20
375.413210
 30
0.0
 10
706.669882
 20
375.578952
 30
0.0
 10
706.564765
 20
375.727567
 30
0.0
 10
706.436332
 20
375.856003
 30
0.0
 10
706.287580
 20
375.961197
 30
0.0
 10
706.121510
 20
376.040121
 30
0.0
 10
705.941120
 20
376.089711
 30
0.0
 10
705.749418
 20
376.106926
 30
0.0
 10
704.683521
 20
376.106926
 30
0.0
  0
LWPOLYLINE
  5
13d
100
AcDbEntity
  8
201605_v4
 62
1
100
AcDbPolyline
 90
3
 70
0
 10
710.207015
 20
422.379585
 30
0.0
 10
707.541821
 20
422.379585
 30
0.0
 10
708.606215
 20
426.112485
 30
0.0
  0
LWPOLYLINE
  5
13e
100
AcDbEntity
  8
201605_v4
 62
1
100
AcDbPolyline
 90
2
 70
0
 10
709.408122
 20
421.312488
 30
0.0
 10
709.408122
 20
423.444278
 30
0.0
  0
LWPOLYLINE
  5
13f
100
AcDbEntity
  8
201605_v4
 62
1
100
AcDbPolyline
 90
3
 70
0
 10
688.509887
 20
412.644551
 30
0.0
 10
681.305555
 20
402.224148
 30
0.0
 10
674.099867
 20
412.644551
 30
0.0
  0
LWPOLYLINE
  5
140
100
AcDbEntity
  8
201605_v4
 62
1
100
AcDbPolyline
 90
2
 70
0
 10
681.305555
 20
403.062708
 30
0.0
 10
681.305555
 20
391.041036
 30
0.0
  0
LWPOLYLINE
  5
141
100
AcDbEntity
  8
201605_v4
 62
1
100
AcDbPolyline
 90
2
 70
0
 10
708.425099
 20
401.842799
 30
0.0
 10
696.613408
 20
401.842799
 30
0.0
  0
LWPOLYLINE
  5
142
100
AcDbEntity
  8
201605_v4
 62
1
100
AcDbPolyline
 90
3
 70
0
 10
728.518454
 20
395.844155
 30
0.0
 10
716.523879
 20
395.844155
 30
0.0
 10
721.314125
 20
412.643874
 30
0.0
  0
LWPOLYLINE
  5
143
100
AcDbEntity
  8
201605_v4
 62
1
100
AcDbPolyline
 90
2
 70
0
 10
724.923059
 20
391.041714
 30
0.0
 10
724.923059
 20
400.635756
 30
0.0
  0
LWPOLYLINE
  5
144
100
AcDbEntity
  8
201605_v4
 62
5
100
AcDbPolyline
 90
30
 70
0
 10
769.362507
 20
448.712484
 30
0.0
 10
769.362507
 20
425.357481
 30
0.0
 10
769.507009
 20
425.207479
 30
0.0
 10
829.545010
 20
425.207479
 30
0.0
 10
829.545010
 20
422.217483
 30
0.0
 10
769.507009
 20
422.217483
 30
0.0
 10
769.362507
 20
422.067478
 30
0.0
 10
769.362507
 20
375.357485
 30
0.0
 10
769.507009
 20
375.207484
 30
0.0
 10
826.420013
 20
375.207484
 30
0.0
 10
826.420013
 20
372.217488
 30
0.0
 10
769.507009
 20
372.217488
 30
0.0
 10
769.362507
 20
372.067483
 30
0.0
 10
769.362507
 20
325.357479
 30
0.0
 10
769.507009
 20
325.207485
 30
0.0
 10
823.295008
 20
325.207485
 30
0.0
 10
823.295008
 20
322.217482
 30
0.0
 10
769.507009
 20
322.217482
 30
0.0
 10
769.362507
 20
322.067484
 30
0.0
 10
769.362507
 20
275.357484
 30
0.0
 10
769.507009
 20
275.207483
 30
0.0
 10
820.170011
 20
275.207483
 30
0.0
 10
820.170011
 20
272.217483
 30
0.0
 10
769.507009
 20
272.217483
 30
0.0
 10
769.362507
 20
272.067482
 30
0.0
 10
769.362507
 20
248.712482
 30
0.0
 10
867.862515
 20
248.712482
 30
0.0
 10
878.862511
 20
336.712482
 30
0.0
 10
892.862507
 20
448.712484
 30
0.0
 10
769.362507
 20
448.712484
 30
0.0
  0
LWPOLYLINE
  5
145
100
AcDbEntity
  8
201605_v4
 62
1
100
AcDbPolyline
 90
3
 70
0
 10
826.708109
 20
271.312485
 30
0.0
 10
826.708109
 20
276.112485
 30
0.0
 10
825.641005
 20
275.045082
 30
0.0
  0
LWPOLYLINE
  5
146
100
AcDbEntity
  8
201605_v4
 62
1
100
AcDbPolyline
 90
34
 70
0
 10
830.365303
 20
321.312445
 30
0.0
 10
828.233509
 20
321.312445
 30
0.0
 10
830.203357
 20
324.483649
 30
0.0
 10
830.203357
 20
324.483649
 30
0.0
 10
830.205826
 20
324.486471
 30
0.0
 10
830.207943
 20
324.489293
 30
0.0
 10
830.210060
 20
324.492116
 30
0.0
 10
830.212176
 20
324.495291
 30
0.0
 10
830.214293
 20
324.498466
 30
0.0
 10
830.216410
 20
324.501641
 30
0.0
 10
830.218526
 20
324.505168
 30
0.0
 10
830.220643
 20
324.508767
 30
0.0
 10
830.222760
 20
324.512577
 30
0.0
 10
830.222760
 20
324.512577
 30
0.0
 10
830.304096
 20
324.687212
 30
0.0
 10
830.351612
 20
324.868230
 30
0.0
 10
830.366464
 20
325.051551
 30
0.0
 10
830.349812
 20
325.233083
 30
0.0
 10
830.302851
 20
325.408727
 30
0.0
 10
830.226732
 20
325.574406
 30
0.0
 10
830.122609
 20
325.726019
 30
0.0
 10
829.991658
 20
325.859482
 30
0.0
 10
829.835029
 20
325.970699
 30
0.0
 10
829.835029
 20
325.970699
 30
0.0
 10
829.659910
 20
326.050878
 30
0.0
 10
829.478614
 20
326.097660
 30
0.0
 10
829.295187
 20
326.112089
 30
0.0
 10
829.113686
 20
326.095226
 30
0.0
 10
828.938158
 20
326.048137
 30
0.0
 10
828.772670
 20
325.971863
 30
0.0
 10
828.621258
 20
325.867455
 30
0.0
 10
828.487985
 20
325.735968
 30
0.0
 10
828.376910
 20
325.578456
 30
0.0
 10
828.236935
 20
325.309950
 30
0.0
  0
LWPOLYLINE
  5
147
100
AcDbEntity
  8
201605_v4
 62
1
100
AcDbPolyline
 90
46
 70
0
 10
831.358506
 20
371.312631
 30
0.0
 10
832.424410
 20
371.312631
 30
0.0
 10
832.424410
 20
371.312631
 30
0.0
 10
832.616113
 20
371.329846
 30
0.0
 10
832.796496
 20
371.379401
 30
0.0
 10
832.962566
 20
371.458296
 30
0.0
 10
833.111318
 20
371.563456
 30
0.0
 10
833.239757
 20
371.691863
 30
0.0
 10
833.344868
 20
371.840474
 30
0.0
 10
833.423664
 20
372.006227
 30
0.0
 10
833.473145
 20
372.186094
 30
0.0
 10
833.490325
 20
372.377039
 30
0.0
 10
833.490325
 20
372.910735
 30
0.0
 10
833.490325
 20
372.910735
 30
0.0
 10
833.473145
 20
373.101595
 30
0.0
 10
833.423664
 20
373.281430
 30
0.0
 10
833.344868
 20
373.447169
 30
0.0
 10
833.239757
 20
373.595784
 30
0.0
 10
833.111318
 20
373.724219
 30
0.0
 10
832.962566
 20
373.829414
 30
0.0
 10
832.796496
 20
373.908338
 30
0.0
 10
832.616113
 20
373.957928
 30
0.0
 10
832.424410
 20
373.975143
 30
0.0
 10
831.890707
 20
373.975143
 30
0.0
 10
832.424410
 20
373.975143
 30
0.0
 10
832.424410
 20
373.975143
 30
0.0
 10
832.616113
 20
373.992359
 30
0.0
 10
832.796496
 20
374.041970
 30
0.0
 10
832.962566
 20
374.120971
 30
0.0
 10
833.111318
 20
374.226324
 30
0.0
 10
833.239757
 20
374.355011
 30
0.0
 10
833.344868
 20
374.503999
 30
0.0
 10
833.423664
 20
374.670267
 30
0.0
 10
833.473145
 20
374.850791
 30
0.0
 10
833.490325
 20
375.042543
 30
0.0
 10
833.490325
 20
375.042543
 30
0.0
 10
833.473145
 20
375.233403
 30
0.0
 10
833.423664
 20
375.413235
 30
0.0
 10
833.344868
 20
375.578977
 30
0.0
 10
833.239757
 20
375.727591
 30
0.0
 10
833.111318
 20
375.856027
 30
0.0
 10
832.962566
 20
375.961222
 30
0.0
 10
832.796496
 20
376.040146
 30
0.0
 10
832.616113
 20
376.089736
 30
0.0
 10
832.424410
 20
376.106951
 30
0.0
 10
831.358506
 20
376.106951
 30
0.0
  0
LWPOLYLINE
  5
148
100
AcDbEntity
  8
201605_v4
 62
1
100
AcDbPolyline
 90
3
 70
0
 10
836.882001
 20
422.379585
 30
0.0
 10
834.216807
 20
422.379585
 30
0.0
 10
835.281201
 20
426.112485
 30
0.0
  0
LWPOLYLINE
  5
149
100
AcDbEntity
  8
201605_v4
 62
1
100
AcDbPolyline
 90
2
 70
0
 10
836.083108
 20
421.312488
 30
0.0
 10
836.083108
 20
423.444278
 30
0.0
  0
LWPOLYLINE
  5
14a
100
AcDbEntity
  8
201605_v4
 62
1
100
AcDbPolyline
 90
3
 70
0
 10
816.383513
 20
412.644551
 30
0.0
 10
809.179184
 20
402.224148
 30
0.0
 10
801.973493
 20
412.644551
 30
0.0
  0
LWPOLYLINE
  5
14b
100
AcDbEntity
  8
201605_v4
 62
1
100
AcDbPolyline
 90
2
 70
0
 10
809.179184
 20
403.062708
 30
0.0
 10
809.179184
 20
391.041036
 30
0.0
  0
LWPOLYLINE
  5
14c
100
AcDbEntity
  8
201605_v4
 62
1
100
AcDbPolyline
 90
2
 70
0
 10
836.298725
 20
401.842799
 30
0.0
 10
824.487034
 20
401.842799
 30
0.0
  0
LWPOLYLINE
  5
14d
100
AcDbEntity
  8
201605_v4
 62
1
100
AcDbPolyline
 90
34
 70
0
 10
853.993166
 20
391.041541
 30
0.0
 10
844.399138
 20
391.041541
 30
0.0
 10
853.264338
 20
405.313377
 30
0.0
 10
853.264338
 20
405.313377
 30
0.0
 10
853.274921
 20
405.326501
 30
0.0
 10
853.285081
 20
405.339730
 30
0.0
 10
853.294888
 20
405.353171
 30
0.0
 10
853.304378
 20
405.366964
 30
0.0
 10
853.313656
 20
405.381181
 30
0.0
 10
853.322758
 20
405.395963
 30
0.0
 10
853.331754
 20
405.411414
 30
0.0
 10
853.340714
 20
405.427642
 30
0.0
 10
853.349710
 20
405.444787
 30
0.0
 10
853.349710
 20
405.444787
 30
0.0
 10
853.715752
 20
406.230709
 30
0.0
 10
853.929592
 20
407.045389
 30
0.0
 10
853.996458
 20
407.870413
 30
0.0
 10
853.921602
 20
408.687376
 30
0.0
 10
853.710263
 20
409.477873
 30
0.0
 10
853.367673
 20
410.223490
 30
0.0
 10
852.899082
 20
410.905822
 30
0.0
 10
852.309728
 20
411.506455
 30
0.0
 10
851.604850
 20
412.006983
 30
0.0
 10
851.604850
 20
412.006983
 30
0.0
 10
850.816741
 20
412.367825
 30
0.0
 10
850.000815
 20
412.578374
 30
0.0
 10
849.175305
 20
412.643345
 30
0.0
 10
848.358469
 20
412.567512
 30
0.0
 10
847.568529
 20
412.355584
 30
0.0
 10
846.823737
 20
412.012303
 30
0.0
 10
846.142333
 20
411.542424
 30
0.0
 10
845.542554
 20
410.950685
 30
0.0
 10
845.042651
 20
410.241803
 30
0.0
 10
844.412709
 20
409.033401
 30
0.0
  0
ENDSEC
  0
SECTION
  2
OBJECTS
  0
DICTIONARY
  5
C
330
0
100
AcDbDictionary
  3
ACAD_GROUP
350
D
  3
ACAD_MLINESTYLE
350
17
  0
DICTIONARY
  5
D
330
C
100
AcDbDictionary
  0
DICTIONARY
  5
1A
330
C
100
AcDbDictionary
  0
DICTIONARY
  5
17
330
C
100
AcDbDictionary
  3
STANDARD
350
18
  0
DICTIONARY
  5
19
330
C
100
AcDbDictionary
  0
ENDSEC
  0
EOF
