  0
SECTION
  2
HEADER
  9
$ACADVER
  1
AC1018
  9
$ACADMAINTVER
 70
     0
  9
$DWGCODEPAGE
  3
ANSI_932
  9
$INSBASE
 10
0.0
 20
0.0
 30
0.0
  9
$EXTMIN
 10
1.000000000000000E+20
 20
1.000000000000000E+20
 30
1.000000000000000E+20
  9
$EXTMAX
 10
-1.000000000000000E+20
 20
-1.000000000000000E+20
 30
-1.000000000000000E+20
  9
$LIMMIN
 10
0.0
 20
0.0
  9
$LIMMAX
 10
12.0
 20
9.0
  9
$ORTHOMODE
 70
     0
  9
$REGENMODE
 70
     1
  9
$FILLMODE
 70
     1
  9
$QTEXTMODE
 70
     0
  9
$MIRRTEXT
 70
     1
  9
$LTSCALE
 40
1.0
  9
$ATTMODE
 70
     1
  9
$TEXTSIZE
 40
0.2
  9
$TRACEWID
 40
0.05
  9
$TEXTSTYLE
  7
Standard
  9
$CLAYER
  8
0
  9
$CELTYPE
  6
ByLayer
  9
$CECOLOR
 62
   256
  9
$CELTSCALE
 40
1.0
  9
$DISPSILH
 70
     0
  9
$DIMSCALE
 40
1.0
  9
$DIMASZ
 40
0.18
  9
$DIMEXO
 40
0.0625
  9
$DIMDLI
 40
0.38
  9
$DIMRND
 40
0.0
  9
$DIMDLE
 40
0.0
  9
$DIMEXE
 40
0.18
  9
$DIMTP
 40
0.0
  9
$DIMTM
 40
0.0
  9
$DIMTXT
 40
0.18
  9
$DIMCEN
 40
0.09
  9
$DIMTSZ
 40
0.0
  9
$DIMTOL
 70
     0
  9
$DIMLIM
 70
     0
  9
$DIMTIH
 70
     1
  9
$DIMTOH
 70
     1
  9
$DIMSE1
 70
     0
  9
$DIMSE2
 70
     0
  9
$DIMTAD
 70
     0
  9
$DIMZIN
 70
     0
  9
$DIMBLK
  1

  9
$DIMASO
 70
     1
  9
$DIMSHO
 70
     1
  9
$DIMPOST
  1

  9
$DIMAPOST
  1

  9
$DIMALT
 70
     0
  9
$DIMALTD
 70
     2
  9
$DIMALTF
 40
25.4
  9
$DIMLFAC
 40
1.0
  9
$DIMTOFL
 70
     0
  9
$DIMTVP
 40
0.0
  9
$DIMTIX
 70
     0
  9
$DIMSOXD
 70
     0
  9
$DIMSAH
 70
     0
  9
$DIMBLK1
  1

  9
$DIMBLK2
  1

  9
$DIMSTYLE
  2
Standard
  9
$DIMCLRD
 70
     0
  9
$DIMCLRE
 70
     0
  9
$DIMCLRT
 70
     0
  9
$DIMTFAC
 40
1.0
  9
$DIMGAP
 40
0.09
  9
$DIMJUST
 70
     0
  9
$DIMSD1
 70
     0
  9
$DIMSD2
 70
     0
  9
$DIMTOLJ
 70
     1
  9
$DIMTZIN
 70
     0
  9
$DIMALTZ
 70
     0
  9
$DIMALTTZ
 70
     0
  9
$DIMUPT
 70
     0
  9
$DIMDEC
 70
     4
  9
$DIMTDEC
 70
     4
  9
$DIMALTU
 70
     2
  9
$DIMALTTD
 70
     2
  9
$DIMTXSTY
  7
Standard
  9
$DIMAUNIT
 70
     0
  9
$DIMADEC
 70
     0
  9
$DIMALTRND
 40
0.0
  9
$DIMAZIN
 70
     0
  9
$DIMDSEP
 70
    46
  9
$DIMATFIT
 70
     3
  9
$DIMFRAC
 70
     0
  9
$DIMLDRBLK
  1

  9
$DIMLUNIT
 70
     2
  9
$DIMLWD
 70
    -2
  9
$DIMLWE
 70
    -2
  9
$DIMTMOVE
 70
     0
  9
$LUNITS
 70
     2
  9
$LUPREC
 70
     4
  9
$SKETCHINC
 40
0.1
  9
$FILLETRAD
 40
0.5
  9
$AUNITS
 70
     0
  9
$AUPREC
 70
     0
  9
$MENU
  1
.
  9
$ELEVATION
 40
0.0
  9
$PELEVATION
 40
0.0
  9
$THICKNESS
 40
0.0
  9
$LIMCHECK
 70
     0
  9
$CHAMFERA
 40
0.5
  9
$CHAMFERB
 40
0.5
  9
$CHAMFERC
 40
1.0
  9
$CHAMFERD
 40
0.0
  9
$SKPOLY
 70
     0
  9
$TDCREATE
 40
2457842.72158559
  9
$TDUCREATE
 40
2457842.34658559
  9
$TDUPDATE
 40
2457842.721585602
  9
$TDUUPDATE
 40
2457842.346585602
  9
$TDINDWG
 40
0.0000000116
  9
$TDUSRTIMER
 40
0.0000000116
  9
$USRTIMER
 70
     1
  9
$ANGBASE
 50
0.0
  9
$ANGDIR
 70
     0
  9
$PDMODE
 70
     0
  9
$PDSIZE
 40
0.0
  9
$PLINEWID
 40
0.0
  9
$SPLFRAME
 70
     0
  9
$SPLINETYPE
 70
     6
  9
$SPLINESEGS
 70
     8
  9
$HANDSEED
  5
EE
  9
$SURFTAB1
 70
     6
  9
$SURFTAB2
 70
     6
  9
$SURFTYPE
 70
     6
  9
$SURFU
 70
     6
  9
$SURFV
 70
     6
  9
$UCSBASE
  2

  9
$UCSNAME
  2

  9
$UCSORG
 10
0.0
 20
0.0
 30
0.0
  9
$UCSXDIR
 10
1.0
 20
0.0
 30
0.0
  9
$UCSYDIR
 10
0.0
 20
1.0
 30
0.0
  9
$UCSORTHOREF
  2

  9
$UCSORTHOVIEW
 70
     0
  9
$UCSORGTOP
 10
0.0
 20
0.0
 30
0.0
  9
$UCSORGBOTTOM
 10
0.0
 20
0.0
 30
0.0
  9
$UCSORGLEFT
 10
0.0
 20
0.0
 30
0.0
  9
$UCSORGRIGHT
 10
0.0
 20
0.0
 30
0.0
  9
$UCSORGFRONT
 10
0.0
 20
0.0
 30
0.0
  9
$UCSORGBACK
 10
0.0
 20
0.0
 30
0.0
  9
$PUCSBASE
  2

  9
$PUCSNAME
  2

  9
$PUCSORG
 10
0.0
 20
0.0
 30
0.0
  9
$PUCSXDIR
 10
1.0
 20
0.0
 30
0.0
  9
$PUCSYDIR
 10
0.0
 20
1.0
 30
0.0
  9
$PUCSORTHOREF
  2

  9
$PUCSORTHOVIEW
 70
     0
  9
$PUCSORGTOP
 10
0.0
 20
0.0
 30
0.0
  9
$PUCSORGBOTTOM
 10
0.0
 20
0.0
 30
0.0
  9
$PUCSORGLEFT
 10
0.0
 20
0.0
 30
0.0
  9
$PUCSORGRIGHT
 10
0.0
 20
0.0
 30
0.0
  9
$PUCSORGFRONT
 10
0.0
 20
0.0
 30
0.0
  9
$PUCSORGBACK
 10
0.0
 20
0.0
 30
0.0
  9
$USERI1
 70
     0
  9
$USERI2
 70
     0
  9
$USERI3
 70
     0
  9
$USERI4
 70
     0
  9
$USERI5
 70
     0
  9
$USERR1
 40
0.0
  9
$USERR2
 40
0.0
  9
$USERR3
 40
0.0
  9
$USERR4
 40
0.0
  9
$USERR5
 40
0.0
  9
$WORLDVIEW
 70
     1
  9
$SHADEDGE
 70
     3
  9
$SHADEDIF
 70
    70
  9
$TILEMODE
 70
     1
  9
$MAXACTVP
 70
    64
  9
$PINSBASE
 10
0.0
 20
0.0
 30
0.0
  9
$PLIMCHECK
 70
     0
  9
$PEXTMIN
 10
1.000000000000000E+20
 20
1.000000000000000E+20
 30
1.000000000000000E+20
  9
$PEXTMAX
 10
-1.000000000000000E+20
 20
-1.000000000000000E+20
 30
-1.000000000000000E+20
  9
$PLIMMIN
 10
0.0
 20
0.0
  9
$PLIMMAX
 10
12.0
 20
9.0
  9
$UNITMODE
 70
     0
  9
$VISRETAIN
 70
     1
  9
$PLINEGEN
 70
     0
  9
$PSLTSCALE
 70
     1
  9
$TREEDEPTH
 70
  3020
  9
$CMLSTYLE
  2
Standard
  9
$CMLJUST
 70
     0
  9
$CMLSCALE
 40
1.0
  9
$PROXYGRAPHICS
 70
     1
  9
$MEASUREMENT
 70
     0
  9
$CELWEIGHT
370
    -1
  9
$ENDCAPS
280
     0
  9
$JOINSTYLE
280
     0
  9
$LWDISPLAY
290
     1
  9
$INSUNITS
 70
     1
  9
$HYPERLINKBASE
  1

  9
$STYLESHEET
  1

  9
$XEDIT
290
     1
  9
$CEPSNTYPE
380
     0
  9
$PSTYLEMODE
290
     1
  9
$FINGERPRINTGUID
  2
{49271AD4-C8C8-407A-BC1B-5F99709130DE}
  9
$VERSIONGUID
  2
{FAEB1C32-E019-11D5-929B-00C0DF256EC4}
  9
$EXTNAMES
290
     1
  9
$PSVPSCALE
 40
0.0
  9
$OLESTARTUP
290
     0
  9
$SORTENTS
280
   127
  9
$INDEXCTL
280
     0
  9
$HIDETEXT
280
     1
  9
$XCLIPFRAME
290
     0
  9
$HALOGAP
280
     0
  9
$OBSCOLOR
 70
   257
  9
$OBSLTYPE
280
     0
  9
$INTERSECTIONDISPLAY
280
     0
  9
$INTERSECTIONCOLOR
 70
   257
  9
$DIMASSOC
280
     2
  9
$PROJECTNAME
  1

  0
ENDSEC
  0
SECTION
  2
CLASSES
  0
CLASS
  1
ACDBDICTIONARYWDFLT
  2
AcDbDictionaryWithDefault
  3
ObjectDBX Classes
 90
        0
 91
        3
280
     0
281
     0
  0
CLASS
  1
VISUALSTYLE
  2
AcDbVisualStyle
  3
ObjectDBX Classes
 90
     4095
 91
        3
280
     0
281
     0
  0
ENDSEC
  0
SECTION
  2
TABLES
  0
TABLE
  2
VPORT
  5
8
330
0
100
AcDbSymbolTable
 70
     1
  0
VPORT
  5
29
330
8
100
AcDbSymbolTableRecord
100
AcDbViewportTableRecord
  2
*Active
 70
     0
 10
0.0
 20
0.0
 11
1.0
 21
1.0
 12
0.0
 22
0.0
 13
0.0
 23
0.0
 14
0.5
 24
0.5
 15
0.5
 25
0.5
 16
0.0
 26
0.0
 36
1.0
 17
132.2916666335938
 27
88.19444442239583
 37
0.0
 40
176.3888888447917
 41
1.5
 42
50.0
 43
0.0
 44
0.0
 50
0.0
 51
0.0
 71
     0
 72
   100
 73
     1
 74
     3
 75
     0
 76
     0
 77
     0
 78
     0
281
     0
 65
     1
110
0.0
120
0.0
130
0.0
111
1.0
121
0.0
131
0.0
112
0.0
122
1.0
132
0.0
 79
     0
146
0.0
  0
ENDTAB
  0
TABLE
  2
LTYPE
  5
5
330
0
100
AcDbSymbolTable
 70
     1
  0
LTYPE
  5
14
330
5
100
AcDbSymbolTableRecord
100
AcDbLinetypeTableRecord
  2
ByBlock
 70
     0
  3

 72
    65
 73
     0
 40
0.0
  0
LTYPE
  5
15
330
5
100
AcDbSymbolTableRecord
100
AcDbLinetypeTableRecord
  2
ByLayer
 70
     0
  3

 72
    65
 73
     0
 40
0.0
  0
LTYPE
  5
16
330
5
100
AcDbSymbolTableRecord
100
AcDbLinetypeTableRecord
  2
Continuous
 70
     0
  3
Solid line
 72
    65
 73
     0
 40
0.0
  0
ENDTAB
  0
TABLE
  2
LAYER
  5
2
330
0
100
AcDbSymbolTable
 70
     2
  0
LAYER
  5
10
330
2
100
AcDbSymbolTableRecord
100
AcDbLayerTableRecord
  2
0
 70
     0
 62
     7
  6
Continuous
370
    -3
390
F
  0
LAYER
  5
3B
330
2
100
AcDbSymbolTableRecord
100
AcDbLayerTableRecord
  2
\U+30EC\U+30A4\U+30E4\U+30FC 1
 70
     0
 62
     7
  6
Continuous
370
    -3
390
F
  0
ENDTAB
  0
TABLE
  2
STYLE
  5
3
330
0
100
AcDbSymbolTable
 70
     1
  0
STYLE
  5
11
330
3
100
AcDbSymbolTableRecord
100
AcDbTextStyleTableRecord
  2
Standard
 70
     0
 40
0.0
 41
1.0
 50
0.0
 71
     0
 42
0.2
  3
txt
  4

  0
ENDTAB
  0
TABLE
  2
VIEW
  5
6
330
0
100
AcDbSymbolTable
 70
     0
  0
ENDTAB
  0
TABLE
  2
UCS
  5
7
330
0
100
AcDbSymbolTable
 70
     0
  0
ENDTAB
  0
TABLE
  2
APPID
  5
9
330
0
100
AcDbSymbolTable
 70
     1
  0
APPID
  5
12
330
9
100
AcDbSymbolTableRecord
100
AcDbRegAppTableRecord
  2
ACAD
 70
     0
  0
ENDTAB
  0
TABLE
  2
DIMSTYLE
  5
A
330
0
100
AcDbSymbolTable
 70
     1
100
AcDbDimStyleTable
  0
DIMSTYLE
105
27
330
A
100
AcDbSymbolTableRecord
100
AcDbDimStyleTableRecord
  2
Standard
 70
     0
340
11
  0
ENDTAB
  0
TABLE
  2
BLOCK_RECORD
  5
1
330
0
100
AcDbSymbolTable
 70
     2
  0
BLOCK_RECORD
  5
1F
330
1
100
AcDbSymbolTableRecord
100
AcDbBlockTableRecord
  2
*Model_Space
340
22
  0
BLOCK_RECORD
  5
1B
330
1
100
AcDbSymbolTableRecord
100
AcDbBlockTableRecord
  2
*Paper_Space
340
1E
  0
BLOCK_RECORD
  5
23
330
1
100
AcDbSymbolTableRecord
100
AcDbBlockTableRecord
  2
*Paper_Space0
340
26
  0
BLOCK_RECORD
  5
A4
330
1
100
AcDbSymbolTableRecord
100
AcDbBlockTableRecord
  2
block 2
340
0
102
{BLKREFS
331
A5
102
}
  0
ENDTAB
  0
ENDSEC
  0
SECTION
  2
BLOCKS
  0
BLOCK
  5
20
330
1F
100
AcDbEntity
  8
0
100
AcDbBlockBegin
  2
*Model_Space
 70
     0
 71
     0
 10
0.0
 20
0.0
 30
0.0
  3
*Model_Space
  1

  0
ENDBLK
  5
21
330
1F
100
AcDbEntity
  8
0
100
AcDbBlockEnd
  0
BLOCK
  5
1C
330
1B
100
AcDbEntity
 67
     1
  8
0
100
AcDbBlockBegin
  2
*Paper_Space
 70
     0
 71
     0
 10
0.0
 20
0.0
 30
0.0
  3
*Paper_Space
  1

  0
ENDBLK
  5
1D
330
1B
100
AcDbEntity
 67
     1
  8
0
100
AcDbBlockEnd
  0
BLOCK
  5
24
330
23
100
AcDbEntity
  8
0
100
AcDbBlockBegin
  2
*Paper_Space0
 70
     0
 71
     0
 10
0.0
 20
0.0
 30
0.0
  3
*Paper_Space0
  1

  0
ENDBLK
  5
25
330
23
100
AcDbEntity
  8
0
100
AcDbBlockEnd
  0
BLOCK
  5
A6
330
A4
100
AcDbEntity
  8
0
100
AcDbBlockBegin
  2
block 2
 70
     0
 71
     0
 10
0.0
 20
0.0
 30
0.0
  3
block 2
  1

  0
SPLINE
  5
A8
330
A4
100
AcDbEntity
  8
\U+30EC\U+30A4\U+30E4\U+30FC 1
370
     0
100
AcDbSpline
210
0.0
220
0.0
230
1.0
 70
    11
 71
     3
 72
    26
 73
    22
 74
     0
 42
0.0000000001
 43
0.0000000001
 40
0.0
 40
0.0
 40
0.0
 40
0.0
 40
1.0
 40
1.0
 40
1.0
 40
2.0
 40
2.0
 40
2.0
 40
3.0
 40
3.0
 40
3.0
 40
4.0
 40
4.0
 40
4.0
 40
5.0
 40
5.0
 40
5.0
 40
6.0
 40
6.0
 40
6.0
 40
7.0
 40
7.0
 40
7.0
 40
7.0
 10
95.45050453342904
 20
119.9513346054288
 30
0.0
 10
95.6367119444068
 20
119.9850965411843
 30
0.0
 10
95.88200274295659
 20
120.0147243623574
 30
0.0
 10
96.18241506927038
 20
120.0147243623574
 30
0.0
 10
97.22335067013861
 20
120.0147243623574
 30
0.0
 10
97.3079277643015
 20
119.3460313286704
 30
0.0
 10
97.3079277643015
 20
119.0921277914075
 30
0.0
 10
97.3079277643015
 20
118.3348958037496
 30
0.0
 10
96.70279674231736
 20
118.064111298609
 30
0.0
 10
96.13159991086293
 20
118.064111298609
 30
0.0
 10
96.00895451158804
 20
118.064111298609
 30
0.0
 10
95.89888371083431
 20
118.0682454131913
 30
0.0
 10
95.801559763376
 20
118.0937391197821
 30
0.0
 10
95.801559763376
 20
118.0937391197821
 30
0.0
 10
95.801559763376
 20
116.7694444152521
 30
0.0
 10
95.801559763376
 20
116.7694444152521
 30
0.0
 10
95.801559763376
 20
116.7694444152521
 30
0.0
 10
95.45050453342904
 20
116.7694444152521
 30
0.0
 10
95.45050453342904
 20
116.7694444152521
 30
0.0
 10
95.45050453342904
 20
116.7694444152521
 30
0.0
 10
95.45050453342904
 20
119.9513346054288
 30
0.0
 10
95.45050453342904
 20
119.9513346054288
 30
0.0
  0
SPLINE
  5
A9
330
A4
100
AcDbEntity
  8
\U+30EC\U+30A4\U+30E4\U+30FC 1
370
     0
100
AcDbSpline
210
0.0
220
0.0
230
1.0
 70
    11
 71
     3
 72
    20
 73
    16
 74
     0
 42
0.0000000001
 43
0.0000000001
 40
0.0
 40
0.0
 40
0.0
 40
0.0
 40
1.0
 40
1.0
 40
1.0
 40
2.0
 40
2.0
 40
2.0
 40
3.0
 40
3.0
 40
3.0
 40
4.0
 40
4.0
 40
4.0
 40
5.0
 40
5.0
 40
5.0
 40
5.0
 10
95.801559763376
 20
118.3855387073828
 30
0.0
 10
95.89044322689544
 20
118.3603895103405
 30
0.0
 10
96.00482039700574
 20
118.3517767716273
 30
0.0
 10
96.14021264957606
 20
118.3517767716273
 30
0.0
 10
96.64784746932763
 20
118.3517767716273
 30
0.0
 10
96.95670027958028
 20
118.6056803088903
 30
0.0
 10
96.95670027958028
 20
119.0669785943652
 30
0.0
 10
96.95670027958028
 20
119.5279323702916
 30
0.0
 10
96.62666013209333
 20
119.7311930039214
 30
0.0
 10
96.18672143862693
 20
119.7311930039214
 30
0.0
 10
96.00895451158804
 20
119.7311930039214
 30
0.0
 10
95.87786862837429
 20
119.7143120360437
 30
0.0
 10
95.801559763376
 20
119.6974310681659
 30
0.0
 10
95.801559763376
 20
119.6974310681659
 30
0.0
 10
95.801559763376
 20
118.3855387073828
 30
0.0
 10
95.801559763376
 20
118.3855387073828
 30
0.0
  0
HATCH
  5
AA
330
A4
100
AcDbEntity
  8
\U+30EC\U+30A4\U+30E4\U+30FC 1
 62
     7
420
 16777215
100
AcDbHatch
 10
0.0
 20
0.0
 30
0.0
210
0.0
220
0.0
230
1.0
  2
SOLID
 70
     1
 71
     0
 91
        2
 92
        1
 93
        1
 72
     4
 94
        3
 73
     0
 74
     1
 95
       26
 96
       22
 40
0.0
 40
0.0
 40
0.0
 40
0.0
 40
1.0
 40
1.0
 40
1.0
 40
2.0
 40
2.0
 40
2.0
 40
3.0
 40
3.0
 40
3.0
 40
4.0
 40
4.0
 40
4.0
 40
5.0
 40
5.0
 40
5.0
 40
6.0
 40
6.0
 40
6.0
 40
7.0
 40
7.0
 40
7.0
 40
7.0
 10
95.45050453342904
 20
119.9513346054288
 10
95.6367119444068
 20
119.9850965411843
 10
95.88200274295659
 20
120.0147243623574
 10
96.18241506927038
 20
120.0147243623574
 10
97.22335067013861
 20
120.0147243623574
 10
97.3079277643015
 20
119.3460313286704
 10
97.3079277643015
 20
119.0921277914075
 10
97.3079277643015
 20
118.3348958037496
 10
96.70279674231736
 20
118.064111298609
 10
96.13159991086293
 20
118.064111298609
 10
96.00895451158804
 20
118.064111298609
 10
95.89888371083431
 20
118.0682454131913
 10
95.801559763376
 20
118.0937391197821
 10
95.801559763376
 20
118.0937391197821
 10
95.801559763376
 20
116.7694444152521
 10
95.801559763376
 20
116.7694444152521
 10
95.801559763376
 20
116.7694444152521
 10
95.45050453342904
 20
116.7694444152521
 10
95.45050453342904
 20
116.7694444152521
 10
95.45050453342904
 20
116.7694444152521
 10
95.45050453342904
 20
119.9513346054288
 10
95.45050453342904
 20
119.9513346054288
 97
        0
 92
        1
 93
        1
 72
     4
 94
        3
 73
     0
 74
     1
 95
       20
 96
       16
 40
0.0
 40
0.0
 40
0.0
 40
0.0
 40
1.0
 40
1.0
 40
1.0
 40
2.0
 40
2.0
 40
2.0
 40
3.0
 40
3.0
 40
3.0
 40
4.0
 40
4.0
 40
4.0
 40
5.0
 40
5.0
 40
5.0
 40
5.0
 10
95.801559763376
 20
118.3855387073828
 10
95.89044322689544
 20
118.3603895103405
 10
96.00482039700574
 20
118.3517767716273
 10
96.14021264957606
 20
118.3517767716273
 10
96.64784746932763
 20
118.3517767716273
 10
96.95670027958028
 20
118.6056803088903
 10
96.95670027958028
 20
119.0669785943652
 10
96.95670027958028
 20
119.5279323702916
 10
96.62666013209333
 20
119.7311930039214
 10
96.18672143862693
 20
119.7311930039214
 10
96.00895451158804
 20
119.7311930039214
 10
95.87786862837429
 20
119.7143120360437
 10
95.801559763376
 20
119.6974310681659
 10
95.801559763376
 20
119.6974310681659
 10
95.801559763376
 20
118.3855387073828
 10
95.801559763376
 20
118.3855387073828
 97
        0
 75
     2
 76
     1
 98
        0
  0
SPLINE
  5
AB
330
A4
100
AcDbEntity
  8
\U+30EC\U+30A4\U+30E4\U+30FC 1
370
     0
100
AcDbSpline
210
0.0
220
0.0
230
1.0
 70
    11
 71
     3
 72
    17
 73
    13
 74
     0
 42
0.0000000001
 43
0.0000000001
 40
0.0
 40
0.0
 40
0.0
 40
0.0
 40
1.0
 40
1.0
 40
1.0
 40
2.0
 40
2.0
 40
2.0
 40
3.0
 40
3.0
 40
3.0
 40
4.0
 40
4.0
 40
4.0
 40
4.0
 10
98.02416311568494
 20
119.4814235812408
 30
0.0
 10
97.88877086311462
 20
119.4814235812408
 30
0.0
 10
97.79575328501288
 20
119.5871880126379
 30
0.0
 10
97.79575328501288
 20
119.7225802652083
 30
0.0
 10
97.79575328501288
 20
119.8538384031963
 30
0.0
 10
97.89307723247119
 20
119.9596028345934
 30
0.0
 10
98.0284694850415
 20
119.9596028345934
 30
0.0
 10
98.16799585219411
 20
119.9596028345934
 30
0.0
 10
98.25687931571356
 20
119.8538384031963
 30
0.0
 10
98.25687931571356
 20
119.7225802652083
 30
0.0
 10
98.25687931571356
 20
119.5744411593425
 30
0.0
 10
98.15955536825525
 20
119.4814235812408
 30
0.0
 10
98.02416311568494
 20
119.4814235812408
 30
0.0
  0
POLYLINE
  5
AC
330
A4
100
AcDbEntity
  8
\U+30EC\U+30A4\U+30E4\U+30FC 1
370
     0
100
AcDb2dPolyline
 66
     1
 10
0.0
 20
0.0
 30
0.0
  0
VERTEX
  5
AD
330
AC
100
AcDbEntity
  8
\U+30EC\U+30A4\U+30E4\U+30FC 1
370
     0
100
AcDbVertex
100
AcDb2dVertex
 10
98.20193004272383
 20
116.7694444152521
 30
0.0
  0
VERTEX
  5
AE
330
AC
100
AcDbEntity
  8
\U+30EC\U+30A4\U+30E4\U+30FC 1
370
     0
100
AcDbVertex
100
AcDb2dVertex
 10
97.85070255800261
 20
116.7694444152521
 30
0.0
  0
VERTEX
  5
AF
330
AC
100
AcDbEntity
  8
\U+30EC\U+30A4\U+30E4\U+30FC 1
370
     0
100
AcDbVertex
100
AcDb2dVertex
 10
97.85070255800261
 20
119.0752468235298
 30
0.0
  0
VERTEX
  5
B0
330
AC
100
AcDbEntity
  8
\U+30EC\U+30A4\U+30E4\U+30FC 1
370
     0
100
AcDbVertex
100
AcDb2dVertex
 10
98.20193004272383
 20
119.0752468235298
 30
0.0
  0
VERTEX
  5
B1
330
AC
100
AcDbEntity
  8
\U+30EC\U+30A4\U+30E4\U+30FC 1
370
     0
100
AcDbVertex
100
AcDb2dVertex
 10
98.20193004272383
 20
116.7694444152521
 30
0.0
  0
SEQEND
  5
B2
330
AC
100
AcDbEntity
  8
\U+30EC\U+30A4\U+30E4\U+30FC 1
370
     0
  0
HATCH
  5
B3
330
A4
100
AcDbEntity
  8
\U+30EC\U+30A4\U+30E4\U+30FC 1
 62
     7
420
 16777215
100
AcDbHatch
 10
0.0
 20
0.0
 30
0.0
210
0.0
220
0.0
230
1.0
  2
SOLID
 70
     1
 71
     0
 91
        2
 92
        1
 93
        1
 72
     4
 94
        3
 73
     0
 74
     1
 95
       17
 96
       13
 40
0.0
 40
0.0
 40
0.0
 40
0.0
 40
1.0
 40
1.0
 40
1.0
 40
2.0
 40
2.0
 40
2.0
 40
3.0
 40
3.0
 40
3.0
 40
4.0
 40
4.0
 40
4.0
 40
4.0
 10
98.02416311568494
 20
119.4814235812408
 10
97.88877086311462
 20
119.4814235812408
 10
97.79575328501288
 20
119.5871880126379
 10
97.79575328501288
 20
119.7225802652083
 10
97.79575328501288
 20
119.8538384031963
 10
97.89307723247119
 20
119.9596028345934
 10
98.0284694850415
 20
119.9596028345934
 10
98.16799585219411
 20
119.9596028345934
 10
98.25687931571356
 20
119.8538384031963
 10
98.25687931571356
 20
119.7225802652083
 10
98.25687931571356
 20
119.5744411593425
 10
98.15955536825525
 20
119.4814235812408
 10
98.02416311568494
 20
119.4814235812408
 97
        0
 92
        1
 93
        4
 72
     1
 10
98.20193004272383
 20
116.7694444152521
 11
97.85070255800261
 21
116.7694444152521
 72
     1
 10
97.85070255800261
 20
116.7694444152521
 11
97.85070255800261
 21
119.0752468235298
 72
     1
 10
97.85070255800261
 20
119.0752468235298
 11
98.20193004272383
 21
119.0752468235298
 72
     1
 10
98.20193004272383
 20
119.0752468235298
 11
98.20193004272383
 21
116.7694444152521
 97
        0
 75
     2
 76
     1
 98
        0
  0
SPLINE
  5
B4
330
A4
100
AcDbEntity
  8
\U+30EC\U+30A4\U+30E4\U+30FC 1
370
     0
100
AcDbSpline
210
0.0
220
0.0
230
1.0
 70
    11
 71
     3
 72
    47
 73
    43
 74
     0
 42
0.0000000001
 43
0.0000000001
 40
0.0
 40
0.0
 40
0.0
 40
0.0
 40
1.0
 40
1.0
 40
1.0
 40
2.0
 40
2.0
 40
2.0
 40
3.0
 40
3.0
 40
3.0
 40
4.0
 40
4.0
 40
4.0
 40
5.0
 40
5.0
 40
5.0
 40
6.0
 40
6.0
 40
6.0
 40
7.0
 40
7.0
 40
7.0
 40
8.0
 40
8.0
 40
8.0
 40
9.0
 40
9.0
 40
9.0
 40
10.0
 40
10.0
 40
10.0
 40
11.0
 40
11.0
 40
11.0
 40
12.0
 40
12.0
 40
12.0
 40
13.0
 40
13.0
 40
13.0
 40
14.0
 40
14.0
 40
14.0
 40
14.0
 10
100.7452717847095
 20
116.7694444152521
 30
0.0
 10
100.7452717847095
 20
116.7694444152521
 30
0.0
 10
100.3942165547626
 20
116.7694444152521
 30
0.0
 10
100.3942165547626
 20
116.7694444152521
 30
0.0
 10
100.3942165547626
 20
116.7694444152521
 30
0.0
 10
100.3942165547626
 20
118.1319796796684
 30
0.0
 10
100.3942165547626
 20
118.1319796796684
 30
0.0
 10
100.3942165547626
 20
118.5085286162062
 30
0.0
 10
100.2588243021922
 20
118.8385687636931
 30
0.0
 10
99.85678165906359
 20
118.8385687636931
 30
0.0
 10
99.5563693327498
 20
118.8385687636931
 30
0.0
 10
99.25182289185372
 20
118.5846652264302
 30
0.0
 10
99.25182289185372
 20
118.1826225833016
 30
0.0
 10
99.25182289185372
 20
118.1826225833016
 30
0.0
 10
99.25182289185372
 20
116.7694444152521
 30
0.0
 10
99.25182289185372
 20
116.7694444152521
 30
0.0
 10
99.25182289185372
 20
116.7694444152521
 30
0.0
 10
98.9005954071325
 20
116.7694444152521
 30
0.0
 10
98.9005954071325
 20
116.7694444152521
 30
0.0
 10
98.9005954071325
 20
116.7694444152521
 30
0.0
 10
98.9005954071325
 20
118.4830349096154
 30
0.0
 10
98.9005954071325
 20
118.4830349096154
 30
0.0
 10
98.9005954071325
 20
118.7200574790005
 30
0.0
 10
98.89215492319363
 20
118.8933457819086
 30
0.0
 10
98.88371443925477
 20
119.0797254476606
 30
0.0
 10
98.88371443925477
 20
119.0797254476606
 30
0.0
 10
99.19670136408972
 20
119.0797254476606
 30
0.0
 10
99.19670136408972
 20
119.0797254476606
 30
0.0
 10
99.19670136408972
 20
119.0797254476606
 30
0.0
 10
99.217888701324
 20
118.7031765111228
 30
0.0
 10
99.217888701324
 20
118.7031765111228
 30
0.0
 10
99.217888701324
 20
118.7031765111228
 30
0.0
 10
99.22632918526287
 20
118.7031765111228
 30
0.0
 10
99.22632918526287
 20
118.7031765111228
 30
0.0
 10
99.34070635537316
 20
118.9271077176641
 30
0.0
 10
99.60718449115724
 20
119.1303683512938
 30
0.0
 10
99.96685245981732
 20
119.1303683512938
 30
0.0
 10
100.2545179328357
 20
119.1303683512938
 30
0.0
 10
100.7452717847095
 20
118.9567355388372
 30
0.0
 10
100.7452717847095
 20
118.1740098445885
 30
0.0
 10
100.7452717847095
 20
118.1740098445885
 30
0.0
 10
100.7452717847095
 20
116.7694444152521
 30
0.0
 10
100.7452717847095
 20
116.7694444152521
 30
0.0
  0
HATCH
  5
B5
330
A4
100
AcDbEntity
  8
\U+30EC\U+30A4\U+30E4\U+30FC 1
 62
     7
420
 16777215
100
AcDbHatch
 10
0.0
 20
0.0
 30
0.0
210
0.0
220
0.0
230
1.0
  2
SOLID
 70
     1
 71
     0
 91
        1
 92
        1
 93
        1
 72
     4
 94
        3
 73
     0
 74
     1
 95
       47
 96
       43
 40
0.0
 40
0.0
 40
0.0
 40
0.0
 40
1.0
 40
1.0
 40
1.0
 40
2.0
 40
2.0
 40
2.0
 40
3.0
 40
3.0
 40
3.0
 40
4.0
 40
4.0
 40
4.0
 40
5.0
 40
5.0
 40
5.0
 40
6.0
 40
6.0
 40
6.0
 40
7.0
 40
7.0
 40
7.0
 40
8.0
 40
8.0
 40
8.0
 40
9.0
 40
9.0
 40
9.0
 40
10.0
 40
10.0
 40
10.0
 40
11.0
 40
11.0
 40
11.0
 40
12.0
 40
12.0
 40
12.0
 40
13.0
 40
13.0
 40
13.0
 40
14.0
 40
14.0
 40
14.0
 40
14.0
 10
100.7452717847095
 20
116.7694444152521
 10
100.7452717847095
 20
116.7694444152521
 10
100.3942165547626
 20
116.7694444152521
 10
100.3942165547626
 20
116.7694444152521
 10
100.3942165547626
 20
116.7694444152521
 10
100.3942165547626
 20
118.1319796796684
 10
100.3942165547626
 20
118.1319796796684
 10
100.3942165547626
 20
118.5085286162062
 10
100.2588243021922
 20
118.8385687636931
 10
99.85678165906359
 20
118.8385687636931
 10
99.5563693327498
 20
118.8385687636931
 10
99.25182289185372
 20
118.5846652264302
 10
99.25182289185372
 20
118.1826225833016
 10
99.25182289185372
 20
118.1826225833016
 10
99.25182289185372
 20
116.7694444152521
 10
99.25182289185372
 20
116.7694444152521
 10
99.25182289185372
 20
116.7694444152521
 10
98.9005954071325
 20
116.7694444152521
 10
98.9005954071325
 20
116.7694444152521
 10
98.9005954071325
 20
116.7694444152521
 10
98.9005954071325
 20
118.4830349096154
 10
98.9005954071325
 20
118.4830349096154
 10
98.9005954071325
 20
118.7200574790005
 10
98.89215492319363
 20
118.8933457819086
 10
98.88371443925477
 20
119.0797254476606
 10
98.88371443925477
 20
119.0797254476606
 10
99.19670136408972
 20
119.0797254476606
 10
99.19670136408972
 20
119.0797254476606
 10
99.19670136408972
 20
119.0797254476606
 10
99.217888701324
 20
118.7031765111228
 10
99.217888701324
 20
118.7031765111228
 10
99.217888701324
 20
118.7031765111228
 10
99.22632918526287
 20
118.7031765111228
 10
99.22632918526287
 20
118.7031765111228
 10
99.34070635537316
 20
118.9271077176641
 10
99.60718449115724
 20
119.1303683512938
 10
99.96685245981732
 20
119.1303683512938
 10
100.2545179328357
 20
119.1303683512938
 10
100.7452717847095
 20
118.9567355388372
 10
100.7452717847095
 20
118.1740098445885
 10
100.7452717847095
 20
118.1740098445885
 10
100.7452717847095
 20
116.7694444152521
 10
100.7452717847095
 20
116.7694444152521
 97
        0
 75
     2
 76
     1
 98
        0
  0
SPLINE
  5
B6
330
A4
100
AcDbEntity
  8
\U+30EC\U+30A4\U+30E4\U+30FC 1
370
     0
100
AcDbSpline
210
0.0
220
0.0
230
1.0
 70
    11
 71
     3
 72
    26
 73
    22
 74
     0
 42
0.0000000001
 43
0.0000000001
 40
0.0
 40
0.0
 40
0.0
 40
0.0
 40
1.0
 40
1.0
 40
1.0
 40
2.0
 40
2.0
 40
2.0
 40
3.0
 40
3.0
 40
3.0
 40
4.0
 40
4.0
 40
4.0
 40
5.0
 40
5.0
 40
5.0
 40
6.0
 40
6.0
 40
6.0
 40
7.0
 40
7.0
 40
7.0
 40
7.0
 10
102.42682289106
 20
119.9513346054288
 30
0.0
 10
102.6130303020377
 20
119.9850965411843
 30
0.0
 10
102.8583211005875
 20
120.0147243623574
 30
0.0
 10
103.1587334269013
 20
120.0147243623574
 30
0.0
 10
104.1996690277695
 20
120.0147243623574
 30
0.0
 10
104.2842461219324
 20
119.3460313286704
 30
0.0
 10
104.2842461219324
 20
119.0921277914075
 30
0.0
 10
104.2842461219324
 20
118.3348958037496
 30
0.0
 10
103.6791150999483
 20
118.064111298609
 30
0.0
 10
103.1079182684939
 20
118.064111298609
 30
0.0
 10
102.985272869219
 20
118.064111298609
 30
0.0
 10
102.8752020684652
 20
118.0682454131913
 30
0.0
 10
102.7778781210069
 20
118.0937391197821
 30
0.0
 10
102.7778781210069
 20
118.0937391197821
 30
0.0
 10
102.7778781210069
 20
116.7694444152521
 30
0.0
 10
102.7778781210069
 20
116.7694444152521
 30
0.0
 10
102.7778781210069
 20
116.7694444152521
 30
0.0
 10
102.42682289106
 20
116.7694444152521
 30
0.0
 10
102.42682289106
 20
116.7694444152521
 30
0.0
 10
102.42682289106
 20
116.7694444152521
 30
0.0
 10
102.42682289106
 20
119.9513346054288
 30
0.0
 10
102.42682289106
 20
119.9513346054288
 30
0.0
  0
SPLINE
  5
B7
330
A4
100
AcDbEntity
  8
\U+30EC\U+30A4\U+30E4\U+30FC 1
370
     0
100
AcDbSpline
210
0.0
220
0.0
230
1.0
 70
    11
 71
     3
 72
    20
 73
    16
 74
     0
 42
0.0000000001
 43
0.0000000001
 40
0.0
 40
0.0
 40
0.0
 40
0.0
 40
1.0
 40
1.0
 40
1.0
 40
2.0
 40
2.0
 40
2.0
 40
3.0
 40
3.0
 40
3.0
 40
4.0
 40
4.0
 40
4.0
 40
5.0
 40
5.0
 40
5.0
 40
5.0
 10
102.7778781210069
 20
118.3855387073828
 30
0.0
 10
102.8667615845264
 20
118.3603895103405
 30
0.0
 10
102.9811387546367
 20
118.3517767716273
 30
0.0
 10
103.116531007207
 20
118.3517767716273
 30
0.0
 10
103.6241658269585
 20
118.3517767716273
 30
0.0
 10
103.9330186372112
 20
118.6056803088903
 30
0.0
 10
103.9330186372112
 20
119.0669785943652
 30
0.0
 10
103.9330186372112
 20
119.5279323702916
 30
0.0
 10
103.6029784897243
 20
119.7311930039214
 30
0.0
 10
103.1630397962579
 20
119.7311930039214
 30
0.0
 10
102.985272869219
 20
119.7311930039214
 30
0.0
 10
102.8541869860052
 20
119.7143120360437
 30
0.0
 10
102.7778781210069
 20
119.6974310681659
 30
0.0
 10
102.7778781210069
 20
119.6974310681659
 30
0.0
 10
102.7778781210069
 20
118.3855387073828
 30
0.0
 10
102.7778781210069
 20
118.3855387073828
 30
0.0
  0
HATCH
  5
B8
330
A4
100
AcDbEntity
  8
\U+30EC\U+30A4\U+30E4\U+30FC 1
 62
     7
420
 16777215
100
AcDbHatch
 10
0.0
 20
0.0
 30
0.0
210
0.0
220
0.0
230
1.0
  2
SOLID
 70
     1
 71
     0
 91
        2
 92
        1
 93
        1
 72
     4
 94
        3
 73
     0
 74
     1
 95
       26
 96
       22
 40
0.0
 40
0.0
 40
0.0
 40
0.0
 40
1.0
 40
1.0
 40
1.0
 40
2.0
 40
2.0
 40
2.0
 40
3.0
 40
3.0
 40
3.0
 40
4.0
 40
4.0
 40
4.0
 40
5.0
 40
5.0
 40
5.0
 40
6.0
 40
6.0
 40
6.0
 40
7.0
 40
7.0
 40
7.0
 40
7.0
 10
102.42682289106
 20
119.9513346054288
 10
102.6130303020377
 20
119.9850965411843
 10
102.8583211005875
 20
120.0147243623574
 10
103.1587334269013
 20
120.0147243623574
 10
104.1996690277695
 20
120.0147243623574
 10
104.2842461219324
 20
119.3460313286704
 10
104.2842461219324
 20
119.0921277914075
 10
104.2842461219324
 20
118.3348958037496
 10
103.6791150999483
 20
118.064111298609
 10
103.1079182684939
 20
118.064111298609
 10
102.985272869219
 20
118.064111298609
 10
102.8752020684652
 20
118.0682454131913
 10
102.7778781210069
 20
118.0937391197821
 10
102.7778781210069
 20
118.0937391197821
 10
102.7778781210069
 20
116.7694444152521
 10
102.7778781210069
 20
116.7694444152521
 10
102.7778781210069
 20
116.7694444152521
 10
102.42682289106
 20
116.7694444152521
 10
102.42682289106
 20
116.7694444152521
 10
102.42682289106
 20
116.7694444152521
 10
102.42682289106
 20
119.9513346054288
 10
102.42682289106
 20
119.9513346054288
 97
        0
 92
        1
 93
        1
 72
     4
 94
        3
 73
     0
 74
     1
 95
       20
 96
       16
 40
0.0
 40
0.0
 40
0.0
 40
0.0
 40
1.0
 40
1.0
 40
1.0
 40
2.0
 40
2.0
 40
2.0
 40
3.0
 40
3.0
 40
3.0
 40
4.0
 40
4.0
 40
4.0
 40
5.0
 40
5.0
 40
5.0
 40
5.0
 10
102.7778781210069
 20
118.3855387073828
 10
102.8667615845264
 20
118.3603895103405
 10
102.9811387546367
 20
118.3517767716273
 10
103.116531007207
 20
118.3517767716273
 10
103.6241658269585
 20
118.3517767716273
 10
103.9330186372112
 20
118.6056803088903
 10
103.9330186372112
 20
119.0669785943652
 10
103.9330186372112
 20
119.5279323702916
 10
103.6029784897243
 20
119.7311930039214
 10
103.1630397962579
 20
119.7311930039214
 10
102.985272869219
 20
119.7311930039214
 10
102.8541869860052
 20
119.7143120360437
 10
102.7778781210069
 20
119.6974310681659
 10
102.7778781210069
 20
119.6974310681659
 10
102.7778781210069
 20
118.3855387073828
 10
102.7778781210069
 20
118.3855387073828
 97
        0
 75
     2
 76
     1
 98
        0
  0
SPLINE
  5
B9
330
A4
100
AcDbEntity
  8
\U+30EC\U+30A4\U+30E4\U+30FC 1
370
     0
100
AcDbSpline
210
0.0
220
0.0
230
1.0
 70
    11
 71
     3
 72
    47
 73
    43
 74
     0
 42
0.0000000001
 43
0.0000000001
 40
0.0
 40
0.0
 40
0.0
 40
0.0
 40
1.0
 40
1.0
 40
1.0
 40
2.0
 40
2.0
 40
2.0
 40
3.0
 40
3.0
 40
3.0
 40
4.0
 40
4.0
 40
4.0
 40
5.0
 40
5.0
 40
5.0
 40
6.0
 40
6.0
 40
6.0
 40
7.0
 40
7.0
 40
7.0
 40
8.0
 40
8.0
 40
8.0
 40
9.0
 40
9.0
 40
9.0
 40
10.0
 40
10.0
 40
10.0
 40
11.0
 40
11.0
 40
11.0
 40
12.0
 40
12.0
 40
12.0
 40
13.0
 40
13.0
 40
13.0
 40
14.0
 40
14.0
 40
14.0
 40
14.0
 10
106.6336289880985
 20
117.3830159211751
 30
0.0
 10
106.6336289880985
 20
117.1459933517899
 30
0.0
 10
106.646375841394
 20
116.947211342291
 30
0.0
 10
106.6548163253328
 20
116.7694444152521
 30
0.0
 10
106.6548163253328
 20
116.7694444152521
 30
0.0
 10
106.3375230311413
 20
116.7694444152521
 30
0.0
 10
106.3375230311413
 20
116.7694444152521
 30
0.0
 10
106.3375230311413
 20
116.7694444152521
 30
0.0
 10
106.3206420632636
 20
117.1332464984945
 30
0.0
 10
106.3206420632636
 20
117.1332464984945
 30
0.0
 10
106.3206420632636
 20
117.1332464984945
 30
0.0
 10
106.3078952099682
 20
117.1332464984945
 30
0.0
 10
106.3078952099682
 20
117.1332464984945
 30
0.0
 10
106.202130778571
 20
116.9513454568733
 30
0.0
 10
105.9651082091858
 20
116.7188015116189
 30
0.0
 10
105.5716783047703
 20
116.7188015116189
 30
0.0
 10
105.2247571894056
 20
116.7188015116189
 30
0.0
 10
104.8142740623381
 20
116.9175835211178
 30
0.0
 10
104.8142740623381
 20
117.713056068662
 30
0.0
 10
104.8142740623381
 20
117.713056068662
 30
0.0
 10
104.8142740623381
 20
119.0752468235298
 30
0.0
 10
104.8142740623381
 20
119.0752468235298
 30
0.0
 10
104.8142740623381
 20
119.0752468235298
 30
0.0
 10
105.1655015470593
 20
119.0752468235298
 30
0.0
 10
105.1655015470593
 20
119.0752468235298
 30
0.0
 10
105.1655015470593
 20
119.0752468235298
 30
0.0
 10
105.1655015470593
 20
117.7764458255906
 30
0.0
 10
105.1655015470593
 20
117.7764458255906
 30
0.0
 10
105.1655015470593
 20
117.3278943934111
 30
0.0
 10
105.2967596850473
 20
117.0147352138019
 30
0.0
 10
105.681749105524
 20
117.0147352138019
 30
0.0
 10
105.9566677252469
 20
117.0147352138019
 30
0.0
 10
106.2825737581516
 20
117.2348768153093
 30
0.0
 10
106.2825737581516
 20
117.6410535730203
 30
0.0
 10
106.2825737581516
 20
117.6410535730203
 30
0.0
 10
106.2825737581516
 20
119.0752468235298
 30
0.0
 10
106.2825737581516
 20
119.0752468235298
 30
0.0
 10
106.2825737581516
 20
119.0752468235298
 30
0.0
 10
106.6336289880985
 20
119.0752468235298
 30
0.0
 10
106.6336289880985
 20
119.0752468235298
 30
0.0
 10
106.6336289880985
 20
119.0752468235298
 30
0.0
 10
106.6336289880985
 20
117.3830159211751
 30
0.0
 10
106.6336289880985
 20
117.3830159211751
 30
0.0
  0
HATCH
  5
BA
330
A4
100
AcDbEntity
  8
\U+30EC\U+30A4\U+30E4\U+30FC 1
 62
     7
420
 16777215
100
AcDbHatch
 10
0.0
 20
0.0
 30
0.0
210
0.0
220
0.0
230
1.0
  2
SOLID
 70
     1
 71
     0
 91
        1
 92
        1
 93
        1
 72
     4
 94
        3
 73
     0
 74
     1
 95
       47
 96
       43
 40
0.0
 40
0.0
 40
0.0
 40
0.0
 40
1.0
 40
1.0
 40
1.0
 40
2.0
 40
2.0
 40
2.0
 40
3.0
 40
3.0
 40
3.0
 40
4.0
 40
4.0
 40
4.0
 40
5.0
 40
5.0
 40
5.0
 40
6.0
 40
6.0
 40
6.0
 40
7.0
 40
7.0
 40
7.0
 40
8.0
 40
8.0
 40
8.0
 40
9.0
 40
9.0
 40
9.0
 40
10.0
 40
10.0
 40
10.0
 40
11.0
 40
11.0
 40
11.0
 40
12.0
 40
12.0
 40
12.0
 40
13.0
 40
13.0
 40
13.0
 40
14.0
 40
14.0
 40
14.0
 40
14.0
 10
106.6336289880985
 20
117.3830159211751
 10
106.6336289880985
 20
117.1459933517899
 10
106.646375841394
 20
116.947211342291
 10
106.6548163253328
 20
116.7694444152521
 10
106.6548163253328
 20
116.7694444152521
 10
106.3375230311413
 20
116.7694444152521
 10
106.3375230311413
 20
116.7694444152521
 10
106.3375230311413
 20
116.7694444152521
 10
106.3206420632636
 20
117.1332464984945
 10
106.3206420632636
 20
117.1332464984945
 10
106.3206420632636
 20
117.1332464984945
 10
106.3078952099682
 20
117.1332464984945
 10
106.3078952099682
 20
117.1332464984945
 10
106.202130778571
 20
116.9513454568733
 10
105.9651082091858
 20
116.7188015116189
 10
105.5716783047703
 20
116.7188015116189
 10
105.2247571894056
 20
116.7188015116189
 10
104.8142740623381
 20
116.9175835211178
 10
104.8142740623381
 20
117.713056068662
 10
104.8142740623381
 20
117.713056068662
 10
104.8142740623381
 20
119.0752468235298
 10
104.8142740623381
 20
119.0752468235298
 10
104.8142740623381
 20
119.0752468235298
 10
105.1655015470593
 20
119.0752468235298
 10
105.1655015470593
 20
119.0752468235298
 10
105.1655015470593
 20
119.0752468235298
 10
105.1655015470593
 20
117.7764458255906
 10
105.1655015470593
 20
117.7764458255906
 10
105.1655015470593
 20
117.3278943934111
 10
105.2967596850473
 20
117.0147352138019
 10
105.681749105524
 20
117.0147352138019
 10
105.9566677252469
 20
117.0147352138019
 10
106.2825737581516
 20
117.2348768153093
 10
106.2825737581516
 20
117.6410535730203
 10
106.2825737581516
 20
117.6410535730203
 10
106.2825737581516
 20
119.0752468235298
 10
106.2825737581516
 20
119.0752468235298
 10
106.2825737581516
 20
119.0752468235298
 10
106.6336289880985
 20
119.0752468235298
 10
106.6336289880985
 20
119.0752468235298
 10
106.6336289880985
 20
119.0752468235298
 10
106.6336289880985
 20
117.3830159211751
 10
106.6336289880985
 20
117.3830159211751
 97
        0
 75
     2
 76
     1
 98
        0
  0
SPLINE
  5
BB
330
A4
100
AcDbEntity
  8
\U+30EC\U+30A4\U+30E4\U+30FC 1
370
     0
100
AcDbSpline
210
0.0
220
0.0
230
1.0
 70
    11
 71
     3
 72
    44
 73
    40
 74
     0
 42
0.0000000001
 43
0.0000000001
 40
0.0
 40
0.0
 40
0.0
 40
0.0
 40
1.0
 40
1.0
 40
1.0
 40
2.0
 40
2.0
 40
2.0
 40
3.0
 40
3.0
 40
3.0
 40
4.0
 40
4.0
 40
4.0
 40
5.0
 40
5.0
 40
5.0
 40
6.0
 40
6.0
 40
6.0
 40
7.0
 40
7.0
 40
7.0
 40
8.0
 40
8.0
 40
8.0
 40
9.0
 40
9.0
 40
9.0
 40
10.0
 40
10.0
 40
10.0
 40
11.0
 40
11.0
 40
11.0
 40
12.0
 40
12.0
 40
12.0
 40
13.0
 40
13.0
 40
13.0
 40
13.0
 10
109.173525634599
 20
116.7694444152521
 30
0.0
 10
109.173525634599
 20
116.7694444152521
 30
0.0
 10
108.822470404652
 20
116.7694444152521
 30
0.0
 10
108.822470404652
 20
116.7694444152521
 30
0.0
 10
108.822470404652
 20
116.7694444152521
 30
0.0
 10
108.822470404652
 20
118.1319796796684
 30
0.0
 10
108.822470404652
 20
118.1319796796684
 30
0.0
 10
108.822470404652
 20
118.5085286162062
 30
0.0
 10
108.6870781520817
 20
118.8340901395623
 30
0.0
 10
108.2893418783096
 20
118.8340901395623
 30
0.0
 10
108.018557373169
 20
118.8340901395623
 30
0.0
 10
107.6800767417432
 20
118.6098144234726
 30
0.0
 10
107.6800767417432
 20
118.1867566978839
 30
0.0
 10
107.6800767417432
 20
118.1867566978839
 30
0.0
 10
107.6800767417432
 20
116.7694444152521
 30
0.0
 10
107.6800767417432
 20
116.7694444152521
 30
0.0
 10
107.6800767417432
 20
116.7694444152521
 30
0.0
 10
107.328849257022
 20
116.7694444152521
 30
0.0
 10
107.328849257022
 20
116.7694444152521
 30
0.0
 10
107.328849257022
 20
116.7694444152521
 30
0.0
 10
107.328849257022
 20
120.1542507295101
 30
0.0
 10
107.328849257022
 20
120.1542507295101
 30
0.0
 10
107.328849257022
 20
120.1542507295101
 30
0.0
 10
107.6800767417432
 20
120.1542507295101
 30
0.0
 10
107.6800767417432
 20
120.1542507295101
 30
0.0
 10
107.6800767417432
 20
120.1542507295101
 30
0.0
 10
107.6800767417432
 20
118.7200574790005
 30
0.0
 10
107.6800767417432
 20
118.7200574790005
 30
0.0
 10
107.6800767417432
 20
118.7200574790005
 30
0.0
 10
107.688517225682
 20
118.7200574790005
 30
0.0
 10
107.688517225682
 20
118.7200574790005
 30
0.0
 10
107.8407904461301
 20
118.9739610162635
 30
0.0
 10
108.1200154352096
 20
119.1303683512938
 30
0.0
 10
108.4035467936456
 20
119.1303683512938
 30
0.0
 10
108.6870781520817
 20
119.1303683512938
 30
0.0
 10
109.173525634599
 20
118.9567355388372
 30
0.0
 10
109.173525634599
 20
118.1740098445885
 30
0.0
 10
109.173525634599
 20
118.1740098445885
 30
0.0
 10
109.173525634599
 20
116.7694444152521
 30
0.0
 10
109.173525634599
 20
116.7694444152521
 30
0.0
  0
HATCH
  5
BC
330
A4
100
AcDbEntity
  8
\U+30EC\U+30A4\U+30E4\U+30FC 1
 62
     7
420
 16777215
100
AcDbHatch
 10
0.0
 20
0.0
 30
0.0
210
0.0
220
0.0
230
1.0
  2
SOLID
 70
     1
 71
     0
 91
        1
 92
        1
 93
        1
 72
     4
 94
        3
 73
     0
 74
     1
 95
       44
 96
       40
 40
0.0
 40
0.0
 40
0.0
 40
0.0
 40
1.0
 40
1.0
 40
1.0
 40
2.0
 40
2.0
 40
2.0
 40
3.0
 40
3.0
 40
3.0
 40
4.0
 40
4.0
 40
4.0
 40
5.0
 40
5.0
 40
5.0
 40
6.0
 40
6.0
 40
6.0
 40
7.0
 40
7.0
 40
7.0
 40
8.0
 40
8.0
 40
8.0
 40
9.0
 40
9.0
 40
9.0
 40
10.0
 40
10.0
 40
10.0
 40
11.0
 40
11.0
 40
11.0
 40
12.0
 40
12.0
 40
12.0
 40
13.0
 40
13.0
 40
13.0
 40
13.0
 10
109.173525634599
 20
116.7694444152521
 10
109.173525634599
 20
116.7694444152521
 10
108.822470404652
 20
116.7694444152521
 10
108.822470404652
 20
116.7694444152521
 10
108.822470404652
 20
116.7694444152521
 10
108.822470404652
 20
118.1319796796684
 10
108.822470404652
 20
118.1319796796684
 10
108.822470404652
 20
118.5085286162062
 10
108.6870781520817
 20
118.8340901395623
 10
108.2893418783096
 20
118.8340901395623
 10
108.018557373169
 20
118.8340901395623
 10
107.6800767417432
 20
118.6098144234726
 10
107.6800767417432
 20
118.1867566978839
 10
107.6800767417432
 20
118.1867566978839
 10
107.6800767417432
 20
116.7694444152521
 10
107.6800767417432
 20
116.7694444152521
 10
107.6800767417432
 20
116.7694444152521
 10
107.328849257022
 20
116.7694444152521
 10
107.328849257022
 20
116.7694444152521
 10
107.328849257022
 20
116.7694444152521
 10
107.328849257022
 20
120.1542507295101
 10
107.328849257022
 20
120.1542507295101
 10
107.328849257022
 20
120.1542507295101
 10
107.6800767417432
 20
120.1542507295101
 10
107.6800767417432
 20
120.1542507295101
 10
107.6800767417432
 20
120.1542507295101
 10
107.6800767417432
 20
118.7200574790005
 10
107.6800767417432
 20
118.7200574790005
 10
107.6800767417432
 20
118.7200574790005
 10
107.688517225682
 20
118.7200574790005
 10
107.688517225682
 20
118.7200574790005
 10
107.8407904461301
 20
118.9739610162635
 10
108.1200154352096
 20
119.1303683512938
 10
108.4035467936456
 20
119.1303683512938
 10
108.6870781520817
 20
119.1303683512938
 10
109.173525634599
 20
118.9567355388372
 10
109.173525634599
 20
118.1740098445885
 10
109.173525634599
 20
118.1740098445885
 10
109.173525634599
 20
116.7694444152521
 10
109.173525634599
 20
116.7694444152521
 97
        0
 75
     2
 76
     1
 98
        0
  0
SPLINE
  5
BD
330
A4
100
AcDbEntity
  8
\U+30EC\U+30A4\U+30E4\U+30FC 1
370
     0
100
AcDbSpline
210
0.0
220
0.0
230
1.0
 70
    11
 71
     3
 72
    32
 73
    28
 74
     0
 42
0.0000000001
 43
0.0000000001
 40
0.0
 40
0.0
 40
0.0
 40
0.0
 40
1.0
 40
1.0
 40
1.0
 40
2.0
 40
2.0
 40
2.0
 40
3.0
 40
3.0
 40
3.0
 40
4.0
 40
4.0
 40
4.0
 40
5.0
 40
5.0
 40
5.0
 40
6.0
 40
6.0
 40
6.0
 40
7.0
 40
7.0
 40
7.0
 40
8.0
 40
8.0
 40
8.0
 40
9.0
 40
9.0
 40
9.0
 40
9.0
 10
111.4893188197839
 20
116.8665961079361
 30
0.0
 10
111.3582329365702
 20
116.8032063510075
 30
0.0
 10
111.1170762526027
 20
116.7229356262012
 30
0.0
 10
110.7658487678815
 20
116.7229356262012
 30
0.0
 10
110.0931938743864
 20
116.7229356262012
 30
0.0
 10
109.6911512312578
 20
117.1966362554231
 30
0.0
 10
109.6911512312578
 20
117.8863443715701
 30
0.0
 10
109.6911512312578
 20
118.6098144234726
 30
0.0
 10
110.0973279889687
 20
119.1303683512938
 30
0.0
 10
110.7193399788306
 20
119.1303683512938
 30
0.0
 10
111.4300631774376
 20
119.1303683512938
 30
0.0
 10
111.6121364738331
 20
118.4789007950331
 30
0.0
 10
111.6121364738331
 20
118.0768581519044
 30
0.0
 10
111.6121364738331
 20
117.9965874270981
 30
0.0
 10
111.6078301044765
 20
117.9373317847518
 30
0.0
 10
111.60352373512
 20
117.8822102569878
 30
0.0
 10
111.60352373512
 20
117.8822102569878
 30
0.0
 10
110.0339382320401
 20
117.8822102569878
 30
0.0
 10
110.0339382320401
 20
117.8822102569878
 30
0.0
 10
110.0380723466224
 20
117.2434895540225
 30
0.0
 10
110.4020466846391
 20
117.0019883605065
 30
0.0
 10
110.8166639262889
 20
117.0019883605065
 30
0.0
 10
111.1043293993073
 20
117.0019883605065
 30
0.0
 10
111.2777899569896
 20
117.0612440028527
 30
0.0
 10
111.4216226934988
 20
117.120499645199
 30
0.0
 10
111.4216226934988
 20
117.120499645199
 30
0.0
 10
111.4893188197839
 20
116.8665961079361
 30
0.0
 10
111.4893188197839
 20
116.8665961079361
 30
0.0
  0
SPLINE
  5
BE
330
A4
100
AcDbEntity
  8
\U+30EC\U+30A4\U+30E4\U+30FC 1
370
     0
100
AcDbSpline
210
0.0
220
0.0
230
1.0
 70
    11
 71
     3
 72
    14
 73
    10
 74
     0
 42
0.0000000001
 43
0.0000000001
 40
0.0
 40
0.0
 40
0.0
 40
0.0
 40
1.0
 40
1.0
 40
1.0
 40
2.0
 40
2.0
 40
2.0
 40
3.0
 40
3.0
 40
3.0
 40
3.0
 10
111.2650431036942
 20
118.1443820234153
 30
0.0
 10
111.2693494730507
 20
118.4575412030245
 30
0.0
 10
111.138263589837
 20
118.8637179607355
 30
0.0
 10
110.6854057883009
 20
118.8637179607355
 30
0.0
 10
110.2623480627122
 20
118.8637179607355
 30
0.0
 10
110.0761406517344
 20
118.4616753176068
 30
0.0
 10
110.042378715979
 20
118.1443820234153
 30
0.0
 10
110.042378715979
 20
118.1443820234153
 30
0.0
 10
111.2650431036942
 20
118.1443820234153
 30
0.0
 10
111.2650431036942
 20
118.1443820234153
 30
0.0
  0
HATCH
  5
BF
330
A4
100
AcDbEntity
  8
\U+30EC\U+30A4\U+30E4\U+30FC 1
 62
     7
420
 16777215
100
AcDbHatch
 10
0.0
 20
0.0
 30
0.0
210
0.0
220
0.0
230
1.0
  2
SOLID
 70
     1
 71
     0
 91
        2
 92
        1
 93
        1
 72
     4
 94
        3
 73
     0
 74
     1
 95
       32
 96
       28
 40
0.0
 40
0.0
 40
0.0
 40
0.0
 40
1.0
 40
1.0
 40
1.0
 40
2.0
 40
2.0
 40
2.0
 40
3.0
 40
3.0
 40
3.0
 40
4.0
 40
4.0
 40
4.0
 40
5.0
 40
5.0
 40
5.0
 40
6.0
 40
6.0
 40
6.0
 40
7.0
 40
7.0
 40
7.0
 40
8.0
 40
8.0
 40
8.0
 40
9.0
 40
9.0
 40
9.0
 40
9.0
 10
111.4893188197839
 20
116.8665961079361
 10
111.3582329365702
 20
116.8032063510075
 10
111.1170762526027
 20
116.7229356262012
 10
110.7658487678815
 20
116.7229356262012
 10
110.0931938743864
 20
116.7229356262012
 10
109.6911512312578
 20
117.1966362554231
 10
109.6911512312578
 20
117.8863443715701
 10
109.6911512312578
 20
118.6098144234726
 10
110.0973279889687
 20
119.1303683512938
 10
110.7193399788306
 20
119.1303683512938
 10
111.4300631774376
 20
119.1303683512938
 10
111.6121364738331
 20
118.4789007950331
 10
111.6121364738331
 20
118.0768581519044
 10
111.6121364738331
 20
117.9965874270981
 10
111.6078301044765
 20
117.9373317847518
 10
111.60352373512
 20
117.8822102569878
 10
111.60352373512
 20
117.8822102569878
 10
110.0339382320401
 20
117.8822102569878
 10
110.0339382320401
 20
117.8822102569878
 10
110.0380723466224
 20
117.2434895540225
 10
110.4020466846391
 20
117.0019883605065
 10
110.8166639262889
 20
117.0019883605065
 10
111.1043293993073
 20
117.0019883605065
 10
111.2777899569896
 20
117.0612440028527
 10
111.4216226934988
 20
117.120499645199
 10
111.4216226934988
 20
117.120499645199
 10
111.4893188197839
 20
116.8665961079361
 10
111.4893188197839
 20
116.8665961079361
 97
        0
 92
        1
 93
        1
 72
     4
 94
        3
 73
     0
 74
     1
 95
       14
 96
       10
 40
0.0
 40
0.0
 40
0.0
 40
0.0
 40
1.0
 40
1.0
 40
1.0
 40
2.0
 40
2.0
 40
2.0
 40
3.0
 40
3.0
 40
3.0
 40
3.0
 10
111.2650431036942
 20
118.1443820234153
 10
111.2693494730507
 20
118.4575412030245
 10
111.138263589837
 20
118.8637179607355
 10
110.6854057883009
 20
118.8637179607355
 10
110.2623480627122
 20
118.8637179607355
 10
110.0761406517344
 20
118.4616753176068
 10
110.042378715979
 20
118.1443820234153
 10
110.042378715979
 20
118.1443820234153
 10
111.2650431036942
 20
118.1443820234153
 10
111.2650431036942
 20
118.1443820234153
 97
        0
 75
     2
 76
     1
 98
        0
  0
SPLINE
  5
C0
330
A4
100
AcDbEntity
  8
\U+30EC\U+30A4\U+30E4\U+30FC 1
370
     0
100
AcDbSpline
210
0.0
220
0.0
230
1.0
 70
    11
 71
     3
 72
    41
 73
    37
 74
     0
 42
0.0000000001
 43
0.0000000001
 40
0.0
 40
0.0
 40
0.0
 40
0.0
 40
1.0
 40
1.0
 40
1.0
 40
2.0
 40
2.0
 40
2.0
 40
3.0
 40
3.0
 40
3.0
 40
4.0
 40
4.0
 40
4.0
 40
5.0
 40
5.0
 40
5.0
 40
6.0
 40
6.0
 40
6.0
 40
7.0
 40
7.0
 40
7.0
 40
8.0
 40
8.0
 40
8.0
 40
9.0
 40
9.0
 40
9.0
 40
10.0
 40
10.0
 40
10.0
 40
11.0
 40
11.0
 40
11.0
 40
12.0
 40
12.0
 40
12.0
 40
12.0
 10
113.1913682442716
 20
118.7793131213468
 30
0.0
 10
113.1532999391596
 20
118.7834472359291
 30
0.0
 10
113.1152316340476
 20
118.7875813505114
 30
0.0
 10
113.0644164756402
 20
118.7875813505114
 30
0.0
 10
112.68373342452
 20
118.7875813505114
 30
0.0
 10
112.4890855296034
 20
118.4110324139736
 30
0.0
 10
112.4890855296034
 20
118.0217366241404
 30
0.0
 10
112.4890855296034
 20
118.0217366241404
 30
0.0
 10
112.4890855296034
 20
116.7694444152521
 30
0.0
 10
112.4890855296034
 20
116.7694444152521
 30
0.0
 10
112.4890855296034
 20
116.7694444152521
 30
0.0
 10
112.1378580448822
 20
116.7694444152521
 30
0.0
 10
112.1378580448822
 20
116.7694444152521
 30
0.0
 10
112.1378580448822
 20
116.7694444152521
 30
0.0
 10
112.1378580448822
 20
118.3855387073828
 30
0.0
 10
112.1378580448822
 20
118.3855387073828
 30
0.0
 10
112.1378580448822
 20
118.6311740154811
 30
0.0
 10
112.1337239302999
 20
118.8554497315709
 30
0.0
 10
112.1209770770045
 20
119.0752468235298
 30
0.0
 10
112.1209770770045
 20
119.0752468235298
 30
0.0
 10
112.4298298872571
 20
119.0752468235298
 30
0.0
 10
112.4298298872571
 20
119.0752468235298
 30
0.0
 10
112.4298298872571
 20
119.0752468235298
 30
0.0
 10
112.4467108551349
 20
118.6311740154811
 30
0.0
 10
112.4467108551349
 20
118.6311740154811
 30
0.0
 10
112.4467108551349
 20
118.6311740154811
 30
0.0
 10
112.4594577084303
 20
118.6311740154811
 30
0.0
 10
112.4594577084303
 20
118.6311740154811
 30
0.0
 10
112.5609157704709
 20
118.9188394884995
 30
0.0
 10
112.8020724544384
 20
119.1262342367115
 30
0.0
 10
113.0856038128744
 20
119.1262342367115
 30
0.0
 10
113.1236721179864
 20
119.1262342367115
 30
0.0
 10
113.1532999391596
 20
119.1176214979984
 30
0.0
 10
113.1913682442716
 20
119.1134873834161
 30
0.0
 10
113.1913682442716
 20
119.1134873834161
 30
0.0
 10
113.1913682442716
 20
118.7793131213468
 30
0.0
 10
113.1913682442716
 20
118.7793131213468
 30
0.0
  0
HATCH
  5
C1
330
A4
100
AcDbEntity
  8
\U+30EC\U+30A4\U+30E4\U+30FC 1
 62
     7
420
 16777215
100
AcDbHatch
 10
0.0
 20
0.0
 30
0.0
210
0.0
220
0.0
230
1.0
  2
SOLID
 70
     1
 71
     0
 91
        1
 92
        1
 93
        1
 72
     4
 94
        3
 73
     0
 74
     1
 95
       41
 96
       37
 40
0.0
 40
0.0
 40
0.0
 40
0.0
 40
1.0
 40
1.0
 40
1.0
 40
2.0
 40
2.0
 40
2.0
 40
3.0
 40
3.0
 40
3.0
 40
4.0
 40
4.0
 40
4.0
 40
5.0
 40
5.0
 40
5.0
 40
6.0
 40
6.0
 40
6.0
 40
7.0
 40
7.0
 40
7.0
 40
8.0
 40
8.0
 40
8.0
 40
9.0
 40
9.0
 40
9.0
 40
10.0
 40
10.0
 40
10.0
 40
11.0
 40
11.0
 40
11.0
 40
12.0
 40
12.0
 40
12.0
 40
12.0
 10
113.1913682442716
 20
118.7793131213468
 10
113.1532999391596
 20
118.7834472359291
 10
113.1152316340476
 20
118.7875813505114
 10
113.0644164756402
 20
118.7875813505114
 10
112.68373342452
 20
118.7875813505114
 10
112.4890855296034
 20
118.4110324139736
 10
112.4890855296034
 20
118.0217366241404
 10
112.4890855296034
 20
118.0217366241404
 10
112.4890855296034
 20
116.7694444152521
 10
112.4890855296034
 20
116.7694444152521
 10
112.4890855296034
 20
116.7694444152521
 10
112.1378580448822
 20
116.7694444152521
 10
112.1378580448822
 20
116.7694444152521
 10
112.1378580448822
 20
116.7694444152521
 10
112.1378580448822
 20
118.3855387073828
 10
112.1378580448822
 20
118.3855387073828
 10
112.1378580448822
 20
118.6311740154811
 10
112.1337239302999
 20
118.8554497315709
 10
112.1209770770045
 20
119.0752468235298
 10
112.1209770770045
 20
119.0752468235298
 10
112.4298298872571
 20
119.0752468235298
 10
112.4298298872571
 20
119.0752468235298
 10
112.4298298872571
 20
119.0752468235298
 10
112.4467108551349
 20
118.6311740154811
 10
112.4467108551349
 20
118.6311740154811
 10
112.4467108551349
 20
118.6311740154811
 10
112.4594577084303
 20
118.6311740154811
 10
112.4594577084303
 20
118.6311740154811
 10
112.5609157704709
 20
118.9188394884995
 10
112.8020724544384
 20
119.1262342367115
 10
113.0856038128744
 20
119.1262342367115
 10
113.1236721179864
 20
119.1262342367115
 10
113.1532999391596
 20
119.1176214979984
 10
113.1913682442716
 20
119.1134873834161
 10
113.1913682442716
 20
119.1134873834161
 10
113.1913682442716
 20
118.7793131213468
 10
113.1913682442716
 20
118.7793131213468
 97
        0
 75
     2
 76
     1
 98
        0
  0
SPLINE
  5
C2
330
A4
100
AcDbEntity
  8
\U+30EC\U+30A4\U+30E4\U+30FC 1
370
     0
100
AcDbSpline
210
0.0
220
0.0
230
1.0
 70
    11
 71
     3
 72
    47
 73
    43
 74
     0
 42
0.0000000001
 43
0.0000000001
 40
0.0
 40
0.0
 40
0.0
 40
0.0
 40
1.0
 40
1.0
 40
1.0
 40
2.0
 40
2.0
 40
2.0
 40
3.0
 40
3.0
 40
3.0
 40
4.0
 40
4.0
 40
4.0
 40
5.0
 40
5.0
 40
5.0
 40
6.0
 40
6.0
 40
6.0
 40
7.0
 40
7.0
 40
7.0
 40
8.0
 40
8.0
 40
8.0
 40
9.0
 40
9.0
 40
9.0
 40
10.0
 40
10.0
 40
10.0
 40
11.0
 40
11.0
 40
11.0
 40
12.0
 40
12.0
 40
12.0
 40
13.0
 40
13.0
 40
13.0
 40
14.0
 40
14.0
 40
14.0
 40
14.0
 10
116.8989800054975
 20
116.9007025532401
 30
0.0
 10
116.7255194478152
 20
116.8328341721807
 30
0.0
 10
116.3870388163894
 20
116.7356824794966
 30
0.0
 10
115.9808620586784
 20
116.7356824794966
 30
0.0
 10
114.7158229964947
 20
116.7356824794966
 30
0.0
 10
114.4154106701809
 20
117.6789496233581
 30
0.0
 10
114.4154106701809
 20
118.3603895103405
 30
0.0
 10
114.4154106701809
 20
119.3418972140881
 30
0.0
 10
115.0543036279205
 20
120.022992591522
 30
0.0
 10
116.0654391528413
 20
120.022992591522
 30
0.0
 10
116.3742919630939
 20
120.022992591522
 30
0.0
 10
116.6493828375911
 20
119.9637369491757
 30
0.0
 10
116.810096541978
 20
119.8876003389517
 30
0.0
 10
116.810096541978
 20
119.8876003389517
 30
0.0
 10
116.7170789638763
 20
119.595800751351
 30
0.0
 10
116.7170789638763
 20
119.595800751351
 30
0.0
 10
116.5604993740717
 20
119.6678032469928
 30
0.0
 10
116.3574109952162
 20
119.7270588893391
 30
0.0
 10
116.0569986689024
 20
119.7270588893391
 30
0.0
 10
115.295460311888
 20
119.7270588893391
 30
0.0
 10
114.7835191227798
 20
119.236132782691
 30
0.0
 10
114.7835191227798
 20
118.3814045928005
 30
0.0
 10
114.7835191227798
 20
117.5097954350323
 30
0.0
 10
115.2701388600714
 20
117.023347952515
 30
0.0
 10
116.0063557652692
 20
117.023347952515
 30
0.0
 10
116.2771402704099
 20
117.023347952515
 30
0.0
 10
116.4590413120311
 20
117.0657226269836
 30
0.0
 10
116.5520588901328
 20
117.1163655306167
 30
0.0
 10
116.5520588901328
 20
117.1163655306167
 30
0.0
 10
116.5520588901328
 20
118.1488606475461
 30
0.0
 10
116.5520588901328
 20
118.1488606475461
 30
0.0
 10
116.5520588901328
 20
118.1488606475461
 30
0.0
 10
115.9005913338721
 20
118.1488606475461
 30
0.0
 10
115.9005913338721
 20
118.1488606475461
 30
0.0
 10
115.9005913338721
 20
118.1488606475461
 30
0.0
 10
115.9005913338721
 20
118.4323920059822
 30
0.0
 10
115.9005913338721
 20
118.4323920059822
 30
0.0
 10
115.9005913338721
 20
118.4323920059822
 30
0.0
 10
116.8989800054975
 20
118.4323920059822
 30
0.0
 10
116.8989800054975
 20
118.4323920059822
 30
0.0
 10
116.8989800054975
 20
118.4323920059822
 30
0.0
 10
116.8989800054975
 20
116.9007025532401
 30
0.0
 10
116.8989800054975
 20
116.9007025532401
 30
0.0
  0
HATCH
  5
C3
330
A4
100
AcDbEntity
  8
\U+30EC\U+30A4\U+30E4\U+30FC 1
 62
     7
420
 16777215
100
AcDbHatch
 10
0.0
 20
0.0
 30
0.0
210
0.0
220
0.0
230
1.0
  2
SOLID
 70
     1
 71
     0
 91
        1
 92
        1
 93
        1
 72
     4
 94
        3
 73
     0
 74
     1
 95
       47
 96
       43
 40
0.0
 40
0.0
 40
0.0
 40
0.0
 40
1.0
 40
1.0
 40
1.0
 40
2.0
 40
2.0
 40
2.0
 40
3.0
 40
3.0
 40
3.0
 40
4.0
 40
4.0
 40
4.0
 40
5.0
 40
5.0
 40
5.0
 40
6.0
 40
6.0
 40
6.0
 40
7.0
 40
7.0
 40
7.0
 40
8.0
 40
8.0
 40
8.0
 40
9.0
 40
9.0
 40
9.0
 40
10.0
 40
10.0
 40
10.0
 40
11.0
 40
11.0
 40
11.0
 40
12.0
 40
12.0
 40
12.0
 40
13.0
 40
13.0
 40
13.0
 40
14.0
 40
14.0
 40
14.0
 40
14.0
 10
116.8989800054975
 20
116.9007025532401
 10
116.7255194478152
 20
116.8328341721807
 10
116.3870388163894
 20
116.7356824794966
 10
115.9808620586784
 20
116.7356824794966
 10
114.7158229964947
 20
116.7356824794966
 10
114.4154106701809
 20
117.6789496233581
 10
114.4154106701809
 20
118.3603895103405
 10
114.4154106701809
 20
119.3418972140881
 10
115.0543036279205
 20
120.022992591522
 10
116.0654391528413
 20
120.022992591522
 10
116.3742919630939
 20
120.022992591522
 10
116.6493828375911
 20
119.9637369491757
 10
116.810096541978
 20
119.8876003389517
 10
116.810096541978
 20
119.8876003389517
 10
116.7170789638763
 20
119.595800751351
 10
116.7170789638763
 20
119.595800751351
 10
116.5604993740717
 20
119.6678032469928
 10
116.3574109952162
 20
119.7270588893391
 10
116.0569986689024
 20
119.7270588893391
 10
115.295460311888
 20
119.7270588893391
 10
114.7835191227798
 20
119.236132782691
 10
114.7835191227798
 20
118.3814045928005
 10
114.7835191227798
 20
117.5097954350323
 10
115.2701388600714
 20
117.023347952515
 10
116.0063557652692
 20
117.023347952515
 10
116.2771402704099
 20
117.023347952515
 10
116.4590413120311
 20
117.0657226269836
 10
116.5520588901328
 20
117.1163655306167
 10
116.5520588901328
 20
117.1163655306167
 10
116.5520588901328
 20
118.1488606475461
 10
116.5520588901328
 20
118.1488606475461
 10
116.5520588901328
 20
118.1488606475461
 10
115.9005913338721
 20
118.1488606475461
 10
115.9005913338721
 20
118.1488606475461
 10
115.9005913338721
 20
118.1488606475461
 10
115.9005913338721
 20
118.4323920059822
 10
115.9005913338721
 20
118.4323920059822
 10
115.9005913338721
 20
118.4323920059822
 10
116.8989800054975
 20
118.4323920059822
 10
116.8989800054975
 20
118.4323920059822
 10
116.8989800054975
 20
118.4323920059822
 10
116.8989800054975
 20
116.9007025532401
 10
116.8989800054975
 20
116.9007025532401
 97
        0
 75
     2
 76
     1
 98
        0
  0
SPLINE
  5
C4
330
A4
100
AcDbEntity
  8
\U+30EC\U+30A4\U+30E4\U+30FC 1
370
     0
100
AcDbSpline
210
0.0
220
0.0
230
1.0
 70
    11
 71
     3
 72
    32
 73
    28
 74
     0
 42
0.0000000001
 43
0.0000000001
 40
0.0
 40
0.0
 40
0.0
 40
0.0
 40
1.0
 40
1.0
 40
1.0
 40
2.0
 40
2.0
 40
2.0
 40
3.0
 40
3.0
 40
3.0
 40
4.0
 40
4.0
 40
4.0
 40
5.0
 40
5.0
 40
5.0
 40
6.0
 40
6.0
 40
6.0
 40
7.0
 40
7.0
 40
7.0
 40
8.0
 40
8.0
 40
8.0
 40
9.0
 40
9.0
 40
9.0
 40
9.0
 10
119.142942949815
 20
116.8665961079361
 30
0.0
 10
119.0118570666012
 20
116.8032063510075
 30
0.0
 10
118.7707003826337
 20
116.7229356262012
 30
0.0
 10
118.4194728979125
 20
116.7229356262012
 30
0.0
 10
117.7468180044175
 20
116.7229356262012
 30
0.0
 10
117.3447753612888
 20
117.1966362554231
 30
0.0
 10
117.3447753612888
 20
117.8863443715701
 30
0.0
 10
117.3447753612888
 20
118.6098144234726
 30
0.0
 10
117.7509521189998
 20
119.1303683512938
 30
0.0
 10
118.3729641088616
 20
119.1303683512938
 30
0.0
 10
119.0836873074687
 20
119.1303683512938
 30
0.0
 10
119.2657606038641
 20
118.4789007950331
 30
0.0
 10
119.2657606038641
 20
118.0768581519044
 30
0.0
 10
119.2657606038641
 20
117.9965874270981
 30
0.0
 10
119.2614542345076
 20
117.9373317847518
 30
0.0
 10
119.257147865151
 20
117.8822102569878
 30
0.0
 10
119.257147865151
 20
117.8822102569878
 30
0.0
 10
117.6875623620712
 20
117.8822102569878
 30
0.0
 10
117.6875623620712
 20
117.8822102569878
 30
0.0
 10
117.6916964766535
 20
117.2434895540225
 30
0.0
 10
118.0556708146701
 20
117.0019883605065
 30
0.0
 10
118.4702880563199
 20
117.0019883605065
 30
0.0
 10
118.7579535293383
 20
117.0019883605065
 30
0.0
 10
118.9314140870206
 20
117.0612440028527
 30
0.0
 10
119.0752468235298
 20
117.120499645199
 30
0.0
 10
119.0752468235298
 20
117.120499645199
 30
0.0
 10
119.142942949815
 20
116.8665961079361
 30
0.0
 10
119.142942949815
 20
116.8665961079361
 30
0.0
  0
SPLINE
  5
C5
330
A4
100
AcDbEntity
  8
\U+30EC\U+30A4\U+30E4\U+30FC 1
370
     0
100
AcDbSpline
210
0.0
220
0.0
230
1.0
 70
    11
 71
     3
 72
    14
 73
    10
 74
     0
 42
0.0000000001
 43
0.0000000001
 40
0.0
 40
0.0
 40
0.0
 40
0.0
 40
1.0
 40
1.0
 40
1.0
 40
2.0
 40
2.0
 40
2.0
 40
3.0
 40
3.0
 40
3.0
 40
3.0
 10
118.9186672337252
 20
118.1443820234153
 30
0.0
 10
118.9229736030818
 20
118.4575412030245
 30
0.0
 10
118.791887719868
 20
118.8637179607355
 30
0.0
 10
118.3390299183319
 20
118.8637179607355
 30
0.0
 10
117.9159721927432
 20
118.8637179607355
 30
0.0
 10
117.7297647817655
 20
118.4616753176068
 30
0.0
 10
117.69600284601
 20
118.1443820234153
 30
0.0
 10
117.69600284601
 20
118.1443820234153
 30
0.0
 10
118.9186672337252
 20
118.1443820234153
 30
0.0
 10
118.9186672337252
 20
118.1443820234153
 30
0.0
  0
HATCH
  5
C6
330
A4
100
AcDbEntity
  8
\U+30EC\U+30A4\U+30E4\U+30FC 1
 62
     7
420
 16777215
100
AcDbHatch
 10
0.0
 20
0.0
 30
0.0
210
0.0
220
0.0
230
1.0
  2
SOLID
 70
     1
 71
     0
 91
        2
 92
        1
 93
        1
 72
     4
 94
        3
 73
     0
 74
     1
 95
       32
 96
       28
 40
0.0
 40
0.0
 40
0.0
 40
0.0
 40
1.0
 40
1.0
 40
1.0
 40
2.0
 40
2.0
 40
2.0
 40
3.0
 40
3.0
 40
3.0
 40
4.0
 40
4.0
 40
4.0
 40
5.0
 40
5.0
 40
5.0
 40
6.0
 40
6.0
 40
6.0
 40
7.0
 40
7.0
 40
7.0
 40
8.0
 40
8.0
 40
8.0
 40
9.0
 40
9.0
 40
9.0
 40
9.0
 10
119.142942949815
 20
116.8665961079361
 10
119.0118570666012
 20
116.8032063510075
 10
118.7707003826337
 20
116.7229356262012
 10
118.4194728979125
 20
116.7229356262012
 10
117.7468180044175
 20
116.7229356262012
 10
117.3447753612888
 20
117.1966362554231
 10
117.3447753612888
 20
117.8863443715701
 10
117.3447753612888
 20
118.6098144234726
 10
117.7509521189998
 20
119.1303683512938
 10
118.3729641088616
 20
119.1303683512938
 10
119.0836873074687
 20
119.1303683512938
 10
119.2657606038641
 20
118.4789007950331
 10
119.2657606038641
 20
118.0768581519044
 10
119.2657606038641
 20
117.9965874270981
 10
119.2614542345076
 20
117.9373317847518
 10
119.257147865151
 20
117.8822102569878
 10
119.257147865151
 20
117.8822102569878
 10
117.6875623620712
 20
117.8822102569878
 10
117.6875623620712
 20
117.8822102569878
 10
117.6916964766535
 20
117.2434895540225
 10
118.0556708146701
 20
117.0019883605065
 10
118.4702880563199
 20
117.0019883605065
 10
118.7579535293383
 20
117.0019883605065
 10
118.9314140870206
 20
117.0612440028527
 10
119.0752468235298
 20
117.120499645199
 10
119.0752468235298
 20
117.120499645199
 10
119.142942949815
 20
116.8665961079361
 10
119.142942949815
 20
116.8665961079361
 97
        0
 92
        1
 93
        1
 72
     4
 94
        3
 73
     0
 74
     1
 95
       14
 96
       10
 40
0.0
 40
0.0
 40
0.0
 40
0.0
 40
1.0
 40
1.0
 40
1.0
 40
2.0
 40
2.0
 40
2.0
 40
3.0
 40
3.0
 40
3.0
 40
3.0
 10
118.9186672337252
 20
118.1443820234153
 10
118.9229736030818
 20
118.4575412030245
 10
118.791887719868
 20
118.8637179607355
 10
118.3390299183319
 20
118.8637179607355
 10
117.9159721927432
 20
118.8637179607355
 10
117.7297647817655
 20
118.4616753176068
 10
117.69600284601
 20
118.1443820234153
 10
117.69600284601
 20
118.1443820234153
 10
118.9186672337252
 20
118.1443820234153
 10
118.9186672337252
 20
118.1443820234153
 97
        0
 75
     2
 76
     1
 98
        0
  0
SPLINE
  5
C7
330
A4
100
AcDbEntity
  8
\U+30EC\U+30A4\U+30E4\U+30FC 1
370
     0
100
AcDbSpline
210
0.0
220
0.0
230
1.0
 70
    11
 71
     3
 72
    44
 73
    40
 74
     0
 42
0.0000000001
 43
0.0000000001
 40
0.0
 40
0.0
 40
0.0
 40
0.0
 40
1.0
 40
1.0
 40
1.0
 40
2.0
 40
2.0
 40
2.0
 40
3.0
 40
3.0
 40
3.0
 40
4.0
 40
4.0
 40
4.0
 40
5.0
 40
5.0
 40
5.0
 40
6.0
 40
6.0
 40
6.0
 40
7.0
 40
7.0
 40
7.0
 40
8.0
 40
8.0
 40
8.0
 40
9.0
 40
9.0
 40
9.0
 40
10.0
 40
10.0
 40
10.0
 40
11.0
 40
11.0
 40
11.0
 40
12.0
 40
12.0
 40
12.0
 40
13.0
 40
13.0
 40
13.0
 40
13.0
 10
121.301984290421
 20
117.3196261642465
 30
0.0
 10
121.301984290421
 20
117.1291123839122
 30
0.0
 10
121.3062906597776
 20
116.9303303744133
 30
0.0
 10
121.3357462261765
 20
116.7694444152521
 30
0.0
 10
121.3357462261765
 20
116.7694444152521
 30
0.0
 10
121.0143188174027
 20
116.7694444152521
 30
0.0
 10
121.0143188174027
 20
116.7694444152521
 30
0.0
 10
121.0143188174027
 20
116.7694444152521
 30
0.0
 10
120.980384626873
 20
117.0657226269836
 30
0.0
 10
120.980384626873
 20
117.0657226269836
 30
0.0
 10
120.980384626873
 20
117.0657226269836
 30
0.0
 10
120.9676377735775
 20
117.0657226269836
 30
0.0
 10
120.9676377735775
 20
117.0657226269836
 30
0.0
 10
120.8492987436592
 20
116.8838215853624
 30
0.0
 10
120.612276174274
 20
116.7188015116189
 30
0.0
 10
120.2865423961436
 20
116.7188015116189
 30
0.0
 10
119.846431447903
 20
116.7188015116189
 30
0.0
 10
119.6137152478744
 20
117.0402289203927
 30
0.0
 10
119.6137152478744
 20
117.374403182462
 30
0.0
 10
119.6137152478744
 20
117.9287190460387
 30
0.0
 10
120.0962008705836
 20
118.2291313723524
 30
0.0
 10
120.9507568056998
 20
118.2249972577701
 30
0.0
 10
120.9507568056998
 20
118.4196451526868
 30
0.0
 10
120.9507568056998
 20
118.8595838461532
 30
0.0
 10
120.4260687632963
 20
118.8595838461532
 30
0.0
 10
120.2272867537973
 20
118.8595838461532
 30
0.0
 10
120.0198920055853
 20
118.8044623183892
 30
0.0
 10
119.863484670555
 20
118.6945637724097
 30
0.0
 10
119.863484670555
 20
118.6945637724097
 30
0.0
 10
119.7787353216178
 20
118.9357204563772
 30
0.0
 10
119.7787353216178
 20
118.9357204563772
 30
0.0
 10
119.9649427325956
 20
119.0583658556521
 30
0.0
 10
120.223152639215
 20
119.1303683512938
 30
0.0
 10
120.4811902910603
 20
119.1303683512938
 30
0.0
 10
121.132657847321
 20
119.1303683512938
 30
0.0
 10
121.301984290421
 20
118.6690700658188
 30
0.0
 10
121.301984290421
 20
118.2122504044747
 30
0.0
 10
121.301984290421
 20
118.2122504044747
 30
0.0
 10
121.301984290421
 20
117.3196261642465
 30
0.0
 10
121.301984290421
 20
117.3196261642465
 30
0.0
  0
SPLINE
  5
C8
330
A4
100
AcDbEntity
  8
\U+30EC\U+30A4\U+30E4\U+30FC 1
370
     0
100
AcDbSpline
210
0.0
220
0.0
230
1.0
 70
    11
 71
     3
 72
    17
 73
    13
 74
     0
 42
0.0000000001
 43
0.0000000001
 40
0.0
 40
0.0
 40
0.0
 40
0.0
 40
1.0
 40
1.0
 40
1.0
 40
2.0
 40
2.0
 40
2.0
 40
3.0
 40
3.0
 40
3.0
 40
4.0
 40
4.0
 40
4.0
 40
4.0
 10
120.9550631750564
 20
117.9669596059249
 30
0.0
 10
120.5192585961723
 20
117.9669596059249
 30
0.0
 10
119.9733832165344
 20
117.9032253394478
 30
0.0
 10
119.9733832165344
 20
117.4167778569305
 30
0.0
 10
119.9733832165344
 20
117.120499645199
 30
0.0
 10
120.1595906275122
 20
116.9895860167596
 30
0.0
 10
120.3711194903065
 20
116.9895860167596
 30
0.0
 10
120.7139064910889
 20
116.9895860167596
 30
0.0
 10
120.9550631750564
 20
117.2517577831871
 30
0.0
 10
120.9550631750564
 20
117.5311550270408
 30
0.0
 10
120.9550631750564
 20
117.5311550270408
 30
0.0
 10
120.9550631750564
 20
117.9669596059249
 30
0.0
 10
120.9550631750564
 20
117.9669596059249
 30
0.0
  0
HATCH
  5
C9
330
A4
100
AcDbEntity
  8
\U+30EC\U+30A4\U+30E4\U+30FC 1
 62
     7
420
 16777215
100
AcDbHatch
 10
0.0
 20
0.0
 30
0.0
210
0.0
220
0.0
230
1.0
  2
SOLID
 70
     1
 71
     0
 91
        2
 92
        1
 93
        1
 72
     4
 94
        3
 73
     0
 74
     1
 95
       44
 96
       40
 40
0.0
 40
0.0
 40
0.0
 40
0.0
 40
1.0
 40
1.0
 40
1.0
 40
2.0
 40
2.0
 40
2.0
 40
3.0
 40
3.0
 40
3.0
 40
4.0
 40
4.0
 40
4.0
 40
5.0
 40
5.0
 40
5.0
 40
6.0
 40
6.0
 40
6.0
 40
7.0
 40
7.0
 40
7.0
 40
8.0
 40
8.0
 40
8.0
 40
9.0
 40
9.0
 40
9.0
 40
10.0
 40
10.0
 40
10.0
 40
11.0
 40
11.0
 40
11.0
 40
12.0
 40
12.0
 40
12.0
 40
13.0
 40
13.0
 40
13.0
 40
13.0
 10
121.301984290421
 20
117.3196261642465
 10
121.301984290421
 20
117.1291123839122
 10
121.3062906597776
 20
116.9303303744133
 10
121.3357462261765
 20
116.7694444152521
 10
121.3357462261765
 20
116.7694444152521
 10
121.0143188174027
 20
116.7694444152521
 10
121.0143188174027
 20
116.7694444152521
 10
121.0143188174027
 20
116.7694444152521
 10
120.980384626873
 20
117.0657226269836
 10
120.980384626873
 20
117.0657226269836
 10
120.980384626873
 20
117.0657226269836
 10
120.9676377735775
 20
117.0657226269836
 10
120.9676377735775
 20
117.0657226269836
 10
120.8492987436592
 20
116.8838215853624
 10
120.612276174274
 20
116.7188015116189
 10
120.2865423961436
 20
116.7188015116189
 10
119.846431447903
 20
116.7188015116189
 10
119.6137152478744
 20
117.0402289203927
 10
119.6137152478744
 20
117.374403182462
 10
119.6137152478744
 20
117.9287190460387
 10
120.0962008705836
 20
118.2291313723524
 10
120.9507568056998
 20
118.2249972577701
 10
120.9507568056998
 20
118.4196451526868
 10
120.9507568056998
 20
118.8595838461532
 10
120.4260687632963
 20
118.8595838461532
 10
120.2272867537973
 20
118.8595838461532
 10
120.0198920055853
 20
118.8044623183892
 10
119.863484670555
 20
118.6945637724097
 10
119.863484670555
 20
118.6945637724097
 10
119.7787353216178
 20
118.9357204563772
 10
119.7787353216178
 20
118.9357204563772
 10
119.9649427325956
 20
119.0583658556521
 10
120.223152639215
 20
119.1303683512938
 10
120.4811902910603
 20
119.1303683512938
 10
121.132657847321
 20
119.1303683512938
 10
121.301984290421
 20
118.6690700658188
 10
121.301984290421
 20
118.2122504044747
 10
121.301984290421
 20
118.2122504044747
 10
121.301984290421
 20
117.3196261642465
 10
121.301984290421
 20
117.3196261642465
 97
        0
 92
        1
 93
        1
 72
     4
 94
        3
 73
     0
 74
     1
 95
       17
 96
       13
 40
0.0
 40
0.0
 40
0.0
 40
0.0
 40
1.0
 40
1.0
 40
1.0
 40
2.0
 40
2.0
 40
2.0
 40
3.0
 40
3.0
 40
3.0
 40
4.0
 40
4.0
 40
4.0
 40
4.0
 10
120.9550631750564
 20
117.9669596059249
 10
120.5192585961723
 20
117.9669596059249
 10
119.9733832165344
 20
117.9032253394478
 10
119.9733832165344
 20
117.4167778569305
 10
119.9733832165344
 20
117.120499645199
 10
120.1595906275122
 20
116.9895860167596
 10
120.3711194903065
 20
116.9895860167596
 10
120.7139064910889
 20
116.9895860167596
 10
120.9550631750564
 20
117.2517577831871
 10
120.9550631750564
 20
117.5311550270408
 10
120.9550631750564
 20
117.5311550270408
 10
120.9550631750564
 20
117.9669596059249
 10
120.9550631750564
 20
117.9669596059249
 97
        0
 75
     2
 76
     1
 98
        0
  0
SPLINE
  5
CA
330
A4
100
AcDbEntity
  8
\U+30EC\U+30A4\U+30E4\U+30FC 1
370
     0
100
AcDbSpline
210
0.0
220
0.0
230
1.0
 70
    11
 71
     3
 72
    41
 73
    37
 74
     0
 42
0.0000000001
 43
0.0000000001
 40
0.0
 40
0.0
 40
0.0
 40
0.0
 40
1.0
 40
1.0
 40
1.0
 40
2.0
 40
2.0
 40
2.0
 40
3.0
 40
3.0
 40
3.0
 40
4.0
 40
4.0
 40
4.0
 40
5.0
 40
5.0
 40
5.0
 40
6.0
 40
6.0
 40
6.0
 40
7.0
 40
7.0
 40
7.0
 40
8.0
 40
8.0
 40
8.0
 40
9.0
 40
9.0
 40
9.0
 40
10.0
 40
10.0
 40
10.0
 40
11.0
 40
11.0
 40
11.0
 40
12.0
 40
12.0
 40
12.0
 40
12.0
 10
123.0336615360819
 20
118.7793131213468
 30
0.0
 10
122.9955932309699
 20
118.7834472359291
 30
0.0
 10
122.9575249258578
 20
118.7875813505114
 30
0.0
 10
122.9067097674504
 20
118.7875813505114
 30
0.0
 10
122.5260267163303
 20
118.7875813505114
 30
0.0
 10
122.3313788214137
 20
118.4110324139736
 30
0.0
 10
122.3313788214137
 20
118.0217366241404
 30
0.0
 10
122.3313788214137
 20
118.0217366241404
 30
0.0
 10
122.3313788214137
 20
116.7694444152521
 30
0.0
 10
122.3313788214137
 20
116.7694444152521
 30
0.0
 10
122.3313788214137
 20
116.7694444152521
 30
0.0
 10
121.9801513366925
 20
116.7694444152521
 30
0.0
 10
121.9801513366925
 20
116.7694444152521
 30
0.0
 10
121.9801513366925
 20
116.7694444152521
 30
0.0
 10
121.9801513366925
 20
118.3855387073828
 30
0.0
 10
121.9801513366925
 20
118.3855387073828
 30
0.0
 10
121.9801513366925
 20
118.6311740154811
 30
0.0
 10
121.9760172221102
 20
118.8554497315709
 30
0.0
 10
121.9632703688147
 20
119.0752468235298
 30
0.0
 10
121.9632703688147
 20
119.0752468235298
 30
0.0
 10
122.2721231790674
 20
119.0752468235298
 30
0.0
 10
122.2721231790674
 20
119.0752468235298
 30
0.0
 10
122.2721231790674
 20
119.0752468235298
 30
0.0
 10
122.2890041469451
 20
118.6311740154811
 30
0.0
 10
122.2890041469451
 20
118.6311740154811
 30
0.0
 10
122.2890041469451
 20
118.6311740154811
 30
0.0
 10
122.3017510002405
 20
118.6311740154811
 30
0.0
 10
122.3017510002405
 20
118.6311740154811
 30
0.0
 10
122.4032090622811
 20
118.9188394884995
 30
0.0
 10
122.6443657462486
 20
119.1262342367115
 30
0.0
 10
122.9278971046847
 20
119.1262342367115
 30
0.0
 10
122.9659654097967
 20
119.1262342367115
 30
0.0
 10
122.9955932309699
 20
119.1176214979984
 30
0.0
 10
123.0336615360819
 20
119.1134873834161
 30
0.0
 10
123.0336615360819
 20
119.1134873834161
 30
0.0
 10
123.0336615360819
 20
118.7793131213468
 30
0.0
 10
123.0336615360819
 20
118.7793131213468
 30
0.0
  0
HATCH
  5
CB
330
A4
100
AcDbEntity
  8
\U+30EC\U+30A4\U+30E4\U+30FC 1
 62
     7
420
 16777215
100
AcDbHatch
 10
0.0
 20
0.0
 30
0.0
210
0.0
220
0.0
230
1.0
  2
SOLID
 70
     1
 71
     0
 91
        1
 92
        1
 93
        1
 72
     4
 94
        3
 73
     0
 74
     1
 95
       41
 96
       37
 40
0.0
 40
0.0
 40
0.0
 40
0.0
 40
1.0
 40
1.0
 40
1.0
 40
2.0
 40
2.0
 40
2.0
 40
3.0
 40
3.0
 40
3.0
 40
4.0
 40
4.0
 40
4.0
 40
5.0
 40
5.0
 40
5.0
 40
6.0
 40
6.0
 40
6.0
 40
7.0
 40
7.0
 40
7.0
 40
8.0
 40
8.0
 40
8.0
 40
9.0
 40
9.0
 40
9.0
 40
10.0
 40
10.0
 40
10.0
 40
11.0
 40
11.0
 40
11.0
 40
12.0
 40
12.0
 40
12.0
 40
12.0
 10
123.0336615360819
 20
118.7793131213468
 10
122.9955932309699
 20
118.7834472359291
 10
122.9575249258578
 20
118.7875813505114
 10
122.9067097674504
 20
118.7875813505114
 10
122.5260267163303
 20
118.7875813505114
 10
122.3313788214137
 20
118.4110324139736
 10
122.3313788214137
 20
118.0217366241404
 10
122.3313788214137
 20
118.0217366241404
 10
122.3313788214137
 20
116.7694444152521
 10
122.3313788214137
 20
116.7694444152521
 10
122.3313788214137
 20
116.7694444152521
 10
121.9801513366925
 20
116.7694444152521
 10
121.9801513366925
 20
116.7694444152521
 10
121.9801513366925
 20
116.7694444152521
 10
121.9801513366925
 20
118.3855387073828
 10
121.9801513366925
 20
118.3855387073828
 10
121.9801513366925
 20
118.6311740154811
 10
121.9760172221102
 20
118.8554497315709
 10
121.9632703688147
 20
119.0752468235298
 10
121.9632703688147
 20
119.0752468235298
 10
122.2721231790674
 20
119.0752468235298
 10
122.2721231790674
 20
119.0752468235298
 10
122.2721231790674
 20
119.0752468235298
 10
122.2890041469451
 20
118.6311740154811
 10
122.2890041469451
 20
118.6311740154811
 10
122.2890041469451
 20
118.6311740154811
 10
122.3017510002405
 20
118.6311740154811
 10
122.3017510002405
 20
118.6311740154811
 10
122.4032090622811
 20
118.9188394884995
 10
122.6443657462486
 20
119.1262342367115
 10
122.9278971046847
 20
119.1262342367115
 10
122.9659654097967
 20
119.1262342367115
 10
122.9955932309699
 20
119.1176214979984
 10
123.0336615360819
 20
119.1134873834161
 10
123.0336615360819
 20
119.1134873834161
 10
123.0336615360819
 20
118.7793131213468
 10
123.0336615360819
 20
118.7793131213468
 97
        0
 75
     2
 76
     1
 98
        0
  0
SPLINE
  5
CC
330
A4
100
AcDbEntity
  8
\U+30EC\U+30A4\U+30E4\U+30FC 1
370
     0
100
AcDbSpline
210
0.0
220
0.0
230
1.0
 70
    11
 71
     3
 72
    71
 73
    67
 74
     0
 42
0.0000000001
 43
0.0000000001
 40
0.0
 40
0.0
 40
0.0
 40
0.0
 40
1.0
 40
1.0
 40
1.0
 40
2.0
 40
2.0
 40
2.0
 40
3.0
 40
3.0
 40
3.0
 40
4.0
 40
4.0
 40
4.0
 40
5.0
 40
5.0
 40
5.0
 40
6.0
 40
6.0
 40
6.0
 40
7.0
 40
7.0
 40
7.0
 40
8.0
 40
8.0
 40
8.0
 40
9.0
 40
9.0
 40
9.0
 40
10.0
 40
10.0
 40
10.0
 40
11.0
 40
11.0
 40
11.0
 40
12.0
 40
12.0
 40
12.0
 40
13.0
 40
13.0
 40
13.0
 40
14.0
 40
14.0
 40
14.0
 40
15.0
 40
15.0
 40
15.0
 40
16.0
 40
16.0
 40
16.0
 40
17.0
 40
17.0
 40
17.0
 40
18.0
 40
18.0
 40
18.0
 40
19.0
 40
19.0
 40
19.0
 40
20.0
 40
20.0
 40
20.0
 40
21.0
 40
21.0
 40
21.0
 40
22.0
 40
22.0
 40
22.0
 40
22.0
 10
98.49252384690465
 20
111.6893066127027
 30
0.0
 10
98.49252384690465
 20
111.6893066127027
 30
0.0
 10
98.14560273154
 20
111.6893066127027
 30
0.0
 10
98.14560273154
 20
111.6893066127027
 30
0.0
 10
98.14560273154
 20
111.6893066127027
 30
0.0
 10
98.06515975195941
 20
113.1403808310899
 30
0.0
 10
98.06515975195941
 20
113.1403808310899
 30
0.0
 10
98.03983830014282
 20
113.6016791165649
 30
0.0
 10
98.00607636438737
 20
114.1983696546101
 30
0.0
 10
98.01021047896967
 20
114.5284098020971
 30
0.0
 10
98.01021047896967
 20
114.5284098020971
 30
0.0
 10
97.99746362567424
 20
114.5284098020971
 30
0.0
 10
97.99746362567424
 20
114.5284098020971
 30
0.0
 10
97.89169919427708
 20
114.1646077188547
 30
0.0
 10
97.76061331106332
 20
113.7666991903083
 30
0.0
 10
97.60403372125872
 20
113.3181477581288
 30
0.0
 10
97.60403372125872
 20
113.3181477581288
 30
0.0
 10
97.028702775222
 20
111.7020534659981
 30
0.0
 10
97.028702775222
 20
111.7020534659981
 30
0.0
 10
97.028702775222
 20
111.7020534659981
 30
0.0
 10
96.77049286860252
 20
111.7020534659981
 30
0.0
 10
96.77049286860252
 20
111.7020534659981
 30
0.0
 10
96.77049286860252
 20
111.7020534659981
 30
0.0
 10
96.23323022767781
 20
113.2843858223734
 30
0.0
 10
96.23323022767781
 20
113.2843858223734
 30
0.0
 10
96.0766506378732
 20
113.7498182224306
 30
0.0
 10
95.95400523859831
 20
114.1559949801416
 30
0.0
 10
95.86512177507886
 20
114.5284098020971
 30
0.0
 10
95.86512177507886
 20
114.5284098020971
 30
0.0
 10
95.85237492178344
 20
114.5284098020971
 30
0.0
 10
95.85237492178344
 20
114.5284098020971
 30
0.0
 10
95.84393443784458
 20
114.1349798976815
 30
0.0
 10
95.81861298602799
 20
113.6016791165649
 30
0.0
 10
95.78898516485484
 20
113.1066188953345
 30
0.0
 10
95.78898516485484
 20
113.1066188953345
 30
0.0
 10
95.7001017013354
 20
111.6893066127027
 30
0.0
 10
95.7001017013354
 20
111.6893066127027
 30
0.0
 10
95.7001017013354
 20
111.6893066127027
 30
0.0
 10
95.36592743926616
 20
111.6893066127027
 30
0.0
 10
95.36592743926616
 20
111.6893066127027
 30
0.0
 10
95.36592743926616
 20
111.6893066127027
 30
0.0
 10
95.59003090058167
 20
114.9132269677995
 30
0.0
 10
95.59003090058167
 20
114.9132269677995
 30
0.0
 10
95.59003090058167
 20
114.9132269677995
 30
0.0
 10
96.02170136488347
 20
114.9132269677995
 30
0.0
 10
96.02170136488347
 20
114.9132269677995
 30
0.0
 10
96.02170136488347
 20
114.9132269677995
 30
0.0
 10
96.58859182698133
 20
113.2757730836602
 30
0.0
 10
96.58859182698133
 20
113.2757730836602
 30
0.0
 10
96.72398407955164
 20
112.8740749500801
 30
0.0
 10
96.82974851094882
 20
112.5312879492977
 30
0.0
 10
96.9143256051117
 20
112.1971136872285
 30
0.0
 10
96.9143256051117
 20
112.1971136872285
 30
0.0
 10
96.92707245840712
 20
112.1971136872285
 30
0.0
 10
96.92707245840712
 20
112.1971136872285
 30
0.0
 10
97.0075154379877
 20
112.5226752105846
 30
0.0
 10
97.11741398396718
 20
112.8613280967847
 30
0.0
 10
97.26141897525062
 20
113.2757730836602
 30
0.0
 10
97.26141897525062
 20
113.2757730836602
 30
0.0
 10
97.84949677458278
 20
114.9132269677995
 30
0.0
 10
97.84949677458278
 20
114.9132269677995
 30
0.0
 10
97.84949677458278
 20
114.9132269677995
 30
0.0
 10
98.28943546804918
 20
114.9132269677995
 30
0.0
 10
98.28943546804918
 20
114.9132269677995
 30
0.0
 10
98.28943546804918
 20
114.9132269677995
 30
0.0
 10
98.49252384690465
 20
111.6893066127027
 30
0.0
 10
98.49252384690465
 20
111.6893066127027
 30
0.0
  0
HATCH
  5
CD
330
A4
100
AcDbEntity
  8
\U+30EC\U+30A4\U+30E4\U+30FC 1
 62
     7
420
 16777215
100
AcDbHatch
 10
0.0
 20
0.0
 30
0.0
210
0.0
220
0.0
230
1.0
  2
SOLID
 70
     1
 71
     0
 91
        1
 92
        1
 93
        1
 72
     4
 94
        3
 73
     0
 74
     1
 95
       71
 96
       67
 40
0.0
 40
0.0
 40
0.0
 40
0.0
 40
1.0
 40
1.0
 40
1.0
 40
2.0
 40
2.0
 40
2.0
 40
3.0
 40
3.0
 40
3.0
 40
4.0
 40
4.0
 40
4.0
 40
5.0
 40
5.0
 40
5.0
 40
6.0
 40
6.0
 40
6.0
 40
7.0
 40
7.0
 40
7.0
 40
8.0
 40
8.0
 40
8.0
 40
9.0
 40
9.0
 40
9.0
 40
10.0
 40
10.0
 40
10.0
 40
11.0
 40
11.0
 40
11.0
 40
12.0
 40
12.0
 40
12.0
 40
13.0
 40
13.0
 40
13.0
 40
14.0
 40
14.0
 40
14.0
 40
15.0
 40
15.0
 40
15.0
 40
16.0
 40
16.0
 40
16.0
 40
17.0
 40
17.0
 40
17.0
 40
18.0
 40
18.0
 40
18.0
 40
19.0
 40
19.0
 40
19.0
 40
20.0
 40
20.0
 40
20.0
 40
21.0
 40
21.0
 40
21.0
 40
22.0
 40
22.0
 40
22.0
 40
22.0
 10
98.49252384690465
 20
111.6893066127027
 10
98.49252384690465
 20
111.6893066127027
 10
98.14560273154
 20
111.6893066127027
 10
98.14560273154
 20
111.6893066127027
 10
98.14560273154
 20
111.6893066127027
 10
98.06515975195941
 20
113.1403808310899
 10
98.06515975195941
 20
113.1403808310899
 10
98.03983830014282
 20
113.6016791165649
 10
98.00607636438737
 20
114.1983696546101
 10
98.01021047896967
 20
114.5284098020971
 10
98.01021047896967
 20
114.5284098020971
 10
97.99746362567424
 20
114.5284098020971
 10
97.99746362567424
 20
114.5284098020971
 10
97.89169919427708
 20
114.1646077188547
 10
97.76061331106332
 20
113.7666991903083
 10
97.60403372125872
 20
113.3181477581288
 10
97.60403372125872
 20
113.3181477581288
 10
97.028702775222
 20
111.7020534659981
 10
97.028702775222
 20
111.7020534659981
 10
97.028702775222
 20
111.7020534659981
 10
96.77049286860252
 20
111.7020534659981
 10
96.77049286860252
 20
111.7020534659981
 10
96.77049286860252
 20
111.7020534659981
 10
96.23323022767781
 20
113.2843858223734
 10
96.23323022767781
 20
113.2843858223734
 10
96.0766506378732
 20
113.7498182224306
 10
95.95400523859831
 20
114.1559949801416
 10
95.86512177507886
 20
114.5284098020971
 10
95.86512177507886
 20
114.5284098020971
 10
95.85237492178344
 20
114.5284098020971
 10
95.85237492178344
 20
114.5284098020971
 10
95.84393443784458
 20
114.1349798976815
 10
95.81861298602799
 20
113.6016791165649
 10
95.78898516485484
 20
113.1066188953345
 10
95.78898516485484
 20
113.1066188953345
 10
95.7001017013354
 20
111.6893066127027
 10
95.7001017013354
 20
111.6893066127027
 10
95.7001017013354
 20
111.6893066127027
 10
95.36592743926616
 20
111.6893066127027
 10
95.36592743926616
 20
111.6893066127027
 10
95.36592743926616
 20
111.6893066127027
 10
95.59003090058167
 20
114.9132269677995
 10
95.59003090058167
 20
114.9132269677995
 10
95.59003090058167
 20
114.9132269677995
 10
96.02170136488347
 20
114.9132269677995
 10
96.02170136488347
 20
114.9132269677995
 10
96.02170136488347
 20
114.9132269677995
 10
96.58859182698133
 20
113.2757730836602
 10
96.58859182698133
 20
113.2757730836602
 10
96.72398407955164
 20
112.8740749500801
 10
96.82974851094882
 20
112.5312879492977
 10
96.9143256051117
 20
112.1971136872285
 10
96.9143256051117
 20
112.1971136872285
 10
96.92707245840712
 20
112.1971136872285
 10
96.92707245840712
 20
112.1971136872285
 10
97.0075154379877
 20
112.5226752105846
 10
97.11741398396718
 20
112.8613280967847
 10
97.26141897525062
 20
113.2757730836602
 10
97.26141897525062
 20
113.2757730836602
 10
97.84949677458278
 20
114.9132269677995
 10
97.84949677458278
 20
114.9132269677995
 10
97.84949677458278
 20
114.9132269677995
 10
98.28943546804918
 20
114.9132269677995
 10
98.28943546804918
 20
114.9132269677995
 10
98.28943546804918
 20
114.9132269677995
 10
98.49252384690465
 20
111.6893066127027
 10
98.49252384690465
 20
111.6893066127027
 97
        0
 75
     2
 76
     1
 98
        0
  0
SPLINE
  5
CE
330
A4
100
AcDbEntity
  8
\U+30EC\U+30A4\U+30E4\U+30FC 1
370
     0
100
AcDbSpline
210
0.0
220
0.0
230
1.0
 70
    11
 71
     3
 72
    23
 73
    19
 74
     0
 42
0.0000000001
 43
0.0000000001
 40
0.0
 40
0.0
 40
0.0
 40
0.0
 40
1.0
 40
1.0
 40
1.0
 40
2.0
 40
2.0
 40
2.0
 40
3.0
 40
3.0
 40
3.0
 40
4.0
 40
4.0
 40
4.0
 40
5.0
 40
5.0
 40
5.0
 40
6.0
 40
6.0
 40
6.0
 40
6.0
 10
99.12504337799652
 20
114.8711968028794
 30
0.0
 10
99.36189369260745
 20
114.9090928532172
 30
0.0
 10
99.63698456710465
 20
114.9387206743903
 30
0.0
 10
99.93739689341844
 20
114.9387206743903
 30
0.0
 10
101.2320637767753
 20
114.9387206743903
 30
0.0
 10
101.6043063439566
 20
114.1728759480193
 30
0.0
 10
101.6043063439566
 20
113.3815375150574
 30
0.0
 10
101.6043063439566
 20
112.8695963259493
 30
0.0
 10
101.4689140913863
 20
112.4341362566137
 30
0.0
 10
101.1643676504902
 20
112.1164984528737
 30
0.0
 10
100.8808362920541
 20
111.824698865273
 30
0.0
 10
100.4112697774145
 20
111.6638129061118
 30
0.0
 10
99.8231919780824
 20
111.6638129061118
 30
0.0
 10
99.55654158752407
 20
111.6638129061118
 30
0.0
 10
99.328131756852
 20
111.672425644825
 30
0.0
 10
99.12504337799652
 20
111.6979193514158
 30
0.0
 10
99.12504337799652
 20
111.6979193514158
 30
0.0
 10
99.12504337799652
 20
114.8711968028794
 30
0.0
 10
99.12504337799652
 20
114.8711968028794
 30
0.0
  0
SPLINE
  5
CF
330
A4
100
AcDbEntity
  8
\U+30EC\U+30A4\U+30E4\U+30FC 1
370
     0
100
AcDbSpline
210
0.0
220
0.0
230
1.0
 70
    11
 71
     3
 72
    20
 73
    16
 74
     0
 42
0.0000000001
 43
0.0000000001
 40
0.0
 40
0.0
 40
0.0
 40
0.0
 40
1.0
 40
1.0
 40
1.0
 40
2.0
 40
2.0
 40
2.0
 40
3.0
 40
3.0
 40
3.0
 40
4.0
 40
4.0
 40
4.0
 40
5.0
 40
5.0
 40
5.0
 40
5.0
 10
99.47609860794348
 20
111.9687038565564
 30
0.0
 10
99.58203529411492
 20
111.9514783791302
 30
0.0
 10
99.73430851456295
 20
111.9473442645479
 30
0.0
 10
99.88658173501099
 20
111.9473442645479
 30
0.0
 10
100.7581908927792
 20
111.9473442645479
 30
0.0
 10
101.2361978913576
 20
112.4424044857783
 30
0.0
 10
101.2361978913576
 20
113.3646565471797
 30
0.0
 10
101.2361978913576
 20
114.2025037691924
 30
0.0
 10
100.7878187139524
 20
114.6551893159543
 30
0.0
 10
99.95014374671386
 20
114.6551893159543
 30
0.0
 10
99.74688311308412
 20
114.6551893159543
 30
0.0
 10
99.58616940869722
 20
114.6341742334942
 30
0.0
 10
99.47609860794348
 20
114.6128146414857
 30
0.0
 10
99.47609860794348
 20
114.6128146414857
 30
0.0
 10
99.47609860794348
 20
111.9687038565564
 30
0.0
 10
99.47609860794348
 20
111.9687038565564
 30
0.0
  0
HATCH
  5
D0
330
A4
100
AcDbEntity
  8
\U+30EC\U+30A4\U+30E4\U+30FC 1
 62
     7
420
 16777215
100
AcDbHatch
 10
0.0
 20
0.0
 30
0.0
210
0.0
220
0.0
230
1.0
  2
SOLID
 70
     1
 71
     0
 91
        2
 92
        1
 93
        1
 72
     4
 94
        3
 73
     0
 74
     1
 95
       23
 96
       19
 40
0.0
 40
0.0
 40
0.0
 40
0.0
 40
1.0
 40
1.0
 40
1.0
 40
2.0
 40
2.0
 40
2.0
 40
3.0
 40
3.0
 40
3.0
 40
4.0
 40
4.0
 40
4.0
 40
5.0
 40
5.0
 40
5.0
 40
6.0
 40
6.0
 40
6.0
 40
6.0
 10
99.12504337799652
 20
114.8711968028794
 10
99.36189369260745
 20
114.9090928532172
 10
99.63698456710465
 20
114.9387206743903
 10
99.93739689341844
 20
114.9387206743903
 10
101.2320637767753
 20
114.9387206743903
 10
101.6043063439566
 20
114.1728759480193
 10
101.6043063439566
 20
113.3815375150574
 10
101.6043063439566
 20
112.8695963259493
 10
101.4689140913863
 20
112.4341362566137
 10
101.1643676504902
 20
112.1164984528737
 10
100.8808362920541
 20
111.824698865273
 10
100.4112697774145
 20
111.6638129061118
 10
99.8231919780824
 20
111.6638129061118
 10
99.55654158752407
 20
111.6638129061118
 10
99.328131756852
 20
111.672425644825
 10
99.12504337799652
 20
111.6979193514158
 10
99.12504337799652
 20
111.6979193514158
 10
99.12504337799652
 20
114.8711968028794
 10
99.12504337799652
 20
114.8711968028794
 97
        0
 92
        1
 93
        1
 72
     4
 94
        3
 73
     0
 74
     1
 95
       20
 96
       16
 40
0.0
 40
0.0
 40
0.0
 40
0.0
 40
1.0
 40
1.0
 40
1.0
 40
2.0
 40
2.0
 40
2.0
 40
3.0
 40
3.0
 40
3.0
 40
4.0
 40
4.0
 40
4.0
 40
5.0
 40
5.0
 40
5.0
 40
5.0
 10
99.47609860794348
 20
111.9687038565564
 10
99.58203529411492
 20
111.9514783791302
 10
99.73430851456295
 20
111.9473442645479
 10
99.88658173501099
 20
111.9473442645479
 10
100.7581908927792
 20
111.9473442645479
 10
101.2361978913576
 20
112.4424044857783
 10
101.2361978913576
 20
113.3646565471797
 10
101.2361978913576
 20
114.2025037691924
 10
100.7878187139524
 20
114.6551893159543
 10
99.95014374671386
 20
114.6551893159543
 10
99.74688311308412
 20
114.6551893159543
 10
99.58616940869722
 20
114.6341742334942
 10
99.47609860794348
 20
114.6128146414857
 10
99.47609860794348
 20
114.6128146414857
 10
99.47609860794348
 20
111.9687038565564
 10
99.47609860794348
 20
111.9687038565564
 97
        0
 75
     2
 76
     1
 98
        0
  0
POLYLINE
  5
D1
330
A4
100
AcDbEntity
  8
\U+30EC\U+30A4\U+30E4\U+30FC 1
370
     0
100
AcDb2dPolyline
 66
     1
 10
0.0
 20
0.0
 30
0.0
  0
VERTEX
  5
D2
330
D1
100
AcDbEntity
  8
\U+30EC\U+30A4\U+30E4\U+30FC 1
370
     0
100
AcDbVertex
100
AcDb2dVertex
 10
102.1391574180416
 20
111.6893066127027
 30
0.0
  0
VERTEX
  5
D3
330
D1
100
AcDbEntity
  8
\U+30EC\U+30A4\U+30E4\U+30FC 1
370
     0
100
AcDbVertex
100
AcDb2dVertex
 10
102.1391574180416
 20
114.9132269677995
 30
0.0
  0
VERTEX
  5
D4
330
D1
100
AcDbEntity
  8
\U+30EC\U+30A4\U+30E4\U+30FC 1
370
     0
100
AcDbVertex
100
AcDb2dVertex
 10
103.7638644488854
 20
114.9132269677995
 30
0.0
  0
VERTEX
  5
D5
330
D1
100
AcDbEntity
  8
\U+30EC\U+30A4\U+30E4\U+30FC 1
370
     0
100
AcDbVertex
100
AcDb2dVertex
 10
103.7638644488854
 20
114.6172932656165
 30
0.0
  0
VERTEX
  5
D6
330
D1
100
AcDbEntity
  8
\U+30EC\U+30A4\U+30E4\U+30FC 1
370
     0
100
AcDbVertex
100
AcDb2dVertex
 10
102.4902126479886
 20
114.6172932656165
 30
0.0
  0
VERTEX
  5
D7
330
D1
100
AcDbEntity
  8
\U+30EC\U+30A4\U+30E4\U+30FC 1
370
     0
100
AcDbVertex
100
AcDb2dVertex
 10
102.4902126479886
 20
113.4704209785768
 30
0.0
  0
VERTEX
  5
D8
330
D1
100
AcDbEntity
  8
\U+30EC\U+30A4\U+30E4\U+30FC 1
370
     0
100
AcDbVertex
100
AcDb2dVertex
 10
103.6622341320706
 20
113.4704209785768
 30
0.0
  0
VERTEX
  5
D9
330
D1
100
AcDbEntity
  8
\U+30EC\U+30A4\U+30E4\U+30FC 1
370
     0
100
AcDbVertex
100
AcDb2dVertex
 10
103.6622341320706
 20
113.1786213909762
 30
0.0
  0
VERTEX
  5
DA
330
D1
100
AcDbEntity
  8
\U+30EC\U+30A4\U+30E4\U+30FC 1
370
     0
100
AcDbVertex
100
AcDb2dVertex
 10
102.4902126479886
 20
113.1786213909762
 30
0.0
  0
VERTEX
  5
DB
330
D1
100
AcDbEntity
  8
\U+30EC\U+30A4\U+30E4\U+30FC 1
370
     0
100
AcDbVertex
100
AcDb2dVertex
 10
102.4902126479886
 20
111.6893066127027
 30
0.0
  0
VERTEX
  5
DC
330
D1
100
AcDbEntity
  8
\U+30EC\U+30A4\U+30E4\U+30FC 1
370
     0
100
AcDbVertex
100
AcDb2dVertex
 10
102.1391574180416
 20
111.6893066127027
 30
0.0
  0
SEQEND
  5
DD
330
D1
100
AcDbEntity
  8
\U+30EC\U+30A4\U+30E4\U+30FC 1
370
     0
  0
HATCH
  5
DE
330
A4
100
AcDbEntity
  8
\U+30EC\U+30A4\U+30E4\U+30FC 1
 62
     7
420
 16777215
100
AcDbHatch
 10
0.0
 20
0.0
 30
0.0
210
0.0
220
0.0
230
1.0
  2
SOLID
 70
     1
 71
     0
 91
        1
 92
        1
 93
       10
 72
     1
 10
102.1391574180416
 20
111.6893066127027
 11
102.1391574180416
 21
114.9132269677995
 72
     1
 10
102.1391574180416
 20
114.9132269677995
 11
103.7638644488854
 21
114.9132269677995
 72
     1
 10
103.7638644488854
 20
114.9132269677995
 11
103.7638644488854
 21
114.6172932656165
 72
     1
 10
103.7638644488854
 20
114.6172932656165
 11
102.4902126479886
 21
114.6172932656165
 72
     1
 10
102.4902126479886
 20
114.6172932656165
 11
102.4902126479886
 21
113.4704209785768
 72
     1
 10
102.4902126479886
 20
113.4704209785768
 11
103.6622341320706
 21
113.4704209785768
 72
     1
 10
103.6622341320706
 20
113.4704209785768
 11
103.6622341320706
 21
113.1786213909762
 72
     1
 10
103.6622341320706
 20
113.1786213909762
 11
102.4902126479886
 21
113.1786213909762
 72
     1
 10
102.4902126479886
 20
113.1786213909762
 11
102.4902126479886
 21
111.6893066127027
 72
     1
 10
102.4902126479886
 20
111.6893066127027
 11
102.1391574180416
 21
111.6893066127027
 97
        0
 75
     2
 76
     1
 98
        0
  0
SPLINE
  5
DF
330
A4
100
AcDbEntity
  8
\U+30EC\U+30A4\U+30E4\U+30FC 1
370
     0
100
AcDbSpline
210
0.0
220
0.0
230
1.0
 70
    11
 71
     3
 72
    17
 73
    13
 74
     0
 42
0.0000000001
 43
0.0000000001
 40
0.0
 40
0.0
 40
0.0
 40
0.0
 40
1.0
 40
1.0
 40
1.0
 40
2.0
 40
2.0
 40
2.0
 40
3.0
 40
3.0
 40
3.0
 40
4.0
 40
4.0
 40
4.0
 40
4.0
 10
104.2305026323625
 20
113.6354410523203
 30
0.0
 10
104.2305026323625
 20
113.7921928968992
 30
0.0
 10
104.3319606944031
 20
113.9062255574609
 30
0.0
 10
104.4800998002689
 20
113.9062255574609
 30
0.0
 10
104.6323730207169
 20
113.9062255574609
 30
0.0
 10
104.7296969681752
 20
113.7921928968992
 30
0.0
 10
104.7296969681752
 20
113.6354410523203
 30
0.0
 10
104.7296969681752
 20
113.4831678318723
 30
0.0
 10
104.6323730207169
 20
113.3646565471797
 30
0.0
 10
104.4800998002689
 20
113.3646565471797
 30
0.0
 10
104.319386095882
 20
113.3646565471797
 30
0.0
 10
104.2305026323625
 20
113.4959146851677
 30
0.0
 10
104.2305026323625
 20
113.6354410523203
 30
0.0
  0
SPLINE
  5
E0
330
A4
100
AcDbEntity
  8
\U+30EC\U+30A4\U+30E4\U+30FC 1
370
     0
100
AcDbSpline
210
0.0
220
0.0
230
1.0
 70
    11
 71
     3
 72
    17
 73
    13
 74
     0
 42
0.0000000001
 43
0.0000000001
 40
0.0
 40
0.0
 40
0.0
 40
0.0
 40
1.0
 40
1.0
 40
1.0
 40
2.0
 40
2.0
 40
2.0
 40
3.0
 40
3.0
 40
3.0
 40
4.0
 40
4.0
 40
4.0
 40
4.0
 10
104.2305026323625
 20
111.9049695900793
 30
0.0
 10
104.2305026323625
 20
112.0617214346582
 30
0.0
 10
104.3319606944031
 20
112.17575409522
 30
0.0
 10
104.4800998002689
 20
112.17575409522
 30
0.0
 10
104.6323730207169
 20
112.17575409522
 30
0.0
 10
104.7296969681752
 20
112.0617214346582
 30
0.0
 10
104.7296969681752
 20
111.9049695900793
 30
0.0
 10
104.7296969681752
 20
111.7568304842136
 30
0.0
 10
104.6323730207169
 20
111.6386637090695
 30
0.0
 10
104.4800998002689
 20
111.6386637090695
 30
0.0
 10
104.319386095882
 20
111.6386637090695
 30
0.0
 10
104.2305026323625
 20
111.7654432229267
 30
0.0
 10
104.2305026323625
 20
111.9049695900793
 30
0.0
  0
HATCH
  5
E1
330
A4
100
AcDbEntity
  8
\U+30EC\U+30A4\U+30E4\U+30FC 1
 62
     7
420
 16777215
100
AcDbHatch
 10
0.0
 20
0.0
 30
0.0
210
0.0
220
0.0
230
1.0
  2
SOLID
 70
     1
 71
     0
 91
        2
 92
        1
 93
        1
 72
     4
 94
        3
 73
     0
 74
     1
 95
       17
 96
       13
 40
0.0
 40
0.0
 40
0.0
 40
0.0
 40
1.0
 40
1.0
 40
1.0
 40
2.0
 40
2.0
 40
2.0
 40
3.0
 40
3.0
 40
3.0
 40
4.0
 40
4.0
 40
4.0
 40
4.0
 10
104.2305026323625
 20
113.6354410523203
 10
104.2305026323625
 20
113.7921928968992
 10
104.3319606944031
 20
113.9062255574609
 10
104.4800998002689
 20
113.9062255574609
 10
104.6323730207169
 20
113.9062255574609
 10
104.7296969681752
 20
113.7921928968992
 10
104.7296969681752
 20
113.6354410523203
 10
104.7296969681752
 20
113.4831678318723
 10
104.6323730207169
 20
113.3646565471797
 10
104.4800998002689
 20
113.3646565471797
 10
104.319386095882
 20
113.3646565471797
 10
104.2305026323625
 20
113.4959146851677
 10
104.2305026323625
 20
113.6354410523203
 97
        0
 92
        1
 93
        1
 72
     4
 94
        3
 73
     0
 74
     1
 95
       17
 96
       13
 40
0.0
 40
0.0
 40
0.0
 40
0.0
 40
1.0
 40
1.0
 40
1.0
 40
2.0
 40
2.0
 40
2.0
 40
3.0
 40
3.0
 40
3.0
 40
4.0
 40
4.0
 40
4.0
 40
4.0
 10
104.2305026323625
 20
111.9049695900793
 10
104.2305026323625
 20
112.0617214346582
 10
104.3319606944031
 20
112.17575409522
 10
104.4800998002689
 20
112.17575409522
 10
104.6323730207169
 20
112.17575409522
 10
104.7296969681752
 20
112.0617214346582
 10
104.7296969681752
 20
111.9049695900793
 10
104.7296969681752
 20
111.7568304842136
 10
104.6323730207169
 20
111.6386637090695
 10
104.4800998002689
 20
111.6386637090695
 10
104.319386095882
 20
111.6386637090695
 10
104.2305026323625
 20
111.7654432229267
 10
104.2305026323625
 20
111.9049695900793
 97
        0
 75
     2
 76
     1
 98
        0
  0
SPLINE
  5
E2
330
A4
100
AcDbEntity
  8
\U+30EC\U+30A4\U+30E4\U+30FC 1
370
     0
100
AcDbSpline
210
0.0
220
0.0
230
1.0
 70
    11
 71
     3
 72
    47
 73
    43
 74
     0
 42
0.0000000001
 43
0.0000000001
 40
0.0
 40
0.0
 40
0.0
 40
0.0
 40
1.0
 40
1.0
 40
1.0
 40
2.0
 40
2.0
 40
2.0
 40
3.0
 40
3.0
 40
3.0
 40
4.0
 40
4.0
 40
4.0
 40
5.0
 40
5.0
 40
5.0
 40
6.0
 40
6.0
 40
6.0
 40
7.0
 40
7.0
 40
7.0
 40
8.0
 40
8.0
 40
8.0
 40
9.0
 40
9.0
 40
9.0
 40
10.0
 40
10.0
 40
10.0
 40
11.0
 40
11.0
 40
11.0
 40
12.0
 40
12.0
 40
12.0
 40
13.0
 40
13.0
 40
13.0
 40
14.0
 40
14.0
 40
14.0
 40
14.0
 10
107.853192789877
 20
114.858449949584
 30
0.0
 10
107.853192789877
 20
114.858449949584
 30
0.0
 10
107.853192789877
 20
114.5663058524348
 30
0.0
 10
107.853192789877
 20
114.5663058524348
 30
0.0
 10
107.853192789877
 20
114.5663058524348
 30
0.0
 10
106.7149332415504
 20
114.5663058524348
 30
0.0
 10
106.7149332415504
 20
114.5663058524348
 30
0.0
 10
106.7149332415504
 20
114.5663058524348
 30
0.0
 10
106.5838473583367
 20
113.6695474976243
 30
0.0
 10
106.5838473583367
 20
113.6695474976243
 30
0.0
 10
106.6515434846218
 20
113.6778157267889
 30
0.0
 10
106.719239610907
 20
113.686428465502
 30
0.0
 10
106.8291381568865
 20
113.686428465502
 30
0.0
 10
107.391894504402
 20
113.686428465502
 30
0.0
 10
107.8953952095713
 20
113.3522542034328
 30
0.0
 10
107.8953952095713
 20
112.7131889909189
 30
0.0
 10
107.8953952095713
 20
112.0868706317005
 30
0.0
 10
107.429962809514
 20
111.6386637090695
 30
0.0
 10
106.8038167050699
 20
111.6386637090695
 30
0.0
 10
106.4865234108784
 20
111.6386637090695
 30
0.0
 10
106.21987302032
 20
111.7316812871713
 30
0.0
 10
106.0760402838109
 20
111.824698865273
 30
0.0
 10
106.0760402838109
 20
111.824698865273
 30
0.0
 10
106.1776706006257
 20
112.0996174849959
 30
0.0
 10
106.1776706006257
 20
112.0996174849959
 30
0.0
 10
106.2961818853183
 20
112.0193467601896
 30
0.0
 10
106.528898085347
 20
111.921850557957
 30
0.0
 10
106.8038167050699
 20
111.921850557957
 30
0.0
 10
107.201552978842
 20
111.921850557957
 30
0.0
 10
107.5441677248501
 20
112.2139946551062
 30
0.0
 10
107.5400336102678
 20
112.6708143164504
 30
0.0
 10
107.5400336102678
 20
113.1066188953345
 30
0.0
 10
107.2608086211883
 20
113.4111653362306
 30
0.0
 10
106.6684244524996
 20
113.4111653362306
 30
0.0
 10
106.4992702641738
 20
113.4111653362306
 30
0.0
 10
106.3680121261858
 20
113.3987629924837
 30
0.0
 10
106.2622476947886
 20
113.3815375150574
 30
0.0
 10
106.2622476947886
 20
113.3815375150574
 30
0.0
 10
106.4610297042875
 20
114.858449949584
 30
0.0
 10
106.4610297042875
 20
114.858449949584
 30
0.0
 10
106.4610297042875
 20
114.858449949584
 30
0.0
 10
107.853192789877
 20
114.858449949584
 30
0.0
 10
107.853192789877
 20
114.858449949584
 30
0.0
  0
HATCH
  5
E3
330
A4
100
AcDbEntity
  8
\U+30EC\U+30A4\U+30E4\U+30FC 1
 62
     7
420
 16777215
100
AcDbHatch
 10
0.0
 20
0.0
 30
0.0
210
0.0
220
0.0
230
1.0
  2
SOLID
 70
     1
 71
     0
 91
        1
 92
        1
 93
        1
 72
     4
 94
        3
 73
     0
 74
     1
 95
       47
 96
       43
 40
0.0
 40
0.0
 40
0.0
 40
0.0
 40
1.0
 40
1.0
 40
1.0
 40
2.0
 40
2.0
 40
2.0
 40
3.0
 40
3.0
 40
3.0
 40
4.0
 40
4.0
 40
4.0
 40
5.0
 40
5.0
 40
5.0
 40
6.0
 40
6.0
 40
6.0
 40
7.0
 40
7.0
 40
7.0
 40
8.0
 40
8.0
 40
8.0
 40
9.0
 40
9.0
 40
9.0
 40
10.0
 40
10.0
 40
10.0
 40
11.0
 40
11.0
 40
11.0
 40
12.0
 40
12.0
 40
12.0
 40
13.0
 40
13.0
 40
13.0
 40
14.0
 40
14.0
 40
14.0
 40
14.0
 10
107.853192789877
 20
114.858449949584
 10
107.853192789877
 20
114.858449949584
 10
107.853192789877
 20
114.5663058524348
 10
107.853192789877
 20
114.5663058524348
 10
107.853192789877
 20
114.5663058524348
 10
106.7149332415504
 20
114.5663058524348
 10
106.7149332415504
 20
114.5663058524348
 10
106.7149332415504
 20
114.5663058524348
 10
106.5838473583367
 20
113.6695474976243
 10
106.5838473583367
 20
113.6695474976243
 10
106.6515434846218
 20
113.6778157267889
 10
106.719239610907
 20
113.686428465502
 10
106.8291381568865
 20
113.686428465502
 10
107.391894504402
 20
113.686428465502
 10
107.8953952095713
 20
113.3522542034328
 10
107.8953952095713
 20
112.7131889909189
 10
107.8953952095713
 20
112.0868706317005
 10
107.429962809514
 20
111.6386637090695
 10
106.8038167050699
 20
111.6386637090695
 10
106.4865234108784
 20
111.6386637090695
 10
106.21987302032
 20
111.7316812871713
 10
106.0760402838109
 20
111.824698865273
 10
106.0760402838109
 20
111.824698865273
 10
106.1776706006257
 20
112.0996174849959
 10
106.1776706006257
 20
112.0996174849959
 10
106.2961818853183
 20
112.0193467601896
 10
106.528898085347
 20
111.921850557957
 10
106.8038167050699
 20
111.921850557957
 10
107.201552978842
 20
111.921850557957
 10
107.5441677248501
 20
112.2139946551062
 10
107.5400336102678
 20
112.6708143164504
 10
107.5400336102678
 20
113.1066188953345
 10
107.2608086211883
 20
113.4111653362306
 10
106.6684244524996
 20
113.4111653362306
 10
106.4992702641738
 20
113.4111653362306
 10
106.3680121261858
 20
113.3987629924837
 10
106.2622476947886
 20
113.3815375150574
 10
106.2622476947886
 20
113.3815375150574
 10
106.4610297042875
 20
114.858449949584
 10
106.4610297042875
 20
114.858449949584
 10
106.4610297042875
 20
114.858449949584
 10
107.853192789877
 20
114.858449949584
 10
107.853192789877
 20
114.858449949584
 97
        0
 75
     2
 76
     1
 98
        0
  0
SPLINE
  5
E4
330
A4
100
AcDbEntity
  8
\U+30EC\U+30A4\U+30E4\U+30FC 1
370
     0
100
AcDbSpline
210
0.0
220
0.0
230
1.0
 70
    11
 71
     3
 72
    17
 73
    13
 74
     0
 42
0.0000000001
 43
0.0000000001
 40
0.0
 40
0.0
 40
0.0
 40
0.0
 40
1.0
 40
1.0
 40
1.0
 40
2.0
 40
2.0
 40
2.0
 40
3.0
 40
3.0
 40
3.0
 40
4.0
 40
4.0
 40
4.0
 40
4.0
 10
108.4677978244456
 20
111.9049695900793
 30
0.0
 10
108.4677978244456
 20
112.0658555492405
 30
0.0
 10
108.5735622558427
 20
112.1802327193508
 30
0.0
 10
108.7217013617085
 20
112.1802327193508
 30
0.0
 10
108.8698404675742
 20
112.1802327193508
 30
0.0
 10
108.9712985296148
 20
112.0658555492405
 30
0.0
 10
108.9712985296148
 20
111.9049695900793
 30
0.0
 10
108.9712985296148
 20
111.7526963696313
 30
0.0
 10
108.8739745821565
 20
111.6386637090695
 30
0.0
 10
108.7173949923519
 20
111.6386637090695
 30
0.0
 10
108.556681287965
 20
111.6386637090695
 30
0.0
 10
108.4677978244456
 20
111.7654432229267
 30
0.0
 10
108.4677978244456
 20
111.9049695900793
 30
0.0
  0
HATCH
  5
E5
330
A4
100
AcDbEntity
  8
\U+30EC\U+30A4\U+30E4\U+30FC 1
 62
     7
420
 16777215
100
AcDbHatch
 10
0.0
 20
0.0
 30
0.0
210
0.0
220
0.0
230
1.0
  2
SOLID
 70
     1
 71
     0
 91
        1
 92
        1
 93
        1
 72
     4
 94
        3
 73
     0
 74
     1
 95
       17
 96
       13
 40
0.0
 40
0.0
 40
0.0
 40
0.0
 40
1.0
 40
1.0
 40
1.0
 40
2.0
 40
2.0
 40
2.0
 40
3.0
 40
3.0
 40
3.0
 40
4.0
 40
4.0
 40
4.0
 40
4.0
 10
108.4677978244456
 20
111.9049695900793
 10
108.4677978244456
 20
112.0658555492405
 10
108.5735622558427
 20
112.1802327193508
 10
108.7217013617085
 20
112.1802327193508
 10
108.8698404675742
 20
112.1802327193508
 10
108.9712985296148
 20
112.0658555492405
 10
108.9712985296148
 20
111.9049695900793
 10
108.9712985296148
 20
111.7526963696313
 10
108.8739745821565
 20
111.6386637090695
 10
108.7173949923519
 20
111.6386637090695
 10
108.556681287965
 20
111.6386637090695
 10
108.4677978244456
 20
111.7654432229267
 10
108.4677978244456
 20
111.9049695900793
 97
        0
 75
     2
 76
     1
 98
        0
  0
SPLINE
  5
E6
330
A4
100
AcDbEntity
  8
\U+30EC\U+30A4\U+30E4\U+30FC 1
370
     0
100
AcDbSpline
210
0.0
220
0.0
230
1.0
 70
    11
 71
     3
 72
    47
 73
    43
 74
     0
 42
0.0000000001
 43
0.0000000001
 40
0.0
 40
0.0
 40
0.0
 40
0.0
 40
1.0
 40
1.0
 40
1.0
 40
2.0
 40
2.0
 40
2.0
 40
3.0
 40
3.0
 40
3.0
 40
4.0
 40
4.0
 40
4.0
 40
5.0
 40
5.0
 40
5.0
 40
6.0
 40
6.0
 40
6.0
 40
7.0
 40
7.0
 40
7.0
 40
8.0
 40
8.0
 40
8.0
 40
9.0
 40
9.0
 40
9.0
 40
10.0
 40
10.0
 40
10.0
 40
11.0
 40
11.0
 40
11.0
 40
12.0
 40
12.0
 40
12.0
 40
13.0
 40
13.0
 40
13.0
 40
14.0
 40
14.0
 40
14.0
 40
14.0
 10
111.1084635138896
 20
114.858449949584
 30
0.0
 10
111.1084635138896
 20
114.858449949584
 30
0.0
 10
111.1084635138896
 20
114.5663058524348
 30
0.0
 10
111.1084635138896
 20
114.5663058524348
 30
0.0
 10
111.1084635138896
 20
114.5663058524348
 30
0.0
 10
109.970203965563
 20
114.5663058524348
 30
0.0
 10
109.970203965563
 20
114.5663058524348
 30
0.0
 10
109.970203965563
 20
114.5663058524348
 30
0.0
 10
109.8391180823493
 20
113.6695474976243
 30
0.0
 10
109.8391180823493
 20
113.6695474976243
 30
0.0
 10
109.9068142086344
 20
113.6778157267889
 30
0.0
 10
109.9745103349196
 20
113.686428465502
 30
0.0
 10
110.084408880899
 20
113.686428465502
 30
0.0
 10
110.6471652284146
 20
113.686428465502
 30
0.0
 10
111.1506659335839
 20
113.3522542034328
 30
0.0
 10
111.1506659335839
 20
112.7131889909189
 30
0.0
 10
111.1506659335839
 20
112.0868706317005
 30
0.0
 10
110.6852335335266
 20
111.6386637090695
 30
0.0
 10
110.0590874290825
 20
111.6386637090695
 30
0.0
 10
109.741794134891
 20
111.6386637090695
 30
0.0
 10
109.4751437443326
 20
111.7316812871713
 30
0.0
 10
109.3313110078234
 20
111.824698865273
 30
0.0
 10
109.3313110078234
 20
111.824698865273
 30
0.0
 10
109.4329413246383
 20
112.0996174849959
 30
0.0
 10
109.4329413246383
 20
112.0996174849959
 30
0.0
 10
109.5514526093309
 20
112.0193467601896
 30
0.0
 10
109.7841688093595
 20
111.921850557957
 30
0.0
 10
110.0590874290825
 20
111.921850557957
 30
0.0
 10
110.4568237028545
 20
111.921850557957
 30
0.0
 10
110.7994384488626
 20
112.2139946551062
 30
0.0
 10
110.7953043342803
 20
112.6708143164504
 30
0.0
 10
110.7953043342803
 20
113.1066188953345
 30
0.0
 10
110.5160793452009
 20
113.4111653362306
 30
0.0
 10
109.9236951765121
 20
113.4111653362306
 30
0.0
 10
109.7545409881864
 20
113.4111653362306
 30
0.0
 10
109.6232828501984
 20
113.3987629924837
 30
0.0
 10
109.5175184188012
 20
113.3815375150574
 30
0.0
 10
109.5175184188012
 20
113.3815375150574
 30
0.0
 10
109.7163004283001
 20
114.858449949584
 30
0.0
 10
109.7163004283001
 20
114.858449949584
 30
0.0
 10
109.7163004283001
 20
114.858449949584
 30
0.0
 10
111.1084635138896
 20
114.858449949584
 30
0.0
 10
111.1084635138896
 20
114.858449949584
 30
0.0
  0
HATCH
  5
E7
330
A4
100
AcDbEntity
  8
\U+30EC\U+30A4\U+30E4\U+30FC 1
 62
     7
420
 16777215
100
AcDbHatch
 10
0.0
 20
0.0
 30
0.0
210
0.0
220
0.0
230
1.0
  2
SOLID
 70
     1
 71
     0
 91
        1
 92
        1
 93
        1
 72
     4
 94
        3
 73
     0
 74
     1
 95
       47
 96
       43
 40
0.0
 40
0.0
 40
0.0
 40
0.0
 40
1.0
 40
1.0
 40
1.0
 40
2.0
 40
2.0
 40
2.0
 40
3.0
 40
3.0
 40
3.0
 40
4.0
 40
4.0
 40
4.0
 40
5.0
 40
5.0
 40
5.0
 40
6.0
 40
6.0
 40
6.0
 40
7.0
 40
7.0
 40
7.0
 40
8.0
 40
8.0
 40
8.0
 40
9.0
 40
9.0
 40
9.0
 40
10.0
 40
10.0
 40
10.0
 40
11.0
 40
11.0
 40
11.0
 40
12.0
 40
12.0
 40
12.0
 40
13.0
 40
13.0
 40
13.0
 40
14.0
 40
14.0
 40
14.0
 40
14.0
 10
111.1084635138896
 20
114.858449949584
 10
111.1084635138896
 20
114.858449949584
 10
111.1084635138896
 20
114.5663058524348
 10
111.1084635138896
 20
114.5663058524348
 10
111.1084635138896
 20
114.5663058524348
 10
109.970203965563
 20
114.5663058524348
 10
109.970203965563
 20
114.5663058524348
 10
109.970203965563
 20
114.5663058524348
 10
109.8391180823493
 20
113.6695474976243
 10
109.8391180823493
 20
113.6695474976243
 10
109.9068142086344
 20
113.6778157267889
 10
109.9745103349196
 20
113.686428465502
 10
110.084408880899
 20
113.686428465502
 10
110.6471652284146
 20
113.686428465502
 10
111.1506659335839
 20
113.3522542034328
 10
111.1506659335839
 20
112.7131889909189
 10
111.1506659335839
 20
112.0868706317005
 10
110.6852335335266
 20
111.6386637090695
 10
110.0590874290825
 20
111.6386637090695
 10
109.741794134891
 20
111.6386637090695
 10
109.4751437443326
 20
111.7316812871713
 10
109.3313110078234
 20
111.824698865273
 10
109.3313110078234
 20
111.824698865273
 10
109.4329413246383
 20
112.0996174849959
 10
109.4329413246383
 20
112.0996174849959
 10
109.5514526093309
 20
112.0193467601896
 10
109.7841688093595
 20
111.921850557957
 10
110.0590874290825
 20
111.921850557957
 10
110.4568237028545
 20
111.921850557957
 10
110.7994384488626
 20
112.2139946551062
 10
110.7953043342803
 20
112.6708143164504
 10
110.7953043342803
 20
113.1066188953345
 10
110.5160793452009
 20
113.4111653362306
 10
109.9236951765121
 20
113.4111653362306
 10
109.7545409881864
 20
113.4111653362306
 10
109.6232828501984
 20
113.3987629924837
 10
109.5175184188012
 20
113.3815375150574
 10
109.5175184188012
 20
113.3815375150574
 10
109.7163004283001
 20
114.858449949584
 10
109.7163004283001
 20
114.858449949584
 10
109.7163004283001
 20
114.858449949584
 10
111.1084635138896
 20
114.858449949584
 10
111.1084635138896
 20
114.858449949584
 97
        0
 75
     2
 76
     1
 98
        0
  0
SPLINE
  5
E8
330
A4
100
AcDbEntity
  8
\U+30EC\U+30A4\U+30E4\U+30FC 1
370
     0
100
AcDbSpline
210
0.0
220
0.0
230
1.0
 70
    11
 71
     3
 72
    71
 73
    67
 74
     0
 42
0.0000000001
 43
0.0000000001
 40
0.0
 40
0.0
 40
0.0
 40
0.0
 40
1.0
 40
1.0
 40
1.0
 40
2.0
 40
2.0
 40
2.0
 40
3.0
 40
3.0
 40
3.0
 40
4.0
 40
4.0
 40
4.0
 40
5.0
 40
5.0
 40
5.0
 40
6.0
 40
6.0
 40
6.0
 40
7.0
 40
7.0
 40
7.0
 40
8.0
 40
8.0
 40
8.0
 40
9.0
 40
9.0
 40
9.0
 40
10.0
 40
10.0
 40
10.0
 40
11.0
 40
11.0
 40
11.0
 40
12.0
 40
12.0
 40
12.0
 40
13.0
 40
13.0
 40
13.0
 40
14.0
 40
14.0
 40
14.0
 40
15.0
 40
15.0
 40
15.0
 40
16.0
 40
16.0
 40
16.0
 40
17.0
 40
17.0
 40
17.0
 40
18.0
 40
18.0
 40
18.0
 40
19.0
 40
19.0
 40
19.0
 40
20.0
 40
20.0
 40
20.0
 40
21.0
 40
21.0
 40
21.0
 40
22.0
 40
22.0
 40
22.0
 40
22.0
 10
114.9600802663989
 20
111.6893066127027
 30
0.0
 10
114.9600802663989
 20
111.6893066127027
 30
0.0
 10
114.61298689626
 20
111.6893066127027
 30
0.0
 10
114.61298689626
 20
111.6893066127027
 30
0.0
 10
114.61298689626
 20
111.6893066127027
 30
0.0
 10
114.61298689626
 20
113.0222140559458
 30
0.0
 10
114.61298689626
 20
113.0222140559458
 30
0.0
 10
114.61298689626
 20
113.4704209785768
 30
0.0
 10
114.452273191873
 20
113.7584309611437
 30
0.0
 10
114.1053520765084
 20
113.7584309611437
 30
0.0
 10
113.8218207180723
 20
113.7584309611437
 30
0.0
 10
113.5637830662271
 20
113.4917805705854
 30
0.0
 10
113.5637830662271
 20
113.1403808310899
 30
0.0
 10
113.5637830662271
 20
113.1403808310899
 30
0.0
 10
113.5637830662271
 20
111.6893066127027
 30
0.0
 10
113.5637830662271
 20
111.6893066127027
 30
0.0
 10
113.5637830662271
 20
111.6893066127027
 30
0.0
 10
113.2168619508625
 20
111.6893066127027
 30
0.0
 10
113.2168619508625
 20
111.6893066127027
 30
0.0
 10
113.2168619508625
 20
111.6893066127027
 30
0.0
 10
113.2168619508625
 20
113.1107530099168
 30
0.0
 10
113.2168619508625
 20
113.1107530099168
 30
0.0
 10
113.2168619508625
 20
113.47903371729
 30
0.0
 10
113.0602823610579
 20
113.7584309611437
 30
0.0
 10
112.7345485829275
 20
113.7584309611437
 30
0.0
 10
112.4341362566137
 20
113.7584309611437
 30
0.0
 10
112.1674858660554
 20
113.4621527494122
 30
0.0
 10
112.1674858660554
 20
113.1024847807522
 30
0.0
 10
112.1674858660554
 20
113.1024847807522
 30
0.0
 10
112.1674858660554
 20
111.6893066127027
 30
0.0
 10
112.1674858660554
 20
111.6893066127027
 30
0.0
 10
112.1674858660554
 20
111.6893066127027
 30
0.0
 10
111.8205647506907
 20
111.6893066127027
 30
0.0
 10
111.8205647506907
 20
111.6893066127027
 30
0.0
 10
111.8205647506907
 20
111.6893066127027
 30
0.0
 10
111.8205647506907
 20
113.402897107066
 30
0.0
 10
111.8205647506907
 20
113.402897107066
 30
0.0
 10
111.8205647506907
 20
113.6399196764511
 30
0.0
 10
111.8121242667518
 20
113.8090738647769
 30
0.0
 10
111.803683782813
 20
113.9995876451112
 30
0.0
 10
111.803683782813
 20
113.9995876451112
 30
0.0
 10
112.1125365930656
 20
113.9995876451112
 30
0.0
 10
112.1125365930656
 20
113.9995876451112
 30
0.0
 10
112.1125365930656
 20
113.9995876451112
 30
0.0
 10
112.1337239302999
 20
113.6271728231557
 30
0.0
 10
112.1337239302999
 20
113.6271728231557
 30
0.0
 10
112.1337239302999
 20
113.6271728231557
 30
0.0
 10
112.1462985288211
 20
113.6271728231557
 30
0.0
 10
112.1462985288211
 20
113.6271728231557
 30
0.0
 10
112.2732502974525
 20
113.8514485392455
 30
0.0
 10
112.4847791602469
 20
114.0502305487444
 30
0.0
 10
112.8487534982635
 20
114.0502305487444
 30
0.0
 10
113.1491658245773
 20
114.0502305487444
 30
0.0
 10
113.3818820246059
 20
113.8641953925409
 30
0.0
 10
113.4792059720642
 20
113.5889322632694
 30
0.0
 10
113.4792059720642
 20
113.5889322632694
 30
0.0
 10
113.4876464560031
 20
113.5889322632694
 30
0.0
 10
113.4876464560031
 20
113.5889322632694
 30
0.0
 10
113.6399196764511
 20
113.8641953925409
 30
0.0
 10
113.8726358764798
 20
114.0502305487444
 30
0.0
 10
114.2279974757833
 20
114.0502305487444
 30
0.0
 10
114.5115288342193
 20
114.0502305487444
 30
0.0
 10
114.9600802663989
 20
113.8683295071232
 30
0.0
 10
114.9600802663989
 20
113.0769910741613
 30
0.0
 10
114.9600802663989
 20
113.0769910741613
 30
0.0
 10
114.9600802663989
 20
111.6893066127027
 30
0.0
 10
114.9600802663989
 20
111.6893066127027
 30
0.0
  0
HATCH
  5
E9
330
A4
100
AcDbEntity
  8
\U+30EC\U+30A4\U+30E4\U+30FC 1
 62
     7
420
 16777215
100
AcDbHatch
 10
0.0
 20
0.0
 30
0.0
210
0.0
220
0.0
230
1.0
  2
SOLID
 70
     1
 71
     0
 91
        1
 92
        1
 93
        1
 72
     4
 94
        3
 73
     0
 74
     1
 95
       71
 96
       67
 40
0.0
 40
0.0
 40
0.0
 40
0.0
 40
1.0
 40
1.0
 40
1.0
 40
2.0
 40
2.0
 40
2.0
 40
3.0
 40
3.0
 40
3.0
 40
4.0
 40
4.0
 40
4.0
 40
5.0
 40
5.0
 40
5.0
 40
6.0
 40
6.0
 40
6.0
 40
7.0
 40
7.0
 40
7.0
 40
8.0
 40
8.0
 40
8.0
 40
9.0
 40
9.0
 40
9.0
 40
10.0
 40
10.0
 40
10.0
 40
11.0
 40
11.0
 40
11.0
 40
12.0
 40
12.0
 40
12.0
 40
13.0
 40
13.0
 40
13.0
 40
14.0
 40
14.0
 40
14.0
 40
15.0
 40
15.0
 40
15.0
 40
16.0
 40
16.0
 40
16.0
 40
17.0
 40
17.0
 40
17.0
 40
18.0
 40
18.0
 40
18.0
 40
19.0
 40
19.0
 40
19.0
 40
20.0
 40
20.0
 40
20.0
 40
21.0
 40
21.0
 40
21.0
 40
22.0
 40
22.0
 40
22.0
 40
22.0
 10
114.9600802663989
 20
111.6893066127027
 10
114.9600802663989
 20
111.6893066127027
 10
114.61298689626
 20
111.6893066127027
 10
114.61298689626
 20
111.6893066127027
 10
114.61298689626
 20
111.6893066127027
 10
114.61298689626
 20
113.0222140559458
 10
114.61298689626
 20
113.0222140559458
 10
114.61298689626
 20
113.4704209785768
 10
114.452273191873
 20
113.7584309611437
 10
114.1053520765084
 20
113.7584309611437
 10
113.8218207180723
 20
113.7584309611437
 10
113.5637830662271
 20
113.4917805705854
 10
113.5637830662271
 20
113.1403808310899
 10
113.5637830662271
 20
113.1403808310899
 10
113.5637830662271
 20
111.6893066127027
 10
113.5637830662271
 20
111.6893066127027
 10
113.5637830662271
 20
111.6893066127027
 10
113.2168619508625
 20
111.6893066127027
 10
113.2168619508625
 20
111.6893066127027
 10
113.2168619508625
 20
111.6893066127027
 10
113.2168619508625
 20
113.1107530099168
 10
113.2168619508625
 20
113.1107530099168
 10
113.2168619508625
 20
113.47903371729
 10
113.0602823610579
 20
113.7584309611437
 10
112.7345485829275
 20
113.7584309611437
 10
112.4341362566137
 20
113.7584309611437
 10
112.1674858660554
 20
113.4621527494122
 10
112.1674858660554
 20
113.1024847807522
 10
112.1674858660554
 20
113.1024847807522
 10
112.1674858660554
 20
111.6893066127027
 10
112.1674858660554
 20
111.6893066127027
 10
112.1674858660554
 20
111.6893066127027
 10
111.8205647506907
 20
111.6893066127027
 10
111.8205647506907
 20
111.6893066127027
 10
111.8205647506907
 20
111.6893066127027
 10
111.8205647506907
 20
113.402897107066
 10
111.8205647506907
 20
113.402897107066
 10
111.8205647506907
 20
113.6399196764511
 10
111.8121242667518
 20
113.8090738647769
 10
111.803683782813
 20
113.9995876451112
 10
111.803683782813
 20
113.9995876451112
 10
112.1125365930656
 20
113.9995876451112
 10
112.1125365930656
 20
113.9995876451112
 10
112.1125365930656
 20
113.9995876451112
 10
112.1337239302999
 20
113.6271728231557
 10
112.1337239302999
 20
113.6271728231557
 10
112.1337239302999
 20
113.6271728231557
 10
112.1462985288211
 20
113.6271728231557
 10
112.1462985288211
 20
113.6271728231557
 10
112.2732502974525
 20
113.8514485392455
 10
112.4847791602469
 20
114.0502305487444
 10
112.8487534982635
 20
114.0502305487444
 10
113.1491658245773
 20
114.0502305487444
 10
113.3818820246059
 20
113.8641953925409
 10
113.4792059720642
 20
113.5889322632694
 10
113.4792059720642
 20
113.5889322632694
 10
113.4876464560031
 20
113.5889322632694
 10
113.4876464560031
 20
113.5889322632694
 10
113.6399196764511
 20
113.8641953925409
 10
113.8726358764798
 20
114.0502305487444
 10
114.2279974757833
 20
114.0502305487444
 10
114.5115288342193
 20
114.0502305487444
 10
114.9600802663989
 20
113.8683295071232
 10
114.9600802663989
 20
113.0769910741613
 10
114.9600802663989
 20
113.0769910741613
 10
114.9600802663989
 20
111.6893066127027
 10
114.9600802663989
 20
111.6893066127027
 97
        0
 75
     2
 76
     1
 98
        0
  0
SPLINE
  5
EA
330
A4
100
AcDbEntity
  8
\U+30EC\U+30A4\U+30E4\U+30FC 1
370
     0
100
AcDbSpline
210
0.0
220
0.0
230
1.0
 70
    11
 71
     3
 72
    71
 73
    67
 74
     0
 42
0.0000000001
 43
0.0000000001
 40
0.0
 40
0.0
 40
0.0
 40
0.0
 40
1.0
 40
1.0
 40
1.0
 40
2.0
 40
2.0
 40
2.0
 40
3.0
 40
3.0
 40
3.0
 40
4.0
 40
4.0
 40
4.0
 40
5.0
 40
5.0
 40
5.0
 40
6.0
 40
6.0
 40
6.0
 40
7.0
 40
7.0
 40
7.0
 40
8.0
 40
8.0
 40
8.0
 40
9.0
 40
9.0
 40
9.0
 40
10.0
 40
10.0
 40
10.0
 40
11.0
 40
11.0
 40
11.0
 40
12.0
 40
12.0
 40
12.0
 40
13.0
 40
13.0
 40
13.0
 40
14.0
 40
14.0
 40
14.0
 40
15.0
 40
15.0
 40
15.0
 40
16.0
 40
16.0
 40
16.0
 40
17.0
 40
17.0
 40
17.0
 40
18.0
 40
18.0
 40
18.0
 40
19.0
 40
19.0
 40
19.0
 40
20.0
 40
20.0
 40
20.0
 40
21.0
 40
21.0
 40
21.0
 40
22.0
 40
22.0
 40
22.0
 40
22.0
 10
118.7827582168321
 20
111.6893066127027
 30
0.0
 10
118.7827582168321
 20
111.6893066127027
 30
0.0
 10
118.4356648466932
 20
111.6893066127027
 30
0.0
 10
118.4356648466932
 20
111.6893066127027
 30
0.0
 10
118.4356648466932
 20
111.6893066127027
 30
0.0
 10
118.4356648466932
 20
113.0222140559458
 30
0.0
 10
118.4356648466932
 20
113.0222140559458
 30
0.0
 10
118.4356648466932
 20
113.4704209785768
 30
0.0
 10
118.2749511423063
 20
113.7584309611437
 30
0.0
 10
117.9280300269416
 20
113.7584309611437
 30
0.0
 10
117.6444986685055
 20
113.7584309611437
 30
0.0
 10
117.3864610166603
 20
113.4917805705854
 30
0.0
 10
117.3864610166603
 20
113.1403808310899
 30
0.0
 10
117.3864610166603
 20
113.1403808310899
 30
0.0
 10
117.3864610166603
 20
111.6893066127027
 30
0.0
 10
117.3864610166603
 20
111.6893066127027
 30
0.0
 10
117.3864610166603
 20
111.6893066127027
 30
0.0
 10
117.0395399012957
 20
111.6893066127027
 30
0.0
 10
117.0395399012957
 20
111.6893066127027
 30
0.0
 10
117.0395399012957
 20
111.6893066127027
 30
0.0
 10
117.0395399012957
 20
113.1107530099168
 30
0.0
 10
117.0395399012957
 20
113.1107530099168
 30
0.0
 10
117.0395399012957
 20
113.47903371729
 30
0.0
 10
116.8829603114911
 20
113.7584309611437
 30
0.0
 10
116.5572265333607
 20
113.7584309611437
 30
0.0
 10
116.2568142070469
 20
113.7584309611437
 30
0.0
 10
115.9901638164886
 20
113.4621527494122
 30
0.0
 10
115.9901638164886
 20
113.1024847807522
 30
0.0
 10
115.9901638164886
 20
113.1024847807522
 30
0.0
 10
115.9901638164886
 20
111.6893066127027
 30
0.0
 10
115.9901638164886
 20
111.6893066127027
 30
0.0
 10
115.9901638164886
 20
111.6893066127027
 30
0.0
 10
115.6432427011239
 20
111.6893066127027
 30
0.0
 10
115.6432427011239
 20
111.6893066127027
 30
0.0
 10
115.6432427011239
 20
111.6893066127027
 30
0.0
 10
115.6432427011239
 20
113.402897107066
 30
0.0
 10
115.6432427011239
 20
113.402897107066
 30
0.0
 10
115.6432427011239
 20
113.6399196764511
 30
0.0
 10
115.6348022171851
 20
113.8090738647769
 30
0.0
 10
115.6263617332462
 20
113.9995876451112
 30
0.0
 10
115.6263617332462
 20
113.9995876451112
 30
0.0
 10
115.9352145434988
 20
113.9995876451112
 30
0.0
 10
115.9352145434988
 20
113.9995876451112
 30
0.0
 10
115.9352145434988
 20
113.9995876451112
 30
0.0
 10
115.9564018807331
 20
113.6271728231557
 30
0.0
 10
115.9564018807331
 20
113.6271728231557
 30
0.0
 10
115.9564018807331
 20
113.6271728231557
 30
0.0
 10
115.9689764792543
 20
113.6271728231557
 30
0.0
 10
115.9689764792543
 20
113.6271728231557
 30
0.0
 10
116.0959282478858
 20
113.8514485392455
 30
0.0
 10
116.3074571106801
 20
114.0502305487444
 30
0.0
 10
116.6714314486967
 20
114.0502305487444
 30
0.0
 10
116.9718437750105
 20
114.0502305487444
 30
0.0
 10
117.2045599750391
 20
113.8641953925409
 30
0.0
 10
117.3018839224975
 20
113.5889322632694
 30
0.0
 10
117.3018839224975
 20
113.5889322632694
 30
0.0
 10
117.3103244064363
 20
113.5889322632694
 30
0.0
 10
117.3103244064363
 20
113.5889322632694
 30
0.0
 10
117.4625976268844
 20
113.8641953925409
 30
0.0
 10
117.695313826913
 20
114.0502305487444
 30
0.0
 10
118.0506754262165
 20
114.0502305487444
 30
0.0
 10
118.3342067846526
 20
114.0502305487444
 30
0.0
 10
118.7827582168321
 20
113.8683295071232
 30
0.0
 10
118.7827582168321
 20
113.0769910741613
 30
0.0
 10
118.7827582168321
 20
113.0769910741613
 30
0.0
 10
118.7827582168321
 20
111.6893066127027
 30
0.0
 10
118.7827582168321
 20
111.6893066127027
 30
0.0
  0
HATCH
  5
EB
330
A4
100
AcDbEntity
  8
\U+30EC\U+30A4\U+30E4\U+30FC 1
 62
     7
420
 16777215
100
AcDbHatch
 10
0.0
 20
0.0
 30
0.0
210
0.0
220
0.0
230
1.0
  2
SOLID
 70
     1
 71
     0
 91
        1
 92
        1
 93
        1
 72
     4
 94
        3
 73
     0
 74
     1
 95
       71
 96
       67
 40
0.0
 40
0.0
 40
0.0
 40
0.0
 40
1.0
 40
1.0
 40
1.0
 40
2.0
 40
2.0
 40
2.0
 40
3.0
 40
3.0
 40
3.0
 40
4.0
 40
4.0
 40
4.0
 40
5.0
 40
5.0
 40
5.0
 40
6.0
 40
6.0
 40
6.0
 40
7.0
 40
7.0
 40
7.0
 40
8.0
 40
8.0
 40
8.0
 40
9.0
 40
9.0
 40
9.0
 40
10.0
 40
10.0
 40
10.0
 40
11.0
 40
11.0
 40
11.0
 40
12.0
 40
12.0
 40
12.0
 40
13.0
 40
13.0
 40
13.0
 40
14.0
 40
14.0
 40
14.0
 40
15.0
 40
15.0
 40
15.0
 40
16.0
 40
16.0
 40
16.0
 40
17.0
 40
17.0
 40
17.0
 40
18.0
 40
18.0
 40
18.0
 40
19.0
 40
19.0
 40
19.0
 40
20.0
 40
20.0
 40
20.0
 40
21.0
 40
21.0
 40
21.0
 40
22.0
 40
22.0
 40
22.0
 40
22.0
 10
118.7827582168321
 20
111.6893066127027
 10
118.7827582168321
 20
111.6893066127027
 10
118.4356648466932
 20
111.6893066127027
 10
118.4356648466932
 20
111.6893066127027
 10
118.4356648466932
 20
111.6893066127027
 10
118.4356648466932
 20
113.0222140559458
 10
118.4356648466932
 20
113.0222140559458
 10
118.4356648466932
 20
113.4704209785768
 10
118.2749511423063
 20
113.7584309611437
 10
117.9280300269416
 20
113.7584309611437
 10
117.6444986685055
 20
113.7584309611437
 10
117.3864610166603
 20
113.4917805705854
 10
117.3864610166603
 20
113.1403808310899
 10
117.3864610166603
 20
113.1403808310899
 10
117.3864610166603
 20
111.6893066127027
 10
117.3864610166603
 20
111.6893066127027
 10
117.3864610166603
 20
111.6893066127027
 10
117.0395399012957
 20
111.6893066127027
 10
117.0395399012957
 20
111.6893066127027
 10
117.0395399012957
 20
111.6893066127027
 10
117.0395399012957
 20
113.1107530099168
 10
117.0395399012957
 20
113.1107530099168
 10
117.0395399012957
 20
113.47903371729
 10
116.8829603114911
 20
113.7584309611437
 10
116.5572265333607
 20
113.7584309611437
 10
116.2568142070469
 20
113.7584309611437
 10
115.9901638164886
 20
113.4621527494122
 10
115.9901638164886
 20
113.1024847807522
 10
115.9901638164886
 20
113.1024847807522
 10
115.9901638164886
 20
111.6893066127027
 10
115.9901638164886
 20
111.6893066127027
 10
115.9901638164886
 20
111.6893066127027
 10
115.6432427011239
 20
111.6893066127027
 10
115.6432427011239
 20
111.6893066127027
 10
115.6432427011239
 20
111.6893066127027
 10
115.6432427011239
 20
113.402897107066
 10
115.6432427011239
 20
113.402897107066
 10
115.6432427011239
 20
113.6399196764511
 10
115.6348022171851
 20
113.8090738647769
 10
115.6263617332462
 20
113.9995876451112
 10
115.6263617332462
 20
113.9995876451112
 10
115.9352145434988
 20
113.9995876451112
 10
115.9352145434988
 20
113.9995876451112
 10
115.9352145434988
 20
113.9995876451112
 10
115.9564018807331
 20
113.6271728231557
 10
115.9564018807331
 20
113.6271728231557
 10
115.9564018807331
 20
113.6271728231557
 10
115.9689764792543
 20
113.6271728231557
 10
115.9689764792543
 20
113.6271728231557
 10
116.0959282478858
 20
113.8514485392455
 10
116.3074571106801
 20
114.0502305487444
 10
116.6714314486967
 20
114.0502305487444
 10
116.9718437750105
 20
114.0502305487444
 10
117.2045599750391
 20
113.8641953925409
 10
117.3018839224975
 20
113.5889322632694
 10
117.3018839224975
 20
113.5889322632694
 10
117.3103244064363
 20
113.5889322632694
 10
117.3103244064363
 20
113.5889322632694
 10
117.4625976268844
 20
113.8641953925409
 10
117.695313826913
 20
114.0502305487444
 10
118.0506754262165
 20
114.0502305487444
 10
118.3342067846526
 20
114.0502305487444
 10
118.7827582168321
 20
113.8683295071232
 10
118.7827582168321
 20
113.0769910741613
 10
118.7827582168321
 20
113.0769910741613
 10
118.7827582168321
 20
111.6893066127027
 10
118.7827582168321
 20
111.6893066127027
 97
        0
 75
     2
 76
     1
 98
        0
  0
ENDBLK
  5
A7
330
A4
100
AcDbEntity
  8
0
100
AcDbBlockEnd
  0
ENDSEC
  0
SECTION
  2
ENTITIES
  0
POLYLINE
  5
3C
330
1F
100
AcDbEntity
  8
\U+30EC\U+30A4\U+30E4\U+30FC 1
370
     0
100
AcDb2dPolyline
 66
     1
 10
0.0
 20
0.0
 30
0.0
  0
VERTEX
  5
3D
330
3C
100
AcDbEntity
  8
\U+30EC\U+30A4\U+30E4\U+30FC 1
370
     0
100
AcDbVertex
100
AcDb2dVertex
 10
38.74561088441082
 20
129.2722126955465
 30
0.0
  0
VERTEX
  5
3E
330
3C
100
AcDbEntity
  8
\U+30EC\U+30A4\U+30E4\U+30FC 1
370
     0
100
AcDbVertex
100
AcDb2dVertex
 10
40.35360920215118
 20
129.5078572267376
 30
0.0
  0
VERTEX
  5
3F
330
3C
100
AcDbEntity
  8
\U+30EC\U+30A4\U+30E4\U+30FC 1
370
     0
100
AcDbVertex
100
AcDb2dVertex
 10
41.29618732691554
 20
129.4155286677329
 30
0.0
  0
VERTEX
  5
40
330
3C
100
AcDbEntity
  8
\U+30EC\U+30A4\U+30E4\U+30FC 1
370
     0
100
AcDbVertex
100
AcDb2dVertex
 10
43.95580104152841
 20
128.2125013242837
 30
0.0
  0
VERTEX
  5
41
330
3C
100
AcDbEntity
  8
\U+30EC\U+30A4\U+30E4\U+30FC 1
370
     0
100
AcDbVertex
100
AcDb2dVertex
 10
43.95580104152841
 20
126.6318915156511
 30
0.0
  0
VERTEX
  5
42
330
3C
100
AcDbEntity
  8
\U+30EC\U+30A4\U+30E4\U+30FC 1
370
     0
100
AcDbVertex
100
AcDb2dVertex
 10
41.29618732691554
 20
125.4274861340077
 30
0.0
  0
VERTEX
  5
43
330
3C
100
AcDbEntity
  8
\U+30EC\U+30A4\U+30E4\U+30FC 1
370
     0
100
AcDbVertex
100
AcDb2dVertex
 10
40.35360920215118
 20
125.335157575003
 30
0.0
  0
VERTEX
  5
44
330
3C
100
AcDbEntity
  8
\U+30EC\U+30A4\U+30E4\U+30FC 1
370
     0
100
AcDbVertex
100
AcDb2dVertex
 10
38.74561088441082
 20
125.5721801443882
 30
0.0
  0
VERTEX
  5
45
330
3C
100
AcDbEntity
  8
\U+30EC\U+30A4\U+30E4\U+30FC 1
370
     0
100
AcDbVertex
100
AcDb2dVertex
 10
37.98372801784782
 20
122.7254977449263
 30
0.0
  0
VERTEX
  5
46
330
3C
100
AcDbEntity
  8
\U+30EC\U+30A4\U+30E4\U+30FC 1
370
     0
100
AcDbVertex
100
AcDb2dVertex
 10
39.49388562380709
 20
122.1257066209443
 30
0.0
  0
VERTEX
  5
47
330
3C
100
AcDbEntity
  8
\U+30EC\U+30A4\U+30E4\U+30FC 1
370
     0
100
AcDbVertex
100
AcDb2dVertex
 10
40.26438122908321
 20
121.5744913433043
 30
0.0
  0
VERTEX
  5
48
330
3C
100
AcDbEntity
  8
\U+30EC\U+30A4\U+30E4\U+30FC 1
370
     0
100
AcDbVertex
100
AcDb2dVertex
 10
41.96625839879663
 20
119.2015095730642
 30
0.0
  0
VERTEX
  5
49
330
3C
100
AcDbEntity
  8
\U+30EC\U+30A4\U+30E4\U+30FC 1
370
     0
100
AcDbVertex
100
AcDb2dVertex
 10
41.17526447538327
 20
117.833117646323
 30
0.0
  0
VERTEX
  5
4A
330
3C
100
AcDbEntity
  8
\U+30EC\U+30A4\U+30E4\U+30FC 1
370
     0
100
AcDbVertex
100
AcDb2dVertex
 10
38.27018770744635
 20
118.1211276288899
 30
0.0
  0
VERTEX
  5
4B
330
3C
100
AcDbEntity
  8
\U+30EC\U+30A4\U+30E4\U+30FC 1
370
     0
100
AcDbVertex
100
AcDb2dVertex
 10
37.40753579793979
 20
118.5124904760142
 30
0.0
  0
VERTEX
  5
4C
330
3C
100
AcDbEntity
  8
\U+30EC\U+30A4\U+30E4\U+30FC 1
370
     0
100
AcDbVertex
100
AcDb2dVertex
 10
36.13302272317161
 20
119.5215589436439
 30
0.0
  0
VERTEX
  5
4D
330
3C
100
AcDbEntity
  8
\U+30EC\U+30A4\U+30E4\U+30FC 1
370
     0
100
AcDbVertex
100
AcDb2dVertex
 10
34.04908446414398
 20
117.4376206846163
 30
0.0
  0
VERTEX
  5
4E
330
3C
100
AcDbEntity
  8
\U+30EC\U+30A4\U+30E4\U+30FC 1
370
     0
100
AcDbVertex
100
AcDb2dVertex
 10
35.05815293177366
 20
116.1629353550739
 30
0.0
  0
VERTEX
  5
4F
330
3C
100
AcDbEntity
  8
\U+30EC\U+30A4\U+30E4\U+30FC 1
370
     0
100
AcDbVertex
100
AcDb2dVertex
 10
35.44934352412378
 20
115.3002834455673
 30
0.0
  0
VERTEX
  5
50
330
3C
100
AcDbEntity
  8
\U+30EC\U+30A4\U+30E4\U+30FC 1
370
     0
100
AcDbVertex
100
AcDb2dVertex
 10
35.7371812519164
 20
112.3953789324046
 30
0.0
  0
VERTEX
  5
51
330
3C
100
AcDbEntity
  8
\U+30EC\U+30A4\U+30E4\U+30FC 1
370
     0
100
AcDbVertex
100
AcDb2dVertex
 10
34.36775579652959
 20
111.6043850089913
 30
0.0
  0
VERTEX
  5
52
330
3C
100
AcDbEntity
  8
\U+30EC\U+30A4\U+30E4\U+30FC 1
370
     0
100
AcDbVertex
100
AcDb2dVertex
 10
31.99597980970934
 20
113.3062621787047
 30
0.0
  0
VERTEX
  5
53
330
3C
100
AcDbEntity
  8
\U+30EC\U+30A4\U+30E4\U+30FC 1
370
     0
100
AcDbVertex
100
AcDb2dVertex
 10
31.44493678684363
 20
114.0765855292066
 30
0.0
  0
VERTEX
  5
54
330
3C
100
AcDbEntity
  8
\U+30EC\U+30A4\U+30E4\U+30FC 1
370
     0
100
AcDbVertex
100
AcDb2dVertex
 10
30.84514566286163
 20
115.5869153899401
 30
0.0
  0
VERTEX
  5
55
330
3C
100
AcDbEntity
  8
\U+30EC\U+30A4\U+30E4\U+30FC 1
370
     0
100
AcDbVertex
100
AcDb2dVertex
 10
27.99829100862543
 20
114.8248602686028
 30
0.0
  0
VERTEX
  5
56
330
3C
100
AcDbEntity
  8
\U+30EC\U+30A4\U+30E4\U+30FC 1
370
     0
100
AcDbVertex
100
AcDb2dVertex
 10
28.23393553981652
 20
113.2166896960882
 30
0.0
  0
VERTEX
  5
57
330
3C
100
AcDbEntity
  8
\U+30EC\U+30A4\U+30E4\U+30FC 1
370
     0
100
AcDbVertex
100
AcDb2dVertex
 10
28.14298501900592
 20
112.2744560808724
 30
0.0
  0
VERTEX
  5
58
330
3C
100
AcDbEntity
  8
\U+30EC\U+30A4\U+30E4\U+30FC 1
370
     0
100
AcDbVertex
100
AcDb2dVertex
 10
26.93857963736258
 20
109.6148423662595
 30
0.0
  0
VERTEX
  5
59
330
3C
100
AcDbEntity
  8
\U+30EC\U+30A4\U+30E4\U+30FC 1
370
     0
100
AcDbVertex
100
AcDb2dVertex
 10
25.35814208350422
 20
109.6148423662595
 30
0.0
  0
VERTEX
  5
5A
330
3C
100
AcDbEntity
  8
\U+30EC\U+30A4\U+30E4\U+30FC 1
370
     0
100
AcDbVertex
100
AcDb2dVertex
 10
24.15373670186087
 20
112.2744560808724
 30
0.0
  0
VERTEX
  5
5B
330
3C
100
AcDbEntity
  8
\U+30EC\U+30A4\U+30E4\U+30FC 1
370
     0
100
AcDbVertex
100
AcDb2dVertex
 10
24.06261392627601
 20
113.2166896960882
 30
0.0
  0
VERTEX
  5
5C
330
3C
100
AcDbEntity
  8
\U+30EC\U+30A4\U+30E4\U+30FC 1
370
     0
100
AcDbVertex
100
AcDb2dVertex
 10
24.29843071224137
 20
114.8248602686028
 30
0.0
  0
VERTEX
  5
5D
330
3C
100
AcDbEntity
  8
\U+30EC\U+30A4\U+30E4\U+30FC 1
370
     0
100
AcDbVertex
100
AcDb2dVertex
 10
21.45105929368237
 20
115.5869153899401
 30
0.0
  0
VERTEX
  5
5E
330
3C
100
AcDbEntity
  8
\U+30EC\U+30A4\U+30E4\U+30FC 1
370
     0
100
AcDbVertex
100
AcDb2dVertex
 10
20.85178493402316
 20
114.0765855292066
 30
0.0
  0
VERTEX
  5
5F
330
3C
100
AcDbEntity
  8
\U+30EC\U+30A4\U+30E4\U+30FC 1
370
     0
100
AcDbVertex
100
AcDb2dVertex
 10
20.30211994935155
 20
113.3062621787047
 30
0.0
  0
VERTEX
  5
60
330
3C
100
AcDbEntity
  8
\U+30EC\U+30A4\U+30E4\U+30FC 1
370
     0
100
AcDbVertex
100
AcDb2dVertex
 10
17.9289659243372
 20
111.6043850089913
 30
0.0
  0
VERTEX
  5
61
330
3C
100
AcDbEntity
  8
\U+30EC\U+30A4\U+30E4\U+30FC 1
370
     0
100
AcDbVertex
100
AcDb2dVertex
 10
16.56057399759597
 20
112.3953789324046
 30
0.0
  0
VERTEX
  5
62
330
3C
100
AcDbEntity
  8
\U+30EC\U+30A4\U+30E4\U+30FC 1
370
     0
100
AcDbVertex
100
AcDb2dVertex
 10
16.84737819674302
 20
115.3002834455673
 30
0.0
  0
VERTEX
  5
63
330
3C
100
AcDbEntity
  8
\U+30EC\U+30A4\U+30E4\U+30FC 1
370
     0
100
AcDbVertex
100
AcDb2dVertex
 10
17.23994682728724
 20
116.1629353550739
 30
0.0
  0
VERTEX
  5
64
330
3C
100
AcDbEntity
  8
\U+30EC\U+30A4\U+30E4\U+30FC 1
370
     0
100
AcDbVertex
100
AcDb2dVertex
 10
18.24712049240003
 20
117.4376206846163
 30
0.0
  0
VERTEX
  5
65
330
3C
100
AcDbEntity
  8
\U+30EC\U+30A4\U+30E4\U+30FC 1
370
     0
100
AcDbVertex
100
AcDb2dVertex
 10
16.16369899769519
 20
119.5215589436439
 30
0.0
  0
VERTEX
  5
66
330
3C
100
AcDbEntity
  8
\U+30EC\U+30A4\U+30E4\U+30FC 1
370
     0
100
AcDbVertex
100
AcDb2dVertex
 10
14.88901366815275
 20
118.5124904760142
 30
0.0
  0
VERTEX
  5
67
330
3C
100
AcDbEntity
  8
\U+30EC\U+30A4\U+30E4\U+30FC 1
370
     0
100
AcDbVertex
100
AcDb2dVertex
 10
14.02653401342045
 20
118.1211276288899
 30
0.0
  0
VERTEX
  5
68
330
3C
100
AcDbEntity
  8
\U+30EC\U+30A4\U+30E4\U+30FC 1
370
     0
100
AcDbVertex
100
AcDb2dVertex
 10
11.12145724548352
 20
117.833117646323
 30
0.0
  0
VERTEX
  5
69
330
3C
100
AcDbEntity
  8
\U+30EC\U+30A4\U+30E4\U+30FC 1
370
     0
100
AcDbVertex
100
AcDb2dVertex
 10
10.33184136026426
 20
119.2015095730642
 30
0.0
  0
VERTEX
  5
6A
330
3C
100
AcDbEntity
  8
\U+30EC\U+30A4\U+30E4\U+30FC 1
370
     0
100
AcDbVertex
100
AcDb2dVertex
 10
12.03234049178358
 20
121.5744913433043
 30
0.0
  0
VERTEX
  5
6B
330
3C
100
AcDbEntity
  8
\U+30EC\U+30A4\U+30E4\U+30FC 1
370
     0
100
AcDbVertex
100
AcDb2dVertex
 10
12.80421413525381
 20
122.1257066209443
 30
0.0
  0
VERTEX
  5
6C
330
3C
100
AcDbEntity
  8
\U+30EC\U+30A4\U+30E4\U+30FC 1
370
     0
100
AcDbVertex
100
AcDb2dVertex
 10
14.31437174121307
 20
122.7254977449263
 30
0.0
  0
VERTEX
  5
6D
330
3C
100
AcDbEntity
  8
\U+30EC\U+30A4\U+30E4\U+30FC 1
370
     0
100
AcDbVertex
100
AcDb2dVertex
 10
13.55093858168171
 20
125.5721801443882
 30
0.0
  0
VERTEX
  5
6E
330
3C
100
AcDbEntity
  8
\U+30EC\U+30A4\U+30E4\U+30FC 1
370
     0
100
AcDbVertex
100
AcDb2dVertex
 10
11.94259575439282
 20
125.335157575003
 30
0.0
  0
VERTEX
  5
6F
330
3C
100
AcDbEntity
  8
\U+30EC\U+30A4\U+30E4\U+30FC 1
370
     0
100
AcDbVertex
100
AcDb2dVertex
 10
11.00001762962847
 20
125.4274861340077
 30
0.0
  0
VERTEX
  5
70
330
3C
100
AcDbEntity
  8
\U+30EC\U+30A4\U+30E4\U+30FC 1
370
     0
100
AcDbVertex
100
AcDb2dVertex
 10
8.340403915015594
 20
126.6318915156511
 30
0.0
  0
VERTEX
  5
71
330
3C
100
AcDbEntity
  8
\U+30EC\U+30A4\U+30E4\U+30FC 1
370
     0
100
AcDbVertex
100
AcDb2dVertex
 10
8.340403915015594
 20
128.2125013242837
 30
0.0
  0
VERTEX
  5
72
330
3C
100
AcDbEntity
  8
\U+30EC\U+30A4\U+30E4\U+30FC 1
370
     0
100
AcDbVertex
100
AcDb2dVertex
 10
11.00001762962847
 20
129.4155286677329
 30
0.0
  0
VERTEX
  5
73
330
3C
100
AcDbEntity
  8
\U+30EC\U+30A4\U+30E4\U+30FC 1
370
     0
100
AcDbVertex
100
AcDb2dVertex
 10
11.94259575439282
 20
129.5078572267376
 30
0.0
  0
VERTEX
  5
74
330
3C
100
AcDbEntity
  8
\U+30EC\U+30A4\U+30E4\U+30FC 1
370
     0
100
AcDbVertex
100
AcDb2dVertex
 10
13.55093858168171
 20
129.2722126955465
 30
0.0
  0
VERTEX
  5
75
330
3C
100
AcDbEntity
  8
\U+30EC\U+30A4\U+30E4\U+30FC 1
370
     0
100
AcDbVertex
100
AcDb2dVertex
 10
14.31437174121307
 20
132.1182060759114
 30
0.0
  0
VERTEX
  5
76
330
3C
100
AcDbEntity
  8
\U+30EC\U+30A4\U+30E4\U+30FC 1
370
     0
100
AcDbVertex
100
AcDb2dVertex
 10
12.80421413525381
 20
132.7173081807964
 30
0.0
  0
VERTEX
  5
77
330
3C
100
AcDbEntity
  8
\U+30EC\U+30A4\U+30E4\U+30FC 1
370
     0
100
AcDbVertex
100
AcDb2dVertex
 10
12.03234049178358
 20
133.2685234584363
 30
0.0
  0
VERTEX
  5
78
330
3C
100
AcDbEntity
  8
\U+30EC\U+30A4\U+30E4\U+30FC 1
370
     0
100
AcDbVertex
100
AcDb2dVertex
 10
10.33184136026426
 20
135.6415052286764
 30
0.0
  0
VERTEX
  5
79
330
3C
100
AcDbEntity
  8
\U+30EC\U+30A4\U+30E4\U+30FC 1
370
     0
100
AcDbVertex
100
AcDb2dVertex
 10
11.12145724548352
 20
137.0098971554177
 30
0.0
  0
VERTEX
  5
7A
330
3C
100
AcDbEntity
  8
\U+30EC\U+30A4\U+30E4\U+30FC 1
370
     0
100
AcDbVertex
100
AcDb2dVertex
 10
14.02653401342045
 20
136.7232652110449
 30
0.0
  0
VERTEX
  5
7B
330
3C
100
AcDbEntity
  8
\U+30EC\U+30A4\U+30E4\U+30FC 1
370
     0
100
AcDbVertex
100
AcDb2dVertex
 10
14.88901366815275
 20
136.3305243257264
 30
0.0
  0
VERTEX
  5
7C
330
3C
100
AcDbEntity
  8
\U+30EC\U+30A4\U+30E4\U+30FC 1
370
     0
100
AcDbVertex
100
AcDb2dVertex
 10
16.16369899769519
 20
135.3221448771938
 30
0.0
  0
VERTEX
  5
7D
330
3C
100
AcDbEntity
  8
\U+30EC\U+30A4\U+30E4\U+30FC 1
370
     0
100
AcDbVertex
100
AcDb2dVertex
 10
18.24712049240003
 20
137.4067721553185
 30
0.0
  0
VERTEX
  5
7E
330
3C
100
AcDbEntity
  8
\U+30EC\U+30A4\U+30E4\U+30FC 1
370
     0
100
AcDbVertex
100
AcDb2dVertex
 10
17.23994682728724
 20
138.6800794466668
 30
0.0
  0
VERTEX
  5
7F
330
3C
100
AcDbEntity
  8
\U+30EC\U+30A4\U+30E4\U+30FC 1
370
     0
100
AcDbVertex
100
AcDb2dVertex
 10
16.84737819674302
 20
139.5427313561734
 30
0.0
  0
VERTEX
  5
80
330
3C
100
AcDbEntity
  8
\U+30EC\U+30A4\U+30E4\U+30FC 1
370
     0
100
AcDbVertex
100
AcDb2dVertex
 10
16.56057399759597
 20
142.4490139075301
 30
0.0
  0
VERTEX
  5
81
330
3C
100
AcDbEntity
  8
\U+30EC\U+30A4\U+30E4\U+30FC 1
370
     0
100
AcDbVertex
100
AcDb2dVertex
 10
17.9289659243372
 20
143.2386297927494
 30
0.0
  0
VERTEX
  5
82
330
3C
100
AcDbEntity
  8
\U+30EC\U+30A4\U+30E4\U+30FC 1
370
     0
100
AcDbVertex
100
AcDb2dVertex
 10
20.30211994935155
 20
141.5381306612301
 30
0.0
  0
VERTEX
  5
83
330
3C
100
AcDbEntity
  8
\U+30EC\U+30A4\U+30E4\U+30FC 1
370
     0
100
AcDbVertex
100
AcDb2dVertex
 10
20.85178493402316
 20
140.7664292725341
 30
0.0
  0
VERTEX
  5
84
330
3C
100
AcDbEntity
  8
\U+30EC\U+30A4\U+30E4\U+30FC 1
370
     0
100
AcDbVertex
100
AcDb2dVertex
 10
21.45105929368237
 20
139.2560994118006
 30
0.0
  0
VERTEX
  5
85
330
3C
100
AcDbEntity
  8
\U+30EC\U+30A4\U+30E4\U+30FC 1
370
     0
100
AcDbVertex
100
AcDb2dVertex
 10
24.29843071224137
 20
140.0195325713319
 30
0.0
  0
VERTEX
  5
86
330
3C
100
AcDbEntity
  8
\U+30EC\U+30A4\U+30E4\U+30FC 1
370
     0
100
AcDbVertex
100
AcDb2dVertex
 10
24.06261392627601
 20
141.6263251056525
 30
0.0
  0
VERTEX
  5
87
330
3C
100
AcDbEntity
  8
\U+30EC\U+30A4\U+30E4\U+30FC 1
370
     0
100
AcDbVertex
100
AcDb2dVertex
 10
24.15373670186087
 20
142.5706257781594
 30
0.0
  0
VERTEX
  5
88
330
3C
100
AcDbEntity
  8
\U+30EC\U+30A4\U+30E4\U+30FC 1
370
     0
100
AcDbVertex
100
AcDb2dVertex
 10
25.35814208350422
 20
145.2302394927723
 30
0.0
  0
VERTEX
  5
89
330
3C
100
AcDbEntity
  8
\U+30EC\U+30A4\U+30E4\U+30FC 1
370
     0
100
AcDbVertex
100
AcDb2dVertex
 10
26.93857963736258
 20
145.2302394927723
 30
0.0
  0
VERTEX
  5
8A
330
3C
100
AcDbEntity
  8
\U+30EC\U+30A4\U+30E4\U+30FC 1
370
     0
100
AcDbVertex
100
AcDb2dVertex
 10
28.14298501900592
 20
142.5706257781594
 30
0.0
  0
VERTEX
  5
8B
330
3C
100
AcDbEntity
  8
\U+30EC\U+30A4\U+30E4\U+30FC 1
370
     0
100
AcDbVertex
100
AcDb2dVertex
 10
28.23393553981652
 20
141.6263251056525
 30
0.0
  0
VERTEX
  5
8C
330
3C
100
AcDbEntity
  8
\U+30EC\U+30A4\U+30E4\U+30FC 1
370
     0
100
AcDbVertex
100
AcDb2dVertex
 10
27.99829100862543
 20
140.0195325713319
 30
0.0
  0
VERTEX
  5
8D
330
3C
100
AcDbEntity
  8
\U+30EC\U+30A4\U+30E4\U+30FC 1
370
     0
100
AcDbVertex
100
AcDb2dVertex
 10
30.84514566286163
 20
139.2560994118006
 30
0.0
  0
VERTEX
  5
8E
330
3C
100
AcDbEntity
  8
\U+30EC\U+30A4\U+30E4\U+30FC 1
370
     0
100
AcDbVertex
100
AcDb2dVertex
 10
31.44493678684363
 20
140.7664292725341
 30
0.0
  0
VERTEX
  5
8F
330
3C
100
AcDbEntity
  8
\U+30EC\U+30A4\U+30E4\U+30FC 1
370
     0
100
AcDbVertex
100
AcDb2dVertex
 10
31.99597980970934
 20
141.5381306612301
 30
0.0
  0
VERTEX
  5
90
330
3C
100
AcDbEntity
  8
\U+30EC\U+30A4\U+30E4\U+30FC 1
370
     0
100
AcDbVertex
100
AcDb2dVertex
 10
34.36775579652959
 20
143.2386297927494
 30
0.0
  0
VERTEX
  5
91
330
3C
100
AcDbEntity
  8
\U+30EC\U+30A4\U+30E4\U+30FC 1
370
     0
100
AcDbVertex
100
AcDb2dVertex
 10
35.7371812519164
 20
142.4490139075301
 30
0.0
  0
VERTEX
  5
92
330
3C
100
AcDbEntity
  8
\U+30EC\U+30A4\U+30E4\U+30FC 1
370
     0
100
AcDbVertex
100
AcDb2dVertex
 10
35.44934352412378
 20
139.5427313561734
 30
0.0
  0
VERTEX
  5
93
330
3C
100
AcDbEntity
  8
\U+30EC\U+30A4\U+30E4\U+30FC 1
370
     0
100
AcDbVertex
100
AcDb2dVertex
 10
35.05815293177366
 20
138.6800794466668
 30
0.0
  0
VERTEX
  5
94
330
3C
100
AcDbEntity
  8
\U+30EC\U+30A4\U+30E4\U+30FC 1
370
     0
100
AcDbVertex
100
AcDb2dVertex
 10
34.04908446414398
 20
137.4067721553185
 30
0.0
  0
VERTEX
  5
95
330
3C
100
AcDbEntity
  8
\U+30EC\U+30A4\U+30E4\U+30FC 1
370
     0
100
AcDbVertex
100
AcDb2dVertex
 10
36.13302272317161
 20
135.3221448771938
 30
0.0
  0
VERTEX
  5
96
330
3C
100
AcDbEntity
  8
\U+30EC\U+30A4\U+30E4\U+30FC 1
370
     0
100
AcDbVertex
100
AcDb2dVertex
 10
37.40753579793979
 20
136.3305243257264
 30
0.0
  0
VERTEX
  5
97
330
3C
100
AcDbEntity
  8
\U+30EC\U+30A4\U+30E4\U+30FC 1
370
     0
100
AcDbVertex
100
AcDb2dVertex
 10
38.27018770744635
 20
136.7232652110449
 30
0.0
  0
VERTEX
  5
98
330
3C
100
AcDbEntity
  8
\U+30EC\U+30A4\U+30E4\U+30FC 1
370
     0
100
AcDbVertex
100
AcDb2dVertex
 10
41.17526447538327
 20
137.0098971554177
 30
0.0
  0
VERTEX
  5
99
330
3C
100
AcDbEntity
  8
\U+30EC\U+30A4\U+30E4\U+30FC 1
370
     0
100
AcDbVertex
100
AcDb2dVertex
 10
41.96625839879663
 20
135.6415052286764
 30
0.0
  0
VERTEX
  5
9A
330
3C
100
AcDbEntity
  8
\U+30EC\U+30A4\U+30E4\U+30FC 1
370
     0
100
AcDbVertex
100
AcDb2dVertex
 10
40.26438122908321
 20
133.2685234584363
 30
0.0
  0
VERTEX
  5
9B
330
3C
100
AcDbEntity
  8
\U+30EC\U+30A4\U+30E4\U+30FC 1
370
     0
100
AcDbVertex
100
AcDb2dVertex
 10
39.49388562380709
 20
132.7173081807964
 30
0.0
  0
VERTEX
  5
9C
330
3C
100
AcDbEntity
  8
\U+30EC\U+30A4\U+30E4\U+30FC 1
370
     0
100
AcDbVertex
100
AcDb2dVertex
 10
37.98372801784782
 20
132.1182060759114
 30
0.0
  0
VERTEX
  5
9D
330
3C
100
AcDbEntity
  8
\U+30EC\U+30A4\U+30E4\U+30FC 1
370
     0
100
AcDbVertex
100
AcDb2dVertex
 10
38.74561088441082
 20
129.2722126955465
 30
0.0
  0
SEQEND
  5
9E
330
3C
100
AcDbEntity
  8
\U+30EC\U+30A4\U+30E4\U+30FC 1
370
     0
  0
POLYLINE
  5
9F
330
1F
100
AcDbEntity
  8
\U+30EC\U+30A4\U+30E4\U+30FC 1
 62
     7
420
 16777215
370
    30
100
AcDb2dPolyline
 66
     1
 10
0.0
 20
0.0
 30
0.0
  0
VERTEX
  5
A0
330
9F
100
AcDbEntity
  8
\U+30EC\U+30A4\U+30E4\U+30FC 1
 62
     7
420
 16777215
370
    30
100
AcDbVertex
100
AcDb2dVertex
 10
38.74561088441082
 20
129.2722126955465
 30
0.0
  0
VERTEX
  5
EC
330
9F
100
AcDbEntity
  8
0
100
AcDbVertex
100
AcDb2dVertex
 10
38.74561088441082
 20
129.2722126955465
 30
0.0
  0
SEQEND
  5
A1
330
9F
100
AcDbEntity
  8
\U+30EC\U+30A4\U+30E4\U+30FC 1
370
    30
  0
SPLINE
  5
A2
330
1F
100
AcDbEntity
  8
\U+30EC\U+30A4\U+30E4\U+30FC 1
370
     0
100
AcDbSpline
210
0.0
220
0.0
230
1.0
 70
     8
 71
     3
 72
   206
 73
   202
 74
     0
 42
0.0000000001
 43
0.0000000001
 40
0.0
 40
0.0
 40
0.0
 40
0.0
 40
1.0
 40
1.0
 40
1.0
 40
2.0
 40
2.0
 40
2.0
 40
3.0
 40
3.0
 40
3.0
 40
4.0
 40
4.0
 40
4.0
 40
5.0
 40
5.0
 40
5.0
 40
6.0
 40
6.0
 40
6.0
 40
7.0
 40
7.0
 40
7.0
 40
8.0
 40
8.0
 40
8.0
 40
9.0
 40
9.0
 40
9.0
 40
10.0
 40
10.0
 40
10.0
 40
11.0
 40
11.0
 40
11.0
 40
12.0
 40
12.0
 40
12.0
 40
13.0
 40
13.0
 40
13.0
 40
14.0
 40
14.0
 40
14.0
 40
15.0
 40
15.0
 40
15.0
 40
16.0
 40
16.0
 40
16.0
 40
17.0
 40
17.0
 40
17.0
 40
18.0
 40
18.0
 40
18.0
 40
19.0
 40
19.0
 40
19.0
 40
20.0
 40
20.0
 40
20.0
 40
21.0
 40
21.0
 40
21.0
 40
22.0
 40
22.0
 40
22.0
 40
23.0
 40
23.0
 40
23.0
 40
24.0
 40
24.0
 40
24.0
 40
25.0
 40
25.0
 40
25.0
 40
26.0
 40
26.0
 40
26.0
 40
27.0
 40
27.0
 40
27.0
 40
28.0
 40
28.0
 40
28.0
 40
29.0
 40
29.0
 40
29.0
 40
30.0
 40
30.0
 40
30.0
 40
31.0
 40
31.0
 40
31.0
 40
32.0
 40
32.0
 40
32.0
 40
33.0
 40
33.0
 40
33.0
 40
34.0
 40
34.0
 40
34.0
 40
35.0
 40
35.0
 40
35.0
 40
36.0
 40
36.0
 40
36.0
 40
37.0
 40
37.0
 40
37.0
 40
38.0
 40
38.0
 40
38.0
 40
39.0
 40
39.0
 40
39.0
 40
40.0
 40
40.0
 40
40.0
 40
41.0
 40
41.0
 40
41.0
 40
42.0
 40
42.0
 40
42.0
 40
43.0
 40
43.0
 40
43.0
 40
44.0
 40
44.0
 40
44.0
 40
45.0
 40
45.0
 40
45.0
 40
46.0
 40
46.0
 40
46.0
 40
47.0
 40
47.0
 40
47.0
 40
48.0
 40
48.0
 40
48.0
 40
49.0
 40
49.0
 40
49.0
 40
50.0
 40
50.0
 40
50.0
 40
51.0
 40
51.0
 40
51.0
 40
52.0
 40
52.0
 40
52.0
 40
53.0
 40
53.0
 40
53.0
 40
54.0
 40
54.0
 40
54.0
 40
55.0
 40
55.0
 40
55.0
 40
56.0
 40
56.0
 40
56.0
 40
57.0
 40
57.0
 40
57.0
 40
58.0
 40
58.0
 40
58.0
 40
59.0
 40
59.0
 40
59.0
 40
60.0
 40
60.0
 40
60.0
 40
61.0
 40
61.0
 40
61.0
 40
62.0
 40
62.0
 40
62.0
 40
63.0
 40
63.0
 40
63.0
 40
64.0
 40
64.0
 40
64.0
 40
65.0
 40
65.0
 40
65.0
 40
66.0
 40
66.0
 40
66.0
 40
67.0
 40
67.0
 40
67.0
 40
67.0
 10
9.718614363889792
 20
156.1418904232041
 30
0.0
 10
9.718614363889792
 20
156.1418904232041
 30
0.0
 10
9.718614363889792
 20
152.6394340981249
 30
0.0
 10
9.718614363889792
 20
152.6394340981249
 30
0.0
 10
9.718614363889792
 20
152.6394340981249
 30
0.0
 10
12.22078721482675
 20
152.6394340981249
 30
0.0
 10
12.22078721482675
 20
152.6394340981249
 30
0.0
 10
12.22078721482675
 20
152.6394340981249
 30
0.0
 10
12.22078721482675
 20
156.0264797244483
 30
0.0
 10
12.22078721482675
 20
156.0264797244483
 30
0.0
 10
12.22078721482675
 20
156.0264797244483
 30
0.0
 10
14.72278781098944
 20
156.0264797244483
 30
0.0
 10
14.72278781098944
 20
156.0264797244483
 30
0.0
 10
14.72278781098944
 20
156.0264797244483
 30
0.0
 10
15.95613199470889
 20
152.6394340981249
 30
0.0
 10
15.95613199470889
 20
152.6394340981249
 30
0.0
 10
15.95613199470889
 20
152.6394340981249
 30
0.0
 10
18.11017794686135
 20
152.6394340981249
 30
0.0
 10
18.11017794686135
 20
152.6394340981249
 30
0.0
 10
18.11017794686135
 20
152.6394340981249
 30
0.0
 10
19.34352213058079
 20
156.0264797244483
 30
0.0
 10
19.34352213058079
 20
156.0264797244483
 30
0.0
 10
19.34352213058079
 20
156.0264797244483
 30
0.0
 10
21.49756808273325
 20
156.0264797244483
 30
0.0
 10
21.49756808273325
 20
156.0264797244483
 30
0.0
 10
21.49756808273325
 20
156.0264797244483
 30
0.0
 10
22.72953422825859
 20
152.6394340981249
 30
0.0
 10
22.72953422825859
 20
152.6394340981249
 30
0.0
 10
22.72953422825859
 20
152.6394340981249
 30
0.0
 10
24.88323567086253
 20
152.6394340981249
 30
0.0
 10
24.88323567086253
 20
152.6394340981249
 30
0.0
 10
24.88323567086253
 20
152.6394340981249
 30
0.0
 10
26.11657985458197
 20
156.0264797244483
 30
0.0
 10
26.11657985458197
 20
156.0264797244483
 30
0.0
 10
26.11657985458197
 20
156.0264797244483
 30
0.0
 10
28.27045355196017
 20
156.0264797244483
 30
0.0
 10
28.27045355196017
 20
156.0264797244483
 30
0.0
 10
28.27045355196017
 20
156.0264797244483
 30
0.0
 10
29.50241969748551
 20
152.6394340981249
 30
0.0
 10
29.50241969748551
 20
152.6394340981249
 30
0.0
 10
29.50241969748551
 20
152.6394340981249
 30
0.0
 10
31.65612114008944
 20
152.6394340981249
 30
0.0
 10
31.65612114008944
 20
152.6394340981249
 30
0.0
 10
31.65612114008944
 20
152.6394340981249
 30
0.0
 10
32.88946532380888
 20
156.0264797244483
 30
0.0
 10
32.88946532380888
 20
156.0264797244483
 30
0.0
 10
32.88946532380888
 20
156.0264797244483
 30
0.0
 10
35.04351127596134
 20
156.0264797244483
 30
0.0
 10
35.04351127596134
 20
156.0264797244483
 30
0.0
 10
35.04351127596134
 20
156.0264797244483
 30
0.0
 10
36.27685545968079
 20
152.6394340981249
 30
0.0
 10
36.27685545968079
 20
152.6394340981249
 30
0.0
 10
36.27685545968079
 20
152.6394340981249
 30
0.0
 10
38.43090141183325
 20
152.6394340981249
 30
0.0
 10
38.43090141183325
 20
152.6394340981249
 30
0.0
 10
38.43090141183325
 20
152.6394340981249
 30
0.0
 10
39.66286755735859
 20
156.0264797244483
 30
0.0
 10
39.66286755735859
 20
156.0264797244483
 30
0.0
 10
39.66286755735859
 20
156.0264797244483
 30
0.0
 10
41.81656899996253
 20
156.0264797244483
 30
0.0
 10
41.81656899996253
 20
156.0264797244483
 30
0.0
 10
41.81656899996253
 20
156.0264797244483
 30
0.0
 10
43.04991318368197
 20
152.6394340981249
 30
0.0
 10
43.04991318368197
 20
152.6394340981249
 30
0.0
 10
43.04991318368197
 20
152.6394340981249
 30
0.0
 10
45.20378688106017
 20
152.6394340981249
 30
0.0
 10
45.20378688106017
 20
152.6394340981249
 30
0.0
 10
45.20378688106017
 20
152.6394340981249
 30
0.0
 10
46.43575302658551
 20
156.0264797244483
 30
0.0
 10
46.43575302658551
 20
156.0264797244483
 30
0.0
 10
46.43575302658551
 20
156.0264797244483
 30
0.0
 10
48.58945446918944
 20
156.0264797244483
 30
0.0
 10
48.58945446918944
 20
156.0264797244483
 30
0.0
 10
48.58945446918944
 20
156.0264797244483
 30
0.0
 10
49.82279865290889
 20
152.6394340981249
 30
0.0
 10
49.82279865290889
 20
152.6394340981249
 30
0.0
 10
49.82279865290889
 20
152.6394340981249
 30
0.0
 10
51.97684460506134
 20
152.6394340981249
 30
0.0
 10
51.97684460506134
 20
152.6394340981249
 30
0.0
 10
51.97684460506134
 20
152.6394340981249
 30
0.0
 10
53.21018878878079
 20
156.0264797244483
 30
0.0
 10
53.21018878878079
 20
156.0264797244483
 30
0.0
 10
53.21018878878079
 20
156.0264797244483
 30
0.0
 10
55.36423474093325
 20
156.0264797244483
 30
0.0
 10
55.36423474093325
 20
156.0264797244483
 30
0.0
 10
55.36423474093325
 20
156.0264797244483
 30
0.0
 10
56.59620088645859
 20
152.6394340981249
 30
0.0
 10
56.59620088645859
 20
152.6394340981249
 30
0.0
 10
56.59620088645859
 20
152.6394340981249
 30
0.0
 10
58.74990232906253
 20
152.6394340981249
 30
0.0
 10
58.74990232906253
 20
152.6394340981249
 30
0.0
 10
58.74990232906253
 20
152.6394340981249
 30
0.0
 10
59.98324651278197
 20
156.0264797244483
 30
0.0
 10
59.98324651278197
 20
156.0264797244483
 30
0.0
 10
59.98324651278197
 20
156.0264797244483
 30
0.0
 10
62.13712021016017
 20
156.0264797244483
 30
0.0
 10
62.13712021016017
 20
156.0264797244483
 30
0.0
 10
62.13712021016017
 20
156.0264797244483
 30
0.0
 10
63.36908635568551
 20
152.6394340981249
 30
0.0
 10
63.36908635568551
 20
152.6394340981249
 30
0.0
 10
63.36908635568551
 20
152.6394340981249
 30
0.0
 10
65.52296005306371
 20
152.6394340981249
 30
0.0
 10
65.52296005306371
 20
152.6394340981249
 30
0.0
 10
65.52296005306371
 20
152.6394340981249
 30
0.0
 10
66.75630423678315
 20
156.0264797244483
 30
0.0
 10
66.75630423678315
 20
156.0264797244483
 30
0.0
 10
66.75630423678315
 20
156.0264797244483
 30
0.0
 10
68.91017793416135
 20
156.0264797244483
 30
0.0
 10
68.91017793416135
 20
156.0264797244483
 30
0.0
 10
68.91017793416135
 20
156.0264797244483
 30
0.0
 10
70.14352211788079
 20
152.6394340981249
 30
0.0
 10
70.14352211788079
 20
152.6394340981249
 30
0.0
 10
70.14352211788079
 20
152.6394340981249
 30
0.0
 10
72.297395815259
 20
152.6394340981249
 30
0.0
 10
72.297395815259
 20
152.6394340981249
 30
0.0
 10
72.297395815259
 20
152.6394340981249
 30
0.0
 10
73.52936196078433
 20
156.0264797244483
 30
0.0
 10
73.52936196078433
 20
156.0264797244483
 30
0.0
 10
73.52936196078433
 20
156.0264797244483
 30
0.0
 10
75.68323565816253
 20
156.0264797244483
 30
0.0
 10
75.68323565816253
 20
156.0264797244483
 30
0.0
 10
75.68323565816253
 20
156.0264797244483
 30
0.0
 10
76.91657984188197
 20
152.6394340981249
 30
0.0
 10
76.91657984188197
 20
152.6394340981249
 30
0.0
 10
76.91657984188197
 20
152.6394340981249
 30
0.0
 10
79.07045353926017
 20
152.6394340981249
 30
0.0
 10
79.07045353926017
 20
152.6394340981249
 30
0.0
 10
79.07045353926017
 20
152.6394340981249
 30
0.0
 10
80.3024196847855
 20
156.0264797244483
 30
0.0
 10
80.3024196847855
 20
156.0264797244483
 30
0.0
 10
80.3024196847855
 20
156.0264797244483
 30
0.0
 10
82.45629338216371
 20
156.0264797244483
 30
0.0
 10
82.45629338216371
 20
156.0264797244483
 30
0.0
 10
82.45629338216371
 20
156.0264797244483
 30
0.0
 10
83.68963756588315
 20
152.6394340981249
 30
0.0
 10
83.68963756588315
 20
152.6394340981249
 30
0.0
 10
83.68963756588315
 20
152.6394340981249
 30
0.0
 10
85.84351126326135
 20
152.6394340981249
 30
0.0
 10
85.84351126326135
 20
152.6394340981249
 30
0.0
 10
85.84351126326135
 20
152.6394340981249
 30
0.0
 10
87.07685544698079
 20
156.0264797244483
 30
0.0
 10
87.07685544698079
 20
156.0264797244483
 30
0.0
 10
87.07685544698079
 20
156.0264797244483
 30
0.0
 10
89.23072914435899
 20
156.0264797244483
 30
0.0
 10
89.23072914435899
 20
156.0264797244483
 30
0.0
 10
89.23072914435899
 20
156.0264797244483
 30
0.0
 10
90.46269528988434
 20
152.6394340981249
 30
0.0
 10
90.46269528988434
 20
152.6394340981249
 30
0.0
 10
90.46269528988434
 20
152.6394340981249
 30
0.0
 10
92.61656898726253
 20
152.6394340981249
 30
0.0
 10
92.61656898726253
 20
152.6394340981249
 30
0.0
 10
92.61656898726253
 20
152.6394340981249
 30
0.0
 10
93.84991317098196
 20
156.0264797244483
 30
0.0
 10
93.84991317098196
 20
156.0264797244483
 30
0.0
 10
93.84991317098196
 20
156.0264797244483
 30
0.0
 10
96.00378686836017
 20
156.0264797244483
 30
0.0
 10
96.00378686836017
 20
156.0264797244483
 30
0.0
 10
96.00378686836017
 20
156.0264797244483
 30
0.0
 10
97.23575301388551
 20
152.6394340981249
 30
0.0
 10
97.23575301388551
 20
152.6394340981249
 30
0.0
 10
97.23575301388551
 20
152.6394340981249
 30
0.0
 10
99.3896267112637
 20
152.6394340981249
 30
0.0
 10
99.3896267112637
 20
152.6394340981249
 30
0.0
 10
99.3896267112637
 20
152.6394340981249
 30
0.0
 10
100.6229708949832
 20
156.0264797244483
 30
0.0
 10
100.6229708949832
 20
156.0264797244483
 30
0.0
 10
100.6229708949832
 20
156.0264797244483
 30
0.0
 10
102.7768445923613
 20
156.0264797244483
 30
0.0
 10
102.7768445923613
 20
156.0264797244483
 30
0.0
 10
102.7768445923613
 20
156.0264797244483
 30
0.0
 10
104.0101887760808
 20
152.6394340981249
 30
0.0
 10
104.0101887760808
 20
152.6394340981249
 30
0.0
 10
104.0101887760808
 20
152.6394340981249
 30
0.0
 10
106.164062473459
 20
152.6394340981249
 30
0.0
 10
106.164062473459
 20
152.6394340981249
 30
0.0
 10
106.164062473459
 20
152.6394340981249
 30
0.0
 10
107.3960286189843
 20
156.0264797244483
 30
0.0
 10
107.3960286189843
 20
156.0264797244483
 30
0.0
 10
107.3960286189843
 20
156.0264797244483
 30
0.0
 10
109.5499023163625
 20
156.0264797244483
 30
0.0
 10
109.5499023163625
 20
156.0264797244483
 30
0.0
 10
109.5499023163625
 20
156.0264797244483
 30
0.0
 10
110.783246500082
 20
152.6394340981249
 30
0.0
 10
110.783246500082
 20
152.6394340981249
 30
0.0
 10
110.783246500082
 20
152.6394340981249
 30
0.0
 10
112.9371201974602
 20
152.6394340981249
 30
0.0
 10
112.9371201974602
 20
152.6394340981249
 30
0.0
 10
112.9371201974602
 20
152.6394340981249
 30
0.0
 10
114.1690863429855
 20
156.0264797244483
 30
0.0
 10
114.1690863429855
 20
156.0264797244483
 30
0.0
 10
114.1690863429855
 20
156.0264797244483
 30
0.0
 10
129.7292046116649
 20
156.0264797244483
 30
0.0
 10
129.7292046116649
 20
156.0266519792225
 30
0.0
 10
129.7292046116649
 20
156.0266519792225
 30
0.0
 10
129.7292046116649
 20
162.6395127631596
 30
0.0
 10
129.7292046116649
 20
162.6395127631596
 30
0.0
 10
129.7292046116649
 20
162.6395127631596
 30
0.0
 10
9.718614363889792
 20
162.6395127631596
 30
0.0
 10
9.718614363889792
 20
162.6395127631596
 30
0.0
 10
9.718614363889792
 20
162.6395127631596
 30
0.0
 10
9.718614363889792
 20
156.0266519792225
 30
0.0
 10
9.718614363889792
 20
156.0266519792225
 30
0.0
  0
SPLINE
  5
A3
330
1F
100
AcDbEntity
  8
\U+30EC\U+30A4\U+30E4\U+30FC 1
370
     0
100
AcDbSpline
210
0.0
220
0.0
230
1.0
 70
    11
 71
     3
 72
    41
 73
    37
 74
     0
 42
0.0000000001
 43
0.0000000001
 40
0.0
 40
0.0
 40
0.0
 40
0.0
 40
1.0
 40
1.0
 40
1.0
 40
2.0
 40
2.0
 40
2.0
 40
3.0
 40
3.0
 40
3.0
 40
4.0
 40
4.0
 40
4.0
 40
5.0
 40
5.0
 40
5.0
 40
6.0
 40
6.0
 40
6.0
 40
7.0
 40
7.0
 40
7.0
 40
8.0
 40
8.0
 40
8.0
 40
9.0
 40
9.0
 40
9.0
 40
10.0
 40
10.0
 40
10.0
 40
11.0
 40
11.0
 40
11.0
 40
12.0
 40
12.0
 40
12.0
 40
12.0
 10
28.34831270992681
 20
127.4223686747416
 30
0.0
 10
28.34831270992681
 20
128.4769124027766
 30
0.0
 10
29.12621527049622
 20
129.347315777125
 30
0.0
 10
30.13890108838541
 20
129.4971774307334
 30
0.0
 10
29.70602484066377
 20
130.3277899522271
 30
0.0
 10
29.02251789639021
 20
131.0044067055302
 30
0.0
 10
28.18777126031417
 20
131.430220507507
 30
0.0
 10
27.96607936583834
 20
130.5081407008799
 30
0.0
 10
27.13822292073281
 20
129.8222221897667
 30
0.0
 10
26.14793022349774
 20
129.8222221897667
 30
0.0
 10
25.1579820358112
 20
129.8222221897667
 30
0.0
 10
24.33029784547993
 20
130.5081407008799
 30
0.0
 10
24.10843369622984
 20
131.4300482527328
 30
0.0
 10
23.26214599027821
 20
130.9985500432052
 30
0.0
 10
22.57209336458267
 20
130.3084974175097
 30
0.0
 10
22.14042290028087
 20
129.4620374567838
 30
0.0
 10
23.06233045213373
 20
129.2401733075337
 30
0.0
 10
23.74824896324697
 20
128.4124891172024
 30
0.0
 10
23.74824896324697
 20
127.4223686747416
 30
0.0
 10
23.74824896324697
 20
126.4324204870551
 30
0.0
 10
23.06233045213373
 20
125.6047362967238
 30
0.0
 10
22.1402506455066
 20
125.3828721474737
 30
0.0
 10
22.57192110980841
 20
124.5365844415221
 30
0.0
 10
23.26214599027821
 20
123.8465318158266
 30
0.0
 10
24.1086059510041
 20
123.4148613515248
 30
0.0
 10
24.33064235502845
 20
124.3365966486034
 30
0.0
 10
25.15832654535972
 20
125.0221706501681
 30
0.0
 10
26.14793022349774
 20
125.0221706501681
 30
0.0
 10
27.13787841118428
 20
125.0221706501681
 30
0.0
 10
27.96556260151555
 20
124.3364243938291
 30
0.0
 10
28.18759900553991
 20
123.4146890967505
 30
0.0
 10
29.02251789639021
 20
123.8405028987274
 30
0.0
 10
29.70619709543804
 20
124.5171196520304
 30
0.0
 10
30.13907334315968
 20
125.3479044282984
 30
0.0
 10
29.12621527049622
 20
125.4977660819068
 30
0.0
 10
28.34831270992681
 20
126.3679972014809
 30
0.0
 10
28.34831270992681
 20
127.4223686747416
 30
0.0
  0
INSERT
  5
A5
330
1F
100
AcDbEntity
  8
\U+30EC\U+30A4\U+30E4\U+30FC 1
100
AcDbBlockReference
  2
block 2
 10
0.0
 20
0.0
 30
0.0
  0
ENDSEC
  0
SECTION
  2
OBJECTS
  0
DICTIONARY
  5
C
330
0
100
AcDbDictionary
281
     1
  3
ACAD_GROUP
350
D
  3
ACAD_LAYOUT
350
1A
  3
ACAD_MLINESTYLE
350
17
  3
ACAD_PLOTSETTINGS
350
19
  3
ACAD_PLOTSTYLENAME
350
E
  3
ACAD_TABLESTYLE
350
ED
  3
ACAD_VISUALSTYLE
350
2A
  0
DICTIONARY
  5
D
102
{ACAD_REACTORS
330
C
102
}
330
C
100
AcDbDictionary
281
     1
  0
DICTIONARY
  5
1A
102
{ACAD_REACTORS
330
C
102
}
330
C
100
AcDbDictionary
281
     1
  3
Layout1
350
1E
  3
Layout2
350
26
  3
Model
350
22
  0
DICTIONARY
  5
17
102
{ACAD_REACTORS
330
C
102
}
330
C
100
AcDbDictionary
281
     1
  3
Standard
350
18
  0
DICTIONARY
  5
19
102
{ACAD_REACTORS
330
C
102
}
330
C
100
AcDbDictionary
281
     1
  0
ACDBDICTIONARYWDFLT
  5
E
102
{ACAD_REACTORS
330
C
102
}
330
C
100
AcDbDictionary
281
     1
  3
Normal
350
F
100
AcDbDictionaryWithDefault
340
F
  0
DICTIONARY
  5
ED
102
{ACAD_REACTORS
330
C
102
}
330
C
100
AcDbDictionary
281
     1
  0
DICTIONARY
  5
2A
102
{ACAD_REACTORS
330
C
102
}
330
C
100
AcDbDictionary
281
     1
  3
2dWireframe
350
2F
  3
3D Hidden
350
31
  3
3dWireframe
350
30
  3
Basic
350
32
  3
Brighten
350
36
  3
ColorChange
350
3A
  3
Conceptual
350
34
  3
Dim
350
35
  3
Facepattern
350
39
  3
Flat
350
2B
  3
FlatWithEdges
350
2C
  3
Gouraud
350
2D
  3
GouraudWithEdges
350
2E
  3
Linepattern
350
38
  3
Realistic
350
33
  3
Thicken
350
37
  0
LAYOUT
  5
1E
102
{ACAD_REACTORS
330
1A
102
}
330
1A
100
AcDbPlotSettings
  1

  2
none_device
  4

  6

 40
0.0
 41
0.0
 42
0.0
 43
0.0
 44
0.0
 45
0.0
 46
0.0
 47
0.0
 48
0.0
 49
0.0
140
0.0
141
0.0
142
1.0
143
1.0
 70
   688
 72
     0
 73
     0
 74
     5
  7

 75
    16
 76
     0
 77
     2
 78
   300
147
1.0
148
0.0
149
0.0
100
AcDbLayout
  1
Layout1
 70
     1
 71
     1
 10
0.0
 20
0.0
 11
12.0
 21
9.0
 12
0.0
 22
0.0
 32
0.0
 14
1.000000000000000E+20
 24
1.000000000000000E+20
 34
1.000000000000000E+20
 15
-1.000000000000000E+20
 25
-1.000000000000000E+20
 35
-1.000000000000000E+20
146
0.0
 13
0.0
 23
0.0
 33
0.0
 16
1.0
 26
0.0
 36
0.0
 17
0.0
 27
1.0
 37
0.0
 76
     0
330
1B
  0
LAYOUT
  5
26
102
{ACAD_REACTORS
330
1A
102
}
330
1A
100
AcDbPlotSettings
  1

  2
none_device
  4

  6

 40
0.0
 41
0.0
 42
0.0
 43
0.0
 44
0.0
 45
0.0
 46
0.0
 47
0.0
 48
0.0
 49
0.0
140
0.0
141
0.0
142
1.0
143
1.0
 70
   688
 72
     0
 73
     0
 74
     5
  7

 75
    16
 76
     0
 77
     2
 78
   300
147
1.0
148
0.0
149
0.0
100
AcDbLayout
  1
Layout2
 70
     1
 71
     2
 10
0.0
 20
0.0
 11
0.0
 21
0.0
 12
0.0
 22
0.0
 32
0.0
 14
0.0
 24
0.0
 34
0.0
 15
0.0
 25
0.0
 35
0.0
146
0.0
 13
0.0
 23
0.0
 33
0.0
 16
1.0
 26
0.0
 36
0.0
 17
0.0
 27
1.0
 37
0.0
 76
     0
330
23
  0
LAYOUT
  5
22
102
{ACAD_REACTORS
330
1A
102
}
330
1A
100
AcDbPlotSettings
  1

  2
none_device
  4

  6

 40
0.0
 41
0.0
 42
0.0
 43
0.0
 44
0.0
 45
0.0
 46
0.0
 47
0.0
 48
0.0
 49
0.0
140
0.0
141
0.0
142
1.0
143
1.0
 70
  1712
 72
     0
 73
     0
 74
     0
  7

 75
     0
 76
     0
 77
     2
 78
   300
147
1.0
148
0.0
149
0.0
100
AcDbLayout
  1
Model
 70
     1
 71
     0
 10
0.0
 20
0.0
 11
12.0
 21
9.0
 12
0.0
 22
0.0
 32
0.0
 14
1.000000000000000E+20
 24
1.000000000000000E+20
 34
1.000000000000000E+20
 15
-1.000000000000000E+20
 25
-1.000000000000000E+20
 35
-1.000000000000000E+20
146
0.0
 13
0.0
 23
0.0
 33
0.0
 16
1.0
 26
0.0
 36
0.0
 17
0.0
 27
1.0
 37
0.0
 76
     0
330
1F
331
29
  0
MLINESTYLE
  5
18
102
{ACAD_REACTORS
330
17
102
}
330
17
100
AcDbMlineStyle
  2
Standard
 70
     0
  3

 62
   256
 51
90.0
 52
90.0
 71
     2
 49
0.5
 62
   256
  6
BYLAYER
 49
-0.5
 62
   256
  6
BYLAYER
  0
ACDBPLACEHOLDER
  5
F
102
{ACAD_REACTORS
330
E
102
}
330
E
  0
VISUALSTYLE
  5
2F
102
{ACAD_REACTORS
330
2A
102
}
330
2A
100
AcDbVisualStyle
  2
2dWireframe
 70
     4
 71
     0
 72
     2
 73
     0
 90
        0
 40
-0.6
 41
-30.0
 62
     5
 63
     7
421
 16777215
 74
     1
 91
        4
 64
     7
 65
   257
 75
     1
175
     1
 42
1.0
 92
        0
 66
   257
 43
1.0
 76
     1
 77
     6
 78
     2
 67
     7
 79
     5
170
     0
171
     0
290
     0
174
     0
 93
        1
 44
0.0
173
     0
291
     0
 45
0.0
1001
ACAD
1000
AcDbSavedByObjectVersion
1070
     0
  0
VISUALSTYLE
  5
31
102
{ACAD_REACTORS
330
2A
102
}
330
2A
100
AcDbVisualStyle
  2
3D Hidden
 70
     6
 71
     1
 72
     2
 73
     2
 90
        0
 40
-0.6
 41
-30.0
 62
     5
 63
     7
421
 16777215
 74
     2
 91
        2
 64
     7
 65
   257
 75
     2
175
     1
 42
40.0
 92
        0
 66
   257
 43
1.0
 76
     1
 77
     6
 78
     2
 67
     7
 79
     3
170
     0
171
     0
290
     0
174
     0
 93
        1
 44
0.0
173
     0
291
     0
 45
0.0
1001
ACAD
1000
AcDbSavedByObjectVersion
1070
     0
  0
VISUALSTYLE
  5
30
102
{ACAD_REACTORS
330
2A
102
}
330
2A
100
AcDbVisualStyle
  2
3dWireframe
 70
     5
 71
     0
 72
     2
 73
     0
 90
        0
 40
-0.6
 41
-30.0
 62
     5
 63
     7
421
 16777215
 74
     1
 91
        4
 64
     7
 65
   257
 75
     1
175
     1
 42
1.0
 92
        0
 66
   257
 43
1.0
 76
     1
 77
     6
 78
     2
 67
     7
 79
     5
170
     0
171
     0
290
     0
174
     0
 93
        1
 44
0.0
173
     0
291
     0
 45
0.0
1001
ACAD
1000
AcDbSavedByObjectVersion
1070
     0
  0
VISUALSTYLE
  5
32
102
{ACAD_REACTORS
330
2A
102
}
330
2A
100
AcDbVisualStyle
  2
Basic
 70
     7
 71
     1
 72
     0
 73
     1
 90
        0
 40
-0.6
 41
-30.0
 62
     5
 63
     7
421
 16777215
 74
     0
 91
        4
 64
     7
 65
   257
 75
     1
175
     1
 42
1.0
 92
        8
 66
     7
 43
1.0
 76
     1
 77
     6
 78
     2
 67
     7
 79
     5
170
     0
171
     0
290
     0
174
     0
 93
        1
 44
0.0
173
     0
291
     1
 45
0.0
1001
ACAD
1000
AcDbSavedByObjectVersion
1070
     0
  0
VISUALSTYLE
  5
36
102
{ACAD_REACTORS
330
2A
102
}
330
2A
100
AcDbVisualStyle
  2
Brighten
 70
    12
 71
     2
 72
     2
 73
     0
 90
        0
 40
-0.6
 41
-30.0
 62
     5
 63
     7
421
 16777215
 74
     1
 91
        4
 64
     7
 65
   257
 75
     1
175
     1
 42
1.0
 92
        8
 66
     7
 43
1.0
 76
     1
 77
     6
 78
     2
 67
     7
 79
     5
170
     0
171
     0
290
     0
174
     0
 93
        1
 44
50.0
173
     0
291
     1
 45
0.0
1001
ACAD
1000
AcDbSavedByObjectVersion
1070
     0
  0
VISUALSTYLE
  5
3A
102
{ACAD_REACTORS
330
2A
102
}
330
2A
100
AcDbVisualStyle
  2
ColorChange
 70
    16
 71
     2
 72
     2
 73
     3
 90
        0
 40
-0.6
 41
-30.0
 62
     5
 63
     8
421
  8421504
 74
     1
 91
        4
 64
     7
 65
   257
 75
     1
175
     1
 42
1.0
 92
        8
 66
     8
424
  8421504
 43
1.0
 76
     1
 77
     6
 78
     2
 67
     7
 79
     5
170
     0
171
     0
290
     0
174
     0
 93
        1
 44
0.0
173
     0
291
     1
 45
0.0
1001
ACAD
1000
AcDbSavedByObjectVersion
1070
     0
  0
VISUALSTYLE
  5
34
102
{ACAD_REACTORS
330
2A
102
}
330
2A
100
AcDbVisualStyle
  2
Conceptual
 70
     9
 71
     3
 72
     2
 73
     0
 90
        0
 40
-0.6
 41
-30.0
 62
     5
 63
     7
421
 16777215
 74
     2
 91
        2
 64
     7
 65
   257
 75
     1
175
     1
 42
40.0
 92
        8
 66
     7
 43
1.0
 76
     1
 77
     6
 78
     2
 67
     7
 79
     3
170
     0
171
     0
290
     0
174
     0
 93
        1
 44
0.0
173
     0
291
     0
 45
0.0
1001
ACAD
1000
AcDbSavedByObjectVersion
1070
     0
  0
VISUALSTYLE
  5
35
102
{ACAD_REACTORS
330
2A
102
}
330
2A
100
AcDbVisualStyle
  2
Dim
 70
    11
 71
     2
 72
     2
 73
     0
 90
        0
 40
-0.6
 41
-30.0
 62
     5
 63
     7
421
 16777215
 74
     1
 91
        4
 64
     7
 65
   257
 75
     1
175
     1
 42
1.0
 92
        8
 66
     7
 43
1.0
 76
     1
 77
     6
 78
     2
 67
     7
 79
     5
170
     0
171
     0
290
     0
174
     0
 93
        1
 44
-50.0
173
     0
291
     1
 45
0.0
1001
ACAD
1000
AcDbSavedByObjectVersion
1070
     0
  0
VISUALSTYLE
  5
39
102
{ACAD_REACTORS
330
2A
102
}
330
2A
100
AcDbVisualStyle
  2
Facepattern
 70
    15
 71
     2
 72
     2
 73
     0
 90
        0
 40
-0.6
 41
-30.0
 62
     5
 63
     7
421
 16777215
 74
     1
 91
        4
 64
     7
 65
   257
 75
     1
175
     1
 42
1.0
 92
        8
 66
     7
 43
1.0
 76
     1
 77
     6
 78
     2
 67
     7
 79
     5
170
     0
171
     0
290
     0
174
     0
 93
        1
 44
0.0
173
     0
291
     1
 45
0.0
1001
ACAD
1000
AcDbSavedByObjectVersion
1070
     0
  0
VISUALSTYLE
  5
2B
102
{ACAD_REACTORS
330
2A
102
}
330
2A
100
AcDbVisualStyle
  2
Flat
 70
     0
 71
     2
 72
     1
 73
     1
 90
        2
 40
-0.6
 41
30.0
 62
     5
 63
     7
421
 16777215
 74
     0
 91
        4
 64
     7
 65
   257
 75
     1
175
     1
 42
1.0
 92
        8
 66
     7
 43
1.0
 76
     1
 77
     6
 78
     2
 67
     7
 79
     5
170
     0
171
     0
290
     0
174
     0
 93
       13
 44
0.0
173
     0
291
     1
 45
0.0
1001
ACAD
1000
AcDbSavedByObjectVersion
1070
     0
  0
VISUALSTYLE
  5
2C
102
{ACAD_REACTORS
330
2A
102
}
330
2A
100
AcDbVisualStyle
  2
FlatWithEdges
 70
     1
 71
     2
 72
     1
 73
     1
 90
        2
 40
-0.6
 41
30.0
 62
     5
 63
     7
421
 16777215
 74
     1
 91
        4
 64
     7
 65
   257
 75
     1
175
     1
 42
1.0
 92
        0
 66
   257
 43
1.0
 76
     1
 77
     6
 78
     2
 67
     7
 79
     5
170
     0
171
     0
290
     0
174
     0
 93
       13
 44
0.0
173
     0
291
     1
 45
0.0
1001
ACAD
1000
AcDbSavedByObjectVersion
1070
     0
  0
VISUALSTYLE
  5
2D
102
{ACAD_REACTORS
330
2A
102
}
330
2A
100
AcDbVisualStyle
  2
Gouraud
 70
     2
 71
     2
 72
     2
 73
     1
 90
        2
 40
-0.6
 41
30.0
 62
     5
 63
     7
421
 16777215
 74
     0
 91
        4
 64
     7
 65
   257
 75
     1
175
     1
 42
1.0
 92
        0
 66
     7
 43
1.0
 76
     1
 77
     6
 78
     2
 67
     7
 79
     5
170
     0
171
     0
290
     0
174
     0
 93
       13
 44
0.0
173
     0
291
     1
 45
0.0
1001
ACAD
1000
AcDbSavedByObjectVersion
1070
     0
  0
VISUALSTYLE
  5
2E
102
{ACAD_REACTORS
330
2A
102
}
330
2A
100
AcDbVisualStyle
  2
GouraudWithEdges
 70
     3
 71
     2
 72
     2
 73
     1
 90
        2
 40
-0.6
 41
30.0
 62
     5
 63
     7
421
 16777215
 74
     1
 91
        4
 64
     7
 65
   257
 75
     1
175
     1
 42
1.0
 92
        0
 66
   257
 43
1.0
 76
     1
 77
     6
 78
     2
 67
     7
 79
     5
170
     0
171
     0
290
     0
174
     0
 93
       13
 44
0.0
173
     0
291
     1
 45
0.0
1001
ACAD
1000
AcDbSavedByObjectVersion
1070
     0
  0
VISUALSTYLE
  5
38
102
{ACAD_REACTORS
330
2A
102
}
330
2A
100
AcDbVisualStyle
  2
Linepattern
 70
    14
 71
     2
 72
     2
 73
     0
 90
        0
 40
-0.6
 41
-30.0
 62
     5
 63
     7
421
 16777215
 74
     1
 91
        4
 64
     7
 65
   257
 75
     7
175
     7
 42
1.0
 92
        8
 66
     7
 43
1.0
 76
     1
 77
     6
 78
     2
 67
     7
 79
     5
170
     0
171
     0
290
     0
174
     0
 93
        1
 44
0.0
173
     0
291
     1
 45
0.0
1001
ACAD
1000
AcDbSavedByObjectVersion
1070
     0
  0
VISUALSTYLE
  5
33
102
{ACAD_REACTORS
330
2A
102
}
330
2A
100
AcDbVisualStyle
  2
Realistic
 70
     8
 71
     2
 72
     2
 73
     0
 90
        0
 40
-0.6
 41
-30.0
 62
     5
 63
     7
421
 16777215
 74
     1
 91
        0
 64
     7
 65
   257
 75
     1
175
     1
 42
1.0
 92
        8
 66
     8
424
  7895160
 43
1.0
 76
     1
 77
     6
 78
     2
 67
     7
 79
     5
170
     0
171
     0
290
     0
174
     0
 93
       13
 44
0.0
173
     0
291
     0
 45
0.0
1001
ACAD
1000
AcDbSavedByObjectVersion
1070
     0
  0
VISUALSTYLE
  5
37
102
{ACAD_REACTORS
330
2A
102
}
330
2A
100
AcDbVisualStyle
  2
Thicken
 70
    13
 71
     2
 72
     2
 73
     0
 90
        0
 40
-0.6
 41
-30.0
 62
     5
 63
     7
421
 16777215
 74
     1
 91
        4
 64
     7
 65
   257
 75
     1
175
     1
 42
1.0
 92
       12
 66
     7
 43
1.0
 76
     1
 77
     6
 78
     2
 67
     7
 79
     5
170
     0
171
     0
290
     0
174
     0
 93
        1
 44
0.0
173
     0
291
     1
 45
0.0
1001
ACAD
1000
AcDbSavedByObjectVersion
1070
     0
  0
ENDSEC
  0
EOF
