  0
SECTION
  2
HEADER
  9
$ACADVER
  1
AC1018
  9
$ACADMAINTVER
 70
     0
  9
$DWGCODEPAGE
  3
ANSI_932
  9
$INSBASE
 10
0.0
 20
0.0
 30
0.0
  9
$EXTMIN
 10
1.000000000000000E+20
 20
1.000000000000000E+20
 30
1.000000000000000E+20
  9
$EXTMAX
 10
-1.000000000000000E+20
 20
-1.000000000000000E+20
 30
-1.000000000000000E+20
  9
$LIMMIN
 10
0.0
 20
0.0
  9
$LIMMAX
 10
12.0
 20
9.0
  9
$ORTHOMODE
 70
     0
  9
$REGENMODE
 70
     1
  9
$FILLMODE
 70
     1
  9
$QTEXTMODE
 70
     0
  9
$MIRRTEXT
 70
     1
  9
$LTSCALE
 40
1.0
  9
$ATTMODE
 70
     1
  9
$TEXTSIZE
 40
0.2
  9
$TRACEWID
 40
0.05
  9
$TEXTSTYLE
  7
Standard
  9
$CLAYER
  8
0
  9
$CELTYPE
  6
ByLayer
  9
$CECOLOR
 62
   256
  9
$CELTSCALE
 40
1.0
  9
$DISPSILH
 70
     0
  9
$DIMSCALE
 40
1.0
  9
$DIMASZ
 40
0.18
  9
$DIMEXO
 40
0.0625
  9
$DIMDLI
 40
0.38
  9
$DIMRND
 40
0.0
  9
$DIMDLE
 40
0.0
  9
$DIMEXE
 40
0.18
  9
$DIMTP
 40
0.0
  9
$DIMTM
 40
0.0
  9
$DIMTXT
 40
0.18
  9
$DIMCEN
 40
0.09
  9
$DIMTSZ
 40
0.0
  9
$DIMTOL
 70
     0
  9
$DIMLIM
 70
     0
  9
$DIMTIH
 70
     1
  9
$DIMTOH
 70
     1
  9
$DIMSE1
 70
     0
  9
$DIMSE2
 70
     0
  9
$DIMTAD
 70
     0
  9
$DIMZIN
 70
     0
  9
$DIMBLK
  1

  9
$DIMASO
 70
     1
  9
$DIMSHO
 70
     1
  9
$DIMPOST
  1

  9
$DIMAPOST
  1

  9
$DIMALT
 70
     0
  9
$DIMALTD
 70
     2
  9
$DIMALTF
 40
25.4
  9
$DIMLFAC
 40
1.0
  9
$DIMTOFL
 70
     0
  9
$DIMTVP
 40
0.0
  9
$DIMTIX
 70
     0
  9
$DIMSOXD
 70
     0
  9
$DIMSAH
 70
     0
  9
$DIMBLK1
  1

  9
$DIMBLK2
  1

  9
$DIMSTYLE
  2
Standard
  9
$DIMCLRD
 70
     0
  9
$DIMCLRE
 70
     0
  9
$DIMCLRT
 70
     0
  9
$DIMTFAC
 40
1.0
  9
$DIMGAP
 40
0.09
  9
$DIMJUST
 70
     0
  9
$DIMSD1
 70
     0
  9
$DIMSD2
 70
     0
  9
$DIMTOLJ
 70
     1
  9
$DIMTZIN
 70
     0
  9
$DIMALTZ
 70
     0
  9
$DIMALTTZ
 70
     0
  9
$DIMUPT
 70
     0
  9
$DIMDEC
 70
     4
  9
$DIMTDEC
 70
     4
  9
$DIMALTU
 70
     2
  9
$DIMALTTD
 70
     2
  9
$DIMTXSTY
  7
Standard
  9
$DIMAUNIT
 70
     0
  9
$DIMADEC
 70
     0
  9
$DIMALTRND
 40
0.0
  9
$DIMAZIN
 70
     0
  9
$DIMDSEP
 70
    46
  9
$DIMATFIT
 70
     3
  9
$DIMFRAC
 70
     0
  9
$DIMLDRBLK
  1

  9
$DIMLUNIT
 70
     2
  9
$DIMLWD
 70
    -2
  9
$DIMLWE
 70
    -2
  9
$DIMTMOVE
 70
     0
  9
$LUNITS
 70
     2
  9
$LUPREC
 70
     4
  9
$SKETCHINC
 40
0.1
  9
$FILLETRAD
 40
0.5
  9
$AUNITS
 70
     0
  9
$AUPREC
 70
     0
  9
$MENU
  1
.
  9
$ELEVATION
 40
0.0
  9
$PELEVATION
 40
0.0
  9
$THICKNESS
 40
0.0
  9
$LIMCHECK
 70
     0
  9
$CHAMFERA
 40
0.5
  9
$CHAMFERB
 40
0.5
  9
$CHAMFERC
 40
1.0
  9
$CHAMFERD
 40
0.0
  9
$SKPOLY
 70
     0
  9
$TDCREATE
 40
2457841.69958743
  9
$TDUCREATE
 40
2457841.32458743
  9
$TDUPDATE
 40
2457841.699587442
  9
$TDUUPDATE
 40
2457841.324587442
  9
$TDINDWG
 40
0.0000000116
  9
$TDUSRTIMER
 40
0.0000000116
  9
$USRTIMER
 70
     1
  9
$ANGBASE
 50
0.0
  9
$ANGDIR
 70
     0
  9
$PDMODE
 70
     0
  9
$PDSIZE
 40
0.0
  9
$PLINEWID
 40
0.0
  9
$SPLFRAME
 70
     0
  9
$SPLINETYPE
 70
     6
  9
$SPLINESEGS
 70
     8
  9
$HANDSEED
  5
E3
  9
$SURFTAB1
 70
     6
  9
$SURFTAB2
 70
     6
  9
$SURFTYPE
 70
     6
  9
$SURFU
 70
     6
  9
$SURFV
 70
     6
  9
$UCSBASE
  2

  9
$UCSNAME
  2

  9
$UCSORG
 10
0.0
 20
0.0
 30
0.0
  9
$UCSXDIR
 10
1.0
 20
0.0
 30
0.0
  9
$UCSYDIR
 10
0.0
 20
1.0
 30
0.0
  9
$UCSORTHOREF
  2

  9
$UCSORTHOVIEW
 70
     0
  9
$UCSORGTOP
 10
0.0
 20
0.0
 30
0.0
  9
$UCSORGBOTTOM
 10
0.0
 20
0.0
 30
0.0
  9
$UCSORGLEFT
 10
0.0
 20
0.0
 30
0.0
  9
$UCSORGRIGHT
 10
0.0
 20
0.0
 30
0.0
  9
$UCSORGFRONT
 10
0.0
 20
0.0
 30
0.0
  9
$UCSORGBACK
 10
0.0
 20
0.0
 30
0.0
  9
$PUCSBASE
  2

  9
$PUCSNAME
  2

  9
$PUCSORG
 10
0.0
 20
0.0
 30
0.0
  9
$PUCSXDIR
 10
1.0
 20
0.0
 30
0.0
  9
$PUCSYDIR
 10
0.0
 20
1.0
 30
0.0
  9
$PUCSORTHOREF
  2

  9
$PUCSORTHOVIEW
 70
     0
  9
$PUCSORGTOP
 10
0.0
 20
0.0
 30
0.0
  9
$PUCSORGBOTTOM
 10
0.0
 20
0.0
 30
0.0
  9
$PUCSORGLEFT
 10
0.0
 20
0.0
 30
0.0
  9
$PUCSORGRIGHT
 10
0.0
 20
0.0
 30
0.0
  9
$PUCSORGFRONT
 10
0.0
 20
0.0
 30
0.0
  9
$PUCSORGBACK
 10
0.0
 20
0.0
 30
0.0
  9
$USERI1
 70
     0
  9
$USERI2
 70
     0
  9
$USERI3
 70
     0
  9
$USERI4
 70
     0
  9
$USERI5
 70
     0
  9
$USERR1
 40
0.0
  9
$USERR2
 40
0.0
  9
$USERR3
 40
0.0
  9
$USERR4
 40
0.0
  9
$USERR5
 40
0.0
  9
$WORLDVIEW
 70
     1
  9
$SHADEDGE
 70
     3
  9
$SHADEDIF
 70
    70
  9
$TILEMODE
 70
     1
  9
$MAXACTVP
 70
    64
  9
$PINSBASE
 10
0.0
 20
0.0
 30
0.0
  9
$PLIMCHECK
 70
     0
  9
$PEXTMIN
 10
1.000000000000000E+20
 20
1.000000000000000E+20
 30
1.000000000000000E+20
  9
$PEXTMAX
 10
-1.000000000000000E+20
 20
-1.000000000000000E+20
 30
-1.000000000000000E+20
  9
$PLIMMIN
 10
0.0
 20
0.0
  9
$PLIMMAX
 10
12.0
 20
9.0
  9
$UNITMODE
 70
     0
  9
$VISRETAIN
 70
     1
  9
$PLINEGEN
 70
     0
  9
$PSLTSCALE
 70
     1
  9
$TREEDEPTH
 70
  3020
  9
$CMLSTYLE
  2
Standard
  9
$CMLJUST
 70
     0
  9
$CMLSCALE
 40
1.0
  9
$PROXYGRAPHICS
 70
     1
  9
$MEASUREMENT
 70
     0
  9
$CELWEIGHT
370
    -1
  9
$ENDCAPS
280
     0
  9
$JOINSTYLE
280
     0
  9
$LWDISPLAY
290
     1
  9
$INSUNITS
 70
     1
  9
$HYPERLINKBASE
  1

  9
$STYLESHEET
  1

  9
$XEDIT
290
     1
  9
$CEPSNTYPE
380
     0
  9
$PSTYLEMODE
290
     1
  9
$FINGERPRINTGUID
  2
{ADE22B6A-823A-4709-AE07-4D9EDC14E8E6}
  9
$VERSIONGUID
  2
{FAEB1C32-E019-11D5-929B-00C0DF256EC4}
  9
$EXTNAMES
290
     1
  9
$PSVPSCALE
 40
0.0
  9
$OLESTARTUP
290
     0
  9
$SORTENTS
280
   127
  9
$INDEXCTL
280
     0
  9
$HIDETEXT
280
     1
  9
$XCLIPFRAME
290
     0
  9
$HALOGAP
280
     0
  9
$OBSCOLOR
 70
   257
  9
$OBSLTYPE
280
     0
  9
$INTERSECTIONDISPLAY
280
     0
  9
$INTERSECTIONCOLOR
 70
   257
  9
$DIMASSOC
280
     2
  9
$PROJECTNAME
  1

  0
ENDSEC
  0
SECTION
  2
CLASSES
  0
CLASS
  1
ACDBDICTIONARYWDFLT
  2
AcDbDictionaryWithDefault
  3
ObjectDBX Classes
 90
        0
 91
        3
280
     0
281
     0
  0
CLASS
  1
VISUALSTYLE
  2
AcDbVisualStyle
  3
ObjectDBX Classes
 90
     4095
 91
        3
280
     0
281
     0
  0
ENDSEC
  0
SECTION
  2
TABLES
  0
TABLE
  2
VPORT
  5
8
330
0
100
AcDbSymbolTable
 70
     1
  0
VPORT
  5
29
330
8
100
AcDbSymbolTableRecord
100
AcDbViewportTableRecord
  2
*Active
 70
     0
 10
0.0
 20
0.0
 11
1.0
 21
1.0
 12
0.0
 22
0.0
 13
0.0
 23
0.0
 14
0.5
 24
0.5
 15
0.5
 25
0.5
 16
0.0
 26
0.0
 36
1.0
 17
209.9997571632119
 27
-148.4999796178229
 37
0.0
 40
296.9999592356459
 41
1.414139972972816
 42
50.0
 43
0.0
 44
0.0
 50
0.0
 51
0.0
 71
     0
 72
   100
 73
     1
 74
     3
 75
     0
 76
     0
 77
     0
 78
     0
281
     0
 65
     1
110
0.0
120
0.0
130
0.0
111
1.0
121
0.0
131
0.0
112
0.0
122
1.0
132
0.0
 79
     0
146
0.0
  0
ENDTAB
  0
TABLE
  2
LTYPE
  5
5
330
0
100
AcDbSymbolTable
 70
     1
  0
LTYPE
  5
14
330
5
100
AcDbSymbolTableRecord
100
AcDbLinetypeTableRecord
  2
ByBlock
 70
     0
  3

 72
    65
 73
     0
 40
0.0
  0
LTYPE
  5
15
330
5
100
AcDbSymbolTableRecord
100
AcDbLinetypeTableRecord
  2
ByLayer
 70
     0
  3

 72
    65
 73
     0
 40
0.0
  0
LTYPE
  5
16
330
5
100
AcDbSymbolTableRecord
100
AcDbLinetypeTableRecord
  2
Continuous
 70
     0
  3
Solid line
 72
    65
 73
     0
 40
0.0
  0
ENDTAB
  0
TABLE
  2
LAYER
  5
2
330
0
100
AcDbSymbolTable
 70
     2
  0
LAYER
  5
10
330
2
100
AcDbSymbolTableRecord
100
AcDbLayerTableRecord
  2
0
 70
     0
 62
     7
  6
Continuous
370
    -3
390
F
  0
LAYER
  5
3B
330
2
100
AcDbSymbolTableRecord
100
AcDbLayerTableRecord
  2
\U+30EC\U+30A4\U+30E4\U+30FC 1
 70
     0
 62
     7
  6
Continuous
370
    -3
390
F
  0
ENDTAB
  0
TABLE
  2
STYLE
  5
3
330
0
100
AcDbSymbolTable
 70
     1
  0
STYLE
  5
11
330
3
100
AcDbSymbolTableRecord
100
AcDbTextStyleTableRecord
  2
Standard
 70
     0
 40
0.0
 41
1.0
 50
0.0
 71
     0
 42
0.2
  3
txt
  4

  0
ENDTAB
  0
TABLE
  2
VIEW
  5
6
330
0
100
AcDbSymbolTable
 70
     0
  0
ENDTAB
  0
TABLE
  2
UCS
  5
7
330
0
100
AcDbSymbolTable
 70
     0
  0
ENDTAB
  0
TABLE
  2
APPID
  5
9
330
0
100
AcDbSymbolTable
 70
     1
  0
APPID
  5
12
330
9
100
AcDbSymbolTableRecord
100
AcDbRegAppTableRecord
  2
ACAD
 70
     0
  0
ENDTAB
  0
TABLE
  2
DIMSTYLE
  5
A
330
0
100
AcDbSymbolTable
 70
     1
100
AcDbDimStyleTable
  0
DIMSTYLE
105
27
330
A
100
AcDbSymbolTableRecord
100
AcDbDimStyleTableRecord
  2
Standard
 70
     0
340
11
  0
ENDTAB
  0
TABLE
  2
BLOCK_RECORD
  5
1
330
0
100
AcDbSymbolTable
 70
     4
  0
BLOCK_RECORD
  5
1F
330
1
100
AcDbSymbolTableRecord
100
AcDbBlockTableRecord
  2
*Model_Space
340
22
  0
BLOCK_RECORD
  5
1B
330
1
100
AcDbSymbolTableRecord
100
AcDbBlockTableRecord
  2
*Paper_Space
340
1E
  0
BLOCK_RECORD
  5
23
330
1
100
AcDbSymbolTableRecord
100
AcDbBlockTableRecord
  2
*Paper_Space0
340
26
  0
BLOCK_RECORD
  5
3C
330
1
100
AcDbSymbolTableRecord
100
AcDbBlockTableRecord
  2
block 2
340
0
102
{BLKREFS
331
3D
102
}
  0
BLOCK_RECORD
  5
67
330
1
100
AcDbSymbolTableRecord
100
AcDbBlockTableRecord
  2
block 3
340
0
102
{BLKREFS
331
68
102
}
  0
BLOCK_RECORD
  5
92
330
1
100
AcDbSymbolTableRecord
100
AcDbBlockTableRecord
  2
block 4
340
0
102
{BLKREFS
331
93
102
}
  0
ENDTAB
  0
ENDSEC
  0
SECTION
  2
BLOCKS
  0
BLOCK
  5
20
330
1F
100
AcDbEntity
  8
0
100
AcDbBlockBegin
  2
*Model_Space
 70
     0
 71
     0
 10
0.0
 20
0.0
 30
0.0
  3
*Model_Space
  1

  0
ENDBLK
  5
21
330
1F
100
AcDbEntity
  8
0
100
AcDbBlockEnd
  0
BLOCK
  5
1C
330
1B
100
AcDbEntity
 67
     1
  8
0
100
AcDbBlockBegin
  2
*Paper_Space
 70
     0
 71
     0
 10
0.0
 20
0.0
 30
0.0
  3
*Paper_Space
  1

  0
ENDBLK
  5
1D
330
1B
100
AcDbEntity
 67
     1
  8
0
100
AcDbBlockEnd
  0
BLOCK
  5
24
330
23
100
AcDbEntity
  8
0
100
AcDbBlockBegin
  2
*Paper_Space0
 70
     0
 71
     0
 10
0.0
 20
0.0
 30
0.0
  3
*Paper_Space0
  1

  0
ENDBLK
  5
25
330
23
100
AcDbEntity
  8
0
100
AcDbBlockEnd
  0
BLOCK
  5
3E
330
3C
100
AcDbEntity
  8
0
100
AcDbBlockBegin
  2
block 2
 70
     0
 71
     0
 10
0.0
 20
0.0
 30
0.0
  3
block 2
  1

  0
POLYLINE
  5
40
330
3C
100
AcDbEntity
  8
\U+30EC\U+30A4\U+30E4\U+30FC 1
 62
     7
420
 16777215
370
    25
100
AcDb2dPolyline
 66
     1
 10
0.0
 20
0.0
 30
0.0
  0
VERTEX
  5
41
330
40
100
AcDbEntity
  8
\U+30EC\U+30A4\U+30E4\U+30FC 1
 62
     7
420
 16777215
370
    25
100
AcDbVertex
100
AcDb2dVertex
 10
367.4476832848742
 20
-5.997566730271441
 30
0.0
  0
VERTEX
  5
42
330
40
100
AcDbEntity
  8
\U+30EC\U+30A4\U+30E4\U+30FC 1
 62
     7
420
 16777215
370
    25
100
AcDbVertex
100
AcDb2dVertex
 10
367.4476832848742
 20
-292.0004366674513
 30
0.0
  0
VERTEX
  5
43
330
40
100
AcDbEntity
  8
\U+30EC\U+30A4\U+30E4\U+30FC 1
 62
     7
420
 16777215
370
    25
100
AcDbVertex
100
AcDb2dVertex
 10
339.9475530834159
 20
-292.0004366674513
 30
0.0
  0
VERTEX
  5
44
330
40
100
AcDbEntity
  8
\U+30EC\U+30A4\U+30E4\U+30FC 1
 62
     7
420
 16777215
370
    25
100
AcDbVertex
100
AcDb2dVertex
 10
339.9475530834159
 20
-296.0008815449234
 30
0.0
  0
VERTEX
  5
45
330
40
100
AcDbEntity
  8
\U+30EC\U+30A4\U+30E4\U+30FC 1
 62
     7
420
 16777215
370
    25
100
AcDbVertex
100
AcDb2dVertex
 10
289.9475042677909
 20
-296.0008815449234
 30
0.0
  0
VERTEX
  5
46
330
40
100
AcDbEntity
  8
\U+30EC\U+30A4\U+30E4\U+30FC 1
 62
     7
420
 16777215
370
    25
100
AcDbVertex
100
AcDb2dVertex
 10
289.9475042677909
 20
-292.0004366674513
 30
0.0
  0
VERTEX
  5
47
330
40
100
AcDbEntity
  8
\U+30EC\U+30A4\U+30E4\U+30FC 1
 62
     7
420
 16777215
370
    25
100
AcDbVertex
100
AcDb2dVertex
 10
254.9477457044922
 20
-292.0004366674513
 30
0.0
  0
VERTEX
  5
48
330
40
100
AcDbEntity
  8
\U+30EC\U+30A4\U+30E4\U+30FC 1
 62
     7
420
 16777215
370
    25
100
AcDbVertex
100
AcDb2dVertex
 10
254.9477457044922
 20
-296.0008815449234
 30
0.0
  0
VERTEX
  5
49
330
40
100
AcDbEntity
  8
\U+30EC\U+30A4\U+30E4\U+30FC 1
 62
     7
420
 16777215
370
    25
100
AcDbVertex
100
AcDb2dVertex
 10
204.9468356149959
 20
-296.0008815449234
 30
0.0
  0
VERTEX
  5
4A
330
40
100
AcDbEntity
  8
\U+30EC\U+30A4\U+30E4\U+30FC 1
 62
     7
420
 16777215
370
    25
100
AcDbVertex
100
AcDb2dVertex
 10
204.9468356149959
 20
-292.0004366674513
 30
0.0
  0
VERTEX
  5
4B
330
40
100
AcDbEntity
  8
\U+30EC\U+30A4\U+30E4\U+30FC 1
 62
     7
420
 16777215
370
    25
100
AcDbVertex
100
AcDb2dVertex
 10
169.9467325421487
 20
-292.0004366674513
 30
0.0
  0
VERTEX
  5
4C
330
40
100
AcDbEntity
  8
\U+30EC\U+30A4\U+30E4\U+30FC 1
 62
     7
420
 16777215
370
    25
100
AcDbVertex
100
AcDb2dVertex
 10
169.9467325421487
 20
-296.0008815449234
 30
0.0
  0
VERTEX
  5
4D
330
40
100
AcDbEntity
  8
\U+30EC\U+30A4\U+30E4\U+30FC 1
 62
     7
420
 16777215
370
    25
100
AcDbVertex
100
AcDb2dVertex
 10
119.946855981298
 20
-296.0008815449234
 30
0.0
  0
VERTEX
  5
4E
330
40
100
AcDbEntity
  8
\U+30EC\U+30A4\U+30E4\U+30FC 1
 62
     7
420
 16777215
370
    25
100
AcDbVertex
100
AcDb2dVertex
 10
119.946855981298
 20
-292.0004366674513
 30
0.0
  0
VERTEX
  5
4F
330
40
100
AcDbEntity
  8
\U+30EC\U+30A4\U+30E4\U+30FC 1
 62
     7
420
 16777215
370
    25
100
AcDbVertex
100
AcDb2dVertex
 10
84.94675290845082
 20
-292.0004366674513
 30
0.0
  0
VERTEX
  5
50
330
40
100
AcDbEntity
  8
\U+30EC\U+30A4\U+30E4\U+30FC 1
 62
     7
420
 16777215
370
    25
100
AcDbVertex
100
AcDb2dVertex
 10
84.94675290845082
 20
-296.0008815449234
 30
0.0
  0
VERTEX
  5
51
330
40
100
AcDbEntity
  8
\U+30EC\U+30A4\U+30E4\U+30FC 1
 62
     7
420
 16777215
370
    25
100
AcDbVertex
100
AcDb2dVertex
 10
34.94670409282583
 20
-296.0008815449234
 30
0.0
  0
VERTEX
  5
52
330
40
100
AcDbEntity
  8
\U+30EC\U+30A4\U+30E4\U+30FC 1
 62
     7
420
 16777215
370
    25
100
AcDbVertex
100
AcDb2dVertex
 10
34.94670409282583
 20
-292.0004366674513
 30
0.0
  0
VERTEX
  5
53
330
40
100
AcDbEntity
  8
\U+30EC\U+30A4\U+30E4\U+30FC 1
 62
     7
420
 16777215
370
    25
100
AcDbVertex
100
AcDb2dVertex
 10
7.446746146141786
 20
-292.0004366674513
 30
0.0
  0
VERTEX
  5
54
330
40
100
AcDbEntity
  8
\U+30EC\U+30A4\U+30E4\U+30FC 1
 62
     7
420
 16777215
370
    25
100
AcDbVertex
100
AcDb2dVertex
 10
7.446746146141786
 20
-5.997566730271441
 30
0.0
  0
VERTEX
  5
55
330
40
100
AcDbEntity
  8
\U+30EC\U+30A4\U+30E4\U+30FC 1
 62
     7
420
 16777215
370
    25
100
AcDbVertex
100
AcDb2dVertex
 10
34.94670409282583
 20
-5.997566730271441
 30
0.0
  0
VERTEX
  5
56
330
40
100
AcDbEntity
  8
\U+30EC\U+30A4\U+30E4\U+30FC 1
 62
     7
420
 16777215
370
    25
100
AcDbVertex
100
AcDb2dVertex
 10
34.94670409282583
 20
-1.997638617122118
 30
0.0
  0
VERTEX
  5
57
330
40
100
AcDbEntity
  8
\U+30EC\U+30A4\U+30E4\U+30FC 1
 62
     7
420
 16777215
370
    25
100
AcDbVertex
100
AcDb2dVertex
 10
84.94675290845082
 20
-1.997638617122118
 30
0.0
  0
VERTEX
  5
58
330
40
100
AcDbEntity
  8
\U+30EC\U+30A4\U+30E4\U+30FC 1
 62
     7
420
 16777215
370
    25
100
AcDbVertex
100
AcDb2dVertex
 10
84.94675290845082
 20
-5.997566730271441
 30
0.0
  0
VERTEX
  5
59
330
40
100
AcDbEntity
  8
\U+30EC\U+30A4\U+30E4\U+30FC 1
 62
     7
420
 16777215
370
    25
100
AcDbVertex
100
AcDb2dVertex
 10
119.946855981298
 20
-5.997566730271441
 30
0.0
  0
VERTEX
  5
5A
330
40
100
AcDbEntity
  8
\U+30EC\U+30A4\U+30E4\U+30FC 1
 62
     7
420
 16777215
370
    25
100
AcDbVertex
100
AcDb2dVertex
 10
119.946855981298
 20
-1.997638617122118
 30
0.0
  0
VERTEX
  5
5B
330
40
100
AcDbEntity
  8
\U+30EC\U+30A4\U+30E4\U+30FC 1
 62
     7
420
 16777215
370
    25
100
AcDbVertex
100
AcDb2dVertex
 10
169.9467325421487
 20
-1.997638617122118
 30
0.0
  0
VERTEX
  5
5C
330
40
100
AcDbEntity
  8
\U+30EC\U+30A4\U+30E4\U+30FC 1
 62
     7
420
 16777215
370
    25
100
AcDbVertex
100
AcDb2dVertex
 10
169.9467325421487
 20
-5.997566730271441
 30
0.0
  0
VERTEX
  5
5D
330
40
100
AcDbEntity
  8
\U+30EC\U+30A4\U+30E4\U+30FC 1
 62
     7
420
 16777215
370
    25
100
AcDbVertex
100
AcDb2dVertex
 10
204.9468356149959
 20
-5.997566730271441
 30
0.0
  0
VERTEX
  5
5E
330
40
100
AcDbEntity
  8
\U+30EC\U+30A4\U+30E4\U+30FC 1
 62
     7
420
 16777215
370
    25
100
AcDbVertex
100
AcDb2dVertex
 10
204.9468356149959
 20
-1.997638617122118
 30
0.0
  0
VERTEX
  5
5F
330
40
100
AcDbEntity
  8
\U+30EC\U+30A4\U+30E4\U+30FC 1
 62
     7
420
 16777215
370
    25
100
AcDbVertex
100
AcDb2dVertex
 10
254.9477457044922
 20
-1.997638617122118
 30
0.0
  0
VERTEX
  5
60
330
40
100
AcDbEntity
  8
\U+30EC\U+30A4\U+30E4\U+30FC 1
 62
     7
420
 16777215
370
    25
100
AcDbVertex
100
AcDb2dVertex
 10
254.9477457044922
 20
-5.997566730271441
 30
0.0
  0
VERTEX
  5
61
330
40
100
AcDbEntity
  8
\U+30EC\U+30A4\U+30E4\U+30FC 1
 62
     7
420
 16777215
370
    25
100
AcDbVertex
100
AcDb2dVertex
 10
289.9475042677909
 20
-5.997566730271441
 30
0.0
  0
VERTEX
  5
62
330
40
100
AcDbEntity
  8
\U+30EC\U+30A4\U+30E4\U+30FC 1
 62
     7
420
 16777215
370
    25
100
AcDbVertex
100
AcDb2dVertex
 10
289.9475042677909
 20
-1.997638617122118
 30
0.0
  0
VERTEX
  5
63
330
40
100
AcDbEntity
  8
\U+30EC\U+30A4\U+30E4\U+30FC 1
 62
     7
420
 16777215
370
    25
100
AcDbVertex
100
AcDb2dVertex
 10
339.9475530834159
 20
-1.997638617122118
 30
0.0
  0
VERTEX
  5
64
330
40
100
AcDbEntity
  8
\U+30EC\U+30A4\U+30E4\U+30FC 1
 62
     7
420
 16777215
370
    25
100
AcDbVertex
100
AcDb2dVertex
 10
339.9475530834159
 20
-5.997566730271441
 30
0.0
  0
VERTEX
  5
65
330
40
100
AcDbEntity
  8
\U+30EC\U+30A4\U+30E4\U+30FC 1
 62
     7
420
 16777215
370
    25
100
AcDbVertex
100
AcDb2dVertex
 10
367.4476832848742
 20
-5.997566730271441
 30
0.0
  0
SEQEND
  5
66
330
40
100
AcDbEntity
  8
\U+30EC\U+30A4\U+30E4\U+30FC 1
370
    25
  0
ENDBLK
  5
3F
330
3C
100
AcDbEntity
  8
0
100
AcDbBlockEnd
  0
BLOCK
  5
69
330
67
100
AcDbEntity
  8
0
100
AcDbBlockBegin
  2
block 3
 70
     0
 71
     0
 10
0.0
 20
0.0
 30
0.0
  3
block 3
  1

  0
POLYLINE
  5
6B
330
67
100
AcDbEntity
  8
\U+30EC\U+30A4\U+30E4\U+30FC 1
 62
     7
420
 16777215
370
    25
100
AcDb2dPolyline
 66
     1
 10
0.0
 20
0.0
 30
0.0
  0
VERTEX
  5
6C
330
6B
100
AcDbEntity
  8
\U+30EC\U+30A4\U+30E4\U+30FC 1
 62
     7
420
 16777215
370
    25
100
AcDbVertex
100
AcDb2dVertex
 10
367.4476832848742
 20
-292.0004366674513
 30
0.0
  0
VERTEX
  5
6D
330
6B
100
AcDbEntity
  8
\U+30EC\U+30A4\U+30E4\U+30FC 1
 62
     7
420
 16777215
370
    25
100
AcDbVertex
100
AcDb2dVertex
 10
367.4476832848742
 20
-5.997566730271441
 30
0.0
  0
VERTEX
  5
6E
330
6B
100
AcDbEntity
  8
\U+30EC\U+30A4\U+30E4\U+30FC 1
 62
     7
420
 16777215
370
    25
100
AcDbVertex
100
AcDb2dVertex
 10
339.9475530834159
 20
-5.997566730271441
 30
0.0
  0
VERTEX
  5
6F
330
6B
100
AcDbEntity
  8
\U+30EC\U+30A4\U+30E4\U+30FC 1
 62
     7
420
 16777215
370
    25
100
AcDbVertex
100
AcDb2dVertex
 10
339.9475530834159
 20
-1.997638617122118
 30
0.0
  0
VERTEX
  5
70
330
6B
100
AcDbEntity
  8
\U+30EC\U+30A4\U+30E4\U+30FC 1
 62
     7
420
 16777215
370
    25
100
AcDbVertex
100
AcDb2dVertex
 10
289.9475042677909
 20
-1.997638617122118
 30
0.0
  0
VERTEX
  5
71
330
6B
100
AcDbEntity
  8
\U+30EC\U+30A4\U+30E4\U+30FC 1
 62
     7
420
 16777215
370
    25
100
AcDbVertex
100
AcDb2dVertex
 10
289.9475042677909
 20
-5.997566730271441
 30
0.0
  0
VERTEX
  5
72
330
6B
100
AcDbEntity
  8
\U+30EC\U+30A4\U+30E4\U+30FC 1
 62
     7
420
 16777215
370
    25
100
AcDbVertex
100
AcDb2dVertex
 10
254.9477457044922
 20
-5.997566730271441
 30
0.0
  0
VERTEX
  5
73
330
6B
100
AcDbEntity
  8
\U+30EC\U+30A4\U+30E4\U+30FC 1
 62
     7
420
 16777215
370
    25
100
AcDbVertex
100
AcDb2dVertex
 10
254.9477457044922
 20
-1.997638617122118
 30
0.0
  0
VERTEX
  5
74
330
6B
100
AcDbEntity
  8
\U+30EC\U+30A4\U+30E4\U+30FC 1
 62
     7
420
 16777215
370
    25
100
AcDbVertex
100
AcDb2dVertex
 10
204.9468356149959
 20
-1.997638617122118
 30
0.0
  0
VERTEX
  5
75
330
6B
100
AcDbEntity
  8
\U+30EC\U+30A4\U+30E4\U+30FC 1
 62
     7
420
 16777215
370
    25
100
AcDbVertex
100
AcDb2dVertex
 10
204.9468356149959
 20
-5.997566730271441
 30
0.0
  0
VERTEX
  5
76
330
6B
100
AcDbEntity
  8
\U+30EC\U+30A4\U+30E4\U+30FC 1
 62
     7
420
 16777215
370
    25
100
AcDbVertex
100
AcDb2dVertex
 10
169.9467325421487
 20
-5.997566730271441
 30
0.0
  0
VERTEX
  5
77
330
6B
100
AcDbEntity
  8
\U+30EC\U+30A4\U+30E4\U+30FC 1
 62
     7
420
 16777215
370
    25
100
AcDbVertex
100
AcDb2dVertex
 10
169.9467325421487
 20
-1.997638617122118
 30
0.0
  0
VERTEX
  5
78
330
6B
100
AcDbEntity
  8
\U+30EC\U+30A4\U+30E4\U+30FC 1
 62
     7
420
 16777215
370
    25
100
AcDbVertex
100
AcDb2dVertex
 10
119.946855981298
 20
-1.997638617122118
 30
0.0
  0
VERTEX
  5
79
330
6B
100
AcDbEntity
  8
\U+30EC\U+30A4\U+30E4\U+30FC 1
 62
     7
420
 16777215
370
    25
100
AcDbVertex
100
AcDb2dVertex
 10
119.946855981298
 20
-5.997566730271441
 30
0.0
  0
VERTEX
  5
7A
330
6B
100
AcDbEntity
  8
\U+30EC\U+30A4\U+30E4\U+30FC 1
 62
     7
420
 16777215
370
    25
100
AcDbVertex
100
AcDb2dVertex
 10
84.94675290845082
 20
-5.997566730271441
 30
0.0
  0
VERTEX
  5
7B
330
6B
100
AcDbEntity
  8
\U+30EC\U+30A4\U+30E4\U+30FC 1
 62
     7
420
 16777215
370
    25
100
AcDbVertex
100
AcDb2dVertex
 10
84.94675290845082
 20
-1.997638617122118
 30
0.0
  0
VERTEX
  5
7C
330
6B
100
AcDbEntity
  8
\U+30EC\U+30A4\U+30E4\U+30FC 1
 62
     7
420
 16777215
370
    25
100
AcDbVertex
100
AcDb2dVertex
 10
34.94670409282583
 20
-1.997638617122118
 30
0.0
  0
VERTEX
  5
7D
330
6B
100
AcDbEntity
  8
\U+30EC\U+30A4\U+30E4\U+30FC 1
 62
     7
420
 16777215
370
    25
100
AcDbVertex
100
AcDb2dVertex
 10
34.94670409282583
 20
-5.997566730271441
 30
0.0
  0
VERTEX
  5
7E
330
6B
100
AcDbEntity
  8
\U+30EC\U+30A4\U+30E4\U+30FC 1
 62
     7
420
 16777215
370
    25
100
AcDbVertex
100
AcDb2dVertex
 10
7.446746146141786
 20
-5.997566730271441
 30
0.0
  0
VERTEX
  5
7F
330
6B
100
AcDbEntity
  8
\U+30EC\U+30A4\U+30E4\U+30FC 1
 62
     7
420
 16777215
370
    25
100
AcDbVertex
100
AcDb2dVertex
 10
7.446746146141786
 20
-292.0004366674513
 30
0.0
  0
VERTEX
  5
80
330
6B
100
AcDbEntity
  8
\U+30EC\U+30A4\U+30E4\U+30FC 1
 62
     7
420
 16777215
370
    25
100
AcDbVertex
100
AcDb2dVertex
 10
34.94670409282583
 20
-292.0004366674513
 30
0.0
  0
VERTEX
  5
81
330
6B
100
AcDbEntity
  8
\U+30EC\U+30A4\U+30E4\U+30FC 1
 62
     7
420
 16777215
370
    25
100
AcDbVertex
100
AcDb2dVertex
 10
34.94670409282583
 20
-296.0008815449234
 30
0.0
  0
VERTEX
  5
82
330
6B
100
AcDbEntity
  8
\U+30EC\U+30A4\U+30E4\U+30FC 1
 62
     7
420
 16777215
370
    25
100
AcDbVertex
100
AcDb2dVertex
 10
84.94675290845082
 20
-296.0008815449234
 30
0.0
  0
VERTEX
  5
83
330
6B
100
AcDbEntity
  8
\U+30EC\U+30A4\U+30E4\U+30FC 1
 62
     7
420
 16777215
370
    25
100
AcDbVertex
100
AcDb2dVertex
 10
84.94675290845082
 20
-292.0004366674513
 30
0.0
  0
VERTEX
  5
84
330
6B
100
AcDbEntity
  8
\U+30EC\U+30A4\U+30E4\U+30FC 1
 62
     7
420
 16777215
370
    25
100
AcDbVertex
100
AcDb2dVertex
 10
119.946855981298
 20
-292.0004366674513
 30
0.0
  0
VERTEX
  5
85
330
6B
100
AcDbEntity
  8
\U+30EC\U+30A4\U+30E4\U+30FC 1
 62
     7
420
 16777215
370
    25
100
AcDbVertex
100
AcDb2dVertex
 10
119.946855981298
 20
-296.0008815449234
 30
0.0
  0
VERTEX
  5
86
330
6B
100
AcDbEntity
  8
\U+30EC\U+30A4\U+30E4\U+30FC 1
 62
     7
420
 16777215
370
    25
100
AcDbVertex
100
AcDb2dVertex
 10
169.9467325421487
 20
-296.0008815449234
 30
0.0
  0
VERTEX
  5
87
330
6B
100
AcDbEntity
  8
\U+30EC\U+30A4\U+30E4\U+30FC 1
 62
     7
420
 16777215
370
    25
100
AcDbVertex
100
AcDb2dVertex
 10
169.9467325421487
 20
-292.0004366674513
 30
0.0
  0
VERTEX
  5
88
330
6B
100
AcDbEntity
  8
\U+30EC\U+30A4\U+30E4\U+30FC 1
 62
     7
420
 16777215
370
    25
100
AcDbVertex
100
AcDb2dVertex
 10
204.9468356149959
 20
-292.0004366674513
 30
0.0
  0
VERTEX
  5
89
330
6B
100
AcDbEntity
  8
\U+30EC\U+30A4\U+30E4\U+30FC 1
 62
     7
420
 16777215
370
    25
100
AcDbVertex
100
AcDb2dVertex
 10
204.9468356149959
 20
-296.0008815449234
 30
0.0
  0
VERTEX
  5
8A
330
6B
100
AcDbEntity
  8
\U+30EC\U+30A4\U+30E4\U+30FC 1
 62
     7
420
 16777215
370
    25
100
AcDbVertex
100
AcDb2dVertex
 10
254.9477457044922
 20
-296.0008815449234
 30
0.0
  0
VERTEX
  5
8B
330
6B
100
AcDbEntity
  8
\U+30EC\U+30A4\U+30E4\U+30FC 1
 62
     7
420
 16777215
370
    25
100
AcDbVertex
100
AcDb2dVertex
 10
254.9477457044922
 20
-292.0004366674513
 30
0.0
  0
VERTEX
  5
8C
330
6B
100
AcDbEntity
  8
\U+30EC\U+30A4\U+30E4\U+30FC 1
 62
     7
420
 16777215
370
    25
100
AcDbVertex
100
AcDb2dVertex
 10
289.9475042677909
 20
-292.0004366674513
 30
0.0
  0
VERTEX
  5
8D
330
6B
100
AcDbEntity
  8
\U+30EC\U+30A4\U+30E4\U+30FC 1
 62
     7
420
 16777215
370
    25
100
AcDbVertex
100
AcDb2dVertex
 10
289.9475042677909
 20
-296.0008815449234
 30
0.0
  0
VERTEX
  5
8E
330
6B
100
AcDbEntity
  8
\U+30EC\U+30A4\U+30E4\U+30FC 1
 62
     7
420
 16777215
370
    25
100
AcDbVertex
100
AcDb2dVertex
 10
339.9475530834159
 20
-296.0008815449234
 30
0.0
  0
VERTEX
  5
8F
330
6B
100
AcDbEntity
  8
\U+30EC\U+30A4\U+30E4\U+30FC 1
 62
     7
420
 16777215
370
    25
100
AcDbVertex
100
AcDb2dVertex
 10
339.9475530834159
 20
-292.0004366674513
 30
0.0
  0
VERTEX
  5
90
330
6B
100
AcDbEntity
  8
\U+30EC\U+30A4\U+30E4\U+30FC 1
 62
     7
420
 16777215
370
    25
100
AcDbVertex
100
AcDb2dVertex
 10
367.4476832848742
 20
-292.0004366674513
 30
0.0
  0
SEQEND
  5
91
330
6B
100
AcDbEntity
  8
\U+30EC\U+30A4\U+30E4\U+30FC 1
370
    25
  0
ENDBLK
  5
6A
330
67
100
AcDbEntity
  8
0
100
AcDbBlockEnd
  0
BLOCK
  5
94
330
92
100
AcDbEntity
  8
0
100
AcDbBlockBegin
  2
block 4
 70
     0
 71
     0
 10
0.0
 20
0.0
 30
0.0
  3
block 4
  1

  0
SPLINE
  5
96
330
92
100
AcDbEntity
  8
\U+30EC\U+30A4\U+30E4\U+30FC 1
370
     0
100
AcDbSpline
210
0.0
220
0.0
230
1.0
 70
    11
 71
     3
 72
    41
 73
    37
 74
     0
 42
0.0000000001
 43
0.0000000001
 40
0.0
 40
0.0
 40
0.0
 40
0.0
 40
1.0
 40
1.0
 40
1.0
 40
2.0
 40
2.0
 40
2.0
 40
3.0
 40
3.0
 40
3.0
 40
4.0
 40
4.0
 40
4.0
 40
5.0
 40
5.0
 40
5.0
 40
6.0
 40
6.0
 40
6.0
 40
7.0
 40
7.0
 40
7.0
 40
8.0
 40
8.0
 40
8.0
 40
9.0
 40
9.0
 40
9.0
 40
10.0
 40
10.0
 40
10.0
 40
11.0
 40
11.0
 40
11.0
 40
12.0
 40
12.0
 40
12.0
 40
12.0
 10
372.0730684833707
 20
-9.474873858308365
 30
0.0
 10
372.312847129144
 20
-9.030284285936874
 30
0.0
 10
372.7503742557707
 20
-8.762083602410174
 30
0.0
 10
373.3501653797528
 20
-8.762083602410174
 30
0.0
 10
374.2607041165043
 20
-8.762083602410174
 30
0.0
 10
374.9028699149549
 20
-9.545498315755987
 30
0.0
 10
374.9028699149549
 20
-10.73112792700472
 30
0.0
 10
374.9028699149549
 20
-12.12845865582205
 30
0.0
 10
374.0488307441614
 20
-12.78474934576215
 30
0.0
 10
373.2512911393261
 20
-12.78474934576215
 30
0.0
 10
372.6938746898127
 20
-12.78474934576215
 30
0.0
 10
372.284597346165
 20
-12.55892333670402
 30
0.0
 10
372.0093342168935
 20
-12.06489664411919
 30
0.0
 10
372.0093342168935
 20
-12.06489664411919
 30
0.0
 10
371.9883191344335
 20
-12.06489664411919
 30
0.0
 10
371.9883191344335
 20
-12.06489664411919
 30
0.0
 10
371.9883191344335
 20
-12.06489664411919
 30
0.0
 10
371.9528346509354
 20
-12.699999996825
 30
0.0
 10
371.9528346509354
 20
-12.699999996825
 30
0.0
 10
371.9528346509354
 20
-12.699999996825
 30
0.0
 10
371.444683066861
 20
-12.699999996825
 30
0.0
 10
371.444683066861
 20
-12.699999996825
 30
0.0
 10
371.4591524678991
 20
-12.44592420478783
 30
0.0
 10
371.4729328498401
 20
-12.05783419837443
 30
0.0
 10
371.4729328498401
 20
-11.74725884037916
 30
0.0
 10
371.4729328498401
 20
-11.74725884037916
 30
0.0
 10
371.4729328498401
 20
-7.05434977037183
 30
0.0
 10
371.4729328498401
 20
-7.05434977037183
 30
0.0
 10
371.4729328498401
 20
-7.05434977037183
 30
0.0
 10
372.0585990823326
 20
-7.05434977037183
 30
0.0
 10
372.0585990823326
 20
-7.05434977037183
 30
0.0
 10
372.0585990823326
 20
-7.05434977037183
 30
0.0
 10
372.0585990823326
 20
-9.474873858308365
 30
0.0
 10
372.0585990823326
 20
-9.474873858308365
 30
0.0
 10
372.0585990823326
 20
-9.474873858308365
 30
0.0
 10
372.0730684833707
 20
-9.474873858308365
 30
0.0
 10
372.0730684833707
 20
-9.474873858308365
 30
0.0
  0
SPLINE
  5
97
330
92
100
AcDbEntity
  8
\U+30EC\U+30A4\U+30E4\U+30FC 1
370
     0
100
AcDbSpline
210
0.0
220
0.0
230
1.0
 70
    11
 71
     3
 72
    20
 73
    16
 74
     0
 42
0.0000000001
 43
0.0000000001
 40
0.0
 40
0.0
 40
0.0
 40
0.0
 40
1.0
 40
1.0
 40
1.0
 40
2.0
 40
2.0
 40
2.0
 40
3.0
 40
3.0
 40
3.0
 40
4.0
 40
4.0
 40
4.0
 40
5.0
 40
5.0
 40
5.0
 40
5.0
 10
372.0585990823326
 20
-11.1969048366105
 30
0.0
 10
372.0585990823326
 20
-11.76844617761344
 30
0.0
 10
372.4892360179888
 20
-12.30484754466684
 30
0.0
 10
373.1382920074099
 20
-12.30484754466684
 30
0.0
 10
373.8865667468062
 20
-12.30484754466684
 30
0.0
 10
374.3027342814243
 20
-11.66268174621627
 30
0.0
 10
374.3027342814243
 20
-10.75231526423901
 30
0.0
 10
374.3027342814243
 20
-9.947713213658906
 30
0.0
 10
373.9079263388147
 20
-9.241985403505476
 30
0.0
 10
373.1596515994185
 20
-9.241985403505476
 30
0.0
 10
372.4892360179888
 20
-9.241985403505476
 30
0.0
 10
372.0585990823326
 20
-9.870198565240784
 30
0.0
 10
372.0585990823326
 20
-10.43467746049897
 30
0.0
 10
372.0585990823326
 20
-10.43467746049897
 30
0.0
 10
372.0585990823326
 20
-11.1969048366105
 30
0.0
 10
372.0585990823326
 20
-11.1969048366105
 30
0.0
  0
HATCH
  5
98
330
92
100
AcDbEntity
  8
\U+30EC\U+30A4\U+30E4\U+30FC 1
 62
     7
420
 16777215
100
AcDbHatch
 10
0.0
 20
0.0
 30
0.0
210
0.0
220
0.0
230
1.0
  2
SOLID
 70
     1
 71
     0
 91
        2
 92
        1
 93
        1
 72
     4
 94
        3
 73
     0
 74
     1
 95
       41
 96
       37
 40
0.0
 40
0.0
 40
0.0
 40
0.0
 40
1.0
 40
1.0
 40
1.0
 40
2.0
 40
2.0
 40
2.0
 40
3.0
 40
3.0
 40
3.0
 40
4.0
 40
4.0
 40
4.0
 40
5.0
 40
5.0
 40
5.0
 40
6.0
 40
6.0
 40
6.0
 40
7.0
 40
7.0
 40
7.0
 40
8.0
 40
8.0
 40
8.0
 40
9.0
 40
9.0
 40
9.0
 40
10.0
 40
10.0
 40
10.0
 40
11.0
 40
11.0
 40
11.0
 40
12.0
 40
12.0
 40
12.0
 40
12.0
 10
372.0730684833707
 20
-9.474873858308365
 10
372.312847129144
 20
-9.030284285936874
 10
372.7503742557707
 20
-8.762083602410174
 10
373.3501653797528
 20
-8.762083602410174
 10
374.2607041165043
 20
-8.762083602410174
 10
374.9028699149549
 20
-9.545498315755987
 10
374.9028699149549
 20
-10.73112792700472
 10
374.9028699149549
 20
-12.12845865582205
 10
374.0488307441614
 20
-12.78474934576215
 10
373.2512911393261
 20
-12.78474934576215
 10
372.6938746898127
 20
-12.78474934576215
 10
372.284597346165
 20
-12.55892333670402
 10
372.0093342168935
 20
-12.06489664411919
 10
372.0093342168935
 20
-12.06489664411919
 10
371.9883191344335
 20
-12.06489664411919
 10
371.9883191344335
 20
-12.06489664411919
 10
371.9883191344335
 20
-12.06489664411919
 10
371.9528346509354
 20
-12.699999996825
 10
371.9528346509354
 20
-12.699999996825
 10
371.9528346509354
 20
-12.699999996825
 10
371.444683066861
 20
-12.699999996825
 10
371.444683066861
 20
-12.699999996825
 10
371.4591524678991
 20
-12.44592420478783
 10
371.4729328498401
 20
-12.05783419837443
 10
371.4729328498401
 20
-11.74725884037916
 10
371.4729328498401
 20
-11.74725884037916
 10
371.4729328498401
 20
-7.05434977037183
 10
371.4729328498401
 20
-7.05434977037183
 10
371.4729328498401
 20
-7.05434977037183
 10
372.0585990823326
 20
-7.05434977037183
 10
372.0585990823326
 20
-7.05434977037183
 10
372.0585990823326
 20
-7.05434977037183
 10
372.0585990823326
 20
-9.474873858308365
 10
372.0585990823326
 20
-9.474873858308365
 10
372.0585990823326
 20
-9.474873858308365
 10
372.0730684833707
 20
-9.474873858308365
 10
372.0730684833707
 20
-9.474873858308365
 97
        0
 92
        1
 93
        1
 72
     4
 94
        3
 73
     0
 74
     1
 95
       20
 96
       16
 40
0.0
 40
0.0
 40
0.0
 40
0.0
 40
1.0
 40
1.0
 40
1.0
 40
2.0
 40
2.0
 40
2.0
 40
3.0
 40
3.0
 40
3.0
 40
4.0
 40
4.0
 40
4.0
 40
5.0
 40
5.0
 40
5.0
 40
5.0
 10
372.0585990823326
 20
-11.1969048366105
 10
372.0585990823326
 20
-11.76844617761344
 10
372.4892360179888
 20
-12.30484754466684
 10
373.1382920074099
 20
-12.30484754466684
 10
373.8865667468062
 20
-12.30484754466684
 10
374.3027342814243
 20
-11.66268174621627
 10
374.3027342814243
 20
-10.75231526423901
 10
374.3027342814243
 20
-9.947713213658906
 10
373.9079263388147
 20
-9.241985403505476
 10
373.1596515994185
 20
-9.241985403505476
 10
372.4892360179888
 20
-9.241985403505476
 10
372.0585990823326
 20
-9.870198565240784
 10
372.0585990823326
 20
-10.43467746049897
 10
372.0585990823326
 20
-10.43467746049897
 10
372.0585990823326
 20
-11.1969048366105
 10
372.0585990823326
 20
-11.1969048366105
 97
        0
 75
     2
 76
     1
 98
        0
  0
SPLINE
  5
99
330
92
100
AcDbEntity
  8
\U+30EC\U+30A4\U+30E4\U+30FC 1
370
     0
100
AcDbSpline
210
0.0
220
0.0
230
1.0
 70
    11
 71
     3
 72
    44
 73
    40
 74
     0
 42
0.0000000001
 43
0.0000000001
 40
0.0
 40
0.0
 40
0.0
 40
0.0
 40
1.0
 40
1.0
 40
1.0
 40
2.0
 40
2.0
 40
2.0
 40
3.0
 40
3.0
 40
3.0
 40
4.0
 40
4.0
 40
4.0
 40
5.0
 40
5.0
 40
5.0
 40
6.0
 40
6.0
 40
6.0
 40
7.0
 40
7.0
 40
7.0
 40
8.0
 40
8.0
 40
8.0
 40
9.0
 40
9.0
 40
9.0
 40
10.0
 40
10.0
 40
10.0
 40
11.0
 40
11.0
 40
11.0
 40
12.0
 40
12.0
 40
12.0
 40
13.0
 40
13.0
 40
13.0
 40
13.0
 10
378.3031791588965
 20
-11.78257106910297
 30
0.0
 10
378.3031791588965
 20
-12.100208872843
 30
0.0
 10
378.3100693498669
 20
-12.4317993132983
 30
0.0
 10
378.3596787248545
 20
-12.699999996825
 30
0.0
 10
378.3596787248545
 20
-12.699999996825
 30
0.0
 10
377.8232773578011
 20
-12.699999996825
 30
0.0
 10
377.8232773578011
 20
-12.699999996825
 30
0.0
 10
377.8232773578011
 20
-12.699999996825
 30
0.0
 10
377.7671223013916
 20
-12.20597330424017
 30
0.0
 10
377.7671223013916
 20
-12.20597330424017
 30
0.0
 10
377.7671223013916
 20
-12.20597330424017
 30
0.0
 10
377.745762709383
 20
-12.20597330424017
 30
0.0
 10
377.745762709383
 20
-12.20597330424017
 30
0.0
 10
377.5480142285297
 20
-12.50948621649068
 30
0.0
 10
377.1528617763715
 20
-12.78474934576215
 30
0.0
 10
376.6095702183476
 20
-12.78474934576215
 30
0.0
 10
375.8757648799894
 20
-12.78474934576215
 30
0.0
 10
375.4875026188017
 20
-12.24834797870875
 30
0.0
 10
375.4875026188017
 20
-11.69075927442106
 30
0.0
 10
375.4875026188017
 20
-10.76644015572853
 30
0.0
 10
376.2919324146076
 20
-10.26535101739894
 30
0.0
 10
377.717512926404
 20
-10.2724134631437
 30
0.0
 10
377.717512926404
 20
-9.947713213658906
 30
0.0
 10
377.717512926404
 20
-9.213735620526428
 30
0.0
 10
376.8424586731505
 20
-9.213735620526428
 30
0.0
 10
376.5106959779209
 20
-9.213735620526428
 30
0.0
 10
376.1651529007504
 20
-9.305547415208336
 30
0.0
 10
375.9040146629685
 20
-9.48899874979789
 30
0.0
 10
375.9040146629685
 20
-9.48899874979789
 30
0.0
 10
375.7627657480732
 20
-9.086783851894971
 30
0.0
 10
375.7627657480732
 20
-9.086783851894971
 30
0.0
 10
376.0731688512942
 20
-8.88214518007113
 30
0.0
 10
376.5034612774019
 20
-8.762083602410174
 30
0.0
 10
376.9340982130582
 20
-8.762083602410174
 30
0.0
 10
378.0210258386545
 20
-8.762083602410174
 30
0.0
 10
378.3031791588965
 20
-9.531373424266462
 30
0.0
 10
378.3031791588965
 20
-10.29360080037799
 30
0.0
 10
378.3031791588965
 20
-10.29360080037799
 30
0.0
 10
378.3031791588965
 20
-11.78257106910297
 30
0.0
 10
378.3031791588965
 20
-11.78257106910297
 30
0.0
  0
SPLINE
  5
9A
330
92
100
AcDbEntity
  8
\U+30EC\U+30A4\U+30E4\U+30FC 1
370
     0
100
AcDbSpline
210
0.0
220
0.0
230
1.0
 70
    11
 71
     3
 72
    17
 73
    13
 74
     0
 42
0.0000000001
 43
0.0000000001
 40
0.0
 40
0.0
 40
0.0
 40
0.0
 40
1.0
 40
1.0
 40
1.0
 40
2.0
 40
2.0
 40
2.0
 40
3.0
 40
3.0
 40
3.0
 40
4.0
 40
4.0
 40
4.0
 40
4.0
 10
377.7244031173745
 20
-10.70287814402567
 30
0.0
 10
376.9974879699868
 20
-10.70287814402567
 30
0.0
 10
376.0872937427837
 20
-10.80864257542284
 30
0.0
 10
376.0872937427837
 20
-11.6203070717477
 30
0.0
 10
376.0872937427837
 20
-12.11433376433253
 30
0.0
 10
376.3980413555533
 20
-12.33309732764589
 30
0.0
 10
376.7508191332429
 20
-12.33309732764589
 30
0.0
 10
377.3223604742458
 20
-12.33309732764589
 30
0.0
 10
377.7244031173745
 20
-11.89557020101916
 30
0.0
 10
377.7244031173745
 20
-11.42979329141339
 30
0.0
 10
377.7244031173745
 20
-11.42979329141339
 30
0.0
 10
377.7244031173745
 20
-10.70287814402567
 30
0.0
 10
377.7244031173745
 20
-10.70287814402567
 30
0.0
  0
HATCH
  5
9B
330
92
100
AcDbEntity
  8
\U+30EC\U+30A4\U+30E4\U+30FC 1
 62
     7
420
 16777215
100
AcDbHatch
 10
0.0
 20
0.0
 30
0.0
210
0.0
220
0.0
230
1.0
  2
SOLID
 70
     1
 71
     0
 91
        2
 92
        1
 93
        1
 72
     4
 94
        3
 73
     0
 74
     1
 95
       44
 96
       40
 40
0.0
 40
0.0
 40
0.0
 40
0.0
 40
1.0
 40
1.0
 40
1.0
 40
2.0
 40
2.0
 40
2.0
 40
3.0
 40
3.0
 40
3.0
 40
4.0
 40
4.0
 40
4.0
 40
5.0
 40
5.0
 40
5.0
 40
6.0
 40
6.0
 40
6.0
 40
7.0
 40
7.0
 40
7.0
 40
8.0
 40
8.0
 40
8.0
 40
9.0
 40
9.0
 40
9.0
 40
10.0
 40
10.0
 40
10.0
 40
11.0
 40
11.0
 40
11.0
 40
12.0
 40
12.0
 40
12.0
 40
13.0
 40
13.0
 40
13.0
 40
13.0
 10
378.3031791588965
 20
-11.78257106910297
 10
378.3031791588965
 20
-12.100208872843
 10
378.3100693498669
 20
-12.4317993132983
 10
378.3596787248545
 20
-12.699999996825
 10
378.3596787248545
 20
-12.699999996825
 10
377.8232773578011
 20
-12.699999996825
 10
377.8232773578011
 20
-12.699999996825
 10
377.8232773578011
 20
-12.699999996825
 10
377.7671223013916
 20
-12.20597330424017
 10
377.7671223013916
 20
-12.20597330424017
 10
377.7671223013916
 20
-12.20597330424017
 10
377.745762709383
 20
-12.20597330424017
 10
377.745762709383
 20
-12.20597330424017
 10
377.5480142285297
 20
-12.50948621649068
 10
377.1528617763715
 20
-12.78474934576215
 10
376.6095702183476
 20
-12.78474934576215
 10
375.8757648799894
 20
-12.78474934576215
 10
375.4875026188017
 20
-12.24834797870875
 10
375.4875026188017
 20
-11.69075927442106
 10
375.4875026188017
 20
-10.76644015572853
 10
376.2919324146076
 20
-10.26535101739894
 10
377.717512926404
 20
-10.2724134631437
 10
377.717512926404
 20
-9.947713213658906
 10
377.717512926404
 20
-9.213735620526428
 10
376.8424586731505
 20
-9.213735620526428
 10
376.5106959779209
 20
-9.213735620526428
 10
376.1651529007504
 20
-9.305547415208336
 10
375.9040146629685
 20
-9.48899874979789
 10
375.9040146629685
 20
-9.48899874979789
 10
375.7627657480732
 20
-9.086783851894971
 10
375.7627657480732
 20
-9.086783851894971
 10
376.0731688512942
 20
-8.88214518007113
 10
376.5034612774019
 20
-8.762083602410174
 10
376.9340982130582
 20
-8.762083602410174
 10
378.0210258386545
 20
-8.762083602410174
 10
378.3031791588965
 20
-9.531373424266462
 10
378.3031791588965
 20
-10.29360080037799
 10
378.3031791588965
 20
-10.29360080037799
 10
378.3031791588965
 20
-11.78257106910297
 10
378.3031791588965
 20
-11.78257106910297
 97
        0
 92
        1
 93
        1
 72
     4
 94
        3
 73
     0
 74
     1
 95
       17
 96
       13
 40
0.0
 40
0.0
 40
0.0
 40
0.0
 40
1.0
 40
1.0
 40
1.0
 40
2.0
 40
2.0
 40
2.0
 40
3.0
 40
3.0
 40
3.0
 40
4.0
 40
4.0
 40
4.0
 40
4.0
 10
377.7244031173745
 20
-10.70287814402567
 10
376.9974879699868
 20
-10.70287814402567
 10
376.0872937427837
 20
-10.80864257542284
 10
376.0872937427837
 20
-11.6203070717477
 10
376.0872937427837
 20
-12.11433376433253
 10
376.3980413555533
 20
-12.33309732764589
 10
376.7508191332429
 20
-12.33309732764589
 10
377.3223604742458
 20
-12.33309732764589
 10
377.7244031173745
 20
-11.89557020101916
 10
377.7244031173745
 20
-11.42979329141339
 10
377.7244031173745
 20
-11.42979329141339
 10
377.7244031173745
 20
-10.70287814402567
 10
377.7244031173745
 20
-10.70287814402567
 97
        0
 75
     2
 76
     1
 98
        0
  0
SPLINE
  5
9C
330
92
100
AcDbEntity
  8
\U+30EC\U+30A4\U+30E4\U+30FC 1
370
     0
100
AcDbSpline
210
0.0
220
0.0
230
1.0
 70
    11
 71
     3
 72
    47
 73
    43
 74
     0
 42
0.0000000001
 43
0.0000000001
 40
0.0
 40
0.0
 40
0.0
 40
0.0
 40
1.0
 40
1.0
 40
1.0
 40
2.0
 40
2.0
 40
2.0
 40
3.0
 40
3.0
 40
3.0
 40
4.0
 40
4.0
 40
4.0
 40
5.0
 40
5.0
 40
5.0
 40
6.0
 40
6.0
 40
6.0
 40
7.0
 40
7.0
 40
7.0
 40
8.0
 40
8.0
 40
8.0
 40
9.0
 40
9.0
 40
9.0
 40
10.0
 40
10.0
 40
10.0
 40
11.0
 40
11.0
 40
11.0
 40
12.0
 40
12.0
 40
12.0
 40
13.0
 40
13.0
 40
13.0
 40
14.0
 40
14.0
 40
14.0
 40
14.0
 10
381.2308213022617
 20
-9.439561629584555
 30
0.0
 10
381.089916896915
 20
-9.347922089676908
 30
0.0
 10
380.8287786591331
 20
-9.213735620526428
 30
0.0
 10
380.4832355819626
 20
-9.213735620526428
 30
0.0
 10
380.0594888372768
 20
-9.213735620526428
 30
0.0
 10
379.8338350829929
 20
-9.474873858308365
 30
0.0
 10
379.8338350829929
 20
-9.785449216303638
 30
0.0
 10
379.8338350829929
 20
-10.11703965675894
 30
0.0
 10
380.0525986463063
 20
-10.2724134631437
 30
0.0
 10
380.5466253388911
 20
-10.4841145807123
 30
0.0
 10
381.1674315453332
 20
-10.73819037274948
 30
0.0
 10
381.5274440235418
 20
-11.06271836746001
 30
0.0
 10
381.5274440235418
 20
-11.64149440898199
 30
0.0
 10
381.5274440235418
 20
-12.32603488190113
 30
0.0
 10
381.0051675479779
 20
-12.77768690001738
 30
0.0
 10
380.1655977782225
 20
-12.77768690001738
 30
0.0
 10
379.7845702175539
 20
-12.77768690001738
 30
0.0
 10
379.4173230388262
 20
-12.67175021384595
 30
0.0
 10
379.1561848010443
 20
-12.51654866223545
 30
0.0
 10
379.1561848010443
 20
-12.51654866223545
 30
0.0
 10
379.3187933079481
 20
-12.06489664411919
 30
0.0
 10
379.3187933079481
 20
-12.06489664411919
 30
0.0
 10
379.5234319797719
 20
-12.18478596700589
 30
0.0
 10
379.8548501654529
 20
-12.32603488190113
 30
0.0
 10
380.1866128606825
 20
-12.32603488190113
 30
0.0
 10
380.7016546357274
 20
-12.32603488190113
 30
0.0
 10
380.9559026825388
 20
-12.05077175262967
 30
0.0
 10
380.9559026825388
 20
-11.70488416591058
 30
0.0
 10
380.9559026825388
 20
-11.34504394247624
 30
0.0
 10
380.751264010715
 20
-11.14746771639716
 30
0.0
 10
380.2431124266406
 20
-10.94282904457332
 30
0.0
 10
379.5937119276711
 20
-10.68169080679138
 30
0.0
 10
379.26229374199
 20
-10.32185058335704
 30
0.0
 10
379.26229374199
 20
-9.85607367375126
 30
0.0
 10
379.26229374199
 20
-9.256110294995
 30
0.0
 10
379.7418510335368
 20
-8.762083602410174
 30
0.0
 10
380.5183755559121
 20
-8.762083602410174
 30
0.0
 10
380.8852782250912
 20
-8.762083602410174
 30
0.0
 10
381.1956813283122
 20
-8.868020288581606
 30
0.0
 10
381.400320000136
 20
-8.994972057213063
 30
0.0
 10
381.400320000136
 20
-8.994972057213063
 30
0.0
 10
381.2308213022617
 20
-9.439561629584555
 30
0.0
 10
381.2308213022617
 20
-9.439561629584555
 30
0.0
  0
HATCH
  5
9D
330
92
100
AcDbEntity
  8
\U+30EC\U+30A4\U+30E4\U+30FC 1
 62
     7
420
 16777215
100
AcDbHatch
 10
0.0
 20
0.0
 30
0.0
210
0.0
220
0.0
230
1.0
  2
SOLID
 70
     1
 71
     0
 91
        1
 92
        1
 93
        1
 72
     4
 94
        3
 73
     0
 74
     1
 95
       47
 96
       43
 40
0.0
 40
0.0
 40
0.0
 40
0.0
 40
1.0
 40
1.0
 40
1.0
 40
2.0
 40
2.0
 40
2.0
 40
3.0
 40
3.0
 40
3.0
 40
4.0
 40
4.0
 40
4.0
 40
5.0
 40
5.0
 40
5.0
 40
6.0
 40
6.0
 40
6.0
 40
7.0
 40
7.0
 40
7.0
 40
8.0
 40
8.0
 40
8.0
 40
9.0
 40
9.0
 40
9.0
 40
10.0
 40
10.0
 40
10.0
 40
11.0
 40
11.0
 40
11.0
 40
12.0
 40
12.0
 40
12.0
 40
13.0
 40
13.0
 40
13.0
 40
14.0
 40
14.0
 40
14.0
 40
14.0
 10
381.2308213022617
 20
-9.439561629584555
 10
381.089916896915
 20
-9.347922089676908
 10
380.8287786591331
 20
-9.213735620526428
 10
380.4832355819626
 20
-9.213735620526428
 10
380.0594888372768
 20
-9.213735620526428
 10
379.8338350829929
 20
-9.474873858308365
 10
379.8338350829929
 20
-9.785449216303638
 10
379.8338350829929
 20
-10.11703965675894
 10
380.0525986463063
 20
-10.2724134631437
 10
380.5466253388911
 20
-10.4841145807123
 10
381.1674315453332
 20
-10.73819037274948
 10
381.5274440235418
 20
-11.06271836746001
 10
381.5274440235418
 20
-11.64149440898199
 10
381.5274440235418
 20
-12.32603488190113
 10
381.0051675479779
 20
-12.77768690001738
 10
380.1655977782225
 20
-12.77768690001738
 10
379.7845702175539
 20
-12.77768690001738
 10
379.4173230388262
 20
-12.67175021384595
 10
379.1561848010443
 20
-12.51654866223545
 10
379.1561848010443
 20
-12.51654866223545
 10
379.3187933079481
 20
-12.06489664411919
 10
379.3187933079481
 20
-12.06489664411919
 10
379.5234319797719
 20
-12.18478596700589
 10
379.8548501654529
 20
-12.32603488190113
 10
380.1866128606825
 20
-12.32603488190113
 10
380.7016546357274
 20
-12.32603488190113
 10
380.9559026825388
 20
-12.05077175262967
 10
380.9559026825388
 20
-11.70488416591058
 10
380.9559026825388
 20
-11.34504394247624
 10
380.751264010715
 20
-11.14746771639716
 10
380.2431124266406
 20
-10.94282904457332
 10
379.5937119276711
 20
-10.68169080679138
 10
379.26229374199
 20
-10.32185058335704
 10
379.26229374199
 20
-9.85607367375126
 10
379.26229374199
 20
-9.256110294995
 10
379.7418510335368
 20
-8.762083602410174
 10
380.5183755559121
 20
-8.762083602410174
 10
380.8852782250912
 20
-8.762083602410174
 10
381.1956813283122
 20
-8.868020288581606
 10
381.400320000136
 20
-8.994972057213063
 10
381.400320000136
 20
-8.994972057213063
 10
381.2308213022617
 20
-9.439561629584555
 10
381.2308213022617
 20
-9.439561629584555
 97
        0
 75
     2
 76
     1
 98
        0
  0
SPLINE
  5
9E
330
92
100
AcDbEntity
  8
\U+30EC\U+30A4\U+30E4\U+30FC 1
370
     0
100
AcDbSpline
210
0.0
220
0.0
230
1.0
 70
    11
 71
     3
 72
    32
 73
    28
 74
     0
 42
0.0000000001
 43
0.0000000001
 40
0.0
 40
0.0
 40
0.0
 40
0.0
 40
1.0
 40
1.0
 40
1.0
 40
2.0
 40
2.0
 40
2.0
 40
3.0
 40
3.0
 40
3.0
 40
4.0
 40
4.0
 40
4.0
 40
5.0
 40
5.0
 40
5.0
 40
6.0
 40
6.0
 40
6.0
 40
7.0
 40
7.0
 40
7.0
 40
8.0
 40
8.0
 40
8.0
 40
9.0
 40
9.0
 40
9.0
 40
9.0
 10
385.1472058498938
 20
-12.53773599946973
 30
0.0
 10
384.9280977770319
 20
-12.6435004308669
 30
0.0
 10
384.5260551339032
 20
-12.77768690001738
 30
0.0
 10
383.9403889014108
 20
-12.77768690001738
 30
0.0
 10
382.8183213018649
 20
-12.77768690001738
 30
0.0
 10
382.1479057204353
 20
-11.98720974092681
 30
0.0
 10
382.1479057204353
 20
-10.83689235840189
 30
0.0
 10
382.1479057204353
 20
-9.630247664693133
 30
0.0
 10
382.8252114928354
 20
-8.762083602410174
 30
0.0
 10
383.8628742529926
 20
-8.762083602410174
 30
0.0
 10
385.0483316094671
 20
-8.762083602410174
 30
0.0
 10
385.3518445217176
 20
-9.849011228006498
 30
0.0
 10
385.3518445217176
 20
-10.51942680943612
 30
0.0
 10
385.3518445217176
 20
-10.65344102381233
 30
0.0
 10
385.3449543307471
 20
-10.75231526423901
 30
0.0
 10
385.3377196302281
 20
-10.84395480414665
 30
0.0
 10
385.3377196302281
 20
-10.84395480414665
 30
0.0
 10
382.7194470614382
 20
-10.84395480414665
 30
0.0
 10
382.7194470614382
 20
-10.84395480414665
 30
0.0
 10
382.7266817619573
 20
-11.90969509250869
 30
0.0
 10
383.3333630769097
 20
-12.31190999041161
 30
0.0
 10
384.0247937407994
 20
-12.31190999041161
 30
0.0
 10
384.5050400514432
 20
-12.31190999041161
 30
0.0
 10
384.7944280722042
 20
-12.21303574998494
 30
0.0
 10
385.0342067179776
 20
-12.11433376433253
 30
0.0
 10
385.0342067179776
 20
-12.11433376433253
 30
0.0
 10
385.1472058498938
 20
-12.53773599946973
 30
0.0
 10
385.1472058498938
 20
-12.53773599946973
 30
0.0
  0
SPLINE
  5
9F
330
92
100
AcDbEntity
  8
\U+30EC\U+30A4\U+30E4\U+30FC 1
370
     0
100
AcDbSpline
210
0.0
220
0.0
230
1.0
 70
    11
 71
     3
 72
    14
 73
    10
 74
     0
 42
0.0000000001
 43
0.0000000001
 40
0.0
 40
0.0
 40
0.0
 40
0.0
 40
1.0
 40
1.0
 40
1.0
 40
2.0
 40
2.0
 40
2.0
 40
3.0
 40
3.0
 40
3.0
 40
3.0
 10
384.7730684801957
 20
-10.40642767751992
 30
0.0
 10
384.7799586711661
 20
-9.884151201956046
 30
0.0
 10
384.5615396174013
 20
-9.206673174781665
 30
0.0
 10
383.8063746870345
 20
-9.206673174781665
 30
0.0
 10
383.1004746221068
 20
-9.206673174781665
 30
0.0
 10
382.7900715188858
 20
-9.877088756211284
 30
0.0
 10
382.7335719529277
 20
-10.40642767751992
 30
0.0
 10
382.7335719529277
 20
-10.40642767751992
 30
0.0
 10
384.7730684801957
 20
-10.40642767751992
 30
0.0
 10
384.7730684801957
 20
-10.40642767751992
 30
0.0
  0
HATCH
  5
A0
330
92
100
AcDbEntity
  8
\U+30EC\U+30A4\U+30E4\U+30FC 1
 62
     7
420
 16777215
100
AcDbHatch
 10
0.0
 20
0.0
 30
0.0
210
0.0
220
0.0
230
1.0
  2
SOLID
 70
     1
 71
     0
 91
        2
 92
        1
 93
        1
 72
     4
 94
        3
 73
     0
 74
     1
 95
       32
 96
       28
 40
0.0
 40
0.0
 40
0.0
 40
0.0
 40
1.0
 40
1.0
 40
1.0
 40
2.0
 40
2.0
 40
2.0
 40
3.0
 40
3.0
 40
3.0
 40
4.0
 40
4.0
 40
4.0
 40
5.0
 40
5.0
 40
5.0
 40
6.0
 40
6.0
 40
6.0
 40
7.0
 40
7.0
 40
7.0
 40
8.0
 40
8.0
 40
8.0
 40
9.0
 40
9.0
 40
9.0
 40
9.0
 10
385.1472058498938
 20
-12.53773599946973
 10
384.9280977770319
 20
-12.6435004308669
 10
384.5260551339032
 20
-12.77768690001738
 10
383.9403889014108
 20
-12.77768690001738
 10
382.8183213018649
 20
-12.77768690001738
 10
382.1479057204353
 20
-11.98720974092681
 10
382.1479057204353
 20
-10.83689235840189
 10
382.1479057204353
 20
-9.630247664693133
 10
382.8252114928354
 20
-8.762083602410174
 10
383.8628742529926
 20
-8.762083602410174
 10
385.0483316094671
 20
-8.762083602410174
 10
385.3518445217176
 20
-9.849011228006498
 10
385.3518445217176
 20
-10.51942680943612
 10
385.3518445217176
 20
-10.65344102381233
 10
385.3449543307471
 20
-10.75231526423901
 10
385.3377196302281
 20
-10.84395480414665
 10
385.3377196302281
 20
-10.84395480414665
 10
382.7194470614382
 20
-10.84395480414665
 10
382.7194470614382
 20
-10.84395480414665
 10
382.7266817619573
 20
-11.90969509250869
 10
383.3333630769097
 20
-12.31190999041161
 10
384.0247937407994
 20
-12.31190999041161
 10
384.5050400514432
 20
-12.31190999041161
 10
384.7944280722042
 20
-12.21303574998494
 10
385.0342067179776
 20
-12.11433376433253
 10
385.0342067179776
 20
-12.11433376433253
 10
385.1472058498938
 20
-12.53773599946973
 10
385.1472058498938
 20
-12.53773599946973
 97
        0
 92
        1
 93
        1
 72
     4
 94
        3
 73
     0
 74
     1
 95
       14
 96
       10
 40
0.0
 40
0.0
 40
0.0
 40
0.0
 40
1.0
 40
1.0
 40
1.0
 40
2.0
 40
2.0
 40
2.0
 40
3.0
 40
3.0
 40
3.0
 40
3.0
 10
384.7730684801957
 20
-10.40642767751992
 10
384.7799586711661
 20
-9.884151201956046
 10
384.5615396174013
 20
-9.206673174781665
 10
383.8063746870345
 20
-9.206673174781665
 10
383.1004746221068
 20
-9.206673174781665
 10
382.7900715188858
 20
-9.877088756211284
 10
382.7335719529277
 20
-10.40642767751992
 10
382.7335719529277
 20
-10.40642767751992
 10
384.7730684801957
 20
-10.40642767751992
 10
384.7730684801957
 20
-10.40642767751992
 97
        0
 75
     2
 76
     1
 98
        0
  0
POLYLINE
  5
A1
330
92
100
AcDbEntity
  8
\U+30EC\U+30A4\U+30E4\U+30FC 1
370
     0
100
AcDb2dPolyline
 66
     1
 10
0.0
 20
0.0
 30
0.0
  0
VERTEX
  5
A2
330
A1
100
AcDbEntity
  8
\U+30EC\U+30A4\U+30E4\U+30FC 1
370
     0
100
AcDbVertex
100
AcDb2dVertex
 10
385.6474337143521
 20
-13.22933891813364
 30
0.0
  0
VERTEX
  5
A3
330
A1
100
AcDbEntity
  8
\U+30EC\U+30A4\U+30E4\U+30FC 1
370
     0
100
AcDbVertex
100
AcDb2dVertex
 10
389.6344427194317
 20
-13.22933891813364
 30
0.0
  0
VERTEX
  5
A4
330
A1
100
AcDbEntity
  8
\U+30EC\U+30A4\U+30E4\U+30FC 1
370
     0
100
AcDbVertex
100
AcDb2dVertex
 10
389.6344427194317
 20
-13.58211669582322
 30
0.0
  0
VERTEX
  5
A5
330
A1
100
AcDbEntity
  8
\U+30EC\U+30A4\U+30E4\U+30FC 1
370
     0
100
AcDbVertex
100
AcDb2dVertex
 10
385.6474337143521
 20
-13.58211669582322
 30
0.0
  0
VERTEX
  5
A6
330
A1
100
AcDbEntity
  8
\U+30EC\U+30A4\U+30E4\U+30FC 1
370
     0
100
AcDbVertex
100
AcDb2dVertex
 10
385.6474337143521
 20
-13.22933891813364
 30
0.0
  0
SEQEND
  5
A7
330
A1
100
AcDbEntity
  8
\U+30EC\U+30A4\U+30E4\U+30FC 1
370
     0
  0
HATCH
  5
A8
330
92
100
AcDbEntity
  8
\U+30EC\U+30A4\U+30E4\U+30FC 1
 62
     7
420
 16777215
100
AcDbHatch
 10
0.0
 20
0.0
 30
0.0
210
0.0
220
0.0
230
1.0
  2
SOLID
 70
     1
 71
     0
 91
        1
 92
        1
 93
        4
 72
     1
 10
385.6474337143521
 20
-13.22933891813364
 11
389.6344427194317
 21
-13.22933891813364
 72
     1
 10
389.6344427194317
 20
-13.22933891813364
 11
389.6344427194317
 21
-13.58211669582322
 72
     1
 10
389.6344427194317
 20
-13.58211669582322
 11
385.6474337143521
 21
-13.58211669582322
 72
     1
 10
385.6474337143521
 20
-13.58211669582322
 11
385.6474337143521
 21
-13.22933891813364
 97
        0
 75
     2
 76
     1
 98
        0
  0
SPLINE
  5
A9
330
92
100
AcDbEntity
  8
\U+30EC\U+30A4\U+30E4\U+30FC 1
370
     0
100
AcDbSpline
210
0.0
220
0.0
230
1.0
 70
    11
 71
     3
 72
    41
 73
    37
 74
     0
 42
0.0000000001
 43
0.0000000001
 40
0.0
 40
0.0
 40
0.0
 40
0.0
 40
1.0
 40
1.0
 40
1.0
 40
2.0
 40
2.0
 40
2.0
 40
3.0
 40
3.0
 40
3.0
 40
4.0
 40
4.0
 40
4.0
 40
5.0
 40
5.0
 40
5.0
 40
6.0
 40
6.0
 40
6.0
 40
7.0
 40
7.0
 40
7.0
 40
8.0
 40
8.0
 40
8.0
 40
9.0
 40
9.0
 40
9.0
 40
10.0
 40
10.0
 40
10.0
 40
11.0
 40
11.0
 40
11.0
 40
12.0
 40
12.0
 40
12.0
 40
12.0
 10
390.8123208658386
 20
-9.474873858308365
 30
0.0
 10
391.052099511612
 20
-9.030284285936874
 30
0.0
 10
391.4896266382387
 20
-8.762083602410174
 30
0.0
 10
392.0894177622207
 20
-8.762083602410174
 30
0.0
 10
392.9999564989723
 20
-8.762083602410174
 30
0.0
 10
393.6421222974228
 20
-9.545498315755987
 30
0.0
 10
393.6421222974228
 20
-10.73112792700472
 30
0.0
 10
393.6421222974228
 20
-12.12845865582205
 30
0.0
 10
392.7880831266294
 20
-12.78474934576215
 30
0.0
 10
391.9905435217941
 20
-12.78474934576215
 30
0.0
 10
391.4331270722806
 20
-12.78474934576215
 30
0.0
 10
391.023849728633
 20
-12.55892333670402
 30
0.0
 10
390.7485865993615
 20
-12.06489664411919
 30
0.0
 10
390.7485865993615
 20
-12.06489664411919
 30
0.0
 10
390.7275715169014
 20
-12.06489664411919
 30
0.0
 10
390.7275715169014
 20
-12.06489664411919
 30
0.0
 10
390.7275715169014
 20
-12.06489664411919
 30
0.0
 10
390.6920870334034
 20
-12.699999996825
 30
0.0
 10
390.6920870334034
 20
-12.699999996825
 30
0.0
 10
390.6920870334034
 20
-12.699999996825
 30
0.0
 10
390.1839354493291
 20
-12.699999996825
 30
0.0
 10
390.1839354493291
 20
-12.699999996825
 30
0.0
 10
390.1984048503671
 20
-12.44592420478783
 30
0.0
 10
390.2121852323081
 20
-12.05783419837443
 30
0.0
 10
390.2121852323081
 20
-11.74725884037916
 30
0.0
 10
390.2121852323081
 20
-11.74725884037916
 30
0.0
 10
390.2121852323081
 20
-7.05434977037183
 30
0.0
 10
390.2121852323081
 20
-7.05434977037183
 30
0.0
 10
390.2121852323081
 20
-7.05434977037183
 30
0.0
 10
390.7978514648005
 20
-7.05434977037183
 30
0.0
 10
390.7978514648005
 20
-7.05434977037183
 30
0.0
 10
390.7978514648005
 20
-7.05434977037183
 30
0.0
 10
390.7978514648005
 20
-9.474873858308365
 30
0.0
 10
390.7978514648005
 20
-9.474873858308365
 30
0.0
 10
390.7978514648005
 20
-9.474873858308365
 30
0.0
 10
390.8123208658386
 20
-9.474873858308365
 30
0.0
 10
390.8123208658386
 20
-9.474873858308365
 30
0.0
  0
SPLINE
  5
AA
330
92
100
AcDbEntity
  8
\U+30EC\U+30A4\U+30E4\U+30FC 1
370
     0
100
AcDbSpline
210
0.0
220
0.0
230
1.0
 70
    11
 71
     3
 72
    20
 73
    16
 74
     0
 42
0.0000000001
 43
0.0000000001
 40
0.0
 40
0.0
 40
0.0
 40
0.0
 40
1.0
 40
1.0
 40
1.0
 40
2.0
 40
2.0
 40
2.0
 40
3.0
 40
3.0
 40
3.0
 40
4.0
 40
4.0
 40
4.0
 40
5.0
 40
5.0
 40
5.0
 40
5.0
 10
390.7978514648005
 20
-11.1969048366105
 30
0.0
 10
390.7978514648005
 20
-11.76844617761344
 30
0.0
 10
391.2284884004568
 20
-12.30484754466684
 30
0.0
 10
391.8775443898779
 20
-12.30484754466684
 30
0.0
 10
392.6258191292741
 20
-12.30484754466684
 30
0.0
 10
393.0419866638923
 20
-11.66268174621627
 30
0.0
 10
393.0419866638923
 20
-10.75231526423901
 30
0.0
 10
393.0419866638923
 20
-9.947713213658906
 30
0.0
 10
392.6471787212827
 20
-9.241985403505476
 30
0.0
 10
391.8989039818864
 20
-9.241985403505476
 30
0.0
 10
391.2284884004568
 20
-9.241985403505476
 30
0.0
 10
390.7978514648005
 20
-9.870198565240784
 30
0.0
 10
390.7978514648005
 20
-10.43467746049897
 30
0.0
 10
390.7978514648005
 20
-10.43467746049897
 30
0.0
 10
390.7978514648005
 20
-11.1969048366105
 30
0.0
 10
390.7978514648005
 20
-11.1969048366105
 30
0.0
  0
HATCH
  5
AB
330
92
100
AcDbEntity
  8
\U+30EC\U+30A4\U+30E4\U+30FC 1
 62
     7
420
 16777215
100
AcDbHatch
 10
0.0
 20
0.0
 30
0.0
210
0.0
220
0.0
230
1.0
  2
SOLID
 70
     1
 71
     0
 91
        2
 92
        1
 93
        1
 72
     4
 94
        3
 73
     0
 74
     1
 95
       41
 96
       37
 40
0.0
 40
0.0
 40
0.0
 40
0.0
 40
1.0
 40
1.0
 40
1.0
 40
2.0
 40
2.0
 40
2.0
 40
3.0
 40
3.0
 40
3.0
 40
4.0
 40
4.0
 40
4.0
 40
5.0
 40
5.0
 40
5.0
 40
6.0
 40
6.0
 40
6.0
 40
7.0
 40
7.0
 40
7.0
 40
8.0
 40
8.0
 40
8.0
 40
9.0
 40
9.0
 40
9.0
 40
10.0
 40
10.0
 40
10.0
 40
11.0
 40
11.0
 40
11.0
 40
12.0
 40
12.0
 40
12.0
 40
12.0
 10
390.8123208658386
 20
-9.474873858308365
 10
391.052099511612
 20
-9.030284285936874
 10
391.4896266382387
 20
-8.762083602410174
 10
392.0894177622207
 20
-8.762083602410174
 10
392.9999564989723
 20
-8.762083602410174
 10
393.6421222974228
 20
-9.545498315755987
 10
393.6421222974228
 20
-10.73112792700472
 10
393.6421222974228
 20
-12.12845865582205
 10
392.7880831266294
 20
-12.78474934576215
 10
391.9905435217941
 20
-12.78474934576215
 10
391.4331270722806
 20
-12.78474934576215
 10
391.023849728633
 20
-12.55892333670402
 10
390.7485865993615
 20
-12.06489664411919
 10
390.7485865993615
 20
-12.06489664411919
 10
390.7275715169014
 20
-12.06489664411919
 10
390.7275715169014
 20
-12.06489664411919
 10
390.7275715169014
 20
-12.06489664411919
 10
390.6920870334034
 20
-12.699999996825
 10
390.6920870334034
 20
-12.699999996825
 10
390.6920870334034
 20
-12.699999996825
 10
390.1839354493291
 20
-12.699999996825
 10
390.1839354493291
 20
-12.699999996825
 10
390.1984048503671
 20
-12.44592420478783
 10
390.2121852323081
 20
-12.05783419837443
 10
390.2121852323081
 20
-11.74725884037916
 10
390.2121852323081
 20
-11.74725884037916
 10
390.2121852323081
 20
-7.05434977037183
 10
390.2121852323081
 20
-7.05434977037183
 10
390.2121852323081
 20
-7.05434977037183
 10
390.7978514648005
 20
-7.05434977037183
 10
390.7978514648005
 20
-7.05434977037183
 10
390.7978514648005
 20
-7.05434977037183
 10
390.7978514648005
 20
-9.474873858308365
 10
390.7978514648005
 20
-9.474873858308365
 10
390.7978514648005
 20
-9.474873858308365
 10
390.8123208658386
 20
-9.474873858308365
 10
390.8123208658386
 20
-9.474873858308365
 97
        0
 92
        1
 93
        1
 72
     4
 94
        3
 73
     0
 74
     1
 95
       20
 96
       16
 40
0.0
 40
0.0
 40
0.0
 40
0.0
 40
1.0
 40
1.0
 40
1.0
 40
2.0
 40
2.0
 40
2.0
 40
3.0
 40
3.0
 40
3.0
 40
4.0
 40
4.0
 40
4.0
 40
5.0
 40
5.0
 40
5.0
 40
5.0
 10
390.7978514648005
 20
-11.1969048366105
 10
390.7978514648005
 20
-11.76844617761344
 10
391.2284884004568
 20
-12.30484754466684
 10
391.8775443898779
 20
-12.30484754466684
 10
392.6258191292741
 20
-12.30484754466684
 10
393.0419866638923
 20
-11.66268174621627
 10
393.0419866638923
 20
-10.75231526423901
 10
393.0419866638923
 20
-9.947713213658906
 10
392.6471787212827
 20
-9.241985403505476
 10
391.8989039818864
 20
-9.241985403505476
 10
391.2284884004568
 20
-9.241985403505476
 10
390.7978514648005
 20
-9.870198565240784
 10
390.7978514648005
 20
-10.43467746049897
 10
390.7978514648005
 20
-10.43467746049897
 10
390.7978514648005
 20
-11.1969048366105
 10
390.7978514648005
 20
-11.1969048366105
 97
        0
 75
     2
 76
     1
 98
        0
  0
SPLINE
  5
AC
330
92
100
AcDbEntity
  8
\U+30EC\U+30A4\U+30E4\U+30FC 1
370
     0
100
AcDbSpline
210
0.0
220
0.0
230
1.0
 70
    11
 71
     3
 72
    17
 73
    13
 74
     0
 42
0.0000000001
 43
0.0000000001
 40
0.0
 40
0.0
 40
0.0
 40
0.0
 40
1.0
 40
1.0
 40
1.0
 40
2.0
 40
2.0
 40
2.0
 40
3.0
 40
3.0
 40
3.0
 40
4.0
 40
4.0
 40
4.0
 40
4.0
 10
397.7907062807607
 20
-10.74525281849424
 30
0.0
 10
397.7907062807607
 20
-12.17772352126113
 30
0.0
 10
396.844683060511
 20
-12.78474934576215
 30
0.0
 10
395.9909883992661
 20
-12.78474934576215
 30
0.0
 10
395.0029350140965
 20
-12.78474934576215
 30
0.0
 10
394.2408798927593
 20
-12.04370930688491
 30
0.0
 10
394.2408798927593
 20
-10.80158012967808
 30
0.0
 10
394.2408798927593
 20
-9.48899874979789
 30
0.0
 10
395.0594345800546
 20
-8.762083602410174
 30
0.0
 10
396.0405977742537
 20
-8.762083602410174
 30
0.0
 10
397.092040916352
 20
-8.762083602410174
 30
0.0
 10
397.7907062807607
 20
-9.566685652990273
 30
0.0
 10
397.7907062807607
 20
-10.74525281849424
 30
0.0
  0
SPLINE
  5
AD
330
92
100
AcDbEntity
  8
\U+30EC\U+30A4\U+30E4\U+30FC 1
370
     0
100
AcDbSpline
210
0.0
220
0.0
230
1.0
 70
    11
 71
     3
 72
    17
 73
    13
 74
     0
 42
0.0000000001
 43
0.0000000001
 40
0.0
 40
0.0
 40
0.0
 40
0.0
 40
1.0
 40
1.0
 40
1.0
 40
2.0
 40
2.0
 40
2.0
 40
3.0
 40
3.0
 40
3.0
 40
4.0
 40
4.0
 40
4.0
 40
4.0
 10
396.0192381822452
 20
-9.22079806627119
 30
0.0
 10
395.1862140939118
 20
-9.22079806627119
 30
0.0
 10
394.8406710167412
 20
-10.03952500834081
 30
0.0
 10
394.8406710167412
 20
-10.78039279244379
 30
0.0
 10
394.8406710167412
 20
-11.63443196323723
 30
0.0
 10
395.3136826268661
 20
-12.32603488190113
 30
0.0
 10
396.0051132907557
 20
-12.32603488190113
 30
0.0
 10
396.7037786551643
 20
-12.32603488190113
 30
0.0
 10
397.1905706472302
 20
-11.63443196323723
 30
0.0
 10
397.1905706472302
 20
-10.76644015572853
 30
0.0
 10
397.1905706472302
 20
-10.08189968280939
 30
0.0
 10
396.8591524615491
 20
-9.22079806627119
 30
0.0
 10
396.0192381822452
 20
-9.22079806627119
 30
0.0
  0
HATCH
  5
AE
330
92
100
AcDbEntity
  8
\U+30EC\U+30A4\U+30E4\U+30FC 1
 62
     7
420
 16777215
100
AcDbHatch
 10
0.0
 20
0.0
 30
0.0
210
0.0
220
0.0
230
1.0
  2
SOLID
 70
     1
 71
     0
 91
        2
 92
        1
 93
        1
 72
     4
 94
        3
 73
     0
 74
     1
 95
       17
 96
       13
 40
0.0
 40
0.0
 40
0.0
 40
0.0
 40
1.0
 40
1.0
 40
1.0
 40
2.0
 40
2.0
 40
2.0
 40
3.0
 40
3.0
 40
3.0
 40
4.0
 40
4.0
 40
4.0
 40
4.0
 10
397.7907062807607
 20
-10.74525281849424
 10
397.7907062807607
 20
-12.17772352126113
 10
396.844683060511
 20
-12.78474934576215
 10
395.9909883992661
 20
-12.78474934576215
 10
395.0029350140965
 20
-12.78474934576215
 10
394.2408798927593
 20
-12.04370930688491
 10
394.2408798927593
 20
-10.80158012967808
 10
394.2408798927593
 20
-9.48899874979789
 10
395.0594345800546
 20
-8.762083602410174
 10
396.0405977742537
 20
-8.762083602410174
 10
397.092040916352
 20
-8.762083602410174
 10
397.7907062807607
 20
-9.566685652990273
 10
397.7907062807607
 20
-10.74525281849424
 97
        0
 92
        1
 93
        1
 72
     4
 94
        3
 73
     0
 74
     1
 95
       17
 96
       13
 40
0.0
 40
0.0
 40
0.0
 40
0.0
 40
1.0
 40
1.0
 40
1.0
 40
2.0
 40
2.0
 40
2.0
 40
3.0
 40
3.0
 40
3.0
 40
4.0
 40
4.0
 40
4.0
 40
4.0
 10
396.0192381822452
 20
-9.22079806627119
 10
395.1862140939118
 20
-9.22079806627119
 10
394.8406710167412
 20
-10.03952500834081
 10
394.8406710167412
 20
-10.78039279244379
 10
394.8406710167412
 20
-11.63443196323723
 10
395.3136826268661
 20
-12.32603488190113
 10
396.0051132907557
 20
-12.32603488190113
 10
396.7037786551643
 20
-12.32603488190113
 10
397.1905706472302
 20
-11.63443196323723
 10
397.1905706472302
 20
-10.76644015572853
 10
397.1905706472302
 20
-10.08189968280939
 10
396.8591524615491
 20
-9.22079806627119
 10
396.0192381822452
 20
-9.22079806627119
 97
        0
 75
     2
 76
     1
 98
        0
  0
SPLINE
  5
AF
330
92
100
AcDbEntity
  8
\U+30EC\U+30A4\U+30E4\U+30FC 1
370
     0
100
AcDbSpline
210
0.0
220
0.0
230
1.0
 70
    11
 71
     3
 72
    53
 73
    49
 74
     0
 42
0.0000000001
 43
0.0000000001
 40
0.0
 40
0.0
 40
0.0
 40
0.0
 40
1.0
 40
1.0
 40
1.0
 40
2.0
 40
2.0
 40
2.0
 40
3.0
 40
3.0
 40
3.0
 40
4.0
 40
4.0
 40
4.0
 40
5.0
 40
5.0
 40
5.0
 40
6.0
 40
6.0
 40
6.0
 40
7.0
 40
7.0
 40
7.0
 40
8.0
 40
8.0
 40
8.0
 40
9.0
 40
9.0
 40
9.0
 40
10.0
 40
10.0
 40
10.0
 40
11.0
 40
11.0
 40
11.0
 40
12.0
 40
12.0
 40
12.0
 40
13.0
 40
13.0
 40
13.0
 40
14.0
 40
14.0
 40
14.0
 40
15.0
 40
15.0
 40
15.0
 40
16.0
 40
16.0
 40
16.0
 40
16.0
 10
398.8338811936943
 20
-8.155230032683415
 30
0.0
 10
398.8338811936943
 20
-8.155230032683415
 30
0.0
 10
399.4126572352163
 20
-7.957653806604337
 30
0.0
 10
399.4126572352163
 20
-7.957653806604337
 30
0.0
 10
399.4126572352163
 20
-7.957653806604337
 30
0.0
 10
399.4126572352163
 20
-8.853895397092082
 30
0.0
 10
399.4126572352163
 20
-8.853895397092082
 30
0.0
 10
399.4126572352163
 20
-8.853895397092082
 30
0.0
 10
400.4076008113565
 20
-8.853895397092082
 30
0.0
 10
400.4076008113565
 20
-8.853895397092082
 30
0.0
 10
400.4076008113565
 20
-8.853895397092082
 30
0.0
 10
400.4076008113565
 20
-9.312609860953097
 30
0.0
 10
400.4076008113565
 20
-9.312609860953097
 30
0.0
 10
400.4076008113565
 20
-9.312609860953097
 30
0.0
 10
399.4126572352163
 20
-9.312609860953097
 30
0.0
 10
399.4126572352163
 20
-9.312609860953097
 30
0.0
 10
399.4126572352163
 20
-9.312609860953097
 30
0.0
 10
399.4126572352163
 20
-11.53555772281056
 30
0.0
 10
399.4126572352163
 20
-11.53555772281056
 30
0.0
 10
399.4126572352163
 20
-12.02252196965062
 30
0.0
 10
399.560796341082
 20
-12.29072265317732
 30
0.0
 10
399.9349337107802
 20
-12.29072265317732
 30
0.0
 10
400.1113225996249
 20
-12.29072265317732
 30
0.0
 10
400.2312119225116
 20
-12.26953531594303
 30
0.0
 10
400.3300861629384
 20
-12.23422308721922
 30
0.0
 10
400.3300861629384
 20
-12.23422308721922
 30
0.0
 10
400.3655706464364
 20
-12.68587510533548
 30
0.0
 10
400.3655706464364
 20
-12.68587510533548
 30
0.0
 10
400.2384466230307
 20
-12.74237467129357
 30
0.0
 10
400.0406981421773
 20
-12.77768690001738
 30
0.0
 10
399.7936847958849
 20
-12.77768690001738
 30
0.0
 10
398.8621309766734
 20
-12.77768690001738
 30
0.0
 10
398.8338811936943
 20
-11.93071017496871
 30
0.0
 10
398.8338811936943
 20
-11.52143283132103
 30
0.0
 10
398.8338811936943
 20
-11.52143283132103
 30
0.0
 10
398.8338811936943
 20
-9.312609860953097
 30
0.0
 10
398.8338811936943
 20
-9.312609860953097
 30
0.0
 10
398.8338811936943
 20
-9.312609860953097
 30
0.0
 10
398.2413247702314
 20
-9.312609860953097
 30
0.0
 10
398.2413247702314
 20
-9.312609860953097
 30
0.0
 10
398.2413247702314
 20
-9.312609860953097
 30
0.0
 10
398.2413247702314
 20
-8.853895397092082
 30
0.0
 10
398.2413247702314
 20
-8.853895397092082
 30
0.0
 10
398.2413247702314
 20
-8.853895397092082
 30
0.0
 10
398.8338811936943
 20
-8.853895397092082
 30
0.0
 10
398.8338811936943
 20
-8.853895397092082
 30
0.0
 10
398.8338811936943
 20
-8.853895397092082
 30
0.0
 10
398.8338811936943
 20
-8.155230032683415
 30
0.0
 10
398.8338811936943
 20
-8.155230032683415
 30
0.0
  0
HATCH
  5
B0
330
92
100
AcDbEntity
  8
\U+30EC\U+30A4\U+30E4\U+30FC 1
 62
     7
420
 16777215
100
AcDbHatch
 10
0.0
 20
0.0
 30
0.0
210
0.0
220
0.0
230
1.0
  2
SOLID
 70
     1
 71
     0
 91
        1
 92
        1
 93
        1
 72
     4
 94
        3
 73
     0
 74
     1
 95
       53
 96
       49
 40
0.0
 40
0.0
 40
0.0
 40
0.0
 40
1.0
 40
1.0
 40
1.0
 40
2.0
 40
2.0
 40
2.0
 40
3.0
 40
3.0
 40
3.0
 40
4.0
 40
4.0
 40
4.0
 40
5.0
 40
5.0
 40
5.0
 40
6.0
 40
6.0
 40
6.0
 40
7.0
 40
7.0
 40
7.0
 40
8.0
 40
8.0
 40
8.0
 40
9.0
 40
9.0
 40
9.0
 40
10.0
 40
10.0
 40
10.0
 40
11.0
 40
11.0
 40
11.0
 40
12.0
 40
12.0
 40
12.0
 40
13.0
 40
13.0
 40
13.0
 40
14.0
 40
14.0
 40
14.0
 40
15.0
 40
15.0
 40
15.0
 40
16.0
 40
16.0
 40
16.0
 40
16.0
 10
398.8338811936943
 20
-8.155230032683415
 10
398.8338811936943
 20
-8.155230032683415
 10
399.4126572352163
 20
-7.957653806604337
 10
399.4126572352163
 20
-7.957653806604337
 10
399.4126572352163
 20
-7.957653806604337
 10
399.4126572352163
 20
-8.853895397092082
 10
399.4126572352163
 20
-8.853895397092082
 10
399.4126572352163
 20
-8.853895397092082
 10
400.4076008113565
 20
-8.853895397092082
 10
400.4076008113565
 20
-8.853895397092082
 10
400.4076008113565
 20
-8.853895397092082
 10
400.4076008113565
 20
-9.312609860953097
 10
400.4076008113565
 20
-9.312609860953097
 10
400.4076008113565
 20
-9.312609860953097
 10
399.4126572352163
 20
-9.312609860953097
 10
399.4126572352163
 20
-9.312609860953097
 10
399.4126572352163
 20
-9.312609860953097
 10
399.4126572352163
 20
-11.53555772281056
 10
399.4126572352163
 20
-11.53555772281056
 10
399.4126572352163
 20
-12.02252196965062
 10
399.560796341082
 20
-12.29072265317732
 10
399.9349337107802
 20
-12.29072265317732
 10
400.1113225996249
 20
-12.29072265317732
 10
400.2312119225116
 20
-12.26953531594303
 10
400.3300861629384
 20
-12.23422308721922
 10
400.3300861629384
 20
-12.23422308721922
 10
400.3655706464364
 20
-12.68587510533548
 10
400.3655706464364
 20
-12.68587510533548
 10
400.2384466230307
 20
-12.74237467129357
 10
400.0406981421773
 20
-12.77768690001738
 10
399.7936847958849
 20
-12.77768690001738
 10
398.8621309766734
 20
-12.77768690001738
 10
398.8338811936943
 20
-11.93071017496871
 10
398.8338811936943
 20
-11.52143283132103
 10
398.8338811936943
 20
-11.52143283132103
 10
398.8338811936943
 20
-9.312609860953097
 10
398.8338811936943
 20
-9.312609860953097
 10
398.8338811936943
 20
-9.312609860953097
 10
398.2413247702314
 20
-9.312609860953097
 10
398.2413247702314
 20
-9.312609860953097
 10
398.2413247702314
 20
-9.312609860953097
 10
398.2413247702314
 20
-8.853895397092082
 10
398.2413247702314
 20
-8.853895397092082
 10
398.2413247702314
 20
-8.853895397092082
 10
398.8338811936943
 20
-8.853895397092082
 10
398.8338811936943
 20
-8.853895397092082
 10
398.8338811936943
 20
-8.853895397092082
 10
398.8338811936943
 20
-8.155230032683415
 10
398.8338811936943
 20
-8.155230032683415
 97
        0
 75
     2
 76
     1
 98
        0
  0
SPLINE
  5
B1
330
92
100
AcDbEntity
  8
\U+30EC\U+30A4\U+30E4\U+30FC 1
370
     0
100
AcDbSpline
210
0.0
220
0.0
230
1.0
 70
    11
 71
     3
 72
    53
 73
    49
 74
     0
 42
0.0000000001
 43
0.0000000001
 40
0.0
 40
0.0
 40
0.0
 40
0.0
 40
1.0
 40
1.0
 40
1.0
 40
2.0
 40
2.0
 40
2.0
 40
3.0
 40
3.0
 40
3.0
 40
4.0
 40
4.0
 40
4.0
 40
5.0
 40
5.0
 40
5.0
 40
6.0
 40
6.0
 40
6.0
 40
7.0
 40
7.0
 40
7.0
 40
8.0
 40
8.0
 40
8.0
 40
9.0
 40
9.0
 40
9.0
 40
10.0
 40
10.0
 40
10.0
 40
11.0
 40
11.0
 40
11.0
 40
12.0
 40
12.0
 40
12.0
 40
13.0
 40
13.0
 40
13.0
 40
14.0
 40
14.0
 40
14.0
 40
15.0
 40
15.0
 40
15.0
 40
16.0
 40
16.0
 40
16.0
 40
16.0
 10
401.3315754205005
 20
-8.155230032683415
 30
0.0
 10
401.3315754205005
 20
-8.155230032683415
 30
0.0
 10
401.9103514620224
 20
-7.957653806604337
 30
0.0
 10
401.9103514620224
 20
-7.957653806604337
 30
0.0
 10
401.9103514620224
 20
-7.957653806604337
 30
0.0
 10
401.9103514620224
 20
-8.853895397092082
 30
0.0
 10
401.9103514620224
 20
-8.853895397092082
 30
0.0
 10
401.9103514620224
 20
-8.853895397092082
 30
0.0
 10
402.9052950381626
 20
-8.853895397092082
 30
0.0
 10
402.9052950381626
 20
-8.853895397092082
 30
0.0
 10
402.9052950381626
 20
-8.853895397092082
 30
0.0
 10
402.9052950381626
 20
-9.312609860953097
 30
0.0
 10
402.9052950381626
 20
-9.312609860953097
 30
0.0
 10
402.9052950381626
 20
-9.312609860953097
 30
0.0
 10
401.9103514620224
 20
-9.312609860953097
 30
0.0
 10
401.9103514620224
 20
-9.312609860953097
 30
0.0
 10
401.9103514620224
 20
-9.312609860953097
 30
0.0
 10
401.9103514620224
 20
-11.53555772281056
 30
0.0
 10
401.9103514620224
 20
-11.53555772281056
 30
0.0
 10
401.9103514620224
 20
-12.02252196965062
 30
0.0
 10
402.0584905678882
 20
-12.29072265317732
 30
0.0
 10
402.4326279375863
 20
-12.29072265317732
 30
0.0
 10
402.6090168264311
 20
-12.29072265317732
 30
0.0
 10
402.7289061493178
 20
-12.26953531594303
 30
0.0
 10
402.8274358801959
 20
-12.23422308721922
 30
0.0
 10
402.8274358801959
 20
-12.23422308721922
 30
0.0
 10
402.862920363694
 20
-12.68587510533548
 30
0.0
 10
402.862920363694
 20
-12.68587510533548
 30
0.0
 10
402.7357963402883
 20
-12.74237467129357
 30
0.0
 10
402.5380478594349
 20
-12.77768690001738
 30
0.0
 10
402.291379022691
 20
-12.77768690001738
 30
0.0
 10
401.3598252034795
 20
-12.77768690001738
 30
0.0
 10
401.3315754205005
 20
-11.93071017496871
 30
0.0
 10
401.3315754205005
 20
-11.52143283132103
 30
0.0
 10
401.3315754205005
 20
-11.52143283132103
 30
0.0
 10
401.3315754205005
 20
-9.312609860953097
 30
0.0
 10
401.3315754205005
 20
-9.312609860953097
 30
0.0
 10
401.3315754205005
 20
-9.312609860953097
 30
0.0
 10
400.7386744874889
 20
-9.312609860953097
 30
0.0
 10
400.7386744874889
 20
-9.312609860953097
 30
0.0
 10
400.7386744874889
 20
-9.312609860953097
 30
0.0
 10
400.7386744874889
 20
-8.853895397092082
 30
0.0
 10
400.7386744874889
 20
-8.853895397092082
 30
0.0
 10
400.7386744874889
 20
-8.853895397092082
 30
0.0
 10
401.3315754205005
 20
-8.853895397092082
 30
0.0
 10
401.3315754205005
 20
-8.853895397092082
 30
0.0
 10
401.3315754205005
 20
-8.853895397092082
 30
0.0
 10
401.3315754205005
 20
-8.155230032683415
 30
0.0
 10
401.3315754205005
 20
-8.155230032683415
 30
0.0
  0
HATCH
  5
B2
330
92
100
AcDbEntity
  8
\U+30EC\U+30A4\U+30E4\U+30FC 1
 62
     7
420
 16777215
100
AcDbHatch
 10
0.0
 20
0.0
 30
0.0
210
0.0
220
0.0
230
1.0
  2
SOLID
 70
     1
 71
     0
 91
        1
 92
        1
 93
        1
 72
     4
 94
        3
 73
     0
 74
     1
 95
       53
 96
       49
 40
0.0
 40
0.0
 40
0.0
 40
0.0
 40
1.0
 40
1.0
 40
1.0
 40
2.0
 40
2.0
 40
2.0
 40
3.0
 40
3.0
 40
3.0
 40
4.0
 40
4.0
 40
4.0
 40
5.0
 40
5.0
 40
5.0
 40
6.0
 40
6.0
 40
6.0
 40
7.0
 40
7.0
 40
7.0
 40
8.0
 40
8.0
 40
8.0
 40
9.0
 40
9.0
 40
9.0
 40
10.0
 40
10.0
 40
10.0
 40
11.0
 40
11.0
 40
11.0
 40
12.0
 40
12.0
 40
12.0
 40
13.0
 40
13.0
 40
13.0
 40
14.0
 40
14.0
 40
14.0
 40
15.0
 40
15.0
 40
15.0
 40
16.0
 40
16.0
 40
16.0
 40
16.0
 10
401.3315754205005
 20
-8.155230032683415
 10
401.3315754205005
 20
-8.155230032683415
 10
401.9103514620224
 20
-7.957653806604337
 10
401.9103514620224
 20
-7.957653806604337
 10
401.9103514620224
 20
-7.957653806604337
 10
401.9103514620224
 20
-8.853895397092082
 10
401.9103514620224
 20
-8.853895397092082
 10
401.9103514620224
 20
-8.853895397092082
 10
402.9052950381626
 20
-8.853895397092082
 10
402.9052950381626
 20
-8.853895397092082
 10
402.9052950381626
 20
-8.853895397092082
 10
402.9052950381626
 20
-9.312609860953097
 10
402.9052950381626
 20
-9.312609860953097
 10
402.9052950381626
 20
-9.312609860953097
 10
401.9103514620224
 20
-9.312609860953097
 10
401.9103514620224
 20
-9.312609860953097
 10
401.9103514620224
 20
-9.312609860953097
 10
401.9103514620224
 20
-11.53555772281056
 10
401.9103514620224
 20
-11.53555772281056
 10
401.9103514620224
 20
-12.02252196965062
 10
402.0584905678882
 20
-12.29072265317732
 10
402.4326279375863
 20
-12.29072265317732
 10
402.6090168264311
 20
-12.29072265317732
 10
402.7289061493178
 20
-12.26953531594303
 10
402.8274358801959
 20
-12.23422308721922
 10
402.8274358801959
 20
-12.23422308721922
 10
402.862920363694
 20
-12.68587510533548
 10
402.862920363694
 20
-12.68587510533548
 10
402.7357963402883
 20
-12.74237467129357
 10
402.5380478594349
 20
-12.77768690001738
 10
402.291379022691
 20
-12.77768690001738
 10
401.3598252034795
 20
-12.77768690001738
 10
401.3315754205005
 20
-11.93071017496871
 10
401.3315754205005
 20
-11.52143283132103
 10
401.3315754205005
 20
-11.52143283132103
 10
401.3315754205005
 20
-9.312609860953097
 10
401.3315754205005
 20
-9.312609860953097
 10
401.3315754205005
 20
-9.312609860953097
 10
400.7386744874889
 20
-9.312609860953097
 10
400.7386744874889
 20
-9.312609860953097
 10
400.7386744874889
 20
-9.312609860953097
 10
400.7386744874889
 20
-8.853895397092082
 10
400.7386744874889
 20
-8.853895397092082
 10
400.7386744874889
 20
-8.853895397092082
 10
401.3315754205005
 20
-8.853895397092082
 10
401.3315754205005
 20
-8.853895397092082
 10
401.3315754205005
 20
-8.853895397092082
 10
401.3315754205005
 20
-8.155230032683415
 10
401.3315754205005
 20
-8.155230032683415
 97
        0
 75
     2
 76
     1
 98
        0
  0
SPLINE
  5
B3
330
92
100
AcDbEntity
  8
\U+30EC\U+30A4\U+30E4\U+30FC 1
370
     0
100
AcDbSpline
210
0.0
220
0.0
230
1.0
 70
    11
 71
     3
 72
    17
 73
    13
 74
     0
 42
0.0000000001
 43
0.0000000001
 40
0.0
 40
0.0
 40
0.0
 40
0.0
 40
1.0
 40
1.0
 40
1.0
 40
2.0
 40
2.0
 40
2.0
 40
3.0
 40
3.0
 40
3.0
 40
4.0
 40
4.0
 40
4.0
 40
4.0
 10
406.9412243991328
 20
-10.74525281849424
 30
0.0
 10
406.9412243991328
 20
-12.17772352126113
 30
0.0
 10
405.9955456884317
 20
-12.78474934576215
 30
0.0
 10
405.1418510271868
 20
-12.78474934576215
 30
0.0
 10
404.1537976420171
 20
-12.78474934576215
 30
0.0
 10
403.3917425206799
 20
-12.04370930688491
 30
0.0
 10
403.3917425206799
 20
-10.80158012967808
 30
0.0
 10
403.3917425206799
 20
-9.48899874979789
 30
0.0
 10
404.2102972079752
 20
-8.762083602410174
 30
0.0
 10
405.1911158926259
 20
-8.762083602410174
 30
0.0
 10
406.2425590347241
 20
-8.762083602410174
 30
0.0
 10
406.9412243991328
 20
-9.566685652990273
 30
0.0
 10
406.9412243991328
 20
-10.74525281849424
 30
0.0
  0
SPLINE
  5
B4
330
92
100
AcDbEntity
  8
\U+30EC\U+30A4\U+30E4\U+30FC 1
370
     0
100
AcDbSpline
210
0.0
220
0.0
230
1.0
 70
    11
 71
     3
 72
    17
 73
    13
 74
     0
 42
0.0000000001
 43
0.0000000001
 40
0.0
 40
0.0
 40
0.0
 40
0.0
 40
1.0
 40
1.0
 40
1.0
 40
2.0
 40
2.0
 40
2.0
 40
3.0
 40
3.0
 40
3.0
 40
4.0
 40
4.0
 40
4.0
 40
4.0
 10
405.1701008101658
 20
-9.22079806627119
 30
0.0
 10
404.3370767218324
 20
-9.22079806627119
 30
0.0
 10
403.9911891351134
 20
-10.03952500834081
 30
0.0
 10
403.9911891351134
 20
-10.78039279244379
 30
0.0
 10
403.9911891351134
 20
-11.63443196323723
 30
0.0
 10
404.4642007452381
 20
-12.32603488190113
 30
0.0
 10
405.1556314091277
 20
-12.32603488190113
 30
0.0
 10
405.8542967735364
 20
-12.32603488190113
 30
0.0
 10
406.3414332751508
 20
-11.63443196323723
 30
0.0
 10
406.3414332751508
 20
-10.76644015572853
 30
0.0
 10
406.3414332751508
 20
-10.08189968280939
 30
0.0
 10
406.0096705799212
 20
-9.22079806627119
 30
0.0
 10
405.1701008101658
 20
-9.22079806627119
 30
0.0
  0
HATCH
  5
B5
330
92
100
AcDbEntity
  8
\U+30EC\U+30A4\U+30E4\U+30FC 1
 62
     7
420
 16777215
100
AcDbHatch
 10
0.0
 20
0.0
 30
0.0
210
0.0
220
0.0
230
1.0
  2
SOLID
 70
     1
 71
     0
 91
        2
 92
        1
 93
        1
 72
     4
 94
        3
 73
     0
 74
     1
 95
       17
 96
       13
 40
0.0
 40
0.0
 40
0.0
 40
0.0
 40
1.0
 40
1.0
 40
1.0
 40
2.0
 40
2.0
 40
2.0
 40
3.0
 40
3.0
 40
3.0
 40
4.0
 40
4.0
 40
4.0
 40
4.0
 10
406.9412243991328
 20
-10.74525281849424
 10
406.9412243991328
 20
-12.17772352126113
 10
405.9955456884317
 20
-12.78474934576215
 10
405.1418510271868
 20
-12.78474934576215
 10
404.1537976420171
 20
-12.78474934576215
 10
403.3917425206799
 20
-12.04370930688491
 10
403.3917425206799
 20
-10.80158012967808
 10
403.3917425206799
 20
-9.48899874979789
 10
404.2102972079752
 20
-8.762083602410174
 10
405.1911158926259
 20
-8.762083602410174
 10
406.2425590347241
 20
-8.762083602410174
 10
406.9412243991328
 20
-9.566685652990273
 10
406.9412243991328
 20
-10.74525281849424
 97
        0
 92
        1
 93
        1
 72
     4
 94
        3
 73
     0
 74
     1
 95
       17
 96
       13
 40
0.0
 40
0.0
 40
0.0
 40
0.0
 40
1.0
 40
1.0
 40
1.0
 40
2.0
 40
2.0
 40
2.0
 40
3.0
 40
3.0
 40
3.0
 40
4.0
 40
4.0
 40
4.0
 40
4.0
 10
405.1701008101658
 20
-9.22079806627119
 10
404.3370767218324
 20
-9.22079806627119
 10
403.9911891351134
 20
-10.03952500834081
 10
403.9911891351134
 20
-10.78039279244379
 10
403.9911891351134
 20
-11.63443196323723
 10
404.4642007452381
 20
-12.32603488190113
 10
405.1556314091277
 20
-12.32603488190113
 10
405.8542967735364
 20
-12.32603488190113
 10
406.3414332751508
 20
-11.63443196323723
 10
406.3414332751508
 20
-10.76644015572853
 10
406.3414332751508
 20
-10.08189968280939
 10
406.0096705799212
 20
-9.22079806627119
 10
405.1701008101658
 20
-9.22079806627119
 97
        0
 75
     2
 76
     1
 98
        0
  0
SPLINE
  5
B6
330
92
100
AcDbEntity
  8
\U+30EC\U+30A4\U+30E4\U+30FC 1
370
     0
100
AcDbSpline
210
0.0
220
0.0
230
1.0
 70
    11
 71
     3
 72
    71
 73
    67
 74
     0
 42
0.0000000001
 43
0.0000000001
 40
0.0
 40
0.0
 40
0.0
 40
0.0
 40
1.0
 40
1.0
 40
1.0
 40
2.0
 40
2.0
 40
2.0
 40
3.0
 40
3.0
 40
3.0
 40
4.0
 40
4.0
 40
4.0
 40
5.0
 40
5.0
 40
5.0
 40
6.0
 40
6.0
 40
6.0
 40
7.0
 40
7.0
 40
7.0
 40
8.0
 40
8.0
 40
8.0
 40
9.0
 40
9.0
 40
9.0
 40
10.0
 40
10.0
 40
10.0
 40
11.0
 40
11.0
 40
11.0
 40
12.0
 40
12.0
 40
12.0
 40
13.0
 40
13.0
 40
13.0
 40
14.0
 40
14.0
 40
14.0
 40
15.0
 40
15.0
 40
15.0
 40
16.0
 40
16.0
 40
16.0
 40
17.0
 40
17.0
 40
17.0
 40
18.0
 40
18.0
 40
18.0
 40
19.0
 40
19.0
 40
19.0
 40
20.0
 40
20.0
 40
20.0
 40
21.0
 40
21.0
 40
21.0
 40
22.0
 40
22.0
 40
22.0
 40
22.0
 10
413.0655706432614
 20
-12.699999996825
 30
0.0
 10
413.0655706432614
 20
-12.699999996825
 30
0.0
 10
412.4871391112879
 20
-12.699999996825
 30
0.0
 10
412.4871391112879
 20
-12.699999996825
 30
0.0
 10
412.4871391112879
 20
-12.699999996825
 30
0.0
 10
412.4871391112879
 20
-10.47705213496754
 30
0.0
 10
412.4871391112879
 20
-10.47705213496754
 30
0.0
 10
412.4871391112879
 20
-9.728949650345541
 30
0.0
 10
412.218766172987
 20
-9.249047849250239
 30
0.0
 10
411.6403346410136
 20
-9.249047849250239
 30
0.0
 10
411.1673230308887
 20
-9.249047849250239
 30
0.0
 10
410.737030604781
 20
-9.69363742162173
 30
0.0
 10
410.737030604781
 20
-10.27947590888846
 30
0.0
 10
410.737030604781
 20
-10.27947590888846
 30
0.0
 10
410.737030604781
 20
-12.699999996825
 30
0.0
 10
410.737030604781
 20
-12.699999996825
 30
0.0
 10
410.737030604781
 20
-12.699999996825
 30
0.0
 10
410.158254563259
 20
-12.699999996825
 30
0.0
 10
410.158254563259
 20
-12.699999996825
 30
0.0
 10
410.158254563259
 20
-12.699999996825
 30
0.0
 10
410.158254563259
 20
-10.32874077432754
 30
0.0
 10
410.158254563259
 20
-10.32874077432754
 30
0.0
 10
410.158254563259
 20
-9.714824758856016
 30
0.0
 10
409.8971163254772
 20
-9.249047849250239
 30
0.0
 10
409.3538247674532
 20
-9.249047849250239
 30
0.0
 10
408.8529078838979
 20
-9.249047849250239
 30
0.0
 10
408.4081460567522
 20
-9.743074541835066
 30
0.0
 10
408.4081460567522
 20
-10.34286566581706
 30
0.0
 10
408.4081460567522
 20
-10.34286566581706
 30
0.0
 10
408.4081460567522
 20
-12.699999996825
 30
0.0
 10
408.4081460567522
 20
-12.699999996825
 30
0.0
 10
408.4081460567522
 20
-12.699999996825
 30
0.0
 10
407.8293700152302
 20
-12.699999996825
 30
0.0
 10
407.8293700152302
 20
-12.699999996825
 30
0.0
 10
407.8293700152302
 20
-12.699999996825
 30
0.0
 10
407.8293700152302
 20
-9.841948782261735
 30
0.0
 10
407.8293700152302
 20
-9.841948782261735
 30
0.0
 10
407.8293700152302
 20
-9.446624075329316
 30
0.0
 10
407.8152451237406
 20
-9.164470755087354
 30
0.0
 10
407.8014647417996
 20
-8.84683295134732
 30
0.0
 10
407.8014647417996
 20
-8.84683295134732
 30
0.0
 10
408.316162007296
 20
-8.84683295134732
 30
0.0
 10
408.316162007296
 20
-8.84683295134732
 30
0.0
 10
408.316162007296
 20
-8.84683295134732
 30
0.0
 10
408.3516464907941
 20
-9.467811412563604
 30
0.0
 10
408.3516464907941
 20
-9.467811412563604
 30
0.0
 10
408.3516464907941
 20
-9.467811412563604
 30
0.0
 10
408.372661573254
 20
-9.467811412563604
 30
0.0
 10
408.372661573254
 20
-9.467811412563604
 30
0.0
 10
408.5845349455969
 20
-9.093846297639733
 30
0.0
 10
408.937657232835
 20
-8.762083602410174
 30
0.0
 10
409.5443385477876
 20
-8.762083602410174
 30
0.0
 10
410.0455999408914
 20
-8.762083602410174
 30
0.0
 10
410.4335176925305
 20
-9.072658960405446
 30
0.0
 10
410.5957816898858
 20
-9.531373424266462
 30
0.0
 10
410.5957816898858
 20
-9.531373424266462
 30
0.0
 10
410.6099065813753
 20
-9.531373424266462
 30
0.0
 10
410.6099065813753
 20
-9.531373424266462
 30
0.0
 10
410.8641546281868
 20
-9.072658960405446
 30
0.0
 10
411.2520723798259
 20
-8.762083602410174
 30
0.0
 10
411.8449733128374
 20
-8.762083602410174
 30
0.0
 10
412.3179849229622
 20
-8.762083602410174
 30
0.0
 10
413.0655706432614
 20
-9.065596514660685
 30
0.0
 10
413.0655706432614
 20
-10.38524034028564
 30
0.0
 10
413.0655706432614
 20
-10.38524034028564
 30
0.0
 10
413.0655706432614
 20
-12.699999996825
 30
0.0
 10
413.0655706432614
 20
-12.699999996825
 30
0.0
  0
HATCH
  5
B7
330
92
100
AcDbEntity
  8
\U+30EC\U+30A4\U+30E4\U+30FC 1
 62
     7
420
 16777215
100
AcDbHatch
 10
0.0
 20
0.0
 30
0.0
210
0.0
220
0.0
230
1.0
  2
SOLID
 70
     1
 71
     0
 91
        1
 92
        1
 93
        1
 72
     4
 94
        3
 73
     0
 74
     1
 95
       71
 96
       67
 40
0.0
 40
0.0
 40
0.0
 40
0.0
 40
1.0
 40
1.0
 40
1.0
 40
2.0
 40
2.0
 40
2.0
 40
3.0
 40
3.0
 40
3.0
 40
4.0
 40
4.0
 40
4.0
 40
5.0
 40
5.0
 40
5.0
 40
6.0
 40
6.0
 40
6.0
 40
7.0
 40
7.0
 40
7.0
 40
8.0
 40
8.0
 40
8.0
 40
9.0
 40
9.0
 40
9.0
 40
10.0
 40
10.0
 40
10.0
 40
11.0
 40
11.0
 40
11.0
 40
12.0
 40
12.0
 40
12.0
 40
13.0
 40
13.0
 40
13.0
 40
14.0
 40
14.0
 40
14.0
 40
15.0
 40
15.0
 40
15.0
 40
16.0
 40
16.0
 40
16.0
 40
17.0
 40
17.0
 40
17.0
 40
18.0
 40
18.0
 40
18.0
 40
19.0
 40
19.0
 40
19.0
 40
20.0
 40
20.0
 40
20.0
 40
21.0
 40
21.0
 40
21.0
 40
22.0
 40
22.0
 40
22.0
 40
22.0
 10
413.0655706432614
 20
-12.699999996825
 10
413.0655706432614
 20
-12.699999996825
 10
412.4871391112879
 20
-12.699999996825
 10
412.4871391112879
 20
-12.699999996825
 10
412.4871391112879
 20
-12.699999996825
 10
412.4871391112879
 20
-10.47705213496754
 10
412.4871391112879
 20
-10.47705213496754
 10
412.4871391112879
 20
-9.728949650345541
 10
412.218766172987
 20
-9.249047849250239
 10
411.6403346410136
 20
-9.249047849250239
 10
411.1673230308887
 20
-9.249047849250239
 10
410.737030604781
 20
-9.69363742162173
 10
410.737030604781
 20
-10.27947590888846
 10
410.737030604781
 20
-10.27947590888846
 10
410.737030604781
 20
-12.699999996825
 10
410.737030604781
 20
-12.699999996825
 10
410.737030604781
 20
-12.699999996825
 10
410.158254563259
 20
-12.699999996825
 10
410.158254563259
 20
-12.699999996825
 10
410.158254563259
 20
-12.699999996825
 10
410.158254563259
 20
-10.32874077432754
 10
410.158254563259
 20
-10.32874077432754
 10
410.158254563259
 20
-9.714824758856016
 10
409.8971163254772
 20
-9.249047849250239
 10
409.3538247674532
 20
-9.249047849250239
 10
408.8529078838979
 20
-9.249047849250239
 10
408.4081460567522
 20
-9.743074541835066
 10
408.4081460567522
 20
-10.34286566581706
 10
408.4081460567522
 20
-10.34286566581706
 10
408.4081460567522
 20
-12.699999996825
 10
408.4081460567522
 20
-12.699999996825
 10
408.4081460567522
 20
-12.699999996825
 10
407.8293700152302
 20
-12.699999996825
 10
407.8293700152302
 20
-12.699999996825
 10
407.8293700152302
 20
-12.699999996825
 10
407.8293700152302
 20
-9.841948782261735
 10
407.8293700152302
 20
-9.841948782261735
 10
407.8293700152302
 20
-9.446624075329316
 10
407.8152451237406
 20
-9.164470755087354
 10
407.8014647417996
 20
-8.84683295134732
 10
407.8014647417996
 20
-8.84683295134732
 10
408.316162007296
 20
-8.84683295134732
 10
408.316162007296
 20
-8.84683295134732
 10
408.316162007296
 20
-8.84683295134732
 10
408.3516464907941
 20
-9.467811412563604
 10
408.3516464907941
 20
-9.467811412563604
 10
408.3516464907941
 20
-9.467811412563604
 10
408.372661573254
 20
-9.467811412563604
 10
408.372661573254
 20
-9.467811412563604
 10
408.5845349455969
 20
-9.093846297639733
 10
408.937657232835
 20
-8.762083602410174
 10
409.5443385477876
 20
-8.762083602410174
 10
410.0455999408914
 20
-8.762083602410174
 10
410.4335176925305
 20
-9.072658960405446
 10
410.5957816898858
 20
-9.531373424266462
 10
410.5957816898858
 20
-9.531373424266462
 10
410.6099065813753
 20
-9.531373424266462
 10
410.6099065813753
 20
-9.531373424266462
 10
410.8641546281868
 20
-9.072658960405446
 10
411.2520723798259
 20
-8.762083602410174
 10
411.8449733128374
 20
-8.762083602410174
 10
412.3179849229622
 20
-8.762083602410174
 10
413.0655706432614
 20
-9.065596514660685
 10
413.0655706432614
 20
-10.38524034028564
 10
413.0655706432614
 20
-10.38524034028564
 10
413.0655706432614
 20
-12.699999996825
 10
413.0655706432614
 20
-12.699999996825
 97
        0
 75
     2
 76
     1
 98
        0
  0
SPLINE
  5
B8
330
92
100
AcDbEntity
  8
\U+30EC\U+30A4\U+30E4\U+30FC 1
370
     0
100
AcDbSpline
210
0.0
220
0.0
230
1.0
 70
    11
 71
     3
 72
    53
 73
    49
 74
     0
 42
0.0000000001
 43
0.0000000001
 40
0.0
 40
0.0
 40
0.0
 40
0.0
 40
1.0
 40
1.0
 40
1.0
 40
2.0
 40
2.0
 40
2.0
 40
3.0
 40
3.0
 40
3.0
 40
4.0
 40
4.0
 40
4.0
 40
5.0
 40
5.0
 40
5.0
 40
6.0
 40
6.0
 40
6.0
 40
7.0
 40
7.0
 40
7.0
 40
8.0
 40
8.0
 40
8.0
 40
9.0
 40
9.0
 40
9.0
 40
10.0
 40
10.0
 40
10.0
 40
11.0
 40
11.0
 40
11.0
 40
12.0
 40
12.0
 40
12.0
 40
13.0
 40
13.0
 40
13.0
 40
14.0
 40
14.0
 40
14.0
 40
15.0
 40
15.0
 40
15.0
 40
16.0
 40
16.0
 40
16.0
 40
16.0
 10
371.6283066562249
 20
-20.50245225181883
 30
0.0
 10
371.6283066562249
 20
-20.50245225181883
 30
0.0
 10
372.2067381881984
 20
-20.30487602573976
 30
0.0
 10
372.2067381881984
 20
-20.30487602573976
 30
0.0
 10
372.2067381881984
 20
-20.30487602573976
 30
0.0
 10
372.2067381881984
 20
-21.2011176162275
 30
0.0
 10
372.2067381881984
 20
-21.2011176162275
 30
0.0
 10
372.2067381881984
 20
-21.2011176162275
 30
0.0
 10
373.202026273887
 20
-21.2011176162275
 30
0.0
 10
373.202026273887
 20
-21.2011176162275
 30
0.0
 10
373.202026273887
 20
-21.2011176162275
 30
0.0
 10
373.202026273887
 20
-21.65983208008852
 30
0.0
 10
373.202026273887
 20
-21.65983208008852
 30
0.0
 10
373.202026273887
 20
-21.65983208008852
 30
0.0
 10
372.2067381881984
 20
-21.65983208008852
 30
0.0
 10
372.2067381881984
 20
-21.65983208008852
 30
0.0
 10
372.2067381881984
 20
-21.65983208008852
 30
0.0
 10
372.2067381881984
 20
-23.88277994194597
 30
0.0
 10
372.2067381881984
 20
-23.88277994194597
 30
0.0
 10
372.2067381881984
 20
-24.36974418878604
 30
0.0
 10
372.3552218036126
 20
-24.63794487231274
 30
0.0
 10
372.7290146637622
 20
-24.63794487231274
 30
0.0
 10
372.905403552607
 20
-24.63794487231274
 30
0.0
 10
373.0256373850422
 20
-24.61675753507845
 30
0.0
 10
373.1245116254689
 20
-24.58144530635464
 30
0.0
 10
373.1245116254689
 20
-24.58144530635464
 30
0.0
 10
373.1596515994185
 20
-25.03309732447089
 30
0.0
 10
373.1596515994185
 20
-25.03309732447089
 30
0.0
 10
373.0328720855612
 20
-25.08959689042899
 30
0.0
 10
372.8351236047079
 20
-25.1249091191528
 30
0.0
 10
372.587765748867
 20
-25.1249091191528
 30
0.0
 10
371.6565564392039
 20
-25.1249091191528
 30
0.0
 10
371.6283066562249
 20
-24.27793239410413
 30
0.0
 10
371.6283066562249
 20
-23.86865505045645
 30
0.0
 10
371.6283066562249
 20
-23.86865505045645
 30
0.0
 10
371.6283066562249
 20
-21.65983208008852
 30
0.0
 10
371.6283066562249
 20
-21.65983208008852
 30
0.0
 10
371.6283066562249
 20
-21.65983208008852
 30
0.0
 10
371.0354057232134
 20
-21.65983208008852
 30
0.0
 10
371.0354057232134
 20
-21.65983208008852
 30
0.0
 10
371.0354057232134
 20
-21.65983208008852
 30
0.0
 10
371.0354057232134
 20
-21.2011176162275
 30
0.0
 10
371.0354057232134
 20
-21.2011176162275
 30
0.0
 10
371.0354057232134
 20
-21.2011176162275
 30
0.0
 10
371.6283066562249
 20
-21.2011176162275
 30
0.0
 10
371.6283066562249
 20
-21.2011176162275
 30
0.0
 10
371.6283066562249
 20
-21.2011176162275
 30
0.0
 10
371.6283066562249
 20
-20.50245225181883
 30
0.0
 10
371.6283066562249
 20
-20.50245225181883
 30
0.0
  0
HATCH
  5
B9
330
92
100
AcDbEntity
  8
\U+30EC\U+30A4\U+30E4\U+30FC 1
 62
     7
420
 16777215
100
AcDbHatch
 10
0.0
 20
0.0
 30
0.0
210
0.0
220
0.0
230
1.0
  2
SOLID
 70
     1
 71
     0
 91
        1
 92
        1
 93
        1
 72
     4
 94
        3
 73
     0
 74
     1
 95
       53
 96
       49
 40
0.0
 40
0.0
 40
0.0
 40
0.0
 40
1.0
 40
1.0
 40
1.0
 40
2.0
 40
2.0
 40
2.0
 40
3.0
 40
3.0
 40
3.0
 40
4.0
 40
4.0
 40
4.0
 40
5.0
 40
5.0
 40
5.0
 40
6.0
 40
6.0
 40
6.0
 40
7.0
 40
7.0
 40
7.0
 40
8.0
 40
8.0
 40
8.0
 40
9.0
 40
9.0
 40
9.0
 40
10.0
 40
10.0
 40
10.0
 40
11.0
 40
11.0
 40
11.0
 40
12.0
 40
12.0
 40
12.0
 40
13.0
 40
13.0
 40
13.0
 40
14.0
 40
14.0
 40
14.0
 40
15.0
 40
15.0
 40
15.0
 40
16.0
 40
16.0
 40
16.0
 40
16.0
 10
371.6283066562249
 20
-20.50245225181883
 10
371.6283066562249
 20
-20.50245225181883
 10
372.2067381881984
 20
-20.30487602573976
 10
372.2067381881984
 20
-20.30487602573976
 10
372.2067381881984
 20
-20.30487602573976
 10
372.2067381881984
 20
-21.2011176162275
 10
372.2067381881984
 20
-21.2011176162275
 10
372.2067381881984
 20
-21.2011176162275
 10
373.202026273887
 20
-21.2011176162275
 10
373.202026273887
 20
-21.2011176162275
 10
373.202026273887
 20
-21.2011176162275
 10
373.202026273887
 20
-21.65983208008852
 10
373.202026273887
 20
-21.65983208008852
 10
373.202026273887
 20
-21.65983208008852
 10
372.2067381881984
 20
-21.65983208008852
 10
372.2067381881984
 20
-21.65983208008852
 10
372.2067381881984
 20
-21.65983208008852
 10
372.2067381881984
 20
-23.88277994194597
 10
372.2067381881984
 20
-23.88277994194597
 10
372.2067381881984
 20
-24.36974418878604
 10
372.3552218036126
 20
-24.63794487231274
 10
372.7290146637622
 20
-24.63794487231274
 10
372.905403552607
 20
-24.63794487231274
 10
373.0256373850422
 20
-24.61675753507845
 10
373.1245116254689
 20
-24.58144530635464
 10
373.1245116254689
 20
-24.58144530635464
 10
373.1596515994185
 20
-25.03309732447089
 10
373.1596515994185
 20
-25.03309732447089
 10
373.0328720855612
 20
-25.08959689042899
 10
372.8351236047079
 20
-25.1249091191528
 10
372.587765748867
 20
-25.1249091191528
 10
371.6565564392039
 20
-25.1249091191528
 10
371.6283066562249
 20
-24.27793239410413
 10
371.6283066562249
 20
-23.86865505045645
 10
371.6283066562249
 20
-23.86865505045645
 10
371.6283066562249
 20
-21.65983208008852
 10
371.6283066562249
 20
-21.65983208008852
 10
371.6283066562249
 20
-21.65983208008852
 10
371.0354057232134
 20
-21.65983208008852
 10
371.0354057232134
 20
-21.65983208008852
 10
371.0354057232134
 20
-21.65983208008852
 10
371.0354057232134
 20
-21.2011176162275
 10
371.0354057232134
 20
-21.2011176162275
 10
371.0354057232134
 20
-21.2011176162275
 10
371.6283066562249
 20
-21.2011176162275
 10
371.6283066562249
 20
-21.2011176162275
 10
371.6283066562249
 20
-21.2011176162275
 10
371.6283066562249
 20
-20.50245225181883
 10
371.6283066562249
 20
-20.50245225181883
 97
        0
 75
     2
 76
     1
 98
        0
  0
POLYLINE
  5
BA
330
92
100
AcDbEntity
  8
\U+30EC\U+30A4\U+30E4\U+30FC 1
370
     0
100
AcDb2dPolyline
 66
     1
 10
0.0
 20
0.0
 30
0.0
  0
VERTEX
  5
BB
330
BA
100
AcDbEntity
  8
\U+30EC\U+30A4\U+30E4\U+30FC 1
370
     0
100
AcDbVertex
100
AcDb2dVertex
 10
377.8236218673497
 20
-22.33731010726289
 30
0.0
  0
VERTEX
  5
BC
330
BA
100
AcDbEntity
  8
\U+30EC\U+30A4\U+30E4\U+30FC 1
370
     0
100
AcDbVertex
100
AcDb2dVertex
 10
373.7094888388643
 20
-22.33731010726289
 30
0.0
  0
VERTEX
  5
BD
330
BA
100
AcDbEntity
  8
\U+30EC\U+30A4\U+30E4\U+30FC 1
370
     0
100
AcDbVertex
100
AcDb2dVertex
 10
373.7094888388643
 20
-21.91390787212569
 30
0.0
  0
VERTEX
  5
BE
330
BA
100
AcDbEntity
  8
\U+30EC\U+30A4\U+30E4\U+30FC 1
370
     0
100
AcDbVertex
100
AcDb2dVertex
 10
377.8236218673497
 20
-21.91390787212569
 30
0.0
  0
VERTEX
  5
BF
330
BA
100
AcDbEntity
  8
\U+30EC\U+30A4\U+30E4\U+30FC 1
370
     0
100
AcDbVertex
100
AcDb2dVertex
 10
377.8236218673497
 20
-22.33731010726289
 30
0.0
  0
SEQEND
  5
C0
330
BA
100
AcDbEntity
  8
\U+30EC\U+30A4\U+30E4\U+30FC 1
370
     0
  0
POLYLINE
  5
C1
330
92
100
AcDbEntity
  8
\U+30EC\U+30A4\U+30E4\U+30FC 1
370
     0
100
AcDb2dPolyline
 66
     1
 10
0.0
 20
0.0
 30
0.0
  0
VERTEX
  5
C2
330
C1
100
AcDbEntity
  8
\U+30EC\U+30A4\U+30E4\U+30FC 1
370
     0
100
AcDbVertex
100
AcDb2dVertex
 10
377.8236218673497
 20
-23.88277994194597
 30
0.0
  0
VERTEX
  5
C3
330
C1
100
AcDbEntity
  8
\U+30EC\U+30A4\U+30E4\U+30FC 1
370
     0
100
AcDbVertex
100
AcDb2dVertex
 10
373.7094888388643
 20
-23.88277994194597
 30
0.0
  0
VERTEX
  5
C4
330
C1
100
AcDbEntity
  8
\U+30EC\U+30A4\U+30E4\U+30FC 1
370
     0
100
AcDbVertex
100
AcDb2dVertex
 10
373.7094888388643
 20
-23.45937770680877
 30
0.0
  0
VERTEX
  5
C5
330
C1
100
AcDbEntity
  8
\U+30EC\U+30A4\U+30E4\U+30FC 1
370
     0
100
AcDbVertex
100
AcDb2dVertex
 10
377.8236218673497
 20
-23.45937770680877
 30
0.0
  0
VERTEX
  5
C6
330
C1
100
AcDbEntity
  8
\U+30EC\U+30A4\U+30E4\U+30FC 1
370
     0
100
AcDbVertex
100
AcDb2dVertex
 10
377.8236218673497
 20
-23.88277994194597
 30
0.0
  0
SEQEND
  5
C7
330
C1
100
AcDbEntity
  8
\U+30EC\U+30A4\U+30E4\U+30FC 1
370
     0
  0
HATCH
  5
C8
330
92
100
AcDbEntity
  8
\U+30EC\U+30A4\U+30E4\U+30FC 1
 62
     7
420
 16777215
100
AcDbHatch
 10
0.0
 20
0.0
 30
0.0
210
0.0
220
0.0
230
1.0
  2
SOLID
 70
     1
 71
     0
 91
        2
 92
        1
 93
        4
 72
     1
 10
377.8236218673497
 20
-22.33731010726289
 11
373.7094888388643
 21
-22.33731010726289
 72
     1
 10
373.7094888388643
 20
-22.33731010726289
 11
373.7094888388643
 21
-21.91390787212569
 72
     1
 10
373.7094888388643
 20
-21.91390787212569
 11
377.8236218673497
 21
-21.91390787212569
 72
     1
 10
377.8236218673497
 20
-21.91390787212569
 11
377.8236218673497
 21
-22.33731010726289
 97
        0
 92
        1
 93
        4
 72
     1
 10
377.8236218673497
 20
-23.88277994194597
 11
373.7094888388643
 21
-23.88277994194597
 72
     1
 10
373.7094888388643
 20
-23.88277994194597
 11
373.7094888388643
 21
-23.45937770680877
 72
     1
 10
373.7094888388643
 20
-23.45937770680877
 11
377.8236218673497
 21
-23.45937770680877
 72
     1
 10
377.8236218673497
 20
-23.45937770680877
 11
377.8236218673497
 21
-23.88277994194597
 97
        0
 75
     2
 76
     1
 98
        0
  0
POLYLINE
  5
C9
330
92
100
AcDbEntity
  8
\U+30EC\U+30A4\U+30E4\U+30FC 1
370
     0
100
AcDb2dPolyline
 66
     1
 10
0.0
 20
0.0
 30
0.0
  0
VERTEX
  5
CA
330
C9
100
AcDbEntity
  8
\U+30EC\U+30A4\U+30E4\U+30FC 1
370
     0
100
AcDbVertex
100
AcDb2dVertex
 10
381.1536511633922
 20
-25.04722221596042
 30
0.0
  0
VERTEX
  5
CB
330
C9
100
AcDbEntity
  8
\U+30EC\U+30A4\U+30E4\U+30FC 1
370
     0
100
AcDbVertex
100
AcDb2dVertex
 10
380.5962347138787
 20
-25.04722221596042
 30
0.0
  0
VERTEX
  5
CC
330
C9
100
AcDbEntity
  8
\U+30EC\U+30A4\U+30E4\U+30FC 1
370
     0
100
AcDbVertex
100
AcDb2dVertex
 10
380.5962347138787
 20
-23.5653143929802
 30
0.0
  0
VERTEX
  5
CD
330
C9
100
AcDbEntity
  8
\U+30EC\U+30A4\U+30E4\U+30FC 1
370
     0
100
AcDbVertex
100
AcDb2dVertex
 10
378.2883652483098
 20
-23.5653143929802
 30
0.0
  0
VERTEX
  5
CE
330
C9
100
AcDbEntity
  8
\U+30EC\U+30A4\U+30E4\U+30FC 1
370
     0
100
AcDbVertex
100
AcDb2dVertex
 10
378.2883652483098
 20
-23.19117702328207
 30
0.0
  0
VERTEX
  5
CF
330
C9
100
AcDbEntity
  8
\U+30EC\U+30A4\U+30E4\U+30FC 1
370
     0
100
AcDbVertex
100
AcDb2dVertex
 10
380.5466253388911
 20
-19.76141221294159
 30
0.0
  0
VERTEX
  5
D0
330
C9
100
AcDbEntity
  8
\U+30EC\U+30A4\U+30E4\U+30FC 1
370
     0
100
AcDbVertex
100
AcDb2dVertex
 10
381.1536511633922
 20
-19.76141221294159
 30
0.0
  0
VERTEX
  5
D1
330
C9
100
AcDbEntity
  8
\U+30EC\U+30A4\U+30E4\U+30FC 1
370
     0
100
AcDbVertex
100
AcDb2dVertex
 10
381.1536511633922
 20
-23.11366237486395
 30
0.0
  0
VERTEX
  5
D2
330
C9
100
AcDbEntity
  8
\U+30EC\U+30A4\U+30E4\U+30FC 1
370
     0
100
AcDbVertex
100
AcDb2dVertex
 10
381.8736761198094
 20
-23.11366237486395
 30
0.0
  0
VERTEX
  5
D3
330
C9
100
AcDbEntity
  8
\U+30EC\U+30A4\U+30E4\U+30FC 1
370
     0
100
AcDbVertex
100
AcDb2dVertex
 10
381.8736761198094
 20
-23.5653143929802
 30
0.0
  0
VERTEX
  5
D4
330
C9
100
AcDbEntity
  8
\U+30EC\U+30A4\U+30E4\U+30FC 1
370
     0
100
AcDbVertex
100
AcDb2dVertex
 10
381.1536511633922
 20
-23.5653143929802
 30
0.0
  0
VERTEX
  5
D5
330
C9
100
AcDbEntity
  8
\U+30EC\U+30A4\U+30E4\U+30FC 1
370
     0
100
AcDbVertex
100
AcDb2dVertex
 10
381.1536511633922
 20
-25.04722221596042
 30
0.0
  0
SEQEND
  5
D6
330
C9
100
AcDbEntity
  8
\U+30EC\U+30A4\U+30E4\U+30FC 1
370
     0
  0
SPLINE
  5
D7
330
92
100
AcDbEntity
  8
\U+30EC\U+30A4\U+30E4\U+30FC 1
370
     0
100
AcDbSpline
210
0.0
220
0.0
230
1.0
 70
    11
 71
     3
 72
    26
 73
    22
 74
     0
 42
0.0000000001
 43
0.0000000001
 40
0.0
 40
0.0
 40
0.0
 40
0.0
 40
1.0
 40
1.0
 40
1.0
 40
2.0
 40
2.0
 40
2.0
 40
3.0
 40
3.0
 40
3.0
 40
4.0
 40
4.0
 40
4.0
 40
5.0
 40
5.0
 40
5.0
 40
6.0
 40
6.0
 40
6.0
 40
7.0
 40
7.0
 40
7.0
 40
7.0
 10
378.8812661813214
 20
-23.11366237486395
 30
0.0
 10
378.8812661813214
 20
-23.11366237486395
 30
0.0
 10
380.5962347138787
 20
-23.11366237486395
 30
0.0
 10
380.5962347138787
 20
-23.11366237486395
 30
0.0
 10
380.5962347138787
 20
-23.11366237486395
 30
0.0
 10
380.5962347138787
 20
-21.23642984495131
 30
0.0
 10
380.5962347138787
 20
-21.23642984495131
 30
0.0
 10
380.5962347138787
 20
-20.94704182419033
 30
0.0
 10
380.6100150958197
 20
-20.6647162491741
 30
0.0
 10
380.6244844968578
 20
-20.3896253746769
 30
0.0
 10
380.6244844968578
 20
-20.3896253746769
 30
0.0
 10
380.5962347138787
 20
-20.3896253746769
 30
0.0
 10
380.5962347138787
 20
-20.3896253746769
 30
0.0
 10
380.433626206975
 20
-20.71415336938744
 30
0.0
 10
380.3068466931177
 20
-20.93997937844556
 30
0.0
 10
380.172487969193
 20
-21.17993027899321
 30
0.0
 10
380.172487969193
 20
-21.17993027899321
 30
0.0
 10
378.8812661813214
 20
-23.09953748337442
 30
0.0
 10
378.8812661813214
 20
-23.09953748337442
 30
0.0
 10
378.8812661813214
 20
-23.09953748337442
 30
0.0
 10
378.8812661813214
 20
-23.11366237486395
 30
0.0
 10
378.8812661813214
 20
-23.11366237486395
 30
0.0
  0
HATCH
  5
D8
330
92
100
AcDbEntity
  8
\U+30EC\U+30A4\U+30E4\U+30FC 1
 62
     7
420
 16777215
100
AcDbHatch
 10
0.0
 20
0.0
 30
0.0
210
0.0
220
0.0
230
1.0
  2
SOLID
 70
     1
 71
     0
 91
        2
 92
        1
 93
       11
 72
     1
 10
381.1536511633922
 20
-25.04722221596042
 11
380.5962347138787
 21
-25.04722221596042
 72
     1
 10
380.5962347138787
 20
-25.04722221596042
 11
380.5962347138787
 21
-23.5653143929802
 72
     1
 10
380.5962347138787
 20
-23.5653143929802
 11
378.2883652483098
 21
-23.5653143929802
 72
     1
 10
378.2883652483098
 20
-23.5653143929802
 11
378.2883652483098
 21
-23.19117702328207
 72
     1
 10
378.2883652483098
 20
-23.19117702328207
 11
380.5466253388911
 21
-19.76141221294159
 72
     1
 10
380.5466253388911
 20
-19.76141221294159
 11
381.1536511633922
 21
-19.76141221294159
 72
     1
 10
381.1536511633922
 20
-19.76141221294159
 11
381.1536511633922
 21
-23.11366237486395
 72
     1
 10
381.1536511633922
 20
-23.11366237486395
 11
381.8736761198094
 21
-23.11366237486395
 72
     1
 10
381.8736761198094
 20
-23.11366237486395
 11
381.8736761198094
 21
-23.5653143929802
 72
     1
 10
381.8736761198094
 20
-23.5653143929802
 11
381.1536511633922
 21
-23.5653143929802
 72
     1
 10
381.1536511633922
 20
-23.5653143929802
 11
381.1536511633922
 21
-25.04722221596042
 97
        0
 92
        1
 93
        1
 72
     4
 94
        3
 73
     0
 74
     1
 95
       26
 96
       22
 40
0.0
 40
0.0
 40
0.0
 40
0.0
 40
1.0
 40
1.0
 40
1.0
 40
2.0
 40
2.0
 40
2.0
 40
3.0
 40
3.0
 40
3.0
 40
4.0
 40
4.0
 40
4.0
 40
5.0
 40
5.0
 40
5.0
 40
6.0
 40
6.0
 40
6.0
 40
7.0
 40
7.0
 40
7.0
 40
7.0
 10
378.8812661813214
 20
-23.11366237486395
 10
378.8812661813214
 20
-23.11366237486395
 10
380.5962347138787
 20
-23.11366237486395
 10
380.5962347138787
 20
-23.11366237486395
 10
380.5962347138787
 20
-23.11366237486395
 10
380.5962347138787
 20
-21.23642984495131
 10
380.5962347138787
 20
-21.23642984495131
 10
380.5962347138787
 20
-20.94704182419033
 10
380.6100150958197
 20
-20.6647162491741
 10
380.6244844968578
 20
-20.3896253746769
 10
380.6244844968578
 20
-20.3896253746769
 10
380.5962347138787
 20
-20.3896253746769
 10
380.5962347138787
 20
-20.3896253746769
 10
380.433626206975
 20
-20.71415336938744
 10
380.3068466931177
 20
-20.93997937844556
 10
380.172487969193
 20
-21.17993027899321
 10
380.172487969193
 20
-21.17993027899321
 10
378.8812661813214
 20
-23.09953748337442
 10
378.8812661813214
 20
-23.09953748337442
 10
378.8812661813214
 20
-23.09953748337442
 10
378.8812661813214
 20
-23.11366237486395
 10
378.8812661813214
 20
-23.11366237486395
 97
        0
 75
     2
 76
     1
 98
        0
  0
SPLINE
  5
D9
330
92
100
AcDbEntity
  8
\U+30EC\U+30A4\U+30E4\U+30FC 1
370
     0
100
AcDbSpline
210
0.0
220
0.0
230
1.0
 70
    11
 71
     3
 72
    17
 73
    13
 74
     0
 42
0.0000000001
 43
0.0000000001
 40
0.0
 40
0.0
 40
0.0
 40
0.0
 40
1.0
 40
1.0
 40
1.0
 40
2.0
 40
2.0
 40
2.0
 40
3.0
 40
3.0
 40
3.0
 40
4.0
 40
4.0
 40
4.0
 40
4.0
 10
382.4510741231372
 20
-24.68738199252607
 30
0.0
 10
382.4510741231372
 20
-24.41918130899937
 30
0.0
 10
382.6274630119821
 20
-24.22866752866506
 30
0.0
 10
382.874820867823
 20
-24.22866752866506
 30
0.0
 10
383.1214897045668
 20
-24.22866752866506
 30
0.0
 10
383.2909884024411
 20
-24.41918130899937
 30
0.0
 10
383.2909884024411
 20
-24.68738199252607
 30
0.0
 10
383.2909884024411
 20
-24.94128552978898
 30
0.0
 10
383.1287244050859
 20
-25.13197156489757
 30
0.0
 10
382.867586167304
 20
-25.13197156489757
 30
0.0
 10
382.599213229003
 20
-25.13197156489757
 30
0.0
 10
382.4510741231372
 20
-24.92027044732896
 30
0.0
 10
382.4510741231372
 20
-24.68738199252607
 30
0.0
  0
HATCH
  5
DA
330
92
100
AcDbEntity
  8
\U+30EC\U+30A4\U+30E4\U+30FC 1
 62
     7
420
 16777215
100
AcDbHatch
 10
0.0
 20
0.0
 30
0.0
210
0.0
220
0.0
230
1.0
  2
SOLID
 70
     1
 71
     0
 91
        1
 92
        1
 93
        1
 72
     4
 94
        3
 73
     0
 74
     1
 95
       17
 96
       13
 40
0.0
 40
0.0
 40
0.0
 40
0.0
 40
1.0
 40
1.0
 40
1.0
 40
2.0
 40
2.0
 40
2.0
 40
3.0
 40
3.0
 40
3.0
 40
4.0
 40
4.0
 40
4.0
 40
4.0
 10
382.4510741231372
 20
-24.68738199252607
 10
382.4510741231372
 20
-24.41918130899937
 10
382.6274630119821
 20
-24.22866752866506
 10
382.874820867823
 20
-24.22866752866506
 10
383.1214897045668
 20
-24.22866752866506
 10
383.2909884024411
 20
-24.41918130899937
 10
383.2909884024411
 20
-24.68738199252607
 10
383.2909884024411
 20
-24.94128552978898
 10
383.1287244050859
 20
-25.13197156489757
 10
382.867586167304
 20
-25.13197156489757
 10
382.599213229003
 20
-25.13197156489757
 10
382.4510741231372
 20
-24.92027044732896
 10
382.4510741231372
 20
-24.68738199252607
 97
        0
 75
     2
 76
     1
 98
        0
  0
SPLINE
  5
DB
330
92
100
AcDbEntity
  8
\U+30EC\U+30A4\U+30E4\U+30FC 1
370
     0
100
AcDbSpline
210
0.0
220
0.0
230
1.0
 70
    11
 71
     3
 72
    17
 73
    13
 74
     0
 42
0.0000000001
 43
0.0000000001
 40
0.0
 40
0.0
 40
0.0
 40
0.0
 40
1.0
 40
1.0
 40
1.0
 40
2.0
 40
2.0
 40
2.0
 40
3.0
 40
3.0
 40
3.0
 40
4.0
 40
4.0
 40
4.0
 40
4.0
 10
383.8552950429251
 20
-22.42205945620004
 30
0.0
 10
383.8552950429251
 20
-20.57307670926646
 30
0.0
 10
384.5753199993423
 20
-19.67683511877871
 30
0.0
 10
385.5630288749634
 20
-19.67683511877871
 30
0.0
 10
386.5652071516226
 20
-19.67683511877871
 30
0.0
 10
387.1791231670941
 20
-20.62251382947979
 30
0.0
 10
387.1791231670941
 20
-22.35143499875242
 30
0.0
 10
387.1791231670941
 20
-24.18629285419648
 30
0.0
 10
386.5369573686436
 20
-25.13197156489757
 30
0.0
 10
385.4855142265453
 20
-25.13197156489757
 30
0.0
 10
384.5257106243547
 20
-25.13197156489757
 30
0.0
 10
383.8552950429251
 20
-24.18629285419648
 30
0.0
 10
383.8552950429251
 20
-22.42205945620004
 30
0.0
  0
SPLINE
  5
DC
330
92
100
AcDbEntity
  8
\U+30EC\U+30A4\U+30E4\U+30FC 1
370
     0
100
AcDbSpline
210
0.0
220
0.0
230
1.0
 70
    11
 71
     3
 72
    17
 73
    13
 74
     0
 42
0.0000000001
 43
0.0000000001
 40
0.0
 40
0.0
 40
0.0
 40
0.0
 40
1.0
 40
1.0
 40
1.0
 40
2.0
 40
2.0
 40
2.0
 40
3.0
 40
3.0
 40
3.0
 40
4.0
 40
4.0
 40
4.0
 40
4.0
 10
386.5865667436312
 20
-22.37968478173147
 30
0.0
 10
386.5865667436312
 20
-21.06004095610652
 30
0.0
 10
386.2689289398911
 20
-20.14967447412925
 30
0.0
 10
385.5275443914654
 20
-20.14967447412925
 30
0.0
 10
384.8998479940528
 20
-20.14967447412925
 30
0.0
 10
384.4550861669071
 20
-20.9894164986589
 30
0.0
 10
384.4550861669071
 20
-22.37968478173147
 30
0.0
 10
384.4550861669071
 20
-23.76995306480404
 30
0.0
 10
384.8433484280947
 20
-24.65206976380226
 30
0.0
 10
385.5065293090053
 20
-24.65206976380226
 30
0.0
 10
386.2899440223512
 20
-24.65206976380226
 30
0.0
 10
386.5865667436312
 20
-23.63576659565356
 30
0.0
 10
386.5865667436312
 20
-22.37968478173147
 30
0.0
  0
HATCH
  5
DD
330
92
100
AcDbEntity
  8
\U+30EC\U+30A4\U+30E4\U+30FC 1
 62
     7
420
 16777215
100
AcDbHatch
 10
0.0
 20
0.0
 30
0.0
210
0.0
220
0.0
230
1.0
  2
SOLID
 70
     1
 71
     0
 91
        2
 92
        1
 93
        1
 72
     4
 94
        3
 73
     0
 74
     1
 95
       17
 96
       13
 40
0.0
 40
0.0
 40
0.0
 40
0.0
 40
1.0
 40
1.0
 40
1.0
 40
2.0
 40
2.0
 40
2.0
 40
3.0
 40
3.0
 40
3.0
 40
4.0
 40
4.0
 40
4.0
 40
4.0
 10
383.8552950429251
 20
-22.42205945620004
 10
383.8552950429251
 20
-20.57307670926646
 10
384.5753199993423
 20
-19.67683511877871
 10
385.5630288749634
 20
-19.67683511877871
 10
386.5652071516226
 20
-19.67683511877871
 10
387.1791231670941
 20
-20.62251382947979
 10
387.1791231670941
 20
-22.35143499875242
 10
387.1791231670941
 20
-24.18629285419648
 10
386.5369573686436
 20
-25.13197156489757
 10
385.4855142265453
 20
-25.13197156489757
 10
384.5257106243547
 20
-25.13197156489757
 10
383.8552950429251
 20
-24.18629285419648
 10
383.8552950429251
 20
-22.42205945620004
 97
        0
 92
        1
 93
        1
 72
     4
 94
        3
 73
     0
 74
     1
 95
       17
 96
       13
 40
0.0
 40
0.0
 40
0.0
 40
0.0
 40
1.0
 40
1.0
 40
1.0
 40
2.0
 40
2.0
 40
2.0
 40
3.0
 40
3.0
 40
3.0
 40
4.0
 40
4.0
 40
4.0
 40
4.0
 10
386.5865667436312
 20
-22.37968478173147
 10
386.5865667436312
 20
-21.06004095610652
 10
386.2689289398911
 20
-20.14967447412925
 10
385.5275443914654
 20
-20.14967447412925
 10
384.8998479940528
 20
-20.14967447412925
 10
384.4550861669071
 20
-20.9894164986589
 10
384.4550861669071
 20
-22.37968478173147
 10
384.4550861669071
 20
-23.76995306480404
 10
384.8433484280947
 20
-24.65206976380226
 10
385.5065293090053
 20
-24.65206976380226
 10
386.2899440223512
 20
-24.65206976380226
 10
386.5865667436312
 20
-23.63576659565356
 10
386.5865667436312
 20
-22.37968478173147
 97
        0
 75
     2
 76
     1
 98
        0
  0
SPLINE
  5
DE
330
92
100
AcDbEntity
  8
\U+30EC\U+30A4\U+30E4\U+30FC 1
370
     0
100
AcDbSpline
210
0.0
220
0.0
230
1.0
 70
    11
 71
     3
 72
    71
 73
    67
 74
     0
 42
0.0000000001
 43
0.0000000001
 40
0.0
 40
0.0
 40
0.0
 40
0.0
 40
1.0
 40
1.0
 40
1.0
 40
2.0
 40
2.0
 40
2.0
 40
3.0
 40
3.0
 40
3.0
 40
4.0
 40
4.0
 40
4.0
 40
5.0
 40
5.0
 40
5.0
 40
6.0
 40
6.0
 40
6.0
 40
7.0
 40
7.0
 40
7.0
 40
8.0
 40
8.0
 40
8.0
 40
9.0
 40
9.0
 40
9.0
 40
10.0
 40
10.0
 40
10.0
 40
11.0
 40
11.0
 40
11.0
 40
12.0
 40
12.0
 40
12.0
 40
13.0
 40
13.0
 40
13.0
 40
14.0
 40
14.0
 40
14.0
 40
15.0
 40
15.0
 40
15.0
 40
16.0
 40
16.0
 40
16.0
 40
17.0
 40
17.0
 40
17.0
 40
18.0
 40
18.0
 40
18.0
 40
19.0
 40
19.0
 40
19.0
 40
20.0
 40
20.0
 40
20.0
 40
21.0
 40
21.0
 40
21.0
 40
22.0
 40
22.0
 40
22.0
 40
22.0
 10
393.2755641377922
 20
-25.04722221596042
 30
0.0
 10
393.2755641377922
 20
-25.04722221596042
 30
0.0
 10
392.6967880962703
 20
-25.04722221596042
 30
0.0
 10
392.6967880962703
 20
-25.04722221596042
 30
0.0
 10
392.6967880962703
 20
-25.04722221596042
 30
0.0
 10
392.6967880962703
 20
-22.82427435410296
 30
0.0
 10
392.6967880962703
 20
-22.82427435410296
 30
0.0
 10
392.6967880962703
 20
-22.07617186948096
 30
0.0
 10
392.4287596675179
 20
-21.59627006838566
 30
0.0
 10
391.8499836259958
 20
-21.59627006838566
 30
0.0
 10
391.3773165254196
 20
-21.59627006838566
 30
0.0
 10
390.9466795897633
 20
-22.04085964075715
 30
0.0
 10
390.9466795897633
 20
-22.62669812802388
 30
0.0
 10
390.9466795897633
 20
-22.62669812802388
 30
0.0
 10
390.9466795897633
 20
-25.04722221596042
 30
0.0
 10
390.9466795897633
 20
-25.04722221596042
 30
0.0
 10
390.9466795897633
 20
-25.04722221596042
 30
0.0
 10
390.3679035482414
 20
-25.04722221596042
 30
0.0
 10
390.3679035482414
 20
-25.04722221596042
 30
0.0
 10
390.3679035482414
 20
-25.04722221596042
 30
0.0
 10
390.3679035482414
 20
-22.67596299346295
 30
0.0
 10
390.3679035482414
 20
-22.67596299346295
 30
0.0
 10
390.3679035482414
 20
-22.06204697799143
 30
0.0
 10
390.1067653104594
 20
-21.59627006838566
 30
0.0
 10
389.5638182619841
 20
-21.59627006838566
 30
0.0
 10
389.0625568688802
 20
-21.59627006838566
 30
0.0
 10
388.6177950417344
 20
-22.09029676097048
 30
0.0
 10
388.6177950417344
 20
-22.69008788495248
 30
0.0
 10
388.6177950417344
 20
-22.69008788495248
 30
0.0
 10
388.6177950417344
 20
-25.04722221596042
 30
0.0
 10
388.6177950417344
 20
-25.04722221596042
 30
0.0
 10
388.6177950417344
 20
-25.04722221596042
 30
0.0
 10
388.0390190002125
 20
-25.04722221596042
 30
0.0
 10
388.0390190002125
 20
-25.04722221596042
 30
0.0
 10
388.0390190002125
 20
-25.04722221596042
 30
0.0
 10
388.0390190002125
 20
-22.18917100139715
 30
0.0
 10
388.0390190002125
 20
-22.18917100139715
 30
0.0
 10
388.0390190002125
 20
-21.79384629446474
 30
0.0
 10
388.0252386182715
 20
-21.51169297422277
 30
0.0
 10
388.011113726782
 20
-21.19405517048274
 30
0.0
 10
388.011113726782
 20
-21.19405517048274
 30
0.0
 10
388.5261555018268
 20
-21.19405517048274
 30
0.0
 10
388.5261555018268
 20
-21.19405517048274
 30
0.0
 10
388.5261555018268
 20
-21.19405517048274
 30
0.0
 10
388.5612954757764
 20
-21.81503363169902
 30
0.0
 10
388.5612954757764
 20
-21.81503363169902
 30
0.0
 10
388.5612954757764
 20
-21.81503363169902
 30
0.0
 10
388.5826550677849
 20
-21.81503363169902
 30
0.0
 10
388.5826550677849
 20
-21.81503363169902
 30
0.0
 10
388.7941839305793
 20
-21.44106851677515
 30
0.0
 10
389.1473062178173
 20
-21.10930582154559
 30
0.0
 10
389.7539875327698
 20
-21.10930582154559
 30
0.0
 10
390.2552489258737
 20
-21.10930582154559
 30
0.0
 10
390.6435111870613
 20
-21.41988117954086
 30
0.0
 10
390.8054306748681
 20
-21.87859564340188
 30
0.0
 10
390.8054306748681
 20
-21.87859564340188
 30
0.0
 10
390.8199000759062
 20
-21.87859564340188
 30
0.0
 10
390.8199000759062
 20
-21.87859564340188
 30
0.0
 10
391.073803613169
 20
-21.41988117954086
 30
0.0
 10
391.4620658743567
 20
-21.10930582154559
 30
0.0
 10
392.0546222978197
 20
-21.10930582154559
 30
0.0
 10
392.5276339079445
 20
-21.10930582154559
 30
0.0
 10
393.2755641377922
 20
-21.4128187337961
 30
0.0
 10
393.2755641377922
 20
-22.73246255942105
 30
0.0
 10
393.2755641377922
 20
-22.73246255942105
 30
0.0
 10
393.2755641377922
 20
-25.04722221596042
 30
0.0
 10
393.2755641377922
 20
-25.04722221596042
 30
0.0
  0
HATCH
  5
DF
330
92
100
AcDbEntity
  8
\U+30EC\U+30A4\U+30E4\U+30FC 1
 62
     7
420
 16777215
100
AcDbHatch
 10
0.0
 20
0.0
 30
0.0
210
0.0
220
0.0
230
1.0
  2
SOLID
 70
     1
 71
     0
 91
        1
 92
        1
 93
        1
 72
     4
 94
        3
 73
     0
 74
     1
 95
       71
 96
       67
 40
0.0
 40
0.0
 40
0.0
 40
0.0
 40
1.0
 40
1.0
 40
1.0
 40
2.0
 40
2.0
 40
2.0
 40
3.0
 40
3.0
 40
3.0
 40
4.0
 40
4.0
 40
4.0
 40
5.0
 40
5.0
 40
5.0
 40
6.0
 40
6.0
 40
6.0
 40
7.0
 40
7.0
 40
7.0
 40
8.0
 40
8.0
 40
8.0
 40
9.0
 40
9.0
 40
9.0
 40
10.0
 40
10.0
 40
10.0
 40
11.0
 40
11.0
 40
11.0
 40
12.0
 40
12.0
 40
12.0
 40
13.0
 40
13.0
 40
13.0
 40
14.0
 40
14.0
 40
14.0
 40
15.0
 40
15.0
 40
15.0
 40
16.0
 40
16.0
 40
16.0
 40
17.0
 40
17.0
 40
17.0
 40
18.0
 40
18.0
 40
18.0
 40
19.0
 40
19.0
 40
19.0
 40
20.0
 40
20.0
 40
20.0
 40
21.0
 40
21.0
 40
21.0
 40
22.0
 40
22.0
 40
22.0
 40
22.0
 10
393.2755641377922
 20
-25.04722221596042
 10
393.2755641377922
 20
-25.04722221596042
 10
392.6967880962703
 20
-25.04722221596042
 10
392.6967880962703
 20
-25.04722221596042
 10
392.6967880962703
 20
-25.04722221596042
 10
392.6967880962703
 20
-22.82427435410296
 10
392.6967880962703
 20
-22.82427435410296
 10
392.6967880962703
 20
-22.07617186948096
 10
392.4287596675179
 20
-21.59627006838566
 10
391.8499836259958
 20
-21.59627006838566
 10
391.3773165254196
 20
-21.59627006838566
 10
390.9466795897633
 20
-22.04085964075715
 10
390.9466795897633
 20
-22.62669812802388
 10
390.9466795897633
 20
-22.62669812802388
 10
390.9466795897633
 20
-25.04722221596042
 10
390.9466795897633
 20
-25.04722221596042
 10
390.9466795897633
 20
-25.04722221596042
 10
390.3679035482414
 20
-25.04722221596042
 10
390.3679035482414
 20
-25.04722221596042
 10
390.3679035482414
 20
-25.04722221596042
 10
390.3679035482414
 20
-22.67596299346295
 10
390.3679035482414
 20
-22.67596299346295
 10
390.3679035482414
 20
-22.06204697799143
 10
390.1067653104594
 20
-21.59627006838566
 10
389.5638182619841
 20
-21.59627006838566
 10
389.0625568688802
 20
-21.59627006838566
 10
388.6177950417344
 20
-22.09029676097048
 10
388.6177950417344
 20
-22.69008788495248
 10
388.6177950417344
 20
-22.69008788495248
 10
388.6177950417344
 20
-25.04722221596042
 10
388.6177950417344
 20
-25.04722221596042
 10
388.6177950417344
 20
-25.04722221596042
 10
388.0390190002125
 20
-25.04722221596042
 10
388.0390190002125
 20
-25.04722221596042
 10
388.0390190002125
 20
-25.04722221596042
 10
388.0390190002125
 20
-22.18917100139715
 10
388.0390190002125
 20
-22.18917100139715
 10
388.0390190002125
 20
-21.79384629446474
 10
388.0252386182715
 20
-21.51169297422277
 10
388.011113726782
 20
-21.19405517048274
 10
388.011113726782
 20
-21.19405517048274
 10
388.5261555018268
 20
-21.19405517048274
 10
388.5261555018268
 20
-21.19405517048274
 10
388.5261555018268
 20
-21.19405517048274
 10
388.5612954757764
 20
-21.81503363169902
 10
388.5612954757764
 20
-21.81503363169902
 10
388.5612954757764
 20
-21.81503363169902
 10
388.5826550677849
 20
-21.81503363169902
 10
388.5826550677849
 20
-21.81503363169902
 10
388.7941839305793
 20
-21.44106851677515
 10
389.1473062178173
 20
-21.10930582154559
 10
389.7539875327698
 20
-21.10930582154559
 10
390.2552489258737
 20
-21.10930582154559
 10
390.6435111870613
 20
-21.41988117954086
 10
390.8054306748681
 20
-21.87859564340188
 10
390.8054306748681
 20
-21.87859564340188
 10
390.8199000759062
 20
-21.87859564340188
 10
390.8199000759062
 20
-21.87859564340188
 10
391.073803613169
 20
-21.41988117954086
 10
391.4620658743567
 20
-21.10930582154559
 10
392.0546222978197
 20
-21.10930582154559
 10
392.5276339079445
 20
-21.10930582154559
 10
393.2755641377922
 20
-21.4128187337961
 10
393.2755641377922
 20
-22.73246255942105
 10
393.2755641377922
 20
-22.73246255942105
 10
393.2755641377922
 20
-25.04722221596042
 10
393.2755641377922
 20
-25.04722221596042
 97
        0
 75
     2
 76
     1
 98
        0
  0
SPLINE
  5
E0
330
92
100
AcDbEntity
  8
\U+30EC\U+30A4\U+30E4\U+30FC 1
370
     0
100
AcDbSpline
210
0.0
220
0.0
230
1.0
 70
    11
 71
     3
 72
    71
 73
    67
 74
     0
 42
0.0000000001
 43
0.0000000001
 40
0.0
 40
0.0
 40
0.0
 40
0.0
 40
1.0
 40
1.0
 40
1.0
 40
2.0
 40
2.0
 40
2.0
 40
3.0
 40
3.0
 40
3.0
 40
4.0
 40
4.0
 40
4.0
 40
5.0
 40
5.0
 40
5.0
 40
6.0
 40
6.0
 40
6.0
 40
7.0
 40
7.0
 40
7.0
 40
8.0
 40
8.0
 40
8.0
 40
9.0
 40
9.0
 40
9.0
 40
10.0
 40
10.0
 40
10.0
 40
11.0
 40
11.0
 40
11.0
 40
12.0
 40
12.0
 40
12.0
 40
13.0
 40
13.0
 40
13.0
 40
14.0
 40
14.0
 40
14.0
 40
15.0
 40
15.0
 40
15.0
 40
16.0
 40
16.0
 40
16.0
 40
17.0
 40
17.0
 40
17.0
 40
18.0
 40
18.0
 40
18.0
 40
19.0
 40
19.0
 40
19.0
 40
20.0
 40
20.0
 40
20.0
 40
21.0
 40
21.0
 40
21.0
 40
22.0
 40
22.0
 40
22.0
 40
22.0
 10
399.6469237282133
 20
-25.04722221596042
 30
0.0
 10
399.6469237282133
 20
-25.04722221596042
 30
0.0
 10
399.0681476866913
 20
-25.04722221596042
 30
0.0
 10
399.0681476866913
 20
-25.04722221596042
 30
0.0
 10
399.0681476866913
 20
-25.04722221596042
 30
0.0
 10
399.0681476866913
 20
-22.82427435410296
 30
0.0
 10
399.0681476866913
 20
-22.82427435410296
 30
0.0
 10
399.0681476866913
 20
-22.07617186948096
 30
0.0
 10
398.8001192579389
 20
-21.59627006838566
 30
0.0
 10
398.2213432164169
 20
-21.59627006838566
 30
0.0
 10
397.7486761158406
 20
-21.59627006838566
 30
0.0
 10
397.3180391801844
 20
-22.04085964075715
 30
0.0
 10
397.3180391801844
 20
-22.62669812802388
 30
0.0
 10
397.3180391801844
 20
-22.62669812802388
 30
0.0
 10
397.3180391801844
 20
-25.04722221596042
 30
0.0
 10
397.3180391801844
 20
-25.04722221596042
 30
0.0
 10
397.3180391801844
 20
-25.04722221596042
 30
0.0
 10
396.7392631386624
 20
-25.04722221596042
 30
0.0
 10
396.7392631386624
 20
-25.04722221596042
 30
0.0
 10
396.7392631386624
 20
-25.04722221596042
 30
0.0
 10
396.7392631386624
 20
-22.67596299346295
 30
0.0
 10
396.7392631386624
 20
-22.67596299346295
 30
0.0
 10
396.7392631386624
 20
-22.06204697799143
 30
0.0
 10
396.4781249008805
 20
-21.59627006838566
 30
0.0
 10
395.9348333428566
 20
-21.59627006838566
 30
0.0
 10
395.4335719497527
 20
-21.59627006838566
 30
0.0
 10
394.9891546321555
 20
-22.09029676097048
 30
0.0
 10
394.9891546321555
 20
-22.69008788495248
 30
0.0
 10
394.9891546321555
 20
-22.69008788495248
 30
0.0
 10
394.9891546321555
 20
-25.04722221596042
 30
0.0
 10
394.9891546321555
 20
-25.04722221596042
 30
0.0
 10
394.9891546321555
 20
-25.04722221596042
 30
0.0
 10
394.4103785906335
 20
-25.04722221596042
 30
0.0
 10
394.4103785906335
 20
-25.04722221596042
 30
0.0
 10
394.4103785906335
 20
-25.04722221596042
 30
0.0
 10
394.4103785906335
 20
-22.18917100139715
 30
0.0
 10
394.4103785906335
 20
-22.18917100139715
 30
0.0
 10
394.4103785906335
 20
-21.79384629446474
 30
0.0
 10
394.3965982086925
 20
-21.51169297422277
 30
0.0
 10
394.3821288076545
 20
-21.19405517048274
 30
0.0
 10
394.3821288076545
 20
-21.19405517048274
 30
0.0
 10
394.8975150922479
 20
-21.19405517048274
 30
0.0
 10
394.8975150922479
 20
-21.19405517048274
 30
0.0
 10
394.8975150922479
 20
-21.19405517048274
 30
0.0
 10
394.9326550661974
 20
-21.81503363169902
 30
0.0
 10
394.9326550661974
 20
-21.81503363169902
 30
0.0
 10
394.9326550661974
 20
-21.81503363169902
 30
0.0
 10
394.9540146582059
 20
-21.81503363169902
 30
0.0
 10
394.9540146582059
 20
-21.81503363169902
 30
0.0
 10
395.1655435210003
 20
-21.44106851677515
 30
0.0
 10
395.5183212986899
 20
-21.10930582154559
 30
0.0
 10
396.1253471231909
 20
-21.10930582154559
 30
0.0
 10
396.6262640067462
 20
-21.10930582154559
 30
0.0
 10
397.0145262679339
 20
-21.41988117954086
 30
0.0
 10
397.1767902652891
 20
-21.87859564340188
 30
0.0
 10
397.1767902652891
 20
-21.87859564340188
 30
0.0
 10
397.1909151567787
 20
-21.87859564340188
 30
0.0
 10
397.1909151567787
 20
-21.87859564340188
 30
0.0
 10
397.4448186940416
 20
-21.41988117954086
 30
0.0
 10
397.8330809552293
 20
-21.10930582154559
 30
0.0
 10
398.4259818882408
 20
-21.10930582154559
 30
0.0
 10
398.898648988817
 20
-21.10930582154559
 30
0.0
 10
399.6469237282133
 20
-21.4128187337961
 30
0.0
 10
399.6469237282133
 20
-22.73246255942105
 30
0.0
 10
399.6469237282133
 20
-22.73246255942105
 30
0.0
 10
399.6469237282133
 20
-25.04722221596042
 30
0.0
 10
399.6469237282133
 20
-25.04722221596042
 30
0.0
  0
HATCH
  5
E1
330
92
100
AcDbEntity
  8
\U+30EC\U+30A4\U+30E4\U+30FC 1
 62
     7
420
 16777215
100
AcDbHatch
 10
0.0
 20
0.0
 30
0.0
210
0.0
220
0.0
230
1.0
  2
SOLID
 70
     1
 71
     0
 91
        1
 92
        1
 93
        1
 72
     4
 94
        3
 73
     0
 74
     1
 95
       71
 96
       67
 40
0.0
 40
0.0
 40
0.0
 40
0.0
 40
1.0
 40
1.0
 40
1.0
 40
2.0
 40
2.0
 40
2.0
 40
3.0
 40
3.0
 40
3.0
 40
4.0
 40
4.0
 40
4.0
 40
5.0
 40
5.0
 40
5.0
 40
6.0
 40
6.0
 40
6.0
 40
7.0
 40
7.0
 40
7.0
 40
8.0
 40
8.0
 40
8.0
 40
9.0
 40
9.0
 40
9.0
 40
10.0
 40
10.0
 40
10.0
 40
11.0
 40
11.0
 40
11.0
 40
12.0
 40
12.0
 40
12.0
 40
13.0
 40
13.0
 40
13.0
 40
14.0
 40
14.0
 40
14.0
 40
15.0
 40
15.0
 40
15.0
 40
16.0
 40
16.0
 40
16.0
 40
17.0
 40
17.0
 40
17.0
 40
18.0
 40
18.0
 40
18.0
 40
19.0
 40
19.0
 40
19.0
 40
20.0
 40
20.0
 40
20.0
 40
21.0
 40
21.0
 40
21.0
 40
22.0
 40
22.0
 40
22.0
 40
22.0
 10
399.6469237282133
 20
-25.04722221596042
 10
399.6469237282133
 20
-25.04722221596042
 10
399.0681476866913
 20
-25.04722221596042
 10
399.0681476866913
 20
-25.04722221596042
 10
399.0681476866913
 20
-25.04722221596042
 10
399.0681476866913
 20
-22.82427435410296
 10
399.0681476866913
 20
-22.82427435410296
 10
399.0681476866913
 20
-22.07617186948096
 10
398.8001192579389
 20
-21.59627006838566
 10
398.2213432164169
 20
-21.59627006838566
 10
397.7486761158406
 20
-21.59627006838566
 10
397.3180391801844
 20
-22.04085964075715
 10
397.3180391801844
 20
-22.62669812802388
 10
397.3180391801844
 20
-22.62669812802388
 10
397.3180391801844
 20
-25.04722221596042
 10
397.3180391801844
 20
-25.04722221596042
 10
397.3180391801844
 20
-25.04722221596042
 10
396.7392631386624
 20
-25.04722221596042
 10
396.7392631386624
 20
-25.04722221596042
 10
396.7392631386624
 20
-25.04722221596042
 10
396.7392631386624
 20
-22.67596299346295
 10
396.7392631386624
 20
-22.67596299346295
 10
396.7392631386624
 20
-22.06204697799143
 10
396.4781249008805
 20
-21.59627006838566
 10
395.9348333428566
 20
-21.59627006838566
 10
395.4335719497527
 20
-21.59627006838566
 10
394.9891546321555
 20
-22.09029676097048
 10
394.9891546321555
 20
-22.69008788495248
 10
394.9891546321555
 20
-22.69008788495248
 10
394.9891546321555
 20
-25.04722221596042
 10
394.9891546321555
 20
-25.04722221596042
 10
394.9891546321555
 20
-25.04722221596042
 10
394.4103785906335
 20
-25.04722221596042
 10
394.4103785906335
 20
-25.04722221596042
 10
394.4103785906335
 20
-25.04722221596042
 10
394.4103785906335
 20
-22.18917100139715
 10
394.4103785906335
 20
-22.18917100139715
 10
394.4103785906335
 20
-21.79384629446474
 10
394.3965982086925
 20
-21.51169297422277
 10
394.3821288076545
 20
-21.19405517048274
 10
394.3821288076545
 20
-21.19405517048274
 10
394.8975150922479
 20
-21.19405517048274
 10
394.8975150922479
 20
-21.19405517048274
 10
394.8975150922479
 20
-21.19405517048274
 10
394.9326550661974
 20
-21.81503363169902
 10
394.9326550661974
 20
-21.81503363169902
 10
394.9326550661974
 20
-21.81503363169902
 10
394.9540146582059
 20
-21.81503363169902
 10
394.9540146582059
 20
-21.81503363169902
 10
395.1655435210003
 20
-21.44106851677515
 10
395.5183212986899
 20
-21.10930582154559
 10
396.1253471231909
 20
-21.10930582154559
 10
396.6262640067462
 20
-21.10930582154559
 10
397.0145262679339
 20
-21.41988117954086
 10
397.1767902652891
 20
-21.87859564340188
 10
397.1767902652891
 20
-21.87859564340188
 10
397.1909151567787
 20
-21.87859564340188
 10
397.1909151567787
 20
-21.87859564340188
 10
397.4448186940416
 20
-21.41988117954086
 10
397.8330809552293
 20
-21.10930582154559
 10
398.4259818882408
 20
-21.10930582154559
 10
398.898648988817
 20
-21.10930582154559
 10
399.6469237282133
 20
-21.4128187337961
 10
399.6469237282133
 20
-22.73246255942105
 10
399.6469237282133
 20
-22.73246255942105
 10
399.6469237282133
 20
-25.04722221596042
 10
399.6469237282133
 20
-25.04722221596042
 97
        0
 75
     2
 76
     1
 98
        0
  0
ENDBLK
  5
95
330
92
100
AcDbEntity
  8
0
100
AcDbBlockEnd
  0
ENDSEC
  0
SECTION
  2
ENTITIES
  0
INSERT
  5
3D
330
1F
100
AcDbEntity
  8
\U+30EC\U+30A4\U+30E4\U+30FC 1
100
AcDbBlockReference
  2
block 2
 10
0.0
 20
0.0
 30
0.0
  0
INSERT
  5
68
330
1F
100
AcDbEntity
  8
\U+30EC\U+30A4\U+30E4\U+30FC 1
100
AcDbBlockReference
  2
block 3
 10
0.0
 20
0.0
 30
0.0
  0
INSERT
  5
93
330
1F
100
AcDbEntity
  8
\U+30EC\U+30A4\U+30E4\U+30FC 1
100
AcDbBlockReference
  2
block 4
 10
0.0
 20
0.0
 30
0.0
  0
ENDSEC
  0
SECTION
  2
OBJECTS
  0
DICTIONARY
  5
C
330
0
100
AcDbDictionary
281
     1
  3
ACAD_GROUP
350
D
  3
ACAD_LAYOUT
350
1A
  3
ACAD_MLINESTYLE
350
17
  3
ACAD_PLOTSETTINGS
350
19
  3
ACAD_PLOTSTYLENAME
350
E
  3
ACAD_TABLESTYLE
350
E2
  3
ACAD_VISUALSTYLE
350
2A
  0
DICTIONARY
  5
D
102
{ACAD_REACTORS
330
C
102
}
330
C
100
AcDbDictionary
281
     1
  0
DICTIONARY
  5
1A
102
{ACAD_REACTORS
330
C
102
}
330
C
100
AcDbDictionary
281
     1
  3
Layout1
350
1E
  3
Layout2
350
26
  3
Model
350
22
  0
DICTIONARY
  5
17
102
{ACAD_REACTORS
330
C
102
}
330
C
100
AcDbDictionary
281
     1
  3
Standard
350
18
  0
DICTIONARY
  5
19
102
{ACAD_REACTORS
330
C
102
}
330
C
100
AcDbDictionary
281
     1
  0
ACDBDICTIONARYWDFLT
  5
E
102
{ACAD_REACTORS
330
C
102
}
330
C
100
AcDbDictionary
281
     1
  3
Normal
350
F
100
AcDbDictionaryWithDefault
340
F
  0
DICTIONARY
  5
E2
102
{ACAD_REACTORS
330
C
102
}
330
C
100
AcDbDictionary
281
     1
  0
DICTIONARY
  5
2A
102
{ACAD_REACTORS
330
C
102
}
330
C
100
AcDbDictionary
281
     1
  3
2dWireframe
350
2F
  3
3D Hidden
350
31
  3
3dWireframe
350
30
  3
Basic
350
32
  3
Brighten
350
36
  3
ColorChange
350
3A
  3
Conceptual
350
34
  3
Dim
350
35
  3
Facepattern
350
39
  3
Flat
350
2B
  3
FlatWithEdges
350
2C
  3
Gouraud
350
2D
  3
GouraudWithEdges
350
2E
  3
Linepattern
350
38
  3
Realistic
350
33
  3
Thicken
350
37
  0
LAYOUT
  5
1E
102
{ACAD_REACTORS
330
1A
102
}
330
1A
100
AcDbPlotSettings
  1

  2
none_device
  4

  6

 40
0.0
 41
0.0
 42
0.0
 43
0.0
 44
0.0
 45
0.0
 46
0.0
 47
0.0
 48
0.0
 49
0.0
140
0.0
141
0.0
142
1.0
143
1.0
 70
   688
 72
     0
 73
     0
 74
     5
  7

 75
    16
 76
     0
 77
     2
 78
   300
147
1.0
148
0.0
149
0.0
100
AcDbLayout
  1
Layout1
 70
     1
 71
     1
 10
0.0
 20
0.0
 11
12.0
 21
9.0
 12
0.0
 22
0.0
 32
0.0
 14
1.000000000000000E+20
 24
1.000000000000000E+20
 34
1.000000000000000E+20
 15
-1.000000000000000E+20
 25
-1.000000000000000E+20
 35
-1.000000000000000E+20
146
0.0
 13
0.0
 23
0.0
 33
0.0
 16
1.0
 26
0.0
 36
0.0
 17
0.0
 27
1.0
 37
0.0
 76
     0
330
1B
  0
LAYOUT
  5
26
102
{ACAD_REACTORS
330
1A
102
}
330
1A
100
AcDbPlotSettings
  1

  2
none_device
  4

  6

 40
0.0
 41
0.0
 42
0.0
 43
0.0
 44
0.0
 45
0.0
 46
0.0
 47
0.0
 48
0.0
 49
0.0
140
0.0
141
0.0
142
1.0
143
1.0
 70
   688
 72
     0
 73
     0
 74
     5
  7

 75
    16
 76
     0
 77
     2
 78
   300
147
1.0
148
0.0
149
0.0
100
AcDbLayout
  1
Layout2
 70
     1
 71
     2
 10
0.0
 20
0.0
 11
0.0
 21
0.0
 12
0.0
 22
0.0
 32
0.0
 14
0.0
 24
0.0
 34
0.0
 15
0.0
 25
0.0
 35
0.0
146
0.0
 13
0.0
 23
0.0
 33
0.0
 16
1.0
 26
0.0
 36
0.0
 17
0.0
 27
1.0
 37
0.0
 76
     0
330
23
  0
LAYOUT
  5
22
102
{ACAD_REACTORS
330
1A
102
}
330
1A
100
AcDbPlotSettings
  1

  2
none_device
  4

  6

 40
0.0
 41
0.0
 42
0.0
 43
0.0
 44
0.0
 45
0.0
 46
0.0
 47
0.0
 48
0.0
 49
0.0
140
0.0
141
0.0
142
1.0
143
1.0
 70
  1712
 72
     0
 73
     0
 74
     0
  7

 75
     0
 76
     0
 77
     2
 78
   300
147
1.0
148
0.0
149
0.0
100
AcDbLayout
  1
Model
 70
     1
 71
     0
 10
0.0
 20
0.0
 11
12.0
 21
9.0
 12
0.0
 22
0.0
 32
0.0
 14
1.000000000000000E+20
 24
1.000000000000000E+20
 34
1.000000000000000E+20
 15
-1.000000000000000E+20
 25
-1.000000000000000E+20
 35
-1.000000000000000E+20
146
0.0
 13
0.0
 23
0.0
 33
0.0
 16
1.0
 26
0.0
 36
0.0
 17
0.0
 27
1.0
 37
0.0
 76
     0
330
1F
331
29
  0
MLINESTYLE
  5
18
102
{ACAD_REACTORS
330
17
102
}
330
17
100
AcDbMlineStyle
  2
Standard
 70
     0
  3

 62
   256
 51
90.0
 52
90.0
 71
     2
 49
0.5
 62
   256
  6
BYLAYER
 49
-0.5
 62
   256
  6
BYLAYER
  0
ACDBPLACEHOLDER
  5
F
102
{ACAD_REACTORS
330
E
102
}
330
E
  0
VISUALSTYLE
  5
2F
102
{ACAD_REACTORS
330
2A
102
}
330
2A
100
AcDbVisualStyle
  2
2dWireframe
 70
     4
 71
     0
 72
     2
 73
     0
 90
        0
 40
-0.6
 41
-30.0
 62
     5
 63
     7
421
 16777215
 74
     1
 91
        4
 64
     7
 65
   257
 75
     1
175
     1
 42
1.0
 92
        0
 66
   257
 43
1.0
 76
     1
 77
     6
 78
     2
 67
     7
 79
     5
170
     0
171
     0
290
     0
174
     0
 93
        1
 44
0.0
173
     0
291
     0
 45
0.0
1001
ACAD
1000
AcDbSavedByObjectVersion
1070
     0
  0
VISUALSTYLE
  5
31
102
{ACAD_REACTORS
330
2A
102
}
330
2A
100
AcDbVisualStyle
  2
3D Hidden
 70
     6
 71
     1
 72
     2
 73
     2
 90
        0
 40
-0.6
 41
-30.0
 62
     5
 63
     7
421
 16777215
 74
     2
 91
        2
 64
     7
 65
   257
 75
     2
175
     1
 42
40.0
 92
        0
 66
   257
 43
1.0
 76
     1
 77
     6
 78
     2
 67
     7
 79
     3
170
     0
171
     0
290
     0
174
     0
 93
        1
 44
0.0
173
     0
291
     0
 45
0.0
1001
ACAD
1000
AcDbSavedByObjectVersion
1070
     0
  0
VISUALSTYLE
  5
30
102
{ACAD_REACTORS
330
2A
102
}
330
2A
100
AcDbVisualStyle
  2
3dWireframe
 70
     5
 71
     0
 72
     2
 73
     0
 90
        0
 40
-0.6
 41
-30.0
 62
     5
 63
     7
421
 16777215
 74
     1
 91
        4
 64
     7
 65
   257
 75
     1
175
     1
 42
1.0
 92
        0
 66
   257
 43
1.0
 76
     1
 77
     6
 78
     2
 67
     7
 79
     5
170
     0
171
     0
290
     0
174
     0
 93
        1
 44
0.0
173
     0
291
     0
 45
0.0
1001
ACAD
1000
AcDbSavedByObjectVersion
1070
     0
  0
VISUALSTYLE
  5
32
102
{ACAD_REACTORS
330
2A
102
}
330
2A
100
AcDbVisualStyle
  2
Basic
 70
     7
 71
     1
 72
     0
 73
     1
 90
        0
 40
-0.6
 41
-30.0
 62
     5
 63
     7
421
 16777215
 74
     0
 91
        4
 64
     7
 65
   257
 75
     1
175
     1
 42
1.0
 92
        8
 66
     7
 43
1.0
 76
     1
 77
     6
 78
     2
 67
     7
 79
     5
170
     0
171
     0
290
     0
174
     0
 93
        1
 44
0.0
173
     0
291
     1
 45
0.0
1001
ACAD
1000
AcDbSavedByObjectVersion
1070
     0
  0
VISUALSTYLE
  5
36
102
{ACAD_REACTORS
330
2A
102
}
330
2A
100
AcDbVisualStyle
  2
Brighten
 70
    12
 71
     2
 72
     2
 73
     0
 90
        0
 40
-0.6
 41
-30.0
 62
     5
 63
     7
421
 16777215
 74
     1
 91
        4
 64
     7
 65
   257
 75
     1
175
     1
 42
1.0
 92
        8
 66
     7
 43
1.0
 76
     1
 77
     6
 78
     2
 67
     7
 79
     5
170
     0
171
     0
290
     0
174
     0
 93
        1
 44
50.0
173
     0
291
     1
 45
0.0
1001
ACAD
1000
AcDbSavedByObjectVersion
1070
     0
  0
VISUALSTYLE
  5
3A
102
{ACAD_REACTORS
330
2A
102
}
330
2A
100
AcDbVisualStyle
  2
ColorChange
 70
    16
 71
     2
 72
     2
 73
     3
 90
        0
 40
-0.6
 41
-30.0
 62
     5
 63
     8
421
  8421504
 74
     1
 91
        4
 64
     7
 65
   257
 75
     1
175
     1
 42
1.0
 92
        8
 66
     8
424
  8421504
 43
1.0
 76
     1
 77
     6
 78
     2
 67
     7
 79
     5
170
     0
171
     0
290
     0
174
     0
 93
        1
 44
0.0
173
     0
291
     1
 45
0.0
1001
ACAD
1000
AcDbSavedByObjectVersion
1070
     0
  0
VISUALSTYLE
  5
34
102
{ACAD_REACTORS
330
2A
102
}
330
2A
100
AcDbVisualStyle
  2
Conceptual
 70
     9
 71
     3
 72
     2
 73
     0
 90
        0
 40
-0.6
 41
-30.0
 62
     5
 63
     7
421
 16777215
 74
     2
 91
        2
 64
     7
 65
   257
 75
     1
175
     1
 42
40.0
 92
        8
 66
     7
 43
1.0
 76
     1
 77
     6
 78
     2
 67
     7
 79
     3
170
     0
171
     0
290
     0
174
     0
 93
        1
 44
0.0
173
     0
291
     0
 45
0.0
1001
ACAD
1000
AcDbSavedByObjectVersion
1070
     0
  0
VISUALSTYLE
  5
35
102
{ACAD_REACTORS
330
2A
102
}
330
2A
100
AcDbVisualStyle
  2
Dim
 70
    11
 71
     2
 72
     2
 73
     0
 90
        0
 40
-0.6
 41
-30.0
 62
     5
 63
     7
421
 16777215
 74
     1
 91
        4
 64
     7
 65
   257
 75
     1
175
     1
 42
1.0
 92
        8
 66
     7
 43
1.0
 76
     1
 77
     6
 78
     2
 67
     7
 79
     5
170
     0
171
     0
290
     0
174
     0
 93
        1
 44
-50.0
173
     0
291
     1
 45
0.0
1001
ACAD
1000
AcDbSavedByObjectVersion
1070
     0
  0
VISUALSTYLE
  5
39
102
{ACAD_REACTORS
330
2A
102
}
330
2A
100
AcDbVisualStyle
  2
Facepattern
 70
    15
 71
     2
 72
     2
 73
     0
 90
        0
 40
-0.6
 41
-30.0
 62
     5
 63
     7
421
 16777215
 74
     1
 91
        4
 64
     7
 65
   257
 75
     1
175
     1
 42
1.0
 92
        8
 66
     7
 43
1.0
 76
     1
 77
     6
 78
     2
 67
     7
 79
     5
170
     0
171
     0
290
     0
174
     0
 93
        1
 44
0.0
173
     0
291
     1
 45
0.0
1001
ACAD
1000
AcDbSavedByObjectVersion
1070
     0
  0
VISUALSTYLE
  5
2B
102
{ACAD_REACTORS
330
2A
102
}
330
2A
100
AcDbVisualStyle
  2
Flat
 70
     0
 71
     2
 72
     1
 73
     1
 90
        2
 40
-0.6
 41
30.0
 62
     5
 63
     7
421
 16777215
 74
     0
 91
        4
 64
     7
 65
   257
 75
     1
175
     1
 42
1.0
 92
        8
 66
     7
 43
1.0
 76
     1
 77
     6
 78
     2
 67
     7
 79
     5
170
     0
171
     0
290
     0
174
     0
 93
       13
 44
0.0
173
     0
291
     1
 45
0.0
1001
ACAD
1000
AcDbSavedByObjectVersion
1070
     0
  0
VISUALSTYLE
  5
2C
102
{ACAD_REACTORS
330
2A
102
}
330
2A
100
AcDbVisualStyle
  2
FlatWithEdges
 70
     1
 71
     2
 72
     1
 73
     1
 90
        2
 40
-0.6
 41
30.0
 62
     5
 63
     7
421
 16777215
 74
     1
 91
        4
 64
     7
 65
   257
 75
     1
175
     1
 42
1.0
 92
        0
 66
   257
 43
1.0
 76
     1
 77
     6
 78
     2
 67
     7
 79
     5
170
     0
171
     0
290
     0
174
     0
 93
       13
 44
0.0
173
     0
291
     1
 45
0.0
1001
ACAD
1000
AcDbSavedByObjectVersion
1070
     0
  0
VISUALSTYLE
  5
2D
102
{ACAD_REACTORS
330
2A
102
}
330
2A
100
AcDbVisualStyle
  2
Gouraud
 70
     2
 71
     2
 72
     2
 73
     1
 90
        2
 40
-0.6
 41
30.0
 62
     5
 63
     7
421
 16777215
 74
     0
 91
        4
 64
     7
 65
   257
 75
     1
175
     1
 42
1.0
 92
        0
 66
     7
 43
1.0
 76
     1
 77
     6
 78
     2
 67
     7
 79
     5
170
     0
171
     0
290
     0
174
     0
 93
       13
 44
0.0
173
     0
291
     1
 45
0.0
1001
ACAD
1000
AcDbSavedByObjectVersion
1070
     0
  0
VISUALSTYLE
  5
2E
102
{ACAD_REACTORS
330
2A
102
}
330
2A
100
AcDbVisualStyle
  2
GouraudWithEdges
 70
     3
 71
     2
 72
     2
 73
     1
 90
        2
 40
-0.6
 41
30.0
 62
     5
 63
     7
421
 16777215
 74
     1
 91
        4
 64
     7
 65
   257
 75
     1
175
     1
 42
1.0
 92
        0
 66
   257
 43
1.0
 76
     1
 77
     6
 78
     2
 67
     7
 79
     5
170
     0
171
     0
290
     0
174
     0
 93
       13
 44
0.0
173
     0
291
     1
 45
0.0
1001
ACAD
1000
AcDbSavedByObjectVersion
1070
     0
  0
VISUALSTYLE
  5
38
102
{ACAD_REACTORS
330
2A
102
}
330
2A
100
AcDbVisualStyle
  2
Linepattern
 70
    14
 71
     2
 72
     2
 73
     0
 90
        0
 40
-0.6
 41
-30.0
 62
     5
 63
     7
421
 16777215
 74
     1
 91
        4
 64
     7
 65
   257
 75
     7
175
     7
 42
1.0
 92
        8
 66
     7
 43
1.0
 76
     1
 77
     6
 78
     2
 67
     7
 79
     5
170
     0
171
     0
290
     0
174
     0
 93
        1
 44
0.0
173
     0
291
     1
 45
0.0
1001
ACAD
1000
AcDbSavedByObjectVersion
1070
     0
  0
VISUALSTYLE
  5
33
102
{ACAD_REACTORS
330
2A
102
}
330
2A
100
AcDbVisualStyle
  2
Realistic
 70
     8
 71
     2
 72
     2
 73
     0
 90
        0
 40
-0.6
 41
-30.0
 62
     5
 63
     7
421
 16777215
 74
     1
 91
        0
 64
     7
 65
   257
 75
     1
175
     1
 42
1.0
 92
        8
 66
     8
424
  7895160
 43
1.0
 76
     1
 77
     6
 78
     2
 67
     7
 79
     5
170
     0
171
     0
290
     0
174
     0
 93
       13
 44
0.0
173
     0
291
     0
 45
0.0
1001
ACAD
1000
AcDbSavedByObjectVersion
1070
     0
  0
VISUALSTYLE
  5
37
102
{ACAD_REACTORS
330
2A
102
}
330
2A
100
AcDbVisualStyle
  2
Thicken
 70
    13
 71
     2
 72
     2
 73
     0
 90
        0
 40
-0.6
 41
-30.0
 62
     5
 63
     7
421
 16777215
 74
     1
 91
        4
 64
     7
 65
   257
 75
     1
175
     1
 42
1.0
 92
       12
 66
     7
 43
1.0
 76
     1
 77
     6
 78
     2
 67
     7
 79
     5
170
     0
171
     0
290
     0
174
     0
 93
        1
 44
0.0
173
     0
291
     1
 45
0.0
1001
ACAD
1000
AcDbSavedByObjectVersion
1070
     0
  0
ENDSEC
  0
EOF
