  0
SECTION
  2
HEADER
  9
$ACADVER
  1
AC1009
  9
$FILLMODE
 70
1
  9
$EXTMIN
 10
-2.5400
 20
0.0000
 30
0.0000
  9
$EXTMAX
 10
27.9400
 20
39.0400
 30
0.0000
  0
ENDSEC
  0
SECTION
  2
TABLES
  0
TABLE
  2
LTYPE
 70
1
  0
LTYPE
  2
CONTINUOUS
 70
64
  3
Solid line
 72
65
 73
0
 40
0
  0
ENDTAB
  0
TABLE
  2
LAYER
 70
255
  0
LAYER
  2
1
 70
64
 62
22
  6
CONTINUOUS
  0
LAYER
  2
17
 70
64
 62
82
  6
CONTINUOUS
  0
ENDTAB
  0
ENDSEC
  0
SECTION
  2
BLOCKS
  0
BLOCK
  8
0
  2
RECT
 70
64
 10
0.0000
 20
0.0000
 30
0.0000
  3
RECT
  0
SOLID
  8
0
 10
-0.5000
 20
-0.5000
 30
0.0000
 11
0.5000
 21
-0.5000
 31
0.0000
 12
-0.5000
 22
0.5000
 32
0.0000
 13
0.5000
 23
0.5000
 33
0.0000
  0
ENDBLK
  8
0
  0
BLOCK
  8
0
  2
PIE
 70
64
 10
0.0000
 20
0.0000
 30
0.0000
  3
PIE
  0
POLYLINE
  8
0
 66
1
 10
0.0000
 20
0.0000
 30
0.0000
 40
0.5000
 41
0.5000
 70
0
  0
VERTEX
  8
0
 10
0.0000
 20
-0.2500
 30
0.0000
 42
1.0000
  0
VERTEX
  8
0
 10
0.0000
 20
0.2500
 30
0.0000
 42
1.0000
  0
VERTEX
  8
0
 10
0.0000
 20
-0.2500
 30
0.0000
  0
SEQEND
  8
0
  0
ENDBLK
  8
0
  0
BLOCK
  8
0
  2
OCTAGONP
 70
64
 10
0.0000
 20
0.0000
 30
0.0000
  3
OCTAGONP
  0
POLYLINE
  8
0
 66
1
 10
0.0000
 20
0.0000
 30
0.0000
 40
0.5000
 41
0.5000
 70
0
  0
VERTEX
  8
0
 10
-0.2500
 20
-0.1036
 30
0.0000
  0
VERTEX
  8
0
 10
-0.2500
 20
0.1036
 30
0.0000
  0
VERTEX
  8
0
 10
-0.1036
 20
0.2500
 30
0.0000
  0
VERTEX
  8
0
 10
0.1036
 20
0.2500
 30
0.0000
  0
VERTEX
  8
0
 10
0.2500
 20
0.1036
 30
0.0000
  0
VERTEX
  8
0
 10
0.2500
 20
-0.1036
 30
0.0000
  0
VERTEX
  8
0
 10
0.1036
 20
-0.2500
 30
0.0000
  0
VERTEX
  8
0
 10
-0.1036
 20
-0.2500
 30
0.0000
  0
VERTEX
  8
0
 10
-0.2500
 20
-0.1036
 30
0.0000
  0
VERTEX
  8
0
 10
-0.2500
 20
0.1036
 30
0.0000
  0
SEQEND
  8
0
  0
ENDBLK
  8
0
  0
BLOCK
  8
0
  2
SQUAREP
 70
64
 10
0.0000
 20
0.0000
 30
0.0000
  3
SQUAREP
  0
SOLID
  8
0
 10
-0.5000
 20
-0.5000
 30
0.0000
 11
0.5000
 21
-0.5000
 31
0.0000
 12
-0.5000
 22
0.5000
 32
0.0000
 13
0.5000
 23
0.5000
 33
0.0000
  0
ENDBLK
  8
0
  0
BLOCK
  8
0
  2
ROUNDP
 70
64
 10
0.0000
 20
0.0000
 30
0.0000
  3
ROUNDP
  0
POLYLINE
  8
0
 66
1
 10
0.0000
 20
0.0000
 30
0.0000
 40
0.5000
 41
0.5000
 70
0
  0
VERTEX
  8
0
 10
0.0000
 20
-0.2500
 30
0.0000
 42
1.0000
  0
VERTEX
  8
0
 10
0.0000
 20
0.2500
 30
0.0000
 42
1.0000
  0
VERTEX
  8
0
 10
0.0000
 20
-0.2500
 30
0.0000
  0
SEQEND
  8
0
  0
ENDBLK
  8
0
  0
BLOCK
  8
0
  2
ANNULUSP
 70
64
 10
0.0000
 20
0.0000
 30
0.0000
  3
ANNULUSP
  0
POLYLINE
  8
0
 66
1
 10
0.0000
 20
0.0000
 30
0.0000
 40
0.5000
 41
0.5000
 70
0
  0
VERTEX
  8
0
 10
0.0000
 20
-0.2500
 30
0.0000
 42
1.0000
  0
VERTEX
  8
0
 10
0.0000
 20
0.2500
 30
0.0000
 42
1.0000
  0
VERTEX
  8
0
 10
0.0000
 20
-0.2500
 30
0.0000
  0
SEQEND
  8
0
  0
ENDBLK
  8
0
  0
BLOCK
  8
0
  2
THERMALP
 70
64
 10
0.0000
 20
0.0000
 30
0.0000
  3
THERMALP
  0
POLYLINE
  8
0
 66
1
 10
0.0000
 20
0.0000
 30
0.0000
 40
0.1000
 41
0.1000
 70
0
  0
VERTEX
  8
0
 10
-0.2379
 20
0.4500
 30
0.0000
  0
VERTEX
  8
0
 10
0.2379
 20
0.4500
 30
0.0000
  0
SEQEND
  8
0
  0
POLYLINE
  8
0
 66
1
 10
0.0000
 20
0.0000
 30
0.0000
 40
0.0500
 41
0.0500
 70
0
  0
VERTEX
  8
0
 10
0.2379
 20
0.4250
 30
0.0000
 42
1.0000
  0
VERTEX
  8
0
 10
0.2379
 20
0.4750
 30
0.0000
  0
SEQEND
  8
0
  0
POLYLINE
  8
0
 66
1
 10
0.0000
 20
0.0000
 30
0.0000
 40
0.0500
 41
0.0500
 70
0
  0
VERTEX
  8
0
 10
-0.2379
 20
0.4750
 30
0.0000
 42
1.0000
  0
VERTEX
  8
0
 10
-0.2379
 20
0.4250
 30
0.0000
  0
SEQEND
  8
0
  0
POLYLINE
  8
0
 66
1
 10
0.0000
 20
0.0000
 30
0.0000
 40
0.1000
 41
0.1000
 70
0
  0
VERTEX
  8
0
 10
0.4500
 20
0.2379
 30
0.0000
  0
VERTEX
  8
0
 10
0.4500
 20
-0.2379
 30
0.0000
  0
SEQEND
  8
0
  0
POLYLINE
  8
0
 66
1
 10
0.0000
 20
0.0000
 30
0.0000
 40
0.0500
 41
0.0500
 70
0
  0
VERTEX
  8
0
 10
0.4250
 20
-0.2379
 30
0.0000
 42
1.0000
  0
VERTEX
  8
0
 10
0.4750
 20
-0.2379
 30
0.0000
  0
SEQEND
  8
0
  0
POLYLINE
  8
0
 66
1
 10
0.0000
 20
0.0000
 30
0.0000
 40
0.0500
 41
0.0500
 70
0
  0
VERTEX
  8
0
 10
0.4750
 20
0.2379
 30
0.0000
 42
1.0000
  0
VERTEX
  8
0
 10
0.4250
 20
0.2379
 30
0.0000
  0
SEQEND
  8
0
  0
POLYLINE
  8
0
 66
1
 10
0.0000
 20
0.0000
 30
0.0000
 40
0.1000
 41
0.1000
 70
0
  0
VERTEX
  8
0
 10
0.2379
 20
-0.4500
 30
0.0000
  0
VERTEX
  8
0
 10
-0.2379
 20
-0.4500
 30
0.0000
  0
SEQEND
  8
0
  0
POLYLINE
  8
0
 66
1
 10
0.0000
 20
0.0000
 30
0.0000
 40
0.0500
 41
0.0500
 70
0
  0
VERTEX
  8
0
 10
-0.2379
 20
-0.4250
 30
0.0000
 42
1.0000
  0
VERTEX
  8
0
 10
-0.2379
 20
-0.4750
 30
0.0000
  0
SEQEND
  8
0
  0
POLYLINE
  8
0
 66
1
 10
0.0000
 20
0.0000
 30
0.0000
 40
0.0500
 41
0.0500
 70
0
  0
VERTEX
  8
0
 10
0.2379
 20
-0.4750
 30
0.0000
 42
1.0000
  0
VERTEX
  8
0
 10
0.2379
 20
-0.4250
 30
0.0000
  0
SEQEND
  8
0
  0
POLYLINE
  8
0
 66
1
 10
0.0000
 20
0.0000
 30
0.0000
 40
0.1000
 41
0.1000
 70
0
  0
VERTEX
  8
0
 10
-0.4500
 20
-0.2379
 30
0.0000
  0
VERTEX
  8
0
 10
-0.4500
 20
0.2379
 30
0.0000
  0
SEQEND
  8
0
  0
POLYLINE
  8
0
 66
1
 10
0.0000
 20
0.0000
 30
0.0000
 40
0.0500
 41
0.0500
 70
0
  0
VERTEX
  8
0
 10
-0.4250
 20
0.2379
 30
0.0000
 42
1.0000
  0
VERTEX
  8
0
 10
-0.4750
 20
0.2379
 30
0.0000
  0
SEQEND
  8
0
  0
POLYLINE
  8
0
 66
1
 10
0.0000
 20
0.0000
 30
0.0000
 40
0.0500
 41
0.0500
 70
0
  0
VERTEX
  8
0
 10
-0.4750
 20
-0.2379
 30
0.0000
 42
1.0000
  0
VERTEX
  8
0
 10
-0.4250
 20
-0.2379
 30
0.0000
  0
SEQEND
  8
0
  0
ENDBLK
  8
0
  0
BLOCK
  8
0
  2
OCTAGONV
 70
64
 10
0.0000
 20
0.0000
 30
0.0000
  3
OCTAGONV
  0
POLYLINE
  8
0
 66
1
 10
0.0000
 20
0.0000
 30
0.0000
 40
0.5000
 41
0.5000
 70
0
  0
VERTEX
  8
0
 10
-0.2500
 20
-0.1036
 30
0.0000
  0
VERTEX
  8
0
 10
-0.2500
 20
0.1036
 30
0.0000
  0
VERTEX
  8
0
 10
-0.1036
 20
0.2500
 30
0.0000
  0
VERTEX
  8
0
 10
0.1036
 20
0.2500
 30
0.0000
  0
VERTEX
  8
0
 10
0.2500
 20
0.1036
 30
0.0000
  0
VERTEX
  8
0
 10
0.2500
 20
-0.1036
 30
0.0000
  0
VERTEX
  8
0
 10
0.1036
 20
-0.2500
 30
0.0000
  0
VERTEX
  8
0
 10
-0.1036
 20
-0.2500
 30
0.0000
  0
VERTEX
  8
0
 10
-0.2500
 20
-0.1036
 30
0.0000
  0
VERTEX
  8
0
 10
-0.2500
 20
0.1036
 30
0.0000
  0
SEQEND
  8
0
  0
ENDBLK
  8
0
  0
BLOCK
  8
0
  2
SQUAREV
 70
64
 10
0.0000
 20
0.0000
 30
0.0000
  3
SQUAREV
  0
SOLID
  8
0
 10
-0.5000
 20
-0.5000
 30
0.0000
 11
0.5000
 21
-0.5000
 31
0.0000
 12
-0.5000
 22
0.5000
 32
0.0000
 13
0.5000
 23
0.5000
 33
0.0000
  0
ENDBLK
  8
0
  0
BLOCK
  8
0
  2
ROUNDV
 70
64
 10
0.0000
 20
0.0000
 30
0.0000
  3
ROUNDV
  0
POLYLINE
  8
0
 66
1
 10
0.0000
 20
0.0000
 30
0.0000
 40
0.5000
 41
0.5000
 70
0
  0
VERTEX
  8
0
 10
0.0000
 20
-0.2500
 30
0.0000
 42
1.0000
  0
VERTEX
  8
0
 10
0.0000
 20
0.2500
 30
0.0000
 42
1.0000
  0
VERTEX
  8
0
 10
0.0000
 20
-0.2500
 30
0.0000
  0
SEQEND
  8
0
  0
ENDBLK
  8
0
  0
BLOCK
  8
0
  2
ANNULUSV
 70
64
 10
0.0000
 20
0.0000
 30
0.0000
  3
ANNULUSV
  0
POLYLINE
  8
0
 66
1
 10
0.0000
 20
0.0000
 30
0.0000
 40
0.5000
 41
0.5000
 70
0
  0
VERTEX
  8
0
 10
0.0000
 20
-0.2500
 30
0.0000
 42
1.0000
  0
VERTEX
  8
0
 10
0.0000
 20
0.2500
 30
0.0000
 42
1.0000
  0
VERTEX
  8
0
 10
0.0000
 20
-0.2500
 30
0.0000
  0
SEQEND
  8
0
  0
ENDBLK
  8
0
  0
BLOCK
  8
0
  2
THERMALV
 70
64
 10
0.0000
 20
0.0000
 30
0.0000
  3
THERMALV
  0
POLYLINE
  8
0
 66
1
 10
0.0000
 20
0.0000
 30
0.0000
 40
0.1000
 41
0.1000
 70
0
  0
VERTEX
  8
0
 10
-0.2379
 20
0.4500
 30
0.0000
  0
VERTEX
  8
0
 10
0.2379
 20
0.4500
 30
0.0000
  0
SEQEND
  8
0
  0
POLYLINE
  8
0
 66
1
 10
0.0000
 20
0.0000
 30
0.0000
 40
0.0500
 41
0.0500
 70
0
  0
VERTEX
  8
0
 10
0.2379
 20
0.4250
 30
0.0000
 42
1.0000
  0
VERTEX
  8
0
 10
0.2379
 20
0.4750
 30
0.0000
  0
SEQEND
  8
0
  0
POLYLINE
  8
0
 66
1
 10
0.0000
 20
0.0000
 30
0.0000
 40
0.0500
 41
0.0500
 70
0
  0
VERTEX
  8
0
 10
-0.2379
 20
0.4750
 30
0.0000
 42
1.0000
  0
VERTEX
  8
0
 10
-0.2379
 20
0.4250
 30
0.0000
  0
SEQEND
  8
0
  0
POLYLINE
  8
0
 66
1
 10
0.0000
 20
0.0000
 30
0.0000
 40
0.1000
 41
0.1000
 70
0
  0
VERTEX
  8
0
 10
0.4500
 20
0.2379
 30
0.0000
  0
VERTEX
  8
0
 10
0.4500
 20
-0.2379
 30
0.0000
  0
SEQEND
  8
0
  0
POLYLINE
  8
0
 66
1
 10
0.0000
 20
0.0000
 30
0.0000
 40
0.0500
 41
0.0500
 70
0
  0
VERTEX
  8
0
 10
0.4250
 20
-0.2379
 30
0.0000
 42
1.0000
  0
VERTEX
  8
0
 10
0.4750
 20
-0.2379
 30
0.0000
  0
SEQEND
  8
0
  0
POLYLINE
  8
0
 66
1
 10
0.0000
 20
0.0000
 30
0.0000
 40
0.0500
 41
0.0500
 70
0
  0
VERTEX
  8
0
 10
0.4750
 20
0.2379
 30
0.0000
 42
1.0000
  0
VERTEX
  8
0
 10
0.4250
 20
0.2379
 30
0.0000
  0
SEQEND
  8
0
  0
POLYLINE
  8
0
 66
1
 10
0.0000
 20
0.0000
 30
0.0000
 40
0.1000
 41
0.1000
 70
0
  0
VERTEX
  8
0
 10
0.2379
 20
-0.4500
 30
0.0000
  0
VERTEX
  8
0
 10
-0.2379
 20
-0.4500
 30
0.0000
  0
SEQEND
  8
0
  0
POLYLINE
  8
0
 66
1
 10
0.0000
 20
0.0000
 30
0.0000
 40
0.0500
 41
0.0500
 70
0
  0
VERTEX
  8
0
 10
-0.2379
 20
-0.4250
 30
0.0000
 42
1.0000
  0
VERTEX
  8
0
 10
-0.2379
 20
-0.4750
 30
0.0000
  0
SEQEND
  8
0
  0
POLYLINE
  8
0
 66
1
 10
0.0000
 20
0.0000
 30
0.0000
 40
0.0500
 41
0.0500
 70
0
  0
VERTEX
  8
0
 10
0.2379
 20
-0.4750
 30
0.0000
 42
1.0000
  0
VERTEX
  8
0
 10
0.2379
 20
-0.4250
 30
0.0000
  0
SEQEND
  8
0
  0
POLYLINE
  8
0
 66
1
 10
0.0000
 20
0.0000
 30
0.0000
 40
0.1000
 41
0.1000
 70
0
  0
VERTEX
  8
0
 10
-0.4500
 20
-0.2379
 30
0.0000
  0
VERTEX
  8
0
 10
-0.4500
 20
0.2379
 30
0.0000
  0
SEQEND
  8
0
  0
POLYLINE
  8
0
 66
1
 10
0.0000
 20
0.0000
 30
0.0000
 40
0.0500
 41
0.0500
 70
0
  0
VERTEX
  8
0
 10
-0.4250
 20
0.2379
 30
0.0000
 42
1.0000
  0
VERTEX
  8
0
 10
-0.4750
 20
0.2379
 30
0.0000
  0
SEQEND
  8
0
  0
POLYLINE
  8
0
 66
1
 10
0.0000
 20
0.0000
 30
0.0000
 40
0.0500
 41
0.0500
 70
0
  0
VERTEX
  8
0
 10
-0.4750
 20
-0.2379
 30
0.0000
 42
1.0000
  0
VERTEX
  8
0
 10
-0.4250
 20
-0.2379
 30
0.0000
  0
SEQEND
  8
0
  0
ENDBLK
  8
0
  0
BLOCK
  8
0
  2
LONGP100
 70
64
 10
0.0000
 20
0.0000
 30
0.0000
  3
LONGP100
  0
POLYLINE
  8
0
 66
1
 10
0.0000
 20
0.0000
 30
0.0000
 40
1.0000
 41
1.0000
 70
0
  0
VERTEX
  8
0
 10
-0.5000
 20
0.0000
 30
0.0000
  0
VERTEX
  8
0
 10
0.5000
 20
0.0000
 30
0.0000
  0
SEQEND
  8
0
  0
POLYLINE
  8
0
 66
1
 10
0.0000
 20
0.0000
 30
0.0000
 40
0.5000
 41
0.5000
 70
0
  0
VERTEX
  8
0
 10
0.5000
 20
-0.2500
 30
0.0000
 42
1.0000
  0
VERTEX
  8
0
 10
0.5000
 20
0.2500
 30
0.0000
  0
SEQEND
  8
0
  0
POLYLINE
  8
0
 66
1
 10
0.0000
 20
0.0000
 30
0.0000
 40
0.5000
 41
0.5000
 70
0
  0
VERTEX
  8
0
 10
-0.5000
 20
0.2500
 30
0.0000
 42
1.0000
  0
VERTEX
  8
0
 10
-0.5000
 20
-0.2500
 30
0.0000
  0
SEQEND
  8
0
  0
ENDBLK
  8
0
  0
ENDSEC
  0
SECTION
  2
ENTITIES
  0
POLYLINE
  8
1
 66
1
 10
0.0000
 20
0.0000
 30
0.0000
 40
0.1524
 41
0.1524
 70
0
  0
VERTEX
  8
1
 10
26.5938
 20
22.2085
 30
0.0000
  0
VERTEX
  8
1
 10
24.9668
 20
22.2085
 30
0.0000
  0
SEQEND
  8
0
  0
POLYLINE
  8
1
 66
1
 10
0.0000
 20
0.0000
 30
0.0000
 40
0.0762
 41
0.0762
 70
0
  0
VERTEX
  8
1
 10
24.9668
 20
22.2466
 30
0.0000
 42
1.0000
  0
VERTEX
  8
1
 10
24.9668
 20
22.1704
 30
0.0000
  0
SEQEND
  8
0
  0
POLYLINE
  8
1
 66
1
 10
0.0000
 20
0.0000
 30
0.0000
 40
0.0762
 41
0.0762
 70
0
  0
VERTEX
  8
1
 10
26.5938
 20
22.1704
 30
0.0000
 42
1.0000
  0
VERTEX
  8
1
 10
26.5938
 20
22.2466
 30
0.0000
  0
SEQEND
  8
0
  0
POLYLINE
  8
1
 66
1
 10
0.0000
 20
0.0000
 30
0.0000
 40
0.1524
 41
0.1524
 70
0
  0
VERTEX
  8
1
 10
24.9668
 20
21.6662
 30
0.0000
  0
VERTEX
  8
1
 10
24.9668
 20
22.7509
 30
0.0000
  0
SEQEND
  8
0
  0
POLYLINE
  8
1
 66
1
 10
0.0000
 20
0.0000
 30
0.0000
 40
0.0762
 41
0.0762
 70
0
  0
VERTEX
  8
1
 10
25.0049
 20
22.7509
 30
0.0000
 42
1.0000
  0
VERTEX
  8
1
 10
24.9287
 20
22.7509
 30
0.0000
  0
SEQEND
  8
0
  0
POLYLINE
  8
1
 66
1
 10
0.0000
 20
0.0000
 30
0.0000
 40
0.0762
 41
0.0762
 70
0
  0
VERTEX
  8
1
 10
24.9287
 20
21.6662
 30
0.0000
 42
1.0000
  0
VERTEX
  8
1
 10
25.0049
 20
21.6662
 30
0.0000
  0
SEQEND
  8
0
  0
POLYLINE
  8
1
 66
1
 10
0.0000
 20
0.0000
 30
0.0000
 40
0.1524
 41
0.1524
 70
0
  0
VERTEX
  8
1
 10
26.5938
 20
23.3034
 30
0.0000
  0
VERTEX
  8
1
 10
24.9668
 20
23.3034
 30
0.0000
  0
SEQEND
  8
0
  0
POLYLINE
  8
1
 66
1
 10
0.0000
 20
0.0000
 30
0.0000
 40
0.0762
 41
0.0762
 70
0
  0
VERTEX
  8
1
 10
24.9668
 20
23.3415
 30
0.0000
 42
1.0000
  0
VERTEX
  8
1
 10
24.9668
 20
23.2653
 30
0.0000
  0
SEQEND
  8
0
  0
POLYLINE
  8
1
 66
1
 10
0.0000
 20
0.0000
 30
0.0000
 40
0.0762
 41
0.0762
 70
0
  0
VERTEX
  8
1
 10
26.5938
 20
23.2653
 30
0.0000
 42
1.0000
  0
VERTEX
  8
1
 10
26.5938
 20
23.3415
 30
0.0000
  0
SEQEND
  8
0
  0
POLYLINE
  8
1
 66
1
 10
0.0000
 20
0.0000
 30
0.0000
 40
0.1524
 41
0.1524
 70
0
  0
VERTEX
  8
1
 10
24.9668
 20
23.3034
 30
0.0000
  0
VERTEX
  8
1
 10
24.9668
 20
24.1168
 30
0.0000
  0
SEQEND
  8
0
  0
POLYLINE
  8
1
 66
1
 10
0.0000
 20
0.0000
 30
0.0000
 40
0.0762
 41
0.0762
 70
0
  0
VERTEX
  8
1
 10
25.0049
 20
24.1168
 30
0.0000
 42
1.0000
  0
VERTEX
  8
1
 10
24.9287
 20
24.1168
 30
0.0000
  0
SEQEND
  8
0
  0
POLYLINE
  8
1
 66
1
 10
0.0000
 20
0.0000
 30
0.0000
 40
0.0762
 41
0.0762
 70
0
  0
VERTEX
  8
1
 10
24.9287
 20
23.3034
 30
0.0000
 42
1.0000
  0
VERTEX
  8
1
 10
25.0049
 20
23.3034
 30
0.0000
  0
SEQEND
  8
0
  0
POLYLINE
  8
1
 66
1
 10
0.0000
 20
0.0000
 30
0.0000
 40
0.1524
 41
0.1524
 70
0
  0
VERTEX
  8
1
 10
24.9668
 20
24.1168
 30
0.0000
  0
VERTEX
  8
1
 10
25.2380
 20
24.3880
 30
0.0000
  0
SEQEND
  8
0
  0
POLYLINE
  8
1
 66
1
 10
0.0000
 20
0.0000
 30
0.0000
 40
0.0762
 41
0.0762
 70
0
  0
VERTEX
  8
1
 10
25.2649
 20
24.3611
 30
0.0000
 42
1.0000
  0
VERTEX
  8
1
 10
25.2110
 20
24.4150
 30
0.0000
  0
SEQEND
  8
0
  0
POLYLINE
  8
1
 66
1
 10
0.0000
 20
0.0000
 30
0.0000
 40
0.0762
 41
0.0762
 70
0
  0
VERTEX
  8
1
 10
24.9399
 20
24.1438
 30
0.0000
 42
1.0000
  0
VERTEX
  8
1
 10
24.9938
 20
24.0899
 30
0.0000
  0
SEQEND
  8
0
  0
POLYLINE
  8
1
 66
1
 10
0.0000
 20
0.0000
 30
0.0000
 40
0.1524
 41
0.1524
 70
0
  0
VERTEX
  8
1
 10
25.2380
 20
24.3880
 30
0.0000
  0
VERTEX
  8
1
 10
25.5091
 20
24.3880
 30
0.0000
  0
SEQEND
  8
0
  0
POLYLINE
  8
1
 66
1
 10
0.0000
 20
0.0000
 30
0.0000
 40
0.0762
 41
0.0762
 70
0
  0
VERTEX
  8
1
 10
25.5091
 20
24.3499
 30
0.0000
 42
1.0000
  0
VERTEX
  8
1
 10
25.5091
 20
24.4261
 30
0.0000
  0
SEQEND
  8
0
  0
POLYLINE
  8
1
 66
1
 10
0.0000
 20
0.0000
 30
0.0000
 40
0.0762
 41
0.0762
 70
0
  0
VERTEX
  8
1
 10
25.2380
 20
24.4261
 30
0.0000
 42
1.0000
  0
VERTEX
  8
1
 10
25.2380
 20
24.3499
 30
0.0000
  0
SEQEND
  8
0
  0
POLYLINE
  8
1
 66
1
 10
0.0000
 20
0.0000
 30
0.0000
 40
0.1524
 41
0.1524
 70
0
  0
VERTEX
  8
1
 10
25.5091
 20
24.3880
 30
0.0000
  0
VERTEX
  8
1
 10
25.7803
 20
24.1168
 30
0.0000
  0
SEQEND
  8
0
  0
POLYLINE
  8
1
 66
1
 10
0.0000
 20
0.0000
 30
0.0000
 40
0.0762
 41
0.0762
 70
0
  0
VERTEX
  8
1
 10
25.7534
 20
24.0899
 30
0.0000
 42
1.0000
  0
VERTEX
  8
1
 10
25.8072
 20
24.1438
 30
0.0000
  0
SEQEND
  8
0
  0
POLYLINE
  8
1
 66
1
 10
0.0000
 20
0.0000
 30
0.0000
 40
0.0762
 41
0.0762
 70
0
  0
VERTEX
  8
1
 10
25.5361
 20
24.4150
 30
0.0000
 42
1.0000
  0
VERTEX
  8
1
 10
25.4822
 20
24.3611
 30
0.0000
  0
SEQEND
  8
0
  0
POLYLINE
  8
1
 66
1
 10
0.0000
 20
0.0000
 30
0.0000
 40
0.1524
 41
0.1524
 70
0
  0
VERTEX
  8
1
 10
25.7803
 20
24.1168
 30
0.0000
  0
VERTEX
  8
1
 10
26.0515
 20
24.3880
 30
0.0000
  0
SEQEND
  8
0
  0
POLYLINE
  8
1
 66
1
 10
0.0000
 20
0.0000
 30
0.0000
 40
0.0762
 41
0.0762
 70
0
  0
VERTEX
  8
1
 10
26.0784
 20
24.3611
 30
0.0000
 42
1.0000
  0
VERTEX
  8
1
 10
26.0245
 20
24.4150
 30
0.0000
  0
SEQEND
  8
0
  0
POLYLINE
  8
1
 66
1
 10
0.0000
 20
0.0000
 30
0.0000
 40
0.0762
 41
0.0762
 70
0
  0
VERTEX
  8
1
 10
25.7534
 20
24.1438
 30
0.0000
 42
1.0000
  0
VERTEX
  8
1
 10
25.8072
 20
24.0899
 30
0.0000
  0
SEQEND
  8
0
  0
POLYLINE
  8
1
 66
1
 10
0.0000
 20
0.0000
 30
0.0000
 40
0.1524
 41
0.1524
 70
0
  0
VERTEX
  8
1
 10
26.0515
 20
24.3880
 30
0.0000
  0
VERTEX
  8
1
 10
26.3226
 20
24.3880
 30
0.0000
  0
SEQEND
  8
0
  0
POLYLINE
  8
1
 66
1
 10
0.0000
 20
0.0000
 30
0.0000
 40
0.0762
 41
0.0762
 70
0
  0
VERTEX
  8
1
 10
26.3226
 20
24.3499
 30
0.0000
 42
1.0000
  0
VERTEX
  8
1
 10
26.3226
 20
24.4261
 30
0.0000
  0
SEQEND
  8
0
  0
POLYLINE
  8
1
 66
1
 10
0.0000
 20
0.0000
 30
0.0000
 40
0.0762
 41
0.0762
 70
0
  0
VERTEX
  8
1
 10
26.0515
 20
24.4261
 30
0.0000
 42
1.0000
  0
VERTEX
  8
1
 10
26.0515
 20
24.3499
 30
0.0000
  0
SEQEND
  8
0
  0
POLYLINE
  8
1
 66
1
 10
0.0000
 20
0.0000
 30
0.0000
 40
0.1524
 41
0.1524
 70
0
  0
VERTEX
  8
1
 10
26.3226
 20
24.3880
 30
0.0000
  0
VERTEX
  8
1
 10
26.5938
 20
24.1168
 30
0.0000
  0
SEQEND
  8
0
  0
POLYLINE
  8
1
 66
1
 10
0.0000
 20
0.0000
 30
0.0000
 40
0.0762
 41
0.0762
 70
0
  0
VERTEX
  8
1
 10
26.5669
 20
24.0899
 30
0.0000
 42
1.0000
  0
VERTEX
  8
1
 10
26.6207
 20
24.1438
 30
0.0000
  0
SEQEND
  8
0
  0
POLYLINE
  8
1
 66
1
 10
0.0000
 20
0.0000
 30
0.0000
 40
0.0762
 41
0.0762
 70
0
  0
VERTEX
  8
1
 10
26.3496
 20
24.4150
 30
0.0000
 42
1.0000
  0
VERTEX
  8
1
 10
26.2957
 20
24.3611
 30
0.0000
  0
SEQEND
  8
0
  0
POLYLINE
  8
1
 66
1
 10
0.0000
 20
0.0000
 30
0.0000
 40
0.1524
 41
0.1524
 70
0
  0
VERTEX
  8
1
 10
26.5938
 20
24.1168
 30
0.0000
  0
VERTEX
  8
1
 10
26.5938
 20
23.3034
 30
0.0000
  0
SEQEND
  8
0
  0
POLYLINE
  8
1
 66
1
 10
0.0000
 20
0.0000
 30
0.0000
 40
0.0762
 41
0.0762
 70
0
  0
VERTEX
  8
1
 10
26.5557
 20
23.3034
 30
0.0000
 42
1.0000
  0
VERTEX
  8
1
 10
26.6319
 20
23.3034
 30
0.0000
  0
SEQEND
  8
0
  0
POLYLINE
  8
1
 66
1
 10
0.0000
 20
0.0000
 30
0.0000
 40
0.0762
 41
0.0762
 70
0
  0
VERTEX
  8
1
 10
26.6319
 20
24.1168
 30
0.0000
 42
1.0000
  0
VERTEX
  8
1
 10
26.5557
 20
24.1168
 30
0.0000
  0
SEQEND
  8
0
  0
POLYLINE
  8
1
 66
1
 10
0.0000
 20
0.0000
 30
0.0000
 40
0.1524
 41
0.1524
 70
0
  0
VERTEX
  8
1
 10
25.7803
 20
23.3034
 30
0.0000
  0
VERTEX
  8
1
 10
25.7803
 20
24.1168
 30
0.0000
  0
SEQEND
  8
0
  0
POLYLINE
  8
1
 66
1
 10
0.0000
 20
0.0000
 30
0.0000
 40
0.0762
 41
0.0762
 70
0
  0
VERTEX
  8
1
 10
25.8184
 20
24.1168
 30
0.0000
 42
1.0000
  0
VERTEX
  8
1
 10
25.7422
 20
24.1168
 30
0.0000
  0
SEQEND
  8
0
  0
POLYLINE
  8
1
 66
1
 10
0.0000
 20
0.0000
 30
0.0000
 40
0.0762
 41
0.0762
 70
0
  0
VERTEX
  8
1
 10
25.7422
 20
23.3034
 30
0.0000
 42
1.0000
  0
VERTEX
  8
1
 10
25.8184
 20
23.3034
 30
0.0000
  0
SEQEND
  8
0
  0
POLYLINE
  8
1
 66
1
 10
0.0000
 20
0.0000
 30
0.0000
 40
0.1524
 41
0.1524
 70
0
  0
VERTEX
  8
1
 10
26.5938
 20
24.9405
 30
0.0000
  0
VERTEX
  8
1
 10
24.9668
 20
24.9405
 30
0.0000
  0
SEQEND
  8
0
  0
POLYLINE
  8
1
 66
1
 10
0.0000
 20
0.0000
 30
0.0000
 40
0.0762
 41
0.0762
 70
0
  0
VERTEX
  8
1
 10
24.9668
 20
24.9786
 30
0.0000
 42
1.0000
  0
VERTEX
  8
1
 10
24.9668
 20
24.9024
 30
0.0000
  0
SEQEND
  8
0
  0
POLYLINE
  8
1
 66
1
 10
0.0000
 20
0.0000
 30
0.0000
 40
0.0762
 41
0.0762
 70
0
  0
VERTEX
  8
1
 10
26.5938
 20
24.9024
 30
0.0000
 42
1.0000
  0
VERTEX
  8
1
 10
26.5938
 20
24.9786
 30
0.0000
  0
SEQEND
  8
0
  0
POLYLINE
  8
1
 66
1
 10
0.0000
 20
0.0000
 30
0.0000
 40
0.1524
 41
0.1524
 70
0
  0
VERTEX
  8
1
 10
24.9668
 20
24.9405
 30
0.0000
  0
VERTEX
  8
1
 10
26.5938
 20
26.0252
 30
0.0000
  0
SEQEND
  8
0
  0
POLYLINE
  8
1
 66
1
 10
0.0000
 20
0.0000
 30
0.0000
 40
0.0762
 41
0.0762
 70
0
  0
VERTEX
  8
1
 10
26.6149
 20
25.9935
 30
0.0000
 42
1.0000
  0
VERTEX
  8
1
 10
26.5727
 20
26.0569
 30
0.0000
  0
SEQEND
  8
0
  0
POLYLINE
  8
1
 66
1
 10
0.0000
 20
0.0000
 30
0.0000
 40
0.0762
 41
0.0762
 70
0
  0
VERTEX
  8
1
 10
24.9457
 20
24.9722
 30
0.0000
 42
1.0000
  0
VERTEX
  8
1
 10
24.9879
 20
24.9088
 30
0.0000
  0
SEQEND
  8
0
  0
POLYLINE
  8
1
 66
1
 10
0.0000
 20
0.0000
 30
0.0000
 40
0.1524
 41
0.1524
 70
0
  0
VERTEX
  8
1
 10
26.5938
 20
26.0252
 30
0.0000
  0
VERTEX
  8
1
 10
24.9668
 20
26.0252
 30
0.0000
  0
SEQEND
  8
0
  0
POLYLINE
  8
1
 66
1
 10
0.0000
 20
0.0000
 30
0.0000
 40
0.0762
 41
0.0762
 70
0
  0
VERTEX
  8
1
 10
24.9668
 20
26.0633
 30
0.0000
 42
1.0000
  0
VERTEX
  8
1
 10
24.9668
 20
25.9871
 30
0.0000
  0
SEQEND
  8
0
  0
POLYLINE
  8
1
 66
1
 10
0.0000
 20
0.0000
 30
0.0000
 40
0.0762
 41
0.0762
 70
0
  0
VERTEX
  8
1
 10
26.5938
 20
25.9871
 30
0.0000
 42
1.0000
  0
VERTEX
  8
1
 10
26.5938
 20
26.0633
 30
0.0000
  0
SEQEND
  8
0
  0
POLYLINE
  8
1
 66
1
 10
0.0000
 20
0.0000
 30
0.0000
 40
0.1524
 41
0.1524
 70
0
  0
VERTEX
  8
1
 10
26.5938
 20
26.5777
 30
0.0000
  0
VERTEX
  8
1
 10
24.9668
 20
27.6623
 30
0.0000
  0
SEQEND
  8
0
  0
POLYLINE
  8
1
 66
1
 10
0.0000
 20
0.0000
 30
0.0000
 40
0.0762
 41
0.0762
 70
0
  0
VERTEX
  8
1
 10
24.9879
 20
27.6940
 30
0.0000
 42
1.0000
  0
VERTEX
  8
1
 10
24.9457
 20
27.6306
 30
0.0000
  0
SEQEND
  8
0
  0
POLYLINE
  8
1
 66
1
 10
0.0000
 20
0.0000
 30
0.0000
 40
0.0762
 41
0.0762
 70
0
  0
VERTEX
  8
1
 10
26.5727
 20
26.5460
 30
0.0000
 42
1.0000
  0
VERTEX
  8
1
 10
26.6149
 20
26.6094
 30
0.0000
  0
SEQEND
  8
0
  0
POLYLINE
  8
1
 66
1
 10
0.0000
 20
0.0000
 30
0.0000
 40
0.1524
 41
0.1524
 70
0
  0
VERTEX
  8
1
 10
25.5091
 20
28.4860
 30
0.0000
  0
VERTEX
  8
1
 10
25.5091
 20
29.0283
 30
0.0000
  0
SEQEND
  8
0
  0
POLYLINE
  8
1
 66
1
 10
0.0000
 20
0.0000
 30
0.0000
 40
0.0762
 41
0.0762
 70
0
  0
VERTEX
  8
1
 10
25.5472
 20
29.0283
 30
0.0000
 42
1.0000
  0
VERTEX
  8
1
 10
25.4710
 20
29.0283
 30
0.0000
  0
SEQEND
  8
0
  0
POLYLINE
  8
1
 66
1
 10
0.0000
 20
0.0000
 30
0.0000
 40
0.0762
 41
0.0762
 70
0
  0
VERTEX
  8
1
 10
25.4710
 20
28.4860
 30
0.0000
 42
1.0000
  0
VERTEX
  8
1
 10
25.5472
 20
28.4860
 30
0.0000
  0
SEQEND
  8
0
  0
POLYLINE
  8
1
 66
1
 10
0.0000
 20
0.0000
 30
0.0000
 40
0.1524
 41
0.1524
 70
0
  0
VERTEX
  8
1
 10
25.5091
 20
29.0283
 30
0.0000
  0
VERTEX
  8
1
 10
25.7803
 20
29.2995
 30
0.0000
  0
SEQEND
  8
0
  0
POLYLINE
  8
1
 66
1
 10
0.0000
 20
0.0000
 30
0.0000
 40
0.0762
 41
0.0762
 70
0
  0
VERTEX
  8
1
 10
25.8072
 20
29.2725
 30
0.0000
 42
1.0000
  0
VERTEX
  8
1
 10
25.7534
 20
29.3264
 30
0.0000
  0
SEQEND
  8
0
  0
POLYLINE
  8
1
 66
1
 10
0.0000
 20
0.0000
 30
0.0000
 40
0.0762
 41
0.0762
 70
0
  0
VERTEX
  8
1
 10
25.4822
 20
29.0553
 30
0.0000
 42
1.0000
  0
VERTEX
  8
1
 10
25.5361
 20
29.0014
 30
0.0000
  0
SEQEND
  8
0
  0
POLYLINE
  8
1
 66
1
 10
0.0000
 20
0.0000
 30
0.0000
 40
0.1524
 41
0.1524
 70
0
  0
VERTEX
  8
1
 10
25.7803
 20
29.2995
 30
0.0000
  0
VERTEX
  8
1
 10
26.5938
 20
29.2995
 30
0.0000
  0
SEQEND
  8
0
  0
POLYLINE
  8
1
 66
1
 10
0.0000
 20
0.0000
 30
0.0000
 40
0.0762
 41
0.0762
 70
0
  0
VERTEX
  8
1
 10
26.5938
 20
29.2614
 30
0.0000
 42
1.0000
  0
VERTEX
  8
1
 10
26.5938
 20
29.3376
 30
0.0000
  0
SEQEND
  8
0
  0
POLYLINE
  8
1
 66
1
 10
0.0000
 20
0.0000
 30
0.0000
 40
0.0762
 41
0.0762
 70
0
  0
VERTEX
  8
1
 10
25.7803
 20
29.3376
 30
0.0000
 42
1.0000
  0
VERTEX
  8
1
 10
25.7803
 20
29.2614
 30
0.0000
  0
SEQEND
  8
0
  0
POLYLINE
  8
1
 66
1
 10
0.0000
 20
0.0000
 30
0.0000
 40
0.1524
 41
0.1524
 70
0
  0
VERTEX
  8
1
 10
26.5938
 20
29.2995
 30
0.0000
  0
VERTEX
  8
1
 10
26.5938
 20
28.4860
 30
0.0000
  0
SEQEND
  8
0
  0
POLYLINE
  8
1
 66
1
 10
0.0000
 20
0.0000
 30
0.0000
 40
0.0762
 41
0.0762
 70
0
  0
VERTEX
  8
1
 10
26.5557
 20
28.4860
 30
0.0000
 42
1.0000
  0
VERTEX
  8
1
 10
26.6319
 20
28.4860
 30
0.0000
  0
SEQEND
  8
0
  0
POLYLINE
  8
1
 66
1
 10
0.0000
 20
0.0000
 30
0.0000
 40
0.0762
 41
0.0762
 70
0
  0
VERTEX
  8
1
 10
26.6319
 20
29.2995
 30
0.0000
 42
1.0000
  0
VERTEX
  8
1
 10
26.5557
 20
29.2995
 30
0.0000
  0
SEQEND
  8
0
  0
POLYLINE
  8
1
 66
1
 10
0.0000
 20
0.0000
 30
0.0000
 40
0.1524
 41
0.1524
 70
0
  0
VERTEX
  8
1
 10
26.5938
 20
28.4860
 30
0.0000
  0
VERTEX
  8
1
 10
26.3226
 20
28.2148
 30
0.0000
  0
SEQEND
  8
0
  0
POLYLINE
  8
1
 66
1
 10
0.0000
 20
0.0000
 30
0.0000
 40
0.0762
 41
0.0762
 70
0
  0
VERTEX
  8
1
 10
26.2957
 20
28.2418
 30
0.0000
 42
1.0000
  0
VERTEX
  8
1
 10
26.3496
 20
28.1879
 30
0.0000
  0
SEQEND
  8
0
  0
POLYLINE
  8
1
 66
1
 10
0.0000
 20
0.0000
 30
0.0000
 40
0.0762
 41
0.0762
 70
0
  0
VERTEX
  8
1
 10
26.6207
 20
28.4590
 30
0.0000
 42
1.0000
  0
VERTEX
  8
1
 10
26.5669
 20
28.5129
 30
0.0000
  0
SEQEND
  8
0
  0
POLYLINE
  8
1
 66
1
 10
0.0000
 20
0.0000
 30
0.0000
 40
0.1524
 41
0.1524
 70
0
  0
VERTEX
  8
1
 10
26.3226
 20
28.2148
 30
0.0000
  0
VERTEX
  8
1
 10
26.0515
 20
28.4860
 30
0.0000
  0
SEQEND
  8
0
  0
POLYLINE
  8
1
 66
1
 10
0.0000
 20
0.0000
 30
0.0000
 40
0.0762
 41
0.0762
 70
0
  0
VERTEX
  8
1
 10
26.0784
 20
28.5129
 30
0.0000
 42
1.0000
  0
VERTEX
  8
1
 10
26.0245
 20
28.4590
 30
0.0000
  0
SEQEND
  8
0
  0
POLYLINE
  8
1
 66
1
 10
0.0000
 20
0.0000
 30
0.0000
 40
0.0762
 41
0.0762
 70
0
  0
VERTEX
  8
1
 10
26.2957
 20
28.1879
 30
0.0000
 42
1.0000
  0
VERTEX
  8
1
 10
26.3496
 20
28.2418
 30
0.0000
  0
SEQEND
  8
0
  0
POLYLINE
  8
1
 66
1
 10
0.0000
 20
0.0000
 30
0.0000
 40
0.1524
 41
0.1524
 70
0
  0
VERTEX
  8
1
 10
26.0515
 20
28.4860
 30
0.0000
  0
VERTEX
  8
1
 10
26.0515
 20
29.2995
 30
0.0000
  0
SEQEND
  8
0
  0
POLYLINE
  8
1
 66
1
 10
0.0000
 20
0.0000
 30
0.0000
 40
0.0762
 41
0.0762
 70
0
  0
VERTEX
  8
1
 10
26.0896
 20
29.2995
 30
0.0000
 42
1.0000
  0
VERTEX
  8
1
 10
26.0134
 20
29.2995
 30
0.0000
  0
SEQEND
  8
0
  0
POLYLINE
  8
1
 66
1
 10
0.0000
 20
0.0000
 30
0.0000
 40
0.0762
 41
0.0762
 70
0
  0
VERTEX
  8
1
 10
26.0134
 20
28.4860
 30
0.0000
 42
1.0000
  0
VERTEX
  8
1
 10
26.0896
 20
28.4860
 30
0.0000
  0
SEQEND
  8
0
  0
POLYLINE
  8
1
 66
1
 10
0.0000
 20
0.0000
 30
0.0000
 40
0.1524
 41
0.1524
 70
0
  0
VERTEX
  8
1
 10
25.2380
 20
30.1231
 30
0.0000
  0
VERTEX
  8
1
 10
26.3226
 20
30.1231
 30
0.0000
  0
SEQEND
  8
0
  0
POLYLINE
  8
1
 66
1
 10
0.0000
 20
0.0000
 30
0.0000
 40
0.0762
 41
0.0762
 70
0
  0
VERTEX
  8
1
 10
26.3226
 20
30.0850
 30
0.0000
 42
1.0000
  0
VERTEX
  8
1
 10
26.3226
 20
30.1612
 30
0.0000
  0
SEQEND
  8
0
  0
POLYLINE
  8
1
 66
1
 10
0.0000
 20
0.0000
 30
0.0000
 40
0.0762
 41
0.0762
 70
0
  0
VERTEX
  8
1
 10
25.2380
 20
30.1612
 30
0.0000
 42
1.0000
  0
VERTEX
  8
1
 10
25.2380
 20
30.0850
 30
0.0000
  0
SEQEND
  8
0
  0
POLYLINE
  8
1
 66
1
 10
0.0000
 20
0.0000
 30
0.0000
 40
0.1524
 41
0.1524
 70
0
  0
VERTEX
  8
1
 10
26.3226
 20
30.1231
 30
0.0000
  0
VERTEX
  8
1
 10
26.5938
 20
30.3943
 30
0.0000
  0
SEQEND
  8
0
  0
POLYLINE
  8
1
 66
1
 10
0.0000
 20
0.0000
 30
0.0000
 40
0.0762
 41
0.0762
 70
0
  0
VERTEX
  8
1
 10
26.6207
 20
30.3674
 30
0.0000
 42
1.0000
  0
VERTEX
  8
1
 10
26.5669
 20
30.4212
 30
0.0000
  0
SEQEND
  8
0
  0
POLYLINE
  8
1
 66
1
 10
0.0000
 20
0.0000
 30
0.0000
 40
0.0762
 41
0.0762
 70
0
  0
VERTEX
  8
1
 10
26.2957
 20
30.1501
 30
0.0000
 42
1.0000
  0
VERTEX
  8
1
 10
26.3496
 20
30.0962
 30
0.0000
  0
SEQEND
  8
0
  0
POLYLINE
  8
1
 66
1
 10
0.0000
 20
0.0000
 30
0.0000
 40
0.1524
 41
0.1524
 70
0
  0
VERTEX
  8
1
 10
25.5091
 20
29.8520
 30
0.0000
  0
VERTEX
  8
1
 10
25.5091
 20
30.3943
 30
0.0000
  0
SEQEND
  8
0
  0
POLYLINE
  8
1
 66
1
 10
0.0000
 20
0.0000
 30
0.0000
 40
0.0762
 41
0.0762
 70
0
  0
VERTEX
  8
1
 10
25.5472
 20
30.3943
 30
0.0000
 42
1.0000
  0
VERTEX
  8
1
 10
25.4710
 20
30.3943
 30
0.0000
  0
SEQEND
  8
0
  0
POLYLINE
  8
1
 66
1
 10
0.0000
 20
0.0000
 30
0.0000
 40
0.0762
 41
0.0762
 70
0
  0
VERTEX
  8
1
 10
25.4710
 20
29.8520
 30
0.0000
 42
1.0000
  0
VERTEX
  8
1
 10
25.5472
 20
29.8520
 30
0.0000
  0
SEQEND
  8
0
  0
POLYLINE
  8
1
 66
1
 10
0.0000
 20
0.0000
 30
0.0000
 40
0.1524
 41
0.1524
 70
0
  0
VERTEX
  8
1
 10
25.2380
 20
31.2146
 30
0.0000
  0
VERTEX
  8
1
 10
26.3226
 20
31.2146
 30
0.0000
  0
SEQEND
  8
0
  0
POLYLINE
  8
1
 66
1
 10
0.0000
 20
0.0000
 30
0.0000
 40
0.0762
 41
0.0762
 70
0
  0
VERTEX
  8
1
 10
26.3226
 20
31.1765
 30
0.0000
 42
1.0000
  0
VERTEX
  8
1
 10
26.3226
 20
31.2527
 30
0.0000
  0
SEQEND
  8
0
  0
POLYLINE
  8
1
 66
1
 10
0.0000
 20
0.0000
 30
0.0000
 40
0.0762
 41
0.0762
 70
0
  0
VERTEX
  8
1
 10
25.2380
 20
31.2527
 30
0.0000
 42
1.0000
  0
VERTEX
  8
1
 10
25.2380
 20
31.1765
 30
0.0000
  0
SEQEND
  8
0
  0
POLYLINE
  8
1
 66
1
 10
0.0000
 20
0.0000
 30
0.0000
 40
0.1524
 41
0.1524
 70
0
  0
VERTEX
  8
1
 10
26.3226
 20
31.2146
 30
0.0000
  0
VERTEX
  8
1
 10
26.5938
 20
31.4857
 30
0.0000
  0
SEQEND
  8
0
  0
POLYLINE
  8
1
 66
1
 10
0.0000
 20
0.0000
 30
0.0000
 40
0.0762
 41
0.0762
 70
0
  0
VERTEX
  8
1
 10
26.6207
 20
31.4588
 30
0.0000
 42
1.0000
  0
VERTEX
  8
1
 10
26.5669
 20
31.5127
 30
0.0000
  0
SEQEND
  8
0
  0
POLYLINE
  8
1
 66
1
 10
0.0000
 20
0.0000
 30
0.0000
 40
0.0762
 41
0.0762
 70
0
  0
VERTEX
  8
1
 10
26.2957
 20
31.2415
 30
0.0000
 42
1.0000
  0
VERTEX
  8
1
 10
26.3496
 20
31.1876
 30
0.0000
  0
SEQEND
  8
0
  0
POLYLINE
  8
1
 66
1
 10
0.0000
 20
0.0000
 30
0.0000
 40
0.1524
 41
0.1524
 70
0
  0
VERTEX
  8
1
 10
25.5091
 20
30.9434
 30
0.0000
  0
VERTEX
  8
1
 10
25.5091
 20
31.4857
 30
0.0000
  0
SEQEND
  8
0
  0
POLYLINE
  8
1
 66
1
 10
0.0000
 20
0.0000
 30
0.0000
 40
0.0762
 41
0.0762
 70
0
  0
VERTEX
  8
1
 10
25.5472
 20
31.4857
 30
0.0000
 42
1.0000
  0
VERTEX
  8
1
 10
25.4710
 20
31.4857
 30
0.0000
  0
SEQEND
  8
0
  0
POLYLINE
  8
1
 66
1
 10
0.0000
 20
0.0000
 30
0.0000
 40
0.0762
 41
0.0762
 70
0
  0
VERTEX
  8
1
 10
25.4710
 20
30.9434
 30
0.0000
 42
1.0000
  0
VERTEX
  8
1
 10
25.5472
 20
30.9434
 30
0.0000
  0
SEQEND
  8
0
  0
POLYLINE
  8
1
 66
1
 10
0.0000
 20
0.0000
 30
0.0000
 40
0.1524
 41
0.1524
 70
0
  0
VERTEX
  8
1
 10
26.5938
 20
32.8484
 30
0.0000
  0
VERTEX
  8
1
 10
24.9668
 20
32.8484
 30
0.0000
  0
SEQEND
  8
0
  0
POLYLINE
  8
1
 66
1
 10
0.0000
 20
0.0000
 30
0.0000
 40
0.0762
 41
0.0762
 70
0
  0
VERTEX
  8
1
 10
24.9668
 20
32.8865
 30
0.0000
 42
1.0000
  0
VERTEX
  8
1
 10
24.9668
 20
32.8103
 30
0.0000
  0
SEQEND
  8
0
  0
POLYLINE
  8
1
 66
1
 10
0.0000
 20
0.0000
 30
0.0000
 40
0.0762
 41
0.0762
 70
0
  0
VERTEX
  8
1
 10
26.5938
 20
32.8103
 30
0.0000
 42
1.0000
  0
VERTEX
  8
1
 10
26.5938
 20
32.8865
 30
0.0000
  0
SEQEND
  8
0
  0
POLYLINE
  8
1
 66
1
 10
0.0000
 20
0.0000
 30
0.0000
 40
0.1524
 41
0.1524
 70
0
  0
VERTEX
  8
1
 10
24.9668
 20
32.8484
 30
0.0000
  0
VERTEX
  8
1
 10
25.7803
 20
32.0349
 30
0.0000
  0
SEQEND
  8
0
  0
POLYLINE
  8
1
 66
1
 10
0.0000
 20
0.0000
 30
0.0000
 40
0.0762
 41
0.0762
 70
0
  0
VERTEX
  8
1
 10
25.7534
 20
32.0079
 30
0.0000
 42
1.0000
  0
VERTEX
  8
1
 10
25.8072
 20
32.0618
 30
0.0000
  0
SEQEND
  8
0
  0
POLYLINE
  8
1
 66
1
 10
0.0000
 20
0.0000
 30
0.0000
 40
0.0762
 41
0.0762
 70
0
  0
VERTEX
  8
1
 10
24.9938
 20
32.8753
 30
0.0000
 42
1.0000
  0
VERTEX
  8
1
 10
24.9399
 20
32.8214
 30
0.0000
  0
SEQEND
  8
0
  0
POLYLINE
  8
1
 66
1
 10
0.0000
 20
0.0000
 30
0.0000
 40
0.1524
 41
0.1524
 70
0
  0
VERTEX
  8
1
 10
25.7803
 20
32.0349
 30
0.0000
  0
VERTEX
  8
1
 10
25.7803
 20
33.1195
 30
0.0000
  0
SEQEND
  8
0
  0
POLYLINE
  8
1
 66
1
 10
0.0000
 20
0.0000
 30
0.0000
 40
0.0762
 41
0.0762
 70
0
  0
VERTEX
  8
1
 10
25.8184
 20
33.1195
 30
0.0000
 42
1.0000
  0
VERTEX
  8
1
 10
25.7422
 20
33.1195
 30
0.0000
  0
SEQEND
  8
0
  0
POLYLINE
  8
1
 66
1
 10
0.0000
 20
0.0000
 30
0.0000
 40
0.0762
 41
0.0762
 70
0
  0
VERTEX
  8
1
 10
25.7422
 20
32.0349
 30
0.0000
 42
1.0000
  0
VERTEX
  8
1
 10
25.8184
 20
32.0349
 30
0.0000
  0
SEQEND
  8
0
  0
POLYLINE
  8
1
 66
1
 10
0.0000
 20
0.0000
 30
0.0000
 40
0.1524
 41
0.1524
 70
0
  0
VERTEX
  8
1
 10
24.9668
 20
34.7567
 30
0.0000
  0
VERTEX
  8
1
 10
24.9668
 20
33.6720
 30
0.0000
  0
SEQEND
  8
0
  0
POLYLINE
  8
1
 66
1
 10
0.0000
 20
0.0000
 30
0.0000
 40
0.0762
 41
0.0762
 70
0
  0
VERTEX
  8
1
 10
24.9287
 20
33.6720
 30
0.0000
 42
1.0000
  0
VERTEX
  8
1
 10
25.0049
 20
33.6720
 30
0.0000
  0
SEQEND
  8
0
  0
POLYLINE
  8
1
 66
1
 10
0.0000
 20
0.0000
 30
0.0000
 40
0.0762
 41
0.0762
 70
0
  0
VERTEX
  8
1
 10
25.0049
 20
34.7567
 30
0.0000
 42
1.0000
  0
VERTEX
  8
1
 10
24.9287
 20
34.7567
 30
0.0000
  0
SEQEND
  8
0
  0
POLYLINE
  8
1
 66
1
 10
0.0000
 20
0.0000
 30
0.0000
 40
0.1524
 41
0.1524
 70
0
  0
VERTEX
  8
1
 10
24.9668
 20
33.6720
 30
0.0000
  0
VERTEX
  8
1
 10
25.7803
 20
33.6720
 30
0.0000
  0
SEQEND
  8
0
  0
POLYLINE
  8
1
 66
1
 10
0.0000
 20
0.0000
 30
0.0000
 40
0.0762
 41
0.0762
 70
0
  0
VERTEX
  8
1
 10
25.7803
 20
33.6339
 30
0.0000
 42
1.0000
  0
VERTEX
  8
1
 10
25.7803
 20
33.7101
 30
0.0000
  0
SEQEND
  8
0
  0
POLYLINE
  8
1
 66
1
 10
0.0000
 20
0.0000
 30
0.0000
 40
0.0762
 41
0.0762
 70
0
  0
VERTEX
  8
1
 10
24.9668
 20
33.7101
 30
0.0000
 42
1.0000
  0
VERTEX
  8
1
 10
24.9668
 20
33.6339
 30
0.0000
  0
SEQEND
  8
0
  0
POLYLINE
  8
1
 66
1
 10
0.0000
 20
0.0000
 30
0.0000
 40
0.1524
 41
0.1524
 70
0
  0
VERTEX
  8
1
 10
25.7803
 20
33.6720
 30
0.0000
  0
VERTEX
  8
1
 10
25.5091
 20
34.2143
 30
0.0000
  0
SEQEND
  8
0
  0
POLYLINE
  8
1
 66
1
 10
0.0000
 20
0.0000
 30
0.0000
 40
0.0762
 41
0.0762
 70
0
  0
VERTEX
  8
1
 10
25.5432
 20
34.2314
 30
0.0000
 42
1.0000
  0
VERTEX
  8
1
 10
25.4751
 20
34.1973
 30
0.0000
  0
SEQEND
  8
0
  0
POLYLINE
  8
1
 66
1
 10
0.0000
 20
0.0000
 30
0.0000
 40
0.0762
 41
0.0762
 70
0
  0
VERTEX
  8
1
 10
25.7462
 20
33.6550
 30
0.0000
 42
1.0000
  0
VERTEX
  8
1
 10
25.8144
 20
33.6891
 30
0.0000
  0
SEQEND
  8
0
  0
POLYLINE
  8
1
 66
1
 10
0.0000
 20
0.0000
 30
0.0000
 40
0.1524
 41
0.1524
 70
0
  0
VERTEX
  8
1
 10
25.5091
 20
34.2143
 30
0.0000
  0
VERTEX
  8
1
 10
25.5091
 20
34.4855
 30
0.0000
  0
SEQEND
  8
0
  0
POLYLINE
  8
1
 66
1
 10
0.0000
 20
0.0000
 30
0.0000
 40
0.0762
 41
0.0762
 70
0
  0
VERTEX
  8
1
 10
25.5472
 20
34.4855
 30
0.0000
 42
1.0000
  0
VERTEX
  8
1
 10
25.4710
 20
34.4855
 30
0.0000
  0
SEQEND
  8
0
  0
POLYLINE
  8
1
 66
1
 10
0.0000
 20
0.0000
 30
0.0000
 40
0.0762
 41
0.0762
 70
0
  0
VERTEX
  8
1
 10
25.4710
 20
34.2143
 30
0.0000
 42
1.0000
  0
VERTEX
  8
1
 10
25.5472
 20
34.2143
 30
0.0000
  0
SEQEND
  8
0
  0
POLYLINE
  8
1
 66
1
 10
0.0000
 20
0.0000
 30
0.0000
 40
0.1524
 41
0.1524
 70
0
  0
VERTEX
  8
1
 10
25.5091
 20
34.4855
 30
0.0000
  0
VERTEX
  8
1
 10
25.7803
 20
34.7567
 30
0.0000
  0
SEQEND
  8
0
  0
POLYLINE
  8
1
 66
1
 10
0.0000
 20
0.0000
 30
0.0000
 40
0.0762
 41
0.0762
 70
0
  0
VERTEX
  8
1
 10
25.8072
 20
34.7297
 30
0.0000
 42
1.0000
  0
VERTEX
  8
1
 10
25.7534
 20
34.7836
 30
0.0000
  0
SEQEND
  8
0
  0
POLYLINE
  8
1
 66
1
 10
0.0000
 20
0.0000
 30
0.0000
 40
0.0762
 41
0.0762
 70
0
  0
VERTEX
  8
1
 10
25.4822
 20
34.5124
 30
0.0000
 42
1.0000
  0
VERTEX
  8
1
 10
25.5361
 20
34.4586
 30
0.0000
  0
SEQEND
  8
0
  0
POLYLINE
  8
1
 66
1
 10
0.0000
 20
0.0000
 30
0.0000
 40
0.1524
 41
0.1524
 70
0
  0
VERTEX
  8
1
 10
25.7803
 20
34.7567
 30
0.0000
  0
VERTEX
  8
1
 10
26.3226
 20
34.7567
 30
0.0000
  0
SEQEND
  8
0
  0
POLYLINE
  8
1
 66
1
 10
0.0000
 20
0.0000
 30
0.0000
 40
0.0762
 41
0.0762
 70
0
  0
VERTEX
  8
1
 10
26.3226
 20
34.7186
 30
0.0000
 42
1.0000
  0
VERTEX
  8
1
 10
26.3226
 20
34.7948
 30
0.0000
  0
SEQEND
  8
0
  0
POLYLINE
  8
1
 66
1
 10
0.0000
 20
0.0000
 30
0.0000
 40
0.0762
 41
0.0762
 70
0
  0
VERTEX
  8
1
 10
25.7803
 20
34.7948
 30
0.0000
 42
1.0000
  0
VERTEX
  8
1
 10
25.7803
 20
34.7186
 30
0.0000
  0
SEQEND
  8
0
  0
POLYLINE
  8
1
 66
1
 10
0.0000
 20
0.0000
 30
0.0000
 40
0.1524
 41
0.1524
 70
0
  0
VERTEX
  8
1
 10
26.3226
 20
34.7567
 30
0.0000
  0
VERTEX
  8
1
 10
26.5938
 20
34.4855
 30
0.0000
  0
SEQEND
  8
0
  0
POLYLINE
  8
1
 66
1
 10
0.0000
 20
0.0000
 30
0.0000
 40
0.0762
 41
0.0762
 70
0
  0
VERTEX
  8
1
 10
26.5669
 20
34.4586
 30
0.0000
 42
1.0000
  0
VERTEX
  8
1
 10
26.6207
 20
34.5124
 30
0.0000
  0
SEQEND
  8
0
  0
POLYLINE
  8
1
 66
1
 10
0.0000
 20
0.0000
 30
0.0000
 40
0.0762
 41
0.0762
 70
0
  0
VERTEX
  8
1
 10
26.3496
 20
34.7836
 30
0.0000
 42
1.0000
  0
VERTEX
  8
1
 10
26.2957
 20
34.7297
 30
0.0000
  0
SEQEND
  8
0
  0
POLYLINE
  8
1
 66
1
 10
0.0000
 20
0.0000
 30
0.0000
 40
0.1524
 41
0.1524
 70
0
  0
VERTEX
  8
1
 10
26.5938
 20
34.4855
 30
0.0000
  0
VERTEX
  8
1
 10
26.5938
 20
33.9432
 30
0.0000
  0
SEQEND
  8
0
  0
POLYLINE
  8
1
 66
1
 10
0.0000
 20
0.0000
 30
0.0000
 40
0.0762
 41
0.0762
 70
0
  0
VERTEX
  8
1
 10
26.5557
 20
33.9432
 30
0.0000
 42
1.0000
  0
VERTEX
  8
1
 10
26.6319
 20
33.9432
 30
0.0000
  0
SEQEND
  8
0
  0
POLYLINE
  8
1
 66
1
 10
0.0000
 20
0.0000
 30
0.0000
 40
0.0762
 41
0.0762
 70
0
  0
VERTEX
  8
1
 10
26.6319
 20
34.4855
 30
0.0000
 42
1.0000
  0
VERTEX
  8
1
 10
26.5557
 20
34.4855
 30
0.0000
  0
SEQEND
  8
0
  0
POLYLINE
  8
1
 66
1
 10
0.0000
 20
0.0000
 30
0.0000
 40
0.1524
 41
0.1524
 70
0
  0
VERTEX
  8
1
 10
26.5938
 20
33.9432
 30
0.0000
  0
VERTEX
  8
1
 10
26.3226
 20
33.6720
 30
0.0000
  0
SEQEND
  8
0
  0
POLYLINE
  8
1
 66
1
 10
0.0000
 20
0.0000
 30
0.0000
 40
0.0762
 41
0.0762
 70
0
  0
VERTEX
  8
1
 10
26.2957
 20
33.6990
 30
0.0000
 42
1.0000
  0
VERTEX
  8
1
 10
26.3496
 20
33.6451
 30
0.0000
  0
SEQEND
  8
0
  0
POLYLINE
  8
1
 66
1
 10
0.0000
 20
0.0000
 30
0.0000
 40
0.0762
 41
0.0762
 70
0
  0
VERTEX
  8
1
 10
26.6207
 20
33.9162
 30
0.0000
 42
1.0000
  0
VERTEX
  8
1
 10
26.5669
 20
33.9701
 30
0.0000
  0
SEQEND
  8
0
  0
INSERT
  8
1
  2
RECT
 10
12.7000
 20
11.8110
 30
0.0000
 41
1.2700
 42
1.9050
 43
1.0000
 50
270.0000
  0
INSERT
  8
1
  2
RECT
 10
12.7000
 20
8.5090
 30
0.0000
 41
1.2700
 42
1.9050
 43
1.0000
 50
270.0000
  0
INSERT
  8
1
  2
RECT
 10
5.0800
 20
11.8110
 30
0.0000
 41
1.2700
 42
1.9050
 43
1.0000
 50
270.0000
  0
INSERT
  8
1
  2
RECT
 10
5.0800
 20
8.5090
 30
0.0000
 41
1.2700
 42
1.9050
 43
1.0000
 50
270.0000
  0
INSERT
  8
1
  2
RECT
 10
10.1600
 20
34.2900
 30
0.0000
 41
2.5400
 42
1.2700
 43
1.0000
 50
0.0000
  0
INSERT
  8
1
  2
RECT
 10
15.6200
 20
34.2900
 30
0.0000
 41
2.5400
 42
1.2700
 43
1.0000
 50
0.0000
  0
INSERT
  8
1
  2
RECT
 10
10.1600
 20
31.7500
 30
0.0000
 41
2.5400
 42
1.2700
 43
1.0000
 50
0.0000
  0
INSERT
  8
1
  2
RECT
 10
15.6200
 20
31.7500
 30
0.0000
 41
2.5400
 42
1.2700
 43
1.0000
 50
0.0000
  0
INSERT
  8
1
  2
RECT
 10
10.1600
 20
29.2100
 30
0.0000
 41
2.5400
 42
1.2700
 43
1.0000
 50
0.0000
  0
INSERT
  8
1
  2
RECT
 10
15.6200
 20
29.2100
 30
0.0000
 41
2.5400
 42
1.2700
 43
1.0000
 50
0.0000
  0
INSERT
  8
17
  2
LONGP100
 10
20.3200
 20
26.6700
 30
0.0000
 41
1.5240
 42
1.5240
 43
1.0000
 50
0.0000
  0
INSERT
  8
17
  2
LONGP100
 10
20.3200
 20
24.1300
 30
0.0000
 41
1.5240
 42
1.5240
 43
1.0000
 50
0.0000
  0
INSERT
  8
17
  2
LONGP100
 10
20.3200
 20
21.5900
 30
0.0000
 41
1.5240
 42
1.5240
 43
1.0000
 50
0.0000
  0
INSERT
  8
17
  2
LONGP100
 10
20.3200
 20
19.0500
 30
0.0000
 41
1.5240
 42
1.5240
 43
1.0000
 50
0.0000
  0
INSERT
  8
17
  2
LONGP100
 10
5.0800
 20
19.0500
 30
0.0000
 41
1.5240
 42
1.5240
 43
1.0000
 50
180.0000
  0
INSERT
  8
17
  2
LONGP100
 10
5.0800
 20
21.5900
 30
0.0000
 41
1.5240
 42
1.5240
 43
1.0000
 50
180.0000
  0
INSERT
  8
17
  2
LONGP100
 10
5.0800
 20
24.1300
 30
0.0000
 41
1.5240
 42
1.5240
 43
1.0000
 50
180.0000
  0
INSERT
  8
17
  2
LONGP100
 10
5.0800
 20
26.6700
 30
0.0000
 41
1.5240
 42
1.5240
 43
1.0000
 50
180.0000
  0
INSERT
  8
1
  2
RECT
 10
8.8900
 20
11.8110
 30
0.0000
 41
1.2700
 42
1.9050
 43
1.0000
 50
270.0000
  0
INSERT
  8
1
  2
RECT
 10
8.8900
 20
8.5090
 30
0.0000
 41
1.2700
 42
1.9050
 43
1.0000
 50
270.0000
  0
INSERT
  8
1
  2
RECT
 10
22.6060
 20
14.7320
 30
0.0000
 41
2.2860
 42
1.5240
 43
1.0000
 50
270.0000
  0
INSERT
  8
1
  2
RECT
 10
22.6060
 20
8.1280
 30
0.0000
 41
2.2860
 42
1.5240
 43
1.0000
 50
270.0000
  0
INSERT
  8
1
  2
RECT
 10
18.0340
 20
14.7320
 30
0.0000
 41
2.2860
 42
1.5240
 43
1.0000
 50
270.0000
  0
INSERT
  8
1
  2
RECT
 10
18.0340
 20
8.1280
 30
0.0000
 41
2.2860
 42
1.5240
 43
1.0000
 50
270.0000
  0
INSERT
  8
1
  2
RECT
 10
15.8540
 20
20.9550
 30
0.0000
 41
0.5000
 42
2.2000
 43
1.0000
 50
90.0000
  0
INSERT
  8
1
  2
RECT
 10
15.8540
 20
22.2150
 30
0.0000
 41
0.5000
 42
2.2000
 43
1.0000
 50
90.0000
  0
INSERT
  8
1
  2
RECT
 10
15.8540
 20
23.4850
 30
0.0000
 41
0.5000
 42
2.2000
 43
1.0000
 50
90.0000
  0
INSERT
  8
1
  2
RECT
 10
15.8540
 20
24.7550
 30
0.0000
 41
0.5000
 42
2.2000
 43
1.0000
 50
90.0000
  0
INSERT
  8
1
  2
RECT
 10
9.5460
 20
24.7650
 30
0.0000
 41
0.5000
 42
2.2000
 43
1.0000
 50
90.0000
  0
INSERT
  8
1
  2
RECT
 10
9.5460
 20
23.4950
 30
0.0000
 41
0.5000
 42
2.2000
 43
1.0000
 50
90.0000
  0
INSERT
  8
1
  2
RECT
 10
9.5460
 20
22.2250
 30
0.0000
 41
0.5000
 42
2.2000
 43
1.0000
 50
90.0000
  0
INSERT
  8
1
  2
RECT
 10
9.5460
 20
20.9550
 30
0.0000
 41
0.5000
 42
2.2000
 43
1.0000
 50
90.0000
  0
INSERT
  8
1
  2
RECT
 10
8.5090
 20
15.2400
 30
0.0000
 41
1.2700
 42
1.9050
 43
1.0000
 50
0.0000
  0
INSERT
  8
1
  2
RECT
 10
11.8110
 20
15.2400
 30
0.0000
 41
1.2700
 42
1.9050
 43
1.0000
 50
0.0000
  0
POLYLINE
  8
1
 66
1
 10
0.0000
 20
0.0000
 30
0.0000
 40
0.2540
 41
0.2540
 70
0
  0
VERTEX
  8
1
 10
7.3025
 20
14.2875
 30
0.0000
  0
VERTEX
  8
1
 10
5.0800
 20
12.0650
 30
0.0000
  0
SEQEND
  8
0
  0
POLYLINE
  8
1
 66
1
 10
0.0000
 20
0.0000
 30
0.0000
 40
0.1270
 41
0.1270
 70
0
  0
VERTEX
  8
1
 10
5.0351
 20
12.1099
 30
0.0000
 42
1.0000
  0
VERTEX
  8
1
 10
5.1249
 20
12.0201
 30
0.0000
  0
SEQEND
  8
0
  0
POLYLINE
  8
1
 66
1
 10
0.0000
 20
0.0000
 30
0.0000
 40
0.1270
 41
0.1270
 70
0
  0
VERTEX
  8
1
 10
7.3474
 20
14.2426
 30
0.0000
 42
1.0000
  0
VERTEX
  8
1
 10
7.2576
 20
14.3324
 30
0.0000
  0
SEQEND
  8
0
  0
POLYLINE
  8
1
 66
1
 10
0.0000
 20
0.0000
 30
0.0000
 40
0.2540
 41
0.2540
 70
0
  0
VERTEX
  8
1
 10
7.3025
 20
16.1925
 30
0.0000
  0
VERTEX
  8
1
 10
7.3025
 20
14.2875
 30
0.0000
  0
SEQEND
  8
0
  0
POLYLINE
  8
1
 66
1
 10
0.0000
 20
0.0000
 30
0.0000
 40
0.1270
 41
0.1270
 70
0
  0
VERTEX
  8
1
 10
7.2390
 20
14.2875
 30
0.0000
 42
1.0000
  0
VERTEX
  8
1
 10
7.3660
 20
14.2875
 30
0.0000
  0
SEQEND
  8
0
  0
POLYLINE
  8
1
 66
1
 10
0.0000
 20
0.0000
 30
0.0000
 40
0.1270
 41
0.1270
 70
0
  0
VERTEX
  8
1
 10
7.3660
 20
16.1925
 30
0.0000
 42
1.0000
  0
VERTEX
  8
1
 10
7.2390
 20
16.1925
 30
0.0000
  0
SEQEND
  8
0
  0
POLYLINE
  8
1
 66
1
 10
0.0000
 20
0.0000
 30
0.0000
 40
0.2540
 41
0.2540
 70
0
  0
VERTEX
  8
1
 10
7.9375
 20
16.8275
 30
0.0000
  0
VERTEX
  8
1
 10
7.3025
 20
16.1925
 30
0.0000
  0
SEQEND
  8
0
  0
POLYLINE
  8
1
 66
1
 10
0.0000
 20
0.0000
 30
0.0000
 40
0.1270
 41
0.1270
 70
0
  0
VERTEX
  8
1
 10
7.2576
 20
16.2374
 30
0.0000
 42
1.0000
  0
VERTEX
  8
1
 10
7.3474
 20
16.1476
 30
0.0000
  0
SEQEND
  8
0
  0
POLYLINE
  8
1
 66
1
 10
0.0000
 20
0.0000
 30
0.0000
 40
0.1270
 41
0.1270
 70
0
  0
VERTEX
  8
1
 10
7.9824
 20
16.7826
 30
0.0000
 42
1.0000
  0
VERTEX
  8
1
 10
7.8926
 20
16.8724
 30
0.0000
  0
SEQEND
  8
0
  0
POLYLINE
  8
1
 66
1
 10
0.0000
 20
0.0000
 30
0.0000
 40
0.2540
 41
0.2540
 70
0
  0
VERTEX
  8
1
 10
11.7475
 20
16.8275
 30
0.0000
  0
VERTEX
  8
1
 10
7.9375
 20
16.8275
 30
0.0000
  0
SEQEND
  8
0
  0
POLYLINE
  8
1
 66
1
 10
0.0000
 20
0.0000
 30
0.0000
 40
0.1270
 41
0.1270
 70
0
  0
VERTEX
  8
1
 10
7.9375
 20
16.8910
 30
0.0000
 42
1.0000
  0
VERTEX
  8
1
 10
7.9375
 20
16.7640
 30
0.0000
  0
SEQEND
  8
0
  0
POLYLINE
  8
1
 66
1
 10
0.0000
 20
0.0000
 30
0.0000
 40
0.1270
 41
0.1270
 70
0
  0
VERTEX
  8
1
 10
11.7475
 20
16.7640
 30
0.0000
 42
1.0000
  0
VERTEX
  8
1
 10
11.7475
 20
16.8910
 30
0.0000
  0
SEQEND
  8
0
  0
POLYLINE
  8
1
 66
1
 10
0.0000
 20
0.0000
 30
0.0000
 40
0.2540
 41
0.2540
 70
0
  0
VERTEX
  8
1
 10
11.7475
 20
15.2400
 30
0.0000
  0
VERTEX
  8
1
 10
11.7475
 20
16.8275
 30
0.0000
  0
SEQEND
  8
0
  0
POLYLINE
  8
1
 66
1
 10
0.0000
 20
0.0000
 30
0.0000
 40
0.1270
 41
0.1270
 70
0
  0
VERTEX
  8
1
 10
11.8110
 20
16.8275
 30
0.0000
 42
1.0000
  0
VERTEX
  8
1
 10
11.6840
 20
16.8275
 30
0.0000
  0
SEQEND
  8
0
  0
POLYLINE
  8
1
 66
1
 10
0.0000
 20
0.0000
 30
0.0000
 40
0.1270
 41
0.1270
 70
0
  0
VERTEX
  8
1
 10
11.6840
 20
15.2400
 30
0.0000
 42
1.0000
  0
VERTEX
  8
1
 10
11.8110
 20
15.2400
 30
0.0000
  0
SEQEND
  8
0
  0
POLYLINE
  8
1
 66
1
 10
0.0000
 20
0.0000
 30
0.0000
 40
0.2540
 41
0.2540
 70
0
  0
VERTEX
  8
1
 10
5.0800
 20
12.0650
 30
0.0000
  0
VERTEX
  8
1
 10
5.0800
 20
11.8110
 30
0.0000
  0
SEQEND
  8
0
  0
POLYLINE
  8
1
 66
1
 10
0.0000
 20
0.0000
 30
0.0000
 40
0.1270
 41
0.1270
 70
0
  0
VERTEX
  8
1
 10
5.0165
 20
11.8110
 30
0.0000
 42
1.0000
  0
VERTEX
  8
1
 10
5.1435
 20
11.8110
 30
0.0000
  0
SEQEND
  8
0
  0
POLYLINE
  8
1
 66
1
 10
0.0000
 20
0.0000
 30
0.0000
 40
0.1270
 41
0.1270
 70
0
  0
VERTEX
  8
1
 10
5.1435
 20
12.0650
 30
0.0000
 42
1.0000
  0
VERTEX
  8
1
 10
5.0165
 20
12.0650
 30
0.0000
  0
SEQEND
  8
0
  0
POLYLINE
  8
1
 66
1
 10
0.0000
 20
0.0000
 30
0.0000
 40
0.2540
 41
0.2540
 70
0
  0
VERTEX
  8
1
 10
15.8750
 20
29.2100
 30
0.0000
  0
VERTEX
  8
1
 10
15.8750
 20
28.2575
 30
0.0000
  0
SEQEND
  8
0
  0
POLYLINE
  8
1
 66
1
 10
0.0000
 20
0.0000
 30
0.0000
 40
0.1270
 41
0.1270
 70
0
  0
VERTEX
  8
1
 10
15.8115
 20
28.2575
 30
0.0000
 42
1.0000
  0
VERTEX
  8
1
 10
15.9385
 20
28.2575
 30
0.0000
  0
SEQEND
  8
0
  0
POLYLINE
  8
1
 66
1
 10
0.0000
 20
0.0000
 30
0.0000
 40
0.1270
 41
0.1270
 70
0
  0
VERTEX
  8
1
 10
15.9385
 20
29.2100
 30
0.0000
 42
1.0000
  0
VERTEX
  8
1
 10
15.8115
 20
29.2100
 30
0.0000
  0
SEQEND
  8
0
  0
POLYLINE
  8
1
 66
1
 10
0.0000
 20
0.0000
 30
0.0000
 40
0.2540
 41
0.2540
 70
0
  0
VERTEX
  8
1
 10
15.8750
 20
28.2575
 30
0.0000
  0
VERTEX
  8
1
 10
15.8750
 20
24.7650
 30
0.0000
  0
SEQEND
  8
0
  0
POLYLINE
  8
1
 66
1
 10
0.0000
 20
0.0000
 30
0.0000
 40
0.1270
 41
0.1270
 70
0
  0
VERTEX
  8
1
 10
15.8115
 20
24.7650
 30
0.0000
 42
1.0000
  0
VERTEX
  8
1
 10
15.9385
 20
24.7650
 30
0.0000
  0
SEQEND
  8
0
  0
POLYLINE
  8
1
 66
1
 10
0.0000
 20
0.0000
 30
0.0000
 40
0.1270
 41
0.1270
 70
0
  0
VERTEX
  8
1
 10
15.9385
 20
28.2575
 30
0.0000
 42
1.0000
  0
VERTEX
  8
1
 10
15.8115
 20
28.2575
 30
0.0000
  0
SEQEND
  8
0
  0
POLYLINE
  8
1
 66
1
 10
0.0000
 20
0.0000
 30
0.0000
 40
0.2540
 41
0.2540
 70
0
  0
VERTEX
  8
1
 10
15.8750
 20
24.7650
 30
0.0000
  0
VERTEX
  8
1
 10
15.8540
 20
24.7550
 30
0.0000
  0
SEQEND
  8
0
  0
POLYLINE
  8
1
 66
1
 10
0.0000
 20
0.0000
 30
0.0000
 40
0.1270
 41
0.1270
 70
0
  0
VERTEX
  8
1
 10
15.8267
 20
24.8123
 30
0.0000
 42
1.0000
  0
VERTEX
  8
1
 10
15.8813
 20
24.6977
 30
0.0000
  0
SEQEND
  8
0
  0
POLYLINE
  8
1
 66
1
 10
0.0000
 20
0.0000
 30
0.0000
 40
0.1270
 41
0.1270
 70
0
  0
VERTEX
  8
1
 10
15.9023
 20
24.7077
 30
0.0000
 42
1.0000
  0
VERTEX
  8
1
 10
15.8477
 20
24.8223
 30
0.0000
  0
SEQEND
  8
0
  0
POLYLINE
  8
1
 66
1
 10
0.0000
 20
0.0000
 30
0.0000
 40
0.2540
 41
0.2540
 70
0
  0
VERTEX
  8
1
 10
15.8750
 20
29.2100
 30
0.0000
  0
VERTEX
  8
1
 10
15.6200
 20
29.2100
 30
0.0000
  0
SEQEND
  8
0
  0
POLYLINE
  8
1
 66
1
 10
0.0000
 20
0.0000
 30
0.0000
 40
0.1270
 41
0.1270
 70
0
  0
VERTEX
  8
1
 10
15.6200
 20
29.2735
 30
0.0000
 42
1.0000
  0
VERTEX
  8
1
 10
15.6200
 20
29.1465
 30
0.0000
  0
SEQEND
  8
0
  0
POLYLINE
  8
1
 66
1
 10
0.0000
 20
0.0000
 30
0.0000
 40
0.1270
 41
0.1270
 70
0
  0
VERTEX
  8
1
 10
15.8750
 20
29.1465
 30
0.0000
 42
1.0000
  0
VERTEX
  8
1
 10
15.8750
 20
29.2735
 30
0.0000
  0
SEQEND
  8
0
  0
POLYLINE
  8
1
 66
1
 10
0.0000
 20
0.0000
 30
0.0000
 40
0.2540
 41
0.2540
 70
0
  0
VERTEX
  8
1
 10
22.5425
 20
14.6050
 30
0.0000
  0
VERTEX
  8
1
 10
22.5425
 20
8.2550
 30
0.0000
  0
SEQEND
  8
0
  0
POLYLINE
  8
1
 66
1
 10
0.0000
 20
0.0000
 30
0.0000
 40
0.1270
 41
0.1270
 70
0
  0
VERTEX
  8
1
 10
22.4790
 20
8.2550
 30
0.0000
 42
1.0000
  0
VERTEX
  8
1
 10
22.6060
 20
8.2550
 30
0.0000
  0
SEQEND
  8
0
  0
POLYLINE
  8
1
 66
1
 10
0.0000
 20
0.0000
 30
0.0000
 40
0.1270
 41
0.1270
 70
0
  0
VERTEX
  8
1
 10
22.6060
 20
14.6050
 30
0.0000
 42
1.0000
  0
VERTEX
  8
1
 10
22.4790
 20
14.6050
 30
0.0000
  0
SEQEND
  8
0
  0
POLYLINE
  8
1
 66
1
 10
0.0000
 20
0.0000
 30
0.0000
 40
0.2540
 41
0.2540
 70
0
  0
VERTEX
  8
1
 10
22.5425
 20
8.2550
 30
0.0000
  0
VERTEX
  8
1
 10
22.6060
 20
8.1280
 30
0.0000
  0
SEQEND
  8
0
  0
POLYLINE
  8
1
 66
1
 10
0.0000
 20
0.0000
 30
0.0000
 40
0.1270
 41
0.1270
 70
0
  0
VERTEX
  8
1
 10
22.5492
 20
8.0996
 30
0.0000
 42
1.0000
  0
VERTEX
  8
1
 10
22.6628
 20
8.1564
 30
0.0000
  0
SEQEND
  8
0
  0
POLYLINE
  8
1
 66
1
 10
0.0000
 20
0.0000
 30
0.0000
 40
0.1270
 41
0.1270
 70
0
  0
VERTEX
  8
1
 10
22.5993
 20
8.2834
 30
0.0000
 42
1.0000
  0
VERTEX
  8
1
 10
22.4857
 20
8.2266
 30
0.0000
  0
SEQEND
  8
0
  0
POLYLINE
  8
1
 66
1
 10
0.0000
 20
0.0000
 30
0.0000
 40
0.2540
 41
0.2540
 70
0
  0
VERTEX
  8
1
 10
22.5425
 20
14.6050
 30
0.0000
  0
VERTEX
  8
1
 10
22.6060
 20
14.7320
 30
0.0000
  0
SEQEND
  8
0
  0
POLYLINE
  8
1
 66
1
 10
0.0000
 20
0.0000
 30
0.0000
 40
0.1270
 41
0.1270
 70
0
  0
VERTEX
  8
1
 10
22.6628
 20
14.7036
 30
0.0000
 42
1.0000
  0
VERTEX
  8
1
 10
22.5492
 20
14.7604
 30
0.0000
  0
SEQEND
  8
0
  0
POLYLINE
  8
1
 66
1
 10
0.0000
 20
0.0000
 30
0.0000
 40
0.1270
 41
0.1270
 70
0
  0
VERTEX
  8
1
 10
22.4857
 20
14.6334
 30
0.0000
 42
1.0000
  0
VERTEX
  8
1
 10
22.5993
 20
14.5766
 30
0.0000
  0
SEQEND
  8
0
  0
POLYLINE
  8
1
 66
1
 10
0.0000
 20
0.0000
 30
0.0000
 40
0.2540
 41
0.2540
 70
0
  0
VERTEX
  8
1
 10
22.5425
 20
17.1450
 30
0.0000
  0
VERTEX
  8
1
 10
20.3200
 20
19.0500
 30
0.0000
  0
SEQEND
  8
0
  0
POLYLINE
  8
1
 66
1
 10
0.0000
 20
0.0000
 30
0.0000
 40
0.1270
 41
0.1270
 70
0
  0
VERTEX
  8
1
 10
20.3613
 20
19.0982
 30
0.0000
 42
1.0000
  0
VERTEX
  8
1
 10
20.2787
 20
19.0018
 30
0.0000
  0
SEQEND
  8
0
  0
POLYLINE
  8
1
 66
1
 10
0.0000
 20
0.0000
 30
0.0000
 40
0.1270
 41
0.1270
 70
0
  0
VERTEX
  8
1
 10
22.5012
 20
17.0968
 30
0.0000
 42
1.0000
  0
VERTEX
  8
1
 10
22.5838
 20
17.1932
 30
0.0000
  0
SEQEND
  8
0
  0
POLYLINE
  8
1
 66
1
 10
0.0000
 20
0.0000
 30
0.0000
 40
0.2540
 41
0.2540
 70
0
  0
VERTEX
  8
1
 10
22.5425
 20
14.9225
 30
0.0000
  0
VERTEX
  8
1
 10
22.5425
 20
17.1450
 30
0.0000
  0
SEQEND
  8
0
  0
POLYLINE
  8
1
 66
1
 10
0.0000
 20
0.0000
 30
0.0000
 40
0.1270
 41
0.1270
 70
0
  0
VERTEX
  8
1
 10
22.6060
 20
17.1450
 30
0.0000
 42
1.0000
  0
VERTEX
  8
1
 10
22.4790
 20
17.1450
 30
0.0000
  0
SEQEND
  8
0
  0
POLYLINE
  8
1
 66
1
 10
0.0000
 20
0.0000
 30
0.0000
 40
0.1270
 41
0.1270
 70
0
  0
VERTEX
  8
1
 10
22.4790
 20
14.9225
 30
0.0000
 42
1.0000
  0
VERTEX
  8
1
 10
22.6060
 20
14.9225
 30
0.0000
  0
SEQEND
  8
0
  0
POLYLINE
  8
1
 66
1
 10
0.0000
 20
0.0000
 30
0.0000
 40
0.2540
 41
0.2540
 70
0
  0
VERTEX
  8
1
 10
22.5425
 20
14.9225
 30
0.0000
  0
VERTEX
  8
1
 10
22.6060
 20
14.7320
 30
0.0000
  0
SEQEND
  8
0
  0
POLYLINE
  8
1
 66
1
 10
0.0000
 20
0.0000
 30
0.0000
 40
0.1270
 41
0.1270
 70
0
  0
VERTEX
  8
1
 10
22.5458
 20
14.7119
 30
0.0000
 42
1.0000
  0
VERTEX
  8
1
 10
22.6662
 20
14.7521
 30
0.0000
  0
SEQEND
  8
0
  0
POLYLINE
  8
1
 66
1
 10
0.0000
 20
0.0000
 30
0.0000
 40
0.1270
 41
0.1270
 70
0
  0
VERTEX
  8
1
 10
22.6027
 20
14.9426
 30
0.0000
 42
1.0000
  0
VERTEX
  8
1
 10
22.4823
 20
14.9024
 30
0.0000
  0
SEQEND
  8
0
  0
POLYLINE
  8
1
 66
1
 10
0.0000
 20
0.0000
 30
0.0000
 40
0.2540
 41
0.2540
 70
0
  0
VERTEX
  8
1
 10
22.5425
 20
28.2575
 30
0.0000
  0
VERTEX
  8
1
 10
15.8750
 20
28.2575
 30
0.0000
  0
SEQEND
  8
0
  0
POLYLINE
  8
1
 66
1
 10
0.0000
 20
0.0000
 30
0.0000
 40
0.1270
 41
0.1270
 70
0
  0
VERTEX
  8
1
 10
15.8750
 20
28.3210
 30
0.0000
 42
1.0000
  0
VERTEX
  8
1
 10
15.8750
 20
28.1940
 30
0.0000
  0
SEQEND
  8
0
  0
POLYLINE
  8
1
 66
1
 10
0.0000
 20
0.0000
 30
0.0000
 40
0.1270
 41
0.1270
 70
0
  0
VERTEX
  8
1
 10
22.5425
 20
28.1940
 30
0.0000
 42
1.0000
  0
VERTEX
  8
1
 10
22.5425
 20
28.3210
 30
0.0000
  0
SEQEND
  8
0
  0
POLYLINE
  8
1
 66
1
 10
0.0000
 20
0.0000
 30
0.0000
 40
0.2540
 41
0.2540
 70
0
  0
VERTEX
  8
1
 10
22.5425
 20
17.1450
 30
0.0000
  0
VERTEX
  8
1
 10
22.5425
 20
28.2575
 30
0.0000
  0
SEQEND
  8
0
  0
POLYLINE
  8
1
 66
1
 10
0.0000
 20
0.0000
 30
0.0000
 40
0.1270
 41
0.1270
 70
0
  0
VERTEX
  8
1
 10
22.6060
 20
28.2575
 30
0.0000
 42
1.0000
  0
VERTEX
  8
1
 10
22.4790
 20
28.2575
 30
0.0000
  0
SEQEND
  8
0
  0
POLYLINE
  8
1
 66
1
 10
0.0000
 20
0.0000
 30
0.0000
 40
0.1270
 41
0.1270
 70
0
  0
VERTEX
  8
1
 10
22.4790
 20
17.1450
 30
0.0000
 42
1.0000
  0
VERTEX
  8
1
 10
22.6060
 20
17.1450
 30
0.0000
  0
SEQEND
  8
0
  0
POLYLINE
  8
1
 66
1
 10
0.0000
 20
0.0000
 30
0.0000
 40
0.2540
 41
0.2540
 70
0
  0
VERTEX
  8
1
 10
11.1125
 20
14.6050
 30
0.0000
  0
VERTEX
  8
1
 10
11.7475
 20
15.2400
 30
0.0000
  0
SEQEND
  8
0
  0
POLYLINE
  8
1
 66
1
 10
0.0000
 20
0.0000
 30
0.0000
 40
0.1270
 41
0.1270
 70
0
  0
VERTEX
  8
1
 10
11.7924
 20
15.1951
 30
0.0000
 42
1.0000
  0
VERTEX
  8
1
 10
11.7026
 20
15.2849
 30
0.0000
  0
SEQEND
  8
0
  0
POLYLINE
  8
1
 66
1
 10
0.0000
 20
0.0000
 30
0.0000
 40
0.1270
 41
0.1270
 70
0
  0
VERTEX
  8
1
 10
11.0676
 20
14.6499
 30
0.0000
 42
1.0000
  0
VERTEX
  8
1
 10
11.1574
 20
14.5601
 30
0.0000
  0
SEQEND
  8
0
  0
POLYLINE
  8
1
 66
1
 10
0.0000
 20
0.0000
 30
0.0000
 40
0.2540
 41
0.2540
 70
0
  0
VERTEX
  8
1
 10
11.1125
 20
10.4775
 30
0.0000
  0
VERTEX
  8
1
 10
11.1125
 20
14.6050
 30
0.0000
  0
SEQEND
  8
0
  0
POLYLINE
  8
1
 66
1
 10
0.0000
 20
0.0000
 30
0.0000
 40
0.1270
 41
0.1270
 70
0
  0
VERTEX
  8
1
 10
11.1760
 20
14.6050
 30
0.0000
 42
1.0000
  0
VERTEX
  8
1
 10
11.0490
 20
14.6050
 30
0.0000
  0
SEQEND
  8
0
  0
POLYLINE
  8
1
 66
1
 10
0.0000
 20
0.0000
 30
0.0000
 40
0.1270
 41
0.1270
 70
0
  0
VERTEX
  8
1
 10
11.0490
 20
10.4775
 30
0.0000
 42
1.0000
  0
VERTEX
  8
1
 10
11.1760
 20
10.4775
 30
0.0000
  0
SEQEND
  8
0
  0
POLYLINE
  8
1
 66
1
 10
0.0000
 20
0.0000
 30
0.0000
 40
0.2540
 41
0.2540
 70
0
  0
VERTEX
  8
1
 10
16.8275
 20
10.4775
 30
0.0000
  0
VERTEX
  8
1
 10
11.1125
 20
10.4775
 30
0.0000
  0
SEQEND
  8
0
  0
POLYLINE
  8
1
 66
1
 10
0.0000
 20
0.0000
 30
0.0000
 40
0.1270
 41
0.1270
 70
0
  0
VERTEX
  8
1
 10
11.1125
 20
10.5410
 30
0.0000
 42
1.0000
  0
VERTEX
  8
1
 10
11.1125
 20
10.4140
 30
0.0000
  0
SEQEND
  8
0
  0
POLYLINE
  8
1
 66
1
 10
0.0000
 20
0.0000
 30
0.0000
 40
0.1270
 41
0.1270
 70
0
  0
VERTEX
  8
1
 10
16.8275
 20
10.4140
 30
0.0000
 42
1.0000
  0
VERTEX
  8
1
 10
16.8275
 20
10.5410
 30
0.0000
  0
SEQEND
  8
0
  0
POLYLINE
  8
1
 66
1
 10
0.0000
 20
0.0000
 30
0.0000
 40
0.2540
 41
0.2540
 70
0
  0
VERTEX
  8
1
 10
16.8275
 20
6.6675
 30
0.0000
  0
VERTEX
  8
1
 10
16.8275
 20
10.4775
 30
0.0000
  0
SEQEND
  8
0
  0
POLYLINE
  8
1
 66
1
 10
0.0000
 20
0.0000
 30
0.0000
 40
0.1270
 41
0.1270
 70
0
  0
VERTEX
  8
1
 10
16.8910
 20
10.4775
 30
0.0000
 42
1.0000
  0
VERTEX
  8
1
 10
16.7640
 20
10.4775
 30
0.0000
  0
SEQEND
  8
0
  0
POLYLINE
  8
1
 66
1
 10
0.0000
 20
0.0000
 30
0.0000
 40
0.1270
 41
0.1270
 70
0
  0
VERTEX
  8
1
 10
16.7640
 20
6.6675
 30
0.0000
 42
1.0000
  0
VERTEX
  8
1
 10
16.8910
 20
6.6675
 30
0.0000
  0
SEQEND
  8
0
  0
POLYLINE
  8
1
 66
1
 10
0.0000
 20
0.0000
 30
0.0000
 40
0.2540
 41
0.2540
 70
0
  0
VERTEX
  8
1
 10
17.1450
 20
6.3500
 30
0.0000
  0
VERTEX
  8
1
 10
16.8275
 20
6.6675
 30
0.0000
  0
SEQEND
  8
0
  0
POLYLINE
  8
1
 66
1
 10
0.0000
 20
0.0000
 30
0.0000
 40
0.1270
 41
0.1270
 70
0
  0
VERTEX
  8
1
 10
16.8724
 20
6.7124
 30
0.0000
 42
1.0000
  0
VERTEX
  8
1
 10
16.7826
 20
6.6226
 30
0.0000
  0
SEQEND
  8
0
  0
POLYLINE
  8
1
 66
1
 10
0.0000
 20
0.0000
 30
0.0000
 40
0.1270
 41
0.1270
 70
0
  0
VERTEX
  8
1
 10
17.1001
 20
6.3051
 30
0.0000
 42
1.0000
  0
VERTEX
  8
1
 10
17.1899
 20
6.3949
 30
0.0000
  0
SEQEND
  8
0
  0
POLYLINE
  8
1
 66
1
 10
0.0000
 20
0.0000
 30
0.0000
 40
0.2540
 41
0.2540
 70
0
  0
VERTEX
  8
1
 10
22.5425
 20
6.3500
 30
0.0000
  0
VERTEX
  8
1
 10
17.1450
 20
6.3500
 30
0.0000
  0
SEQEND
  8
0
  0
POLYLINE
  8
1
 66
1
 10
0.0000
 20
0.0000
 30
0.0000
 40
0.1270
 41
0.1270
 70
0
  0
VERTEX
  8
1
 10
17.1450
 20
6.4135
 30
0.0000
 42
1.0000
  0
VERTEX
  8
1
 10
17.1450
 20
6.2865
 30
0.0000
  0
SEQEND
  8
0
  0
POLYLINE
  8
1
 66
1
 10
0.0000
 20
0.0000
 30
0.0000
 40
0.1270
 41
0.1270
 70
0
  0
VERTEX
  8
1
 10
22.5425
 20
6.2865
 30
0.0000
 42
1.0000
  0
VERTEX
  8
1
 10
22.5425
 20
6.4135
 30
0.0000
  0
SEQEND
  8
0
  0
POLYLINE
  8
1
 66
1
 10
0.0000
 20
0.0000
 30
0.0000
 40
0.2540
 41
0.2540
 70
0
  0
VERTEX
  8
1
 10
22.5425
 20
7.9375
 30
0.0000
  0
VERTEX
  8
1
 10
22.5425
 20
6.3500
 30
0.0000
  0
SEQEND
  8
0
  0
POLYLINE
  8
1
 66
1
 10
0.0000
 20
0.0000
 30
0.0000
 40
0.1270
 41
0.1270
 70
0
  0
VERTEX
  8
1
 10
22.4790
 20
6.3500
 30
0.0000
 42
1.0000
  0
VERTEX
  8
1
 10
22.6060
 20
6.3500
 30
0.0000
  0
SEQEND
  8
0
  0
POLYLINE
  8
1
 66
1
 10
0.0000
 20
0.0000
 30
0.0000
 40
0.1270
 41
0.1270
 70
0
  0
VERTEX
  8
1
 10
22.6060
 20
7.9375
 30
0.0000
 42
1.0000
  0
VERTEX
  8
1
 10
22.4790
 20
7.9375
 30
0.0000
  0
SEQEND
  8
0
  0
POLYLINE
  8
1
 66
1
 10
0.0000
 20
0.0000
 30
0.0000
 40
0.2540
 41
0.2540
 70
0
  0
VERTEX
  8
1
 10
11.7475
 20
15.2400
 30
0.0000
  0
VERTEX
  8
1
 10
11.8110
 20
15.2400
 30
0.0000
  0
SEQEND
  8
0
  0
POLYLINE
  8
1
 66
1
 10
0.0000
 20
0.0000
 30
0.0000
 40
0.1270
 41
0.1270
 70
0
  0
VERTEX
  8
1
 10
11.8110
 20
15.1765
 30
0.0000
 42
1.0000
  0
VERTEX
  8
1
 10
11.8110
 20
15.3035
 30
0.0000
  0
SEQEND
  8
0
  0
POLYLINE
  8
1
 66
1
 10
0.0000
 20
0.0000
 30
0.0000
 40
0.1270
 41
0.1270
 70
0
  0
VERTEX
  8
1
 10
11.7475
 20
15.3035
 30
0.0000
 42
1.0000
  0
VERTEX
  8
1
 10
11.7475
 20
15.1765
 30
0.0000
  0
SEQEND
  8
0
  0
POLYLINE
  8
1
 66
1
 10
0.0000
 20
0.0000
 30
0.0000
 40
0.2540
 41
0.2540
 70
0
  0
VERTEX
  8
1
 10
22.5425
 20
7.9375
 30
0.0000
  0
VERTEX
  8
1
 10
22.6060
 20
8.1280
 30
0.0000
  0
SEQEND
  8
0
  0
POLYLINE
  8
1
 66
1
 10
0.0000
 20
0.0000
 30
0.0000
 40
0.1270
 41
0.1270
 70
0
  0
VERTEX
  8
1
 10
22.6662
 20
8.1079
 30
0.0000
 42
1.0000
  0
VERTEX
  8
1
 10
22.5458
 20
8.1481
 30
0.0000
  0
SEQEND
  8
0
  0
POLYLINE
  8
1
 66
1
 10
0.0000
 20
0.0000
 30
0.0000
 40
0.1270
 41
0.1270
 70
0
  0
VERTEX
  8
1
 10
22.4823
 20
7.9576
 30
0.0000
 42
1.0000
  0
VERTEX
  8
1
 10
22.6027
 20
7.9174
 30
0.0000
  0
SEQEND
  8
0
  0
POLYLINE
  8
1
 66
1
 10
0.0000
 20
0.0000
 30
0.0000
 40
0.2540
 41
0.2540
 70
0
  0
VERTEX
  8
1
 10
5.0800
 20
23.4950
 30
0.0000
  0
VERTEX
  8
1
 10
9.5460
 20
23.4950
 30
0.0000
  0
SEQEND
  8
0
  0
POLYLINE
  8
1
 66
1
 10
0.0000
 20
0.0000
 30
0.0000
 40
0.1270
 41
0.1270
 70
0
  0
VERTEX
  8
1
 10
9.5460
 20
23.4315
 30
0.0000
 42
1.0000
  0
VERTEX
  8
1
 10
9.5460
 20
23.5585
 30
0.0000
  0
SEQEND
  8
0
  0
POLYLINE
  8
1
 66
1
 10
0.0000
 20
0.0000
 30
0.0000
 40
0.1270
 41
0.1270
 70
0
  0
VERTEX
  8
1
 10
5.0800
 20
23.5585
 30
0.0000
 42
1.0000
  0
VERTEX
  8
1
 10
5.0800
 20
23.4315
 30
0.0000
  0
SEQEND
  8
0
  0
POLYLINE
  8
1
 66
1
 10
0.0000
 20
0.0000
 30
0.0000
 40
0.2540
 41
0.2540
 70
0
  0
VERTEX
  8
1
 10
5.0800
 20
24.1300
 30
0.0000
  0
VERTEX
  8
1
 10
5.0800
 20
23.4950
 30
0.0000
  0
SEQEND
  8
0
  0
POLYLINE
  8
1
 66
1
 10
0.0000
 20
0.0000
 30
0.0000
 40
0.1270
 41
0.1270
 70
0
  0
VERTEX
  8
1
 10
5.0165
 20
23.4950
 30
0.0000
 42
1.0000
  0
VERTEX
  8
1
 10
5.1435
 20
23.4950
 30
0.0000
  0
SEQEND
  8
0
  0
POLYLINE
  8
1
 66
1
 10
0.0000
 20
0.0000
 30
0.0000
 40
0.1270
 41
0.1270
 70
0
  0
VERTEX
  8
1
 10
5.1435
 20
24.1300
 30
0.0000
 42
1.0000
  0
VERTEX
  8
1
 10
5.0165
 20
24.1300
 30
0.0000
  0
SEQEND
  8
0
  0
POLYLINE
  8
1
 66
1
 10
0.0000
 20
0.0000
 30
0.0000
 40
0.2540
 41
0.2540
 70
0
  0
VERTEX
  8
1
 10
12.0650
 20
34.2900
 30
0.0000
  0
VERTEX
  8
1
 10
10.1600
 20
34.2900
 30
0.0000
  0
SEQEND
  8
0
  0
POLYLINE
  8
1
 66
1
 10
0.0000
 20
0.0000
 30
0.0000
 40
0.1270
 41
0.1270
 70
0
  0
VERTEX
  8
1
 10
10.1600
 20
34.3535
 30
0.0000
 42
1.0000
  0
VERTEX
  8
1
 10
10.1600
 20
34.2265
 30
0.0000
  0
SEQEND
  8
0
  0
POLYLINE
  8
1
 66
1
 10
0.0000
 20
0.0000
 30
0.0000
 40
0.1270
 41
0.1270
 70
0
  0
VERTEX
  8
1
 10
12.0650
 20
34.2265
 30
0.0000
 42
1.0000
  0
VERTEX
  8
1
 10
12.0650
 20
34.3535
 30
0.0000
  0
SEQEND
  8
0
  0
POLYLINE
  8
1
 66
1
 10
0.0000
 20
0.0000
 30
0.0000
 40
0.2540
 41
0.2540
 70
0
  0
VERTEX
  8
1
 10
13.3350
 20
33.0200
 30
0.0000
  0
VERTEX
  8
1
 10
12.0650
 20
34.2900
 30
0.0000
  0
SEQEND
  8
0
  0
POLYLINE
  8
1
 66
1
 10
0.0000
 20
0.0000
 30
0.0000
 40
0.1270
 41
0.1270
 70
0
  0
VERTEX
  8
1
 10
12.1099
 20
34.3349
 30
0.0000
 42
1.0000
  0
VERTEX
  8
1
 10
12.0201
 20
34.2451
 30
0.0000
  0
SEQEND
  8
0
  0
POLYLINE
  8
1
 66
1
 10
0.0000
 20
0.0000
 30
0.0000
 40
0.1270
 41
0.1270
 70
0
  0
VERTEX
  8
1
 10
13.2901
 20
32.9751
 30
0.0000
 42
1.0000
  0
VERTEX
  8
1
 10
13.3799
 20
33.0649
 30
0.0000
  0
SEQEND
  8
0
  0
POLYLINE
  8
1
 66
1
 10
0.0000
 20
0.0000
 30
0.0000
 40
0.2540
 41
0.2540
 70
0
  0
VERTEX
  8
1
 10
23.8125
 20
33.0200
 30
0.0000
  0
VERTEX
  8
1
 10
13.3350
 20
33.0200
 30
0.0000
  0
SEQEND
  8
0
  0
POLYLINE
  8
1
 66
1
 10
0.0000
 20
0.0000
 30
0.0000
 40
0.1270
 41
0.1270
 70
0
  0
VERTEX
  8
1
 10
13.3350
 20
33.0835
 30
0.0000
 42
1.0000
  0
VERTEX
  8
1
 10
13.3350
 20
32.9565
 30
0.0000
  0
SEQEND
  8
0
  0
POLYLINE
  8
1
 66
1
 10
0.0000
 20
0.0000
 30
0.0000
 40
0.1270
 41
0.1270
 70
0
  0
VERTEX
  8
1
 10
23.8125
 20
32.9565
 30
0.0000
 42
1.0000
  0
VERTEX
  8
1
 10
23.8125
 20
33.0835
 30
0.0000
  0
SEQEND
  8
0
  0
POLYLINE
  8
1
 66
1
 10
0.0000
 20
0.0000
 30
0.0000
 40
0.2540
 41
0.2540
 70
0
  0
VERTEX
  8
1
 10
23.8125
 20
6.6675
 30
0.0000
  0
VERTEX
  8
1
 10
23.8125
 20
33.0200
 30
0.0000
  0
SEQEND
  8
0
  0
POLYLINE
  8
1
 66
1
 10
0.0000
 20
0.0000
 30
0.0000
 40
0.1270
 41
0.1270
 70
0
  0
VERTEX
  8
1
 10
23.8760
 20
33.0200
 30
0.0000
 42
1.0000
  0
VERTEX
  8
1
 10
23.7490
 20
33.0200
 30
0.0000
  0
SEQEND
  8
0
  0
POLYLINE
  8
1
 66
1
 10
0.0000
 20
0.0000
 30
0.0000
 40
0.1270
 41
0.1270
 70
0
  0
VERTEX
  8
1
 10
23.7490
 20
6.6675
 30
0.0000
 42
1.0000
  0
VERTEX
  8
1
 10
23.8760
 20
6.6675
 30
0.0000
  0
SEQEND
  8
0
  0
POLYLINE
  8
1
 66
1
 10
0.0000
 20
0.0000
 30
0.0000
 40
0.2540
 41
0.2540
 70
0
  0
VERTEX
  8
1
 10
22.8600
 20
5.7150
 30
0.0000
  0
VERTEX
  8
1
 10
23.8125
 20
6.6675
 30
0.0000
  0
SEQEND
  8
0
  0
POLYLINE
  8
1
 66
1
 10
0.0000
 20
0.0000
 30
0.0000
 40
0.1270
 41
0.1270
 70
0
  0
VERTEX
  8
1
 10
23.8574
 20
6.6226
 30
0.0000
 42
1.0000
  0
VERTEX
  8
1
 10
23.7676
 20
6.7124
 30
0.0000
  0
SEQEND
  8
0
  0
POLYLINE
  8
1
 66
1
 10
0.0000
 20
0.0000
 30
0.0000
 40
0.1270
 41
0.1270
 70
0
  0
VERTEX
  8
1
 10
22.8151
 20
5.7599
 30
0.0000
 42
1.0000
  0
VERTEX
  8
1
 10
22.9049
 20
5.6701
 30
0.0000
  0
SEQEND
  8
0
  0
POLYLINE
  8
1
 66
1
 10
0.0000
 20
0.0000
 30
0.0000
 40
0.2540
 41
0.2540
 70
0
  0
VERTEX
  8
1
 10
14.2875
 20
5.7150
 30
0.0000
  0
VERTEX
  8
1
 10
22.8600
 20
5.7150
 30
0.0000
  0
SEQEND
  8
0
  0
POLYLINE
  8
1
 66
1
 10
0.0000
 20
0.0000
 30
0.0000
 40
0.1270
 41
0.1270
 70
0
  0
VERTEX
  8
1
 10
22.8600
 20
5.6515
 30
0.0000
 42
1.0000
  0
VERTEX
  8
1
 10
22.8600
 20
5.7785
 30
0.0000
  0
SEQEND
  8
0
  0
POLYLINE
  8
1
 66
1
 10
0.0000
 20
0.0000
 30
0.0000
 40
0.1270
 41
0.1270
 70
0
  0
VERTEX
  8
1
 10
14.2875
 20
5.7785
 30
0.0000
 42
1.0000
  0
VERTEX
  8
1
 10
14.2875
 20
5.6515
 30
0.0000
  0
SEQEND
  8
0
  0
POLYLINE
  8
1
 66
1
 10
0.0000
 20
0.0000
 30
0.0000
 40
0.2540
 41
0.2540
 70
0
  0
VERTEX
  8
1
 10
14.2875
 20
9.8425
 30
0.0000
  0
VERTEX
  8
1
 10
14.2875
 20
5.7150
 30
0.0000
  0
SEQEND
  8
0
  0
POLYLINE
  8
1
 66
1
 10
0.0000
 20
0.0000
 30
0.0000
 40
0.1270
 41
0.1270
 70
0
  0
VERTEX
  8
1
 10
14.2240
 20
5.7150
 30
0.0000
 42
1.0000
  0
VERTEX
  8
1
 10
14.3510
 20
5.7150
 30
0.0000
  0
SEQEND
  8
0
  0
POLYLINE
  8
1
 66
1
 10
0.0000
 20
0.0000
 30
0.0000
 40
0.1270
 41
0.1270
 70
0
  0
VERTEX
  8
1
 10
14.3510
 20
9.8425
 30
0.0000
 42
1.0000
  0
VERTEX
  8
1
 10
14.2240
 20
9.8425
 30
0.0000
  0
SEQEND
  8
0
  0
POLYLINE
  8
1
 66
1
 10
0.0000
 20
0.0000
 30
0.0000
 40
0.2540
 41
0.2540
 70
0
  0
VERTEX
  8
1
 10
3.4925
 20
9.8425
 30
0.0000
  0
VERTEX
  8
1
 10
14.2875
 20
9.8425
 30
0.0000
  0
SEQEND
  8
0
  0
POLYLINE
  8
1
 66
1
 10
0.0000
 20
0.0000
 30
0.0000
 40
0.1270
 41
0.1270
 70
0
  0
VERTEX
  8
1
 10
14.2875
 20
9.7790
 30
0.0000
 42
1.0000
  0
VERTEX
  8
1
 10
14.2875
 20
9.9060
 30
0.0000
  0
SEQEND
  8
0
  0
POLYLINE
  8
1
 66
1
 10
0.0000
 20
0.0000
 30
0.0000
 40
0.1270
 41
0.1270
 70
0
  0
VERTEX
  8
1
 10
3.4925
 20
9.9060
 30
0.0000
 42
1.0000
  0
VERTEX
  8
1
 10
3.4925
 20
9.7790
 30
0.0000
  0
SEQEND
  8
0
  0
POLYLINE
  8
1
 66
1
 10
0.0000
 20
0.0000
 30
0.0000
 40
0.2540
 41
0.2540
 70
0
  0
VERTEX
  8
1
 10
3.4925
 20
13.6525
 30
0.0000
  0
VERTEX
  8
1
 10
3.4925
 20
9.8425
 30
0.0000
  0
SEQEND
  8
0
  0
POLYLINE
  8
1
 66
1
 10
0.0000
 20
0.0000
 30
0.0000
 40
0.1270
 41
0.1270
 70
0
  0
VERTEX
  8
1
 10
3.4290
 20
9.8425
 30
0.0000
 42
1.0000
  0
VERTEX
  8
1
 10
3.5560
 20
9.8425
 30
0.0000
  0
SEQEND
  8
0
  0
POLYLINE
  8
1
 66
1
 10
0.0000
 20
0.0000
 30
0.0000
 40
0.1270
 41
0.1270
 70
0
  0
VERTEX
  8
1
 10
3.5560
 20
13.6525
 30
0.0000
 42
1.0000
  0
VERTEX
  8
1
 10
3.4290
 20
13.6525
 30
0.0000
  0
SEQEND
  8
0
  0
POLYLINE
  8
1
 66
1
 10
0.0000
 20
0.0000
 30
0.0000
 40
0.2540
 41
0.2540
 70
0
  0
VERTEX
  8
1
 10
10.1600
 20
19.6850
 30
0.0000
  0
VERTEX
  8
1
 10
3.4925
 20
13.6525
 30
0.0000
  0
SEQEND
  8
0
  0
POLYLINE
  8
1
 66
1
 10
0.0000
 20
0.0000
 30
0.0000
 40
0.1270
 41
0.1270
 70
0
  0
VERTEX
  8
1
 10
3.4499
 20
13.6996
 30
0.0000
 42
1.0000
  0
VERTEX
  8
1
 10
3.5351
 20
13.6054
 30
0.0000
  0
SEQEND
  8
0
  0
POLYLINE
  8
1
 66
1
 10
0.0000
 20
0.0000
 30
0.0000
 40
0.1270
 41
0.1270
 70
0
  0
VERTEX
  8
1
 10
10.2026
 20
19.6379
 30
0.0000
 42
1.0000
  0
VERTEX
  8
1
 10
10.1174
 20
19.7321
 30
0.0000
  0
SEQEND
  8
0
  0
POLYLINE
  8
1
 66
1
 10
0.0000
 20
0.0000
 30
0.0000
 40
0.2540
 41
0.2540
 70
0
  0
VERTEX
  8
1
 10
11.7475
 20
19.6850
 30
0.0000
  0
VERTEX
  8
1
 10
10.1600
 20
19.6850
 30
0.0000
  0
SEQEND
  8
0
  0
POLYLINE
  8
1
 66
1
 10
0.0000
 20
0.0000
 30
0.0000
 40
0.1270
 41
0.1270
 70
0
  0
VERTEX
  8
1
 10
10.1600
 20
19.7485
 30
0.0000
 42
1.0000
  0
VERTEX
  8
1
 10
10.1600
 20
19.6215
 30
0.0000
  0
SEQEND
  8
0
  0
POLYLINE
  8
1
 66
1
 10
0.0000
 20
0.0000
 30
0.0000
 40
0.1270
 41
0.1270
 70
0
  0
VERTEX
  8
1
 10
11.7475
 20
19.6215
 30
0.0000
 42
1.0000
  0
VERTEX
  8
1
 10
11.7475
 20
19.7485
 30
0.0000
  0
SEQEND
  8
0
  0
POLYLINE
  8
1
 66
1
 10
0.0000
 20
0.0000
 30
0.0000
 40
0.2540
 41
0.2540
 70
0
  0
VERTEX
  8
1
 10
11.7475
 20
22.5425
 30
0.0000
  0
VERTEX
  8
1
 10
11.7475
 20
19.6850
 30
0.0000
  0
SEQEND
  8
0
  0
POLYLINE
  8
1
 66
1
 10
0.0000
 20
0.0000
 30
0.0000
 40
0.1270
 41
0.1270
 70
0
  0
VERTEX
  8
1
 10
11.6840
 20
19.6850
 30
0.0000
 42
1.0000
  0
VERTEX
  8
1
 10
11.8110
 20
19.6850
 30
0.0000
  0
SEQEND
  8
0
  0
POLYLINE
  8
1
 66
1
 10
0.0000
 20
0.0000
 30
0.0000
 40
0.1270
 41
0.1270
 70
0
  0
VERTEX
  8
1
 10
11.8110
 20
22.5425
 30
0.0000
 42
1.0000
  0
VERTEX
  8
1
 10
11.6840
 20
22.5425
 30
0.0000
  0
SEQEND
  8
0
  0
POLYLINE
  8
1
 66
1
 10
0.0000
 20
0.0000
 30
0.0000
 40
0.2540
 41
0.2540
 70
0
  0
VERTEX
  8
1
 10
10.1600
 20
23.4950
 30
0.0000
  0
VERTEX
  8
1
 10
11.7475
 20
22.5425
 30
0.0000
  0
SEQEND
  8
0
  0
POLYLINE
  8
1
 66
1
 10
0.0000
 20
0.0000
 30
0.0000
 40
0.1270
 41
0.1270
 70
0
  0
VERTEX
  8
1
 10
11.7148
 20
22.4880
 30
0.0000
 42
1.0000
  0
VERTEX
  8
1
 10
11.7802
 20
22.5970
 30
0.0000
  0
SEQEND
  8
0
  0
POLYLINE
  8
1
 66
1
 10
0.0000
 20
0.0000
 30
0.0000
 40
0.1270
 41
0.1270
 70
0
  0
VERTEX
  8
1
 10
10.1927
 20
23.5495
 30
0.0000
 42
1.0000
  0
VERTEX
  8
1
 10
10.1273
 20
23.4405
 30
0.0000
  0
SEQEND
  8
0
  0
POLYLINE
  8
1
 66
1
 10
0.0000
 20
0.0000
 30
0.0000
 40
0.2540
 41
0.2540
 70
0
  0
VERTEX
  8
1
 10
9.5460
 20
23.4950
 30
0.0000
  0
VERTEX
  8
1
 10
10.1600
 20
23.4950
 30
0.0000
  0
SEQEND
  8
0
  0
POLYLINE
  8
1
 66
1
 10
0.0000
 20
0.0000
 30
0.0000
 40
0.1270
 41
0.1270
 70
0
  0
VERTEX
  8
1
 10
10.1600
 20
23.4315
 30
0.0000
 42
1.0000
  0
VERTEX
  8
1
 10
10.1600
 20
23.5585
 30
0.0000
  0
SEQEND
  8
0
  0
POLYLINE
  8
1
 66
1
 10
0.0000
 20
0.0000
 30
0.0000
 40
0.1270
 41
0.1270
 70
0
  0
VERTEX
  8
1
 10
9.5460
 20
23.5585
 30
0.0000
 42
1.0000
  0
VERTEX
  8
1
 10
9.5460
 20
23.4315
 30
0.0000
  0
SEQEND
  8
0
  0
POLYLINE
  8
1
 66
1
 10
0.0000
 20
0.0000
 30
0.0000
 40
0.2540
 41
0.2540
 70
0
  0
VERTEX
  8
1
 10
6.9850
 20
24.7650
 30
0.0000
  0
VERTEX
  8
1
 10
8.2550
 20
24.7650
 30
0.0000
  0
SEQEND
  8
0
  0
POLYLINE
  8
1
 66
1
 10
0.0000
 20
0.0000
 30
0.0000
 40
0.1270
 41
0.1270
 70
0
  0
VERTEX
  8
1
 10
8.2550
 20
24.7015
 30
0.0000
 42
1.0000
  0
VERTEX
  8
1
 10
8.2550
 20
24.8285
 30
0.0000
  0
SEQEND
  8
0
  0
POLYLINE
  8
1
 66
1
 10
0.0000
 20
0.0000
 30
0.0000
 40
0.1270
 41
0.1270
 70
0
  0
VERTEX
  8
1
 10
6.9850
 20
24.8285
 30
0.0000
 42
1.0000
  0
VERTEX
  8
1
 10
6.9850
 20
24.7015
 30
0.0000
  0
SEQEND
  8
0
  0
POLYLINE
  8
1
 66
1
 10
0.0000
 20
0.0000
 30
0.0000
 40
0.2540
 41
0.2540
 70
0
  0
VERTEX
  8
1
 10
8.2550
 20
24.7650
 30
0.0000
  0
VERTEX
  8
1
 10
9.5460
 20
24.7650
 30
0.0000
  0
SEQEND
  8
0
  0
POLYLINE
  8
1
 66
1
 10
0.0000
 20
0.0000
 30
0.0000
 40
0.1270
 41
0.1270
 70
0
  0
VERTEX
  8
1
 10
9.5460
 20
24.7015
 30
0.0000
 42
1.0000
  0
VERTEX
  8
1
 10
9.5460
 20
24.8285
 30
0.0000
  0
SEQEND
  8
0
  0
POLYLINE
  8
1
 66
1
 10
0.0000
 20
0.0000
 30
0.0000
 40
0.1270
 41
0.1270
 70
0
  0
VERTEX
  8
1
 10
8.2550
 20
24.8285
 30
0.0000
 42
1.0000
  0
VERTEX
  8
1
 10
8.2550
 20
24.7015
 30
0.0000
  0
SEQEND
  8
0
  0
POLYLINE
  8
1
 66
1
 10
0.0000
 20
0.0000
 30
0.0000
 40
0.2540
 41
0.2540
 70
0
  0
VERTEX
  8
1
 10
5.0800
 20
26.6700
 30
0.0000
  0
VERTEX
  8
1
 10
6.9850
 20
24.7650
 30
0.0000
  0
SEQEND
  8
0
  0
POLYLINE
  8
1
 66
1
 10
0.0000
 20
0.0000
 30
0.0000
 40
0.1270
 41
0.1270
 70
0
  0
VERTEX
  8
1
 10
6.9401
 20
24.7201
 30
0.0000
 42
1.0000
  0
VERTEX
  8
1
 10
7.0299
 20
24.8099
 30
0.0000
  0
SEQEND
  8
0
  0
POLYLINE
  8
1
 66
1
 10
0.0000
 20
0.0000
 30
0.0000
 40
0.1270
 41
0.1270
 70
0
  0
VERTEX
  8
1
 10
5.1249
 20
26.7149
 30
0.0000
 42
1.0000
  0
VERTEX
  8
1
 10
5.0351
 20
26.6251
 30
0.0000
  0
SEQEND
  8
0
  0
POLYLINE
  8
1
 66
1
 10
0.0000
 20
0.0000
 30
0.0000
 40
0.2540
 41
0.2540
 70
0
  0
VERTEX
  8
1
 10
12.0650
 20
31.7500
 30
0.0000
  0
VERTEX
  8
1
 10
15.6200
 20
31.7500
 30
0.0000
  0
SEQEND
  8
0
  0
POLYLINE
  8
1
 66
1
 10
0.0000
 20
0.0000
 30
0.0000
 40
0.1270
 41
0.1270
 70
0
  0
VERTEX
  8
1
 10
15.6200
 20
31.6865
 30
0.0000
 42
1.0000
  0
VERTEX
  8
1
 10
15.6200
 20
31.8135
 30
0.0000
  0
SEQEND
  8
0
  0
POLYLINE
  8
1
 66
1
 10
0.0000
 20
0.0000
 30
0.0000
 40
0.1270
 41
0.1270
 70
0
  0
VERTEX
  8
1
 10
12.0650
 20
31.8135
 30
0.0000
 42
1.0000
  0
VERTEX
  8
1
 10
12.0650
 20
31.6865
 30
0.0000
  0
SEQEND
  8
0
  0
POLYLINE
  8
1
 66
1
 10
0.0000
 20
0.0000
 30
0.0000
 40
0.2540
 41
0.2540
 70
0
  0
VERTEX
  8
1
 10
12.0650
 20
31.1150
 30
0.0000
  0
VERTEX
  8
1
 10
12.0650
 20
31.7500
 30
0.0000
  0
SEQEND
  8
0
  0
POLYLINE
  8
1
 66
1
 10
0.0000
 20
0.0000
 30
0.0000
 40
0.1270
 41
0.1270
 70
0
  0
VERTEX
  8
1
 10
12.1285
 20
31.7500
 30
0.0000
 42
1.0000
  0
VERTEX
  8
1
 10
12.0015
 20
31.7500
 30
0.0000
  0
SEQEND
  8
0
  0
POLYLINE
  8
1
 66
1
 10
0.0000
 20
0.0000
 30
0.0000
 40
0.1270
 41
0.1270
 70
0
  0
VERTEX
  8
1
 10
12.0015
 20
31.1150
 30
0.0000
 42
1.0000
  0
VERTEX
  8
1
 10
12.1285
 20
31.1150
 30
0.0000
  0
SEQEND
  8
0
  0
POLYLINE
  8
1
 66
1
 10
0.0000
 20
0.0000
 30
0.0000
 40
0.2540
 41
0.2540
 70
0
  0
VERTEX
  8
1
 10
11.4300
 20
30.4800
 30
0.0000
  0
VERTEX
  8
1
 10
12.0650
 20
31.1150
 30
0.0000
  0
SEQEND
  8
0
  0
POLYLINE
  8
1
 66
1
 10
0.0000
 20
0.0000
 30
0.0000
 40
0.1270
 41
0.1270
 70
0
  0
VERTEX
  8
1
 10
12.1099
 20
31.0701
 30
0.0000
 42
1.0000
  0
VERTEX
  8
1
 10
12.0201
 20
31.1599
 30
0.0000
  0
SEQEND
  8
0
  0
POLYLINE
  8
1
 66
1
 10
0.0000
 20
0.0000
 30
0.0000
 40
0.1270
 41
0.1270
 70
0
  0
VERTEX
  8
1
 10
11.3851
 20
30.5249
 30
0.0000
 42
1.0000
  0
VERTEX
  8
1
 10
11.4749
 20
30.4351
 30
0.0000
  0
SEQEND
  8
0
  0
POLYLINE
  8
1
 66
1
 10
0.0000
 20
0.0000
 30
0.0000
 40
0.2540
 41
0.2540
 70
0
  0
VERTEX
  8
1
 10
8.2550
 20
30.4800
 30
0.0000
  0
VERTEX
  8
1
 10
11.4300
 20
30.4800
 30
0.0000
  0
SEQEND
  8
0
  0
POLYLINE
  8
1
 66
1
 10
0.0000
 20
0.0000
 30
0.0000
 40
0.1270
 41
0.1270
 70
0
  0
VERTEX
  8
1
 10
11.4300
 20
30.4165
 30
0.0000
 42
1.0000
  0
VERTEX
  8
1
 10
11.4300
 20
30.5435
 30
0.0000
  0
SEQEND
  8
0
  0
POLYLINE
  8
1
 66
1
 10
0.0000
 20
0.0000
 30
0.0000
 40
0.1270
 41
0.1270
 70
0
  0
VERTEX
  8
1
 10
8.2550
 20
30.5435
 30
0.0000
 42
1.0000
  0
VERTEX
  8
1
 10
8.2550
 20
30.4165
 30
0.0000
  0
SEQEND
  8
0
  0
POLYLINE
  8
1
 66
1
 10
0.0000
 20
0.0000
 30
0.0000
 40
0.2540
 41
0.2540
 70
0
  0
VERTEX
  8
1
 10
8.2550
 20
24.7650
 30
0.0000
  0
VERTEX
  8
1
 10
8.2550
 20
30.4800
 30
0.0000
  0
SEQEND
  8
0
  0
POLYLINE
  8
1
 66
1
 10
0.0000
 20
0.0000
 30
0.0000
 40
0.1270
 41
0.1270
 70
0
  0
VERTEX
  8
1
 10
8.3185
 20
30.4800
 30
0.0000
 42
1.0000
  0
VERTEX
  8
1
 10
8.1915
 20
30.4800
 30
0.0000
  0
SEQEND
  8
0
  0
POLYLINE
  8
1
 66
1
 10
0.0000
 20
0.0000
 30
0.0000
 40
0.1270
 41
0.1270
 70
0
  0
VERTEX
  8
1
 10
8.1915
 20
24.7650
 30
0.0000
 42
1.0000
  0
VERTEX
  8
1
 10
8.3185
 20
24.7650
 30
0.0000
  0
SEQEND
  8
0
  0
POLYLINE
  8
1
 66
1
 10
0.0000
 20
0.0000
 30
0.0000
 40
0.2540
 41
0.2540
 70
0
  0
VERTEX
  8
1
 10
8.5725
 20
12.3825
 30
0.0000
  0
VERTEX
  8
1
 10
8.8900
 20
12.0650
 30
0.0000
  0
SEQEND
  8
0
  0
POLYLINE
  8
1
 66
1
 10
0.0000
 20
0.0000
 30
0.0000
 40
0.1270
 41
0.1270
 70
0
  0
VERTEX
  8
1
 10
8.8451
 20
12.0201
 30
0.0000
 42
1.0000
  0
VERTEX
  8
1
 10
8.9349
 20
12.1099
 30
0.0000
  0
SEQEND
  8
0
  0
POLYLINE
  8
1
 66
1
 10
0.0000
 20
0.0000
 30
0.0000
 40
0.1270
 41
0.1270
 70
0
  0
VERTEX
  8
1
 10
8.6174
 20
12.4274
 30
0.0000
 42
1.0000
  0
VERTEX
  8
1
 10
8.5276
 20
12.3376
 30
0.0000
  0
SEQEND
  8
0
  0
POLYLINE
  8
1
 66
1
 10
0.0000
 20
0.0000
 30
0.0000
 40
0.2540
 41
0.2540
 70
0
  0
VERTEX
  8
1
 10
8.5725
 20
15.2400
 30
0.0000
  0
VERTEX
  8
1
 10
8.5725
 20
12.3825
 30
0.0000
  0
SEQEND
  8
0
  0
POLYLINE
  8
1
 66
1
 10
0.0000
 20
0.0000
 30
0.0000
 40
0.1270
 41
0.1270
 70
0
  0
VERTEX
  8
1
 10
8.5090
 20
12.3825
 30
0.0000
 42
1.0000
  0
VERTEX
  8
1
 10
8.6360
 20
12.3825
 30
0.0000
  0
SEQEND
  8
0
  0
POLYLINE
  8
1
 66
1
 10
0.0000
 20
0.0000
 30
0.0000
 40
0.1270
 41
0.1270
 70
0
  0
VERTEX
  8
1
 10
8.6360
 20
15.2400
 30
0.0000
 42
1.0000
  0
VERTEX
  8
1
 10
8.5090
 20
15.2400
 30
0.0000
  0
SEQEND
  8
0
  0
POLYLINE
  8
1
 66
1
 10
0.0000
 20
0.0000
 30
0.0000
 40
0.2540
 41
0.2540
 70
0
  0
VERTEX
  8
1
 10
8.8900
 20
12.0650
 30
0.0000
  0
VERTEX
  8
1
 10
8.8900
 20
11.8110
 30
0.0000
  0
SEQEND
  8
0
  0
POLYLINE
  8
1
 66
1
 10
0.0000
 20
0.0000
 30
0.0000
 40
0.1270
 41
0.1270
 70
0
  0
VERTEX
  8
1
 10
8.8265
 20
11.8110
 30
0.0000
 42
1.0000
  0
VERTEX
  8
1
 10
8.9535
 20
11.8110
 30
0.0000
  0
SEQEND
  8
0
  0
POLYLINE
  8
1
 66
1
 10
0.0000
 20
0.0000
 30
0.0000
 40
0.1270
 41
0.1270
 70
0
  0
VERTEX
  8
1
 10
8.9535
 20
12.0650
 30
0.0000
 42
1.0000
  0
VERTEX
  8
1
 10
8.8265
 20
12.0650
 30
0.0000
  0
SEQEND
  8
0
  0
POLYLINE
  8
1
 66
1
 10
0.0000
 20
0.0000
 30
0.0000
 40
0.2540
 41
0.2540
 70
0
  0
VERTEX
  8
1
 10
8.5725
 20
15.2400
 30
0.0000
  0
VERTEX
  8
1
 10
8.5090
 20
15.2400
 30
0.0000
  0
SEQEND
  8
0
  0
POLYLINE
  8
1
 66
1
 10
0.0000
 20
0.0000
 30
0.0000
 40
0.1270
 41
0.1270
 70
0
  0
VERTEX
  8
1
 10
8.5090
 20
15.3035
 30
0.0000
 42
1.0000
  0
VERTEX
  8
1
 10
8.5090
 20
15.1765
 30
0.0000
  0
SEQEND
  8
0
  0
POLYLINE
  8
1
 66
1
 10
0.0000
 20
0.0000
 30
0.0000
 40
0.1270
 41
0.1270
 70
0
  0
VERTEX
  8
1
 10
8.5725
 20
15.1765
 30
0.0000
 42
1.0000
  0
VERTEX
  8
1
 10
8.5725
 20
15.3035
 30
0.0000
  0
SEQEND
  8
0
  0
POLYLINE
  8
1
 66
1
 10
0.0000
 20
0.0000
 30
0.0000
 40
0.2540
 41
0.2540
 70
0
  0
VERTEX
  8
1
 10
17.7800
 20
12.0650
 30
0.0000
  0
VERTEX
  8
1
 10
12.7000
 20
12.0650
 30
0.0000
  0
SEQEND
  8
0
  0
POLYLINE
  8
1
 66
1
 10
0.0000
 20
0.0000
 30
0.0000
 40
0.1270
 41
0.1270
 70
0
  0
VERTEX
  8
1
 10
12.7000
 20
12.1285
 30
0.0000
 42
1.0000
  0
VERTEX
  8
1
 10
12.7000
 20
12.0015
 30
0.0000
  0
SEQEND
  8
0
  0
POLYLINE
  8
1
 66
1
 10
0.0000
 20
0.0000
 30
0.0000
 40
0.1270
 41
0.1270
 70
0
  0
VERTEX
  8
1
 10
17.7800
 20
12.0015
 30
0.0000
 42
1.0000
  0
VERTEX
  8
1
 10
17.7800
 20
12.1285
 30
0.0000
  0
SEQEND
  8
0
  0
POLYLINE
  8
1
 66
1
 10
0.0000
 20
0.0000
 30
0.0000
 40
0.2540
 41
0.2540
 70
0
  0
VERTEX
  8
1
 10
17.7800
 20
14.6050
 30
0.0000
  0
VERTEX
  8
1
 10
17.7800
 20
12.0650
 30
0.0000
  0
SEQEND
  8
0
  0
POLYLINE
  8
1
 66
1
 10
0.0000
 20
0.0000
 30
0.0000
 40
0.1270
 41
0.1270
 70
0
  0
VERTEX
  8
1
 10
17.7165
 20
12.0650
 30
0.0000
 42
1.0000
  0
VERTEX
  8
1
 10
17.8435
 20
12.0650
 30
0.0000
  0
SEQEND
  8
0
  0
POLYLINE
  8
1
 66
1
 10
0.0000
 20
0.0000
 30
0.0000
 40
0.1270
 41
0.1270
 70
0
  0
VERTEX
  8
1
 10
17.8435
 20
14.6050
 30
0.0000
 42
1.0000
  0
VERTEX
  8
1
 10
17.7165
 20
14.6050
 30
0.0000
  0
SEQEND
  8
0
  0
POLYLINE
  8
1
 66
1
 10
0.0000
 20
0.0000
 30
0.0000
 40
0.2540
 41
0.2540
 70
0
  0
VERTEX
  8
1
 10
12.7000
 20
12.0650
 30
0.0000
  0
VERTEX
  8
1
 10
12.7000
 20
11.8110
 30
0.0000
  0
SEQEND
  8
0
  0
POLYLINE
  8
1
 66
1
 10
0.0000
 20
0.0000
 30
0.0000
 40
0.1270
 41
0.1270
 70
0
  0
VERTEX
  8
1
 10
12.6365
 20
11.8110
 30
0.0000
 42
1.0000
  0
VERTEX
  8
1
 10
12.7635
 20
11.8110
 30
0.0000
  0
SEQEND
  8
0
  0
POLYLINE
  8
1
 66
1
 10
0.0000
 20
0.0000
 30
0.0000
 40
0.1270
 41
0.1270
 70
0
  0
VERTEX
  8
1
 10
12.7635
 20
12.0650
 30
0.0000
 42
1.0000
  0
VERTEX
  8
1
 10
12.6365
 20
12.0650
 30
0.0000
  0
SEQEND
  8
0
  0
POLYLINE
  8
1
 66
1
 10
0.0000
 20
0.0000
 30
0.0000
 40
0.2540
 41
0.2540
 70
0
  0
VERTEX
  8
1
 10
17.7800
 20
14.6050
 30
0.0000
  0
VERTEX
  8
1
 10
18.0340
 20
14.7320
 30
0.0000
  0
SEQEND
  8
0
  0
POLYLINE
  8
1
 66
1
 10
0.0000
 20
0.0000
 30
0.0000
 40
0.1270
 41
0.1270
 70
0
  0
VERTEX
  8
1
 10
18.0624
 20
14.6752
 30
0.0000
 42
1.0000
  0
VERTEX
  8
1
 10
18.0056
 20
14.7888
 30
0.0000
  0
SEQEND
  8
0
  0
POLYLINE
  8
1
 66
1
 10
0.0000
 20
0.0000
 30
0.0000
 40
0.1270
 41
0.1270
 70
0
  0
VERTEX
  8
1
 10
17.7516
 20
14.6618
 30
0.0000
 42
1.0000
  0
VERTEX
  8
1
 10
17.8084
 20
14.5482
 30
0.0000
  0
SEQEND
  8
0
  0
POLYLINE
  8
1
 66
1
 10
0.0000
 20
0.0000
 30
0.0000
 40
0.2540
 41
0.2540
 70
0
  0
VERTEX
  8
1
 10
17.7800
 20
19.0500
 30
0.0000
  0
VERTEX
  8
1
 10
17.4625
 20
19.3675
 30
0.0000
  0
SEQEND
  8
0
  0
POLYLINE
  8
1
 66
1
 10
0.0000
 20
0.0000
 30
0.0000
 40
0.1270
 41
0.1270
 70
0
  0
VERTEX
  8
1
 10
17.5074
 20
19.4124
 30
0.0000
 42
1.0000
  0
VERTEX
  8
1
 10
17.4176
 20
19.3226
 30
0.0000
  0
SEQEND
  8
0
  0
POLYLINE
  8
1
 66
1
 10
0.0000
 20
0.0000
 30
0.0000
 40
0.1270
 41
0.1270
 70
0
  0
VERTEX
  8
1
 10
17.7351
 20
19.0051
 30
0.0000
 42
1.0000
  0
VERTEX
  8
1
 10
17.8249
 20
19.0949
 30
0.0000
  0
SEQEND
  8
0
  0
POLYLINE
  8
1
 66
1
 10
0.0000
 20
0.0000
 30
0.0000
 40
0.2540
 41
0.2540
 70
0
  0
VERTEX
  8
1
 10
17.4625
 20
19.3675
 30
0.0000
  0
VERTEX
  8
1
 10
15.8750
 20
20.9550
 30
0.0000
  0
SEQEND
  8
0
  0
POLYLINE
  8
1
 66
1
 10
0.0000
 20
0.0000
 30
0.0000
 40
0.1270
 41
0.1270
 70
0
  0
VERTEX
  8
1
 10
15.9199
 20
20.9999
 30
0.0000
 42
1.0000
  0
VERTEX
  8
1
 10
15.8301
 20
20.9101
 30
0.0000
  0
SEQEND
  8
0
  0
POLYLINE
  8
1
 66
1
 10
0.0000
 20
0.0000
 30
0.0000
 40
0.1270
 41
0.1270
 70
0
  0
VERTEX
  8
1
 10
17.4176
 20
19.3226
 30
0.0000
 42
1.0000
  0
VERTEX
  8
1
 10
17.5074
 20
19.4124
 30
0.0000
  0
SEQEND
  8
0
  0
POLYLINE
  8
1
 66
1
 10
0.0000
 20
0.0000
 30
0.0000
 40
0.2540
 41
0.2540
 70
0
  0
VERTEX
  8
1
 10
17.7800
 20
14.9225
 30
0.0000
  0
VERTEX
  8
1
 10
17.7800
 20
18.4150
 30
0.0000
  0
SEQEND
  8
0
  0
POLYLINE
  8
1
 66
1
 10
0.0000
 20
0.0000
 30
0.0000
 40
0.1270
 41
0.1270
 70
0
  0
VERTEX
  8
1
 10
17.8435
 20
18.4150
 30
0.0000
 42
1.0000
  0
VERTEX
  8
1
 10
17.7165
 20
18.4150
 30
0.0000
  0
SEQEND
  8
0
  0
POLYLINE
  8
1
 66
1
 10
0.0000
 20
0.0000
 30
0.0000
 40
0.1270
 41
0.1270
 70
0
  0
VERTEX
  8
1
 10
17.7165
 20
14.9225
 30
0.0000
 42
1.0000
  0
VERTEX
  8
1
 10
17.8435
 20
14.9225
 30
0.0000
  0
SEQEND
  8
0
  0
POLYLINE
  8
1
 66
1
 10
0.0000
 20
0.0000
 30
0.0000
 40
0.2540
 41
0.2540
 70
0
  0
VERTEX
  8
1
 10
17.7800
 20
18.4150
 30
0.0000
  0
VERTEX
  8
1
 10
17.7800
 20
19.0500
 30
0.0000
  0
SEQEND
  8
0
  0
POLYLINE
  8
1
 66
1
 10
0.0000
 20
0.0000
 30
0.0000
 40
0.1270
 41
0.1270
 70
0
  0
VERTEX
  8
1
 10
17.8435
 20
19.0500
 30
0.0000
 42
1.0000
  0
VERTEX
  8
1
 10
17.7165
 20
19.0500
 30
0.0000
  0
SEQEND
  8
0
  0
POLYLINE
  8
1
 66
1
 10
0.0000
 20
0.0000
 30
0.0000
 40
0.1270
 41
0.1270
 70
0
  0
VERTEX
  8
1
 10
17.7165
 20
18.4150
 30
0.0000
 42
1.0000
  0
VERTEX
  8
1
 10
17.8435
 20
18.4150
 30
0.0000
  0
SEQEND
  8
0
  0
POLYLINE
  8
1
 66
1
 10
0.0000
 20
0.0000
 30
0.0000
 40
0.2540
 41
0.2540
 70
0
  0
VERTEX
  8
1
 10
15.8750
 20
20.9550
 30
0.0000
  0
VERTEX
  8
1
 10
15.8540
 20
20.9550
 30
0.0000
  0
SEQEND
  8
0
  0
POLYLINE
  8
1
 66
1
 10
0.0000
 20
0.0000
 30
0.0000
 40
0.1270
 41
0.1270
 70
0
  0
VERTEX
  8
1
 10
15.8540
 20
21.0185
 30
0.0000
 42
1.0000
  0
VERTEX
  8
1
 10
15.8540
 20
20.8915
 30
0.0000
  0
SEQEND
  8
0
  0
POLYLINE
  8
1
 66
1
 10
0.0000
 20
0.0000
 30
0.0000
 40
0.1270
 41
0.1270
 70
0
  0
VERTEX
  8
1
 10
15.8750
 20
20.8915
 30
0.0000
 42
1.0000
  0
VERTEX
  8
1
 10
15.8750
 20
21.0185
 30
0.0000
  0
SEQEND
  8
0
  0
POLYLINE
  8
1
 66
1
 10
0.0000
 20
0.0000
 30
0.0000
 40
0.2540
 41
0.2540
 70
0
  0
VERTEX
  8
1
 10
17.7800
 20
14.9225
 30
0.0000
  0
VERTEX
  8
1
 10
18.0340
 20
14.7320
 30
0.0000
  0
SEQEND
  8
0
  0
POLYLINE
  8
1
 66
1
 10
0.0000
 20
0.0000
 30
0.0000
 40
0.1270
 41
0.1270
 70
0
  0
VERTEX
  8
1
 10
17.9959
 20
14.6812
 30
0.0000
 42
1.0000
  0
VERTEX
  8
1
 10
18.0721
 20
14.7828
 30
0.0000
  0
SEQEND
  8
0
  0
POLYLINE
  8
1
 66
1
 10
0.0000
 20
0.0000
 30
0.0000
 40
0.1270
 41
0.1270
 70
0
  0
VERTEX
  8
1
 10
17.8181
 20
14.9733
 30
0.0000
 42
1.0000
  0
VERTEX
  8
1
 10
17.7419
 20
14.8717
 30
0.0000
  0
SEQEND
  8
0
  0
POLYLINE
  8
1
 66
1
 10
0.0000
 20
0.0000
 30
0.0000
 40
0.2540
 41
0.2540
 70
0
  0
VERTEX
  8
1
 10
17.7800
 20
12.0650
 30
0.0000
  0
VERTEX
  8
1
 10
17.7800
 20
8.2550
 30
0.0000
  0
SEQEND
  8
0
  0
POLYLINE
  8
1
 66
1
 10
0.0000
 20
0.0000
 30
0.0000
 40
0.1270
 41
0.1270
 70
0
  0
VERTEX
  8
1
 10
17.7165
 20
8.2550
 30
0.0000
 42
1.0000
  0
VERTEX
  8
1
 10
17.8435
 20
8.2550
 30
0.0000
  0
SEQEND
  8
0
  0
POLYLINE
  8
1
 66
1
 10
0.0000
 20
0.0000
 30
0.0000
 40
0.1270
 41
0.1270
 70
0
  0
VERTEX
  8
1
 10
17.8435
 20
12.0650
 30
0.0000
 42
1.0000
  0
VERTEX
  8
1
 10
17.7165
 20
12.0650
 30
0.0000
  0
SEQEND
  8
0
  0
POLYLINE
  8
1
 66
1
 10
0.0000
 20
0.0000
 30
0.0000
 40
0.2540
 41
0.2540
 70
0
  0
VERTEX
  8
1
 10
17.7800
 20
8.2550
 30
0.0000
  0
VERTEX
  8
1
 10
18.0340
 20
8.1280
 30
0.0000
  0
SEQEND
  8
0
  0
POLYLINE
  8
1
 66
1
 10
0.0000
 20
0.0000
 30
0.0000
 40
0.1270
 41
0.1270
 70
0
  0
VERTEX
  8
1
 10
18.0056
 20
8.0712
 30
0.0000
 42
1.0000
  0
VERTEX
  8
1
 10
18.0624
 20
8.1848
 30
0.0000
  0
SEQEND
  8
0
  0
POLYLINE
  8
1
 66
1
 10
0.0000
 20
0.0000
 30
0.0000
 40
0.1270
 41
0.1270
 70
0
  0
VERTEX
  8
1
 10
17.8084
 20
8.3118
 30
0.0000
 42
1.0000
  0
VERTEX
  8
1
 10
17.7516
 20
8.1982
 30
0.0000
  0
SEQEND
  8
0
  0
POLYLINE
  8
1
 66
1
 10
0.0000
 20
0.0000
 30
0.0000
 40
0.2540
 41
0.2540
 70
0
  0
VERTEX
  8
1
 10
14.2875
 20
25.0825
 30
0.0000
  0
VERTEX
  8
1
 10
10.1600
 20
29.2100
 30
0.0000
  0
SEQEND
  8
0
  0
POLYLINE
  8
1
 66
1
 10
0.0000
 20
0.0000
 30
0.0000
 40
0.1270
 41
0.1270
 70
0
  0
VERTEX
  8
1
 10
10.2049
 20
29.2549
 30
0.0000
 42
1.0000
  0
VERTEX
  8
1
 10
10.1151
 20
29.1651
 30
0.0000
  0
SEQEND
  8
0
  0
POLYLINE
  8
1
 66
1
 10
0.0000
 20
0.0000
 30
0.0000
 40
0.1270
 41
0.1270
 70
0
  0
VERTEX
  8
1
 10
14.2426
 20
25.0376
 30
0.0000
 42
1.0000
  0
VERTEX
  8
1
 10
14.3324
 20
25.1274
 30
0.0000
  0
SEQEND
  8
0
  0
POLYLINE
  8
1
 66
1
 10
0.0000
 20
0.0000
 30
0.0000
 40
0.2540
 41
0.2540
 70
0
  0
VERTEX
  8
1
 10
14.2875
 20
21.9075
 30
0.0000
  0
VERTEX
  8
1
 10
14.2875
 20
25.0825
 30
0.0000
  0
SEQEND
  8
0
  0
POLYLINE
  8
1
 66
1
 10
0.0000
 20
0.0000
 30
0.0000
 40
0.1270
 41
0.1270
 70
0
  0
VERTEX
  8
1
 10
14.3510
 20
25.0825
 30
0.0000
 42
1.0000
  0
VERTEX
  8
1
 10
14.2240
 20
25.0825
 30
0.0000
  0
SEQEND
  8
0
  0
POLYLINE
  8
1
 66
1
 10
0.0000
 20
0.0000
 30
0.0000
 40
0.1270
 41
0.1270
 70
0
  0
VERTEX
  8
1
 10
14.2240
 20
21.9075
 30
0.0000
 42
1.0000
  0
VERTEX
  8
1
 10
14.3510
 20
21.9075
 30
0.0000
  0
SEQEND
  8
0
  0
POLYLINE
  8
1
 66
1
 10
0.0000
 20
0.0000
 30
0.0000
 40
0.2540
 41
0.2540
 70
0
  0
VERTEX
  8
1
 10
17.7800
 20
18.4150
 30
0.0000
  0
VERTEX
  8
1
 10
14.2875
 20
21.9075
 30
0.0000
  0
SEQEND
  8
0
  0
POLYLINE
  8
1
 66
1
 10
0.0000
 20
0.0000
 30
0.0000
 40
0.1270
 41
0.1270
 70
0
  0
VERTEX
  8
1
 10
14.3324
 20
21.9524
 30
0.0000
 42
1.0000
  0
VERTEX
  8
1
 10
14.2426
 20
21.8626
 30
0.0000
  0
SEQEND
  8
0
  0
POLYLINE
  8
1
 66
1
 10
0.0000
 20
0.0000
 30
0.0000
 40
0.1270
 41
0.1270
 70
0
  0
VERTEX
  8
1
 10
17.7351
 20
18.3701
 30
0.0000
 42
1.0000
  0
VERTEX
  8
1
 10
17.8249
 20
18.4599
 30
0.0000
  0
SEQEND
  8
0
  0
POLYLINE
  8
1
 66
1
 10
0.0000
 20
0.0000
 30
0.0000
 40
0.2540
 41
0.2540
 70
0
  0
VERTEX
  8
1
 10
17.4625
 20
23.8125
 30
0.0000
  0
VERTEX
  8
1
 10
20.3200
 20
26.6700
 30
0.0000
  0
SEQEND
  8
0
  0
POLYLINE
  8
1
 66
1
 10
0.0000
 20
0.0000
 30
0.0000
 40
0.1270
 41
0.1270
 70
0
  0
VERTEX
  8
1
 10
20.3649
 20
26.6251
 30
0.0000
 42
1.0000
  0
VERTEX
  8
1
 10
20.2751
 20
26.7149
 30
0.0000
  0
SEQEND
  8
0
  0
POLYLINE
  8
1
 66
1
 10
0.0000
 20
0.0000
 30
0.0000
 40
0.1270
 41
0.1270
 70
0
  0
VERTEX
  8
1
 10
17.4176
 20
23.8574
 30
0.0000
 42
1.0000
  0
VERTEX
  8
1
 10
17.5074
 20
23.7676
 30
0.0000
  0
SEQEND
  8
0
  0
POLYLINE
  8
1
 66
1
 10
0.0000
 20
0.0000
 30
0.0000
 40
0.2540
 41
0.2540
 70
0
  0
VERTEX
  8
1
 10
17.4625
 20
19.3675
 30
0.0000
  0
VERTEX
  8
1
 10
17.4625
 20
23.8125
 30
0.0000
  0
SEQEND
  8
0
  0
POLYLINE
  8
1
 66
1
 10
0.0000
 20
0.0000
 30
0.0000
 40
0.1270
 41
0.1270
 70
0
  0
VERTEX
  8
1
 10
17.5260
 20
23.8125
 30
0.0000
 42
1.0000
  0
VERTEX
  8
1
 10
17.3990
 20
23.8125
 30
0.0000
  0
SEQEND
  8
0
  0
POLYLINE
  8
1
 66
1
 10
0.0000
 20
0.0000
 30
0.0000
 40
0.1270
 41
0.1270
 70
0
  0
VERTEX
  8
1
 10
17.3990
 20
19.3675
 30
0.0000
 42
1.0000
  0
VERTEX
  8
1
 10
17.5260
 20
19.3675
 30
0.0000
  0
SEQEND
  8
0
  0
POLYLINE
  8
1
 66
1
 10
0.0000
 20
0.0000
 30
0.0000
 40
0.2540
 41
0.2540
 70
0
  0
VERTEX
  8
1
 10
5.0800
 20
22.2250
 30
0.0000
  0
VERTEX
  8
1
 10
9.5460
 20
22.2250
 30
0.0000
  0
SEQEND
  8
0
  0
POLYLINE
  8
1
 66
1
 10
0.0000
 20
0.0000
 30
0.0000
 40
0.1270
 41
0.1270
 70
0
  0
VERTEX
  8
1
 10
9.5460
 20
22.1615
 30
0.0000
 42
1.0000
  0
VERTEX
  8
1
 10
9.5460
 20
22.2885
 30
0.0000
  0
SEQEND
  8
0
  0
POLYLINE
  8
1
 66
1
 10
0.0000
 20
0.0000
 30
0.0000
 40
0.1270
 41
0.1270
 70
0
  0
VERTEX
  8
1
 10
5.0800
 20
22.2885
 30
0.0000
 42
1.0000
  0
VERTEX
  8
1
 10
5.0800
 20
22.1615
 30
0.0000
  0
SEQEND
  8
0
  0
POLYLINE
  8
1
 66
1
 10
0.0000
 20
0.0000
 30
0.0000
 40
0.2540
 41
0.2540
 70
0
  0
VERTEX
  8
1
 10
5.0800
 20
21.5900
 30
0.0000
  0
VERTEX
  8
1
 10
5.0800
 20
22.2250
 30
0.0000
  0
SEQEND
  8
0
  0
POLYLINE
  8
1
 66
1
 10
0.0000
 20
0.0000
 30
0.0000
 40
0.1270
 41
0.1270
 70
0
  0
VERTEX
  8
1
 10
5.1435
 20
22.2250
 30
0.0000
 42
1.0000
  0
VERTEX
  8
1
 10
5.0165
 20
22.2250
 30
0.0000
  0
SEQEND
  8
0
  0
POLYLINE
  8
1
 66
1
 10
0.0000
 20
0.0000
 30
0.0000
 40
0.1270
 41
0.1270
 70
0
  0
VERTEX
  8
1
 10
5.0165
 20
21.5900
 30
0.0000
 42
1.0000
  0
VERTEX
  8
1
 10
5.1435
 20
21.5900
 30
0.0000
  0
SEQEND
  8
0
  0
POLYLINE
  8
1
 66
1
 10
0.0000
 20
0.0000
 30
0.0000
 40
0.2540
 41
0.2540
 70
0
  0
VERTEX
  8
1
 10
2.8575
 20
31.7500
 30
0.0000
  0
VERTEX
  8
1
 10
10.1600
 20
31.7500
 30
0.0000
  0
SEQEND
  8
0
  0
POLYLINE
  8
1
 66
1
 10
0.0000
 20
0.0000
 30
0.0000
 40
0.1270
 41
0.1270
 70
0
  0
VERTEX
  8
1
 10
10.1600
 20
31.6865
 30
0.0000
 42
1.0000
  0
VERTEX
  8
1
 10
10.1600
 20
31.8135
 30
0.0000
  0
SEQEND
  8
0
  0
POLYLINE
  8
1
 66
1
 10
0.0000
 20
0.0000
 30
0.0000
 40
0.1270
 41
0.1270
 70
0
  0
VERTEX
  8
1
 10
2.8575
 20
31.8135
 30
0.0000
 42
1.0000
  0
VERTEX
  8
1
 10
2.8575
 20
31.6865
 30
0.0000
  0
SEQEND
  8
0
  0
POLYLINE
  8
1
 66
1
 10
0.0000
 20
0.0000
 30
0.0000
 40
0.2540
 41
0.2540
 70
0
  0
VERTEX
  8
1
 10
2.8575
 20
23.4950
 30
0.0000
  0
VERTEX
  8
1
 10
2.8575
 20
31.7500
 30
0.0000
  0
SEQEND
  8
0
  0
POLYLINE
  8
1
 66
1
 10
0.0000
 20
0.0000
 30
0.0000
 40
0.1270
 41
0.1270
 70
0
  0
VERTEX
  8
1
 10
2.9210
 20
31.7500
 30
0.0000
 42
1.0000
  0
VERTEX
  8
1
 10
2.7940
 20
31.7500
 30
0.0000
  0
SEQEND
  8
0
  0
POLYLINE
  8
1
 66
1
 10
0.0000
 20
0.0000
 30
0.0000
 40
0.1270
 41
0.1270
 70
0
  0
VERTEX
  8
1
 10
2.7940
 20
23.4950
 30
0.0000
 42
1.0000
  0
VERTEX
  8
1
 10
2.9210
 20
23.4950
 30
0.0000
  0
SEQEND
  8
0
  0
POLYLINE
  8
1
 66
1
 10
0.0000
 20
0.0000
 30
0.0000
 40
0.2540
 41
0.2540
 70
0
  0
VERTEX
  8
1
 10
5.0800
 20
21.5900
 30
0.0000
  0
VERTEX
  8
1
 10
2.8575
 20
23.4950
 30
0.0000
  0
SEQEND
  8
0
  0
POLYLINE
  8
1
 66
1
 10
0.0000
 20
0.0000
 30
0.0000
 40
0.1270
 41
0.1270
 70
0
  0
VERTEX
  8
1
 10
2.8988
 20
23.5432
 30
0.0000
 42
1.0000
  0
VERTEX
  8
1
 10
2.8162
 20
23.4468
 30
0.0000
  0
SEQEND
  8
0
  0
POLYLINE
  8
1
 66
1
 10
0.0000
 20
0.0000
 30
0.0000
 40
0.1270
 41
0.1270
 70
0
  0
VERTEX
  8
1
 10
5.0387
 20
21.5418
 30
0.0000
 42
1.0000
  0
VERTEX
  8
1
 10
5.1213
 20
21.6382
 30
0.0000
  0
SEQEND
  8
0
  0
POLYLINE
  8
1
 66
1
 10
0.0000
 20
0.0000
 30
0.0000
 40
0.2540
 41
0.2540
 70
0
  0
VERTEX
  8
1
 10
8.8900
 20
6.9850
 30
0.0000
  0
VERTEX
  8
1
 10
5.0800
 20
6.9850
 30
0.0000
  0
SEQEND
  8
0
  0
POLYLINE
  8
1
 66
1
 10
0.0000
 20
0.0000
 30
0.0000
 40
0.1270
 41
0.1270
 70
0
  0
VERTEX
  8
1
 10
5.0800
 20
7.0485
 30
0.0000
 42
1.0000
  0
VERTEX
  8
1
 10
5.0800
 20
6.9215
 30
0.0000
  0
SEQEND
  8
0
  0
POLYLINE
  8
1
 66
1
 10
0.0000
 20
0.0000
 30
0.0000
 40
0.1270
 41
0.1270
 70
0
  0
VERTEX
  8
1
 10
8.8900
 20
6.9215
 30
0.0000
 42
1.0000
  0
VERTEX
  8
1
 10
8.8900
 20
7.0485
 30
0.0000
  0
SEQEND
  8
0
  0
POLYLINE
  8
1
 66
1
 10
0.0000
 20
0.0000
 30
0.0000
 40
0.2540
 41
0.2540
 70
0
  0
VERTEX
  8
1
 10
8.8900
 20
6.9850
 30
0.0000
  0
VERTEX
  8
1
 10
12.7000
 20
6.9850
 30
0.0000
  0
SEQEND
  8
0
  0
POLYLINE
  8
1
 66
1
 10
0.0000
 20
0.0000
 30
0.0000
 40
0.1270
 41
0.1270
 70
0
  0
VERTEX
  8
1
 10
12.7000
 20
6.9215
 30
0.0000
 42
1.0000
  0
VERTEX
  8
1
 10
12.7000
 20
7.0485
 30
0.0000
  0
SEQEND
  8
0
  0
POLYLINE
  8
1
 66
1
 10
0.0000
 20
0.0000
 30
0.0000
 40
0.1270
 41
0.1270
 70
0
  0
VERTEX
  8
1
 10
8.8900
 20
7.0485
 30
0.0000
 42
1.0000
  0
VERTEX
  8
1
 10
8.8900
 20
6.9215
 30
0.0000
  0
SEQEND
  8
0
  0
POLYLINE
  8
1
 66
1
 10
0.0000
 20
0.0000
 30
0.0000
 40
0.2540
 41
0.2540
 70
0
  0
VERTEX
  8
1
 10
12.7000
 20
6.9850
 30
0.0000
  0
VERTEX
  8
1
 10
12.7000
 20
8.5090
 30
0.0000
  0
SEQEND
  8
0
  0
POLYLINE
  8
1
 66
1
 10
0.0000
 20
0.0000
 30
0.0000
 40
0.1270
 41
0.1270
 70
0
  0
VERTEX
  8
1
 10
12.7635
 20
8.5090
 30
0.0000
 42
1.0000
  0
VERTEX
  8
1
 10
12.6365
 20
8.5090
 30
0.0000
  0
SEQEND
  8
0
  0
POLYLINE
  8
1
 66
1
 10
0.0000
 20
0.0000
 30
0.0000
 40
0.1270
 41
0.1270
 70
0
  0
VERTEX
  8
1
 10
12.6365
 20
6.9850
 30
0.0000
 42
1.0000
  0
VERTEX
  8
1
 10
12.7635
 20
6.9850
 30
0.0000
  0
SEQEND
  8
0
  0
POLYLINE
  8
1
 66
1
 10
0.0000
 20
0.0000
 30
0.0000
 40
0.2540
 41
0.2540
 70
0
  0
VERTEX
  8
1
 10
8.8900
 20
6.9850
 30
0.0000
  0
VERTEX
  8
1
 10
8.8900
 20
8.5090
 30
0.0000
  0
SEQEND
  8
0
  0
POLYLINE
  8
1
 66
1
 10
0.0000
 20
0.0000
 30
0.0000
 40
0.1270
 41
0.1270
 70
0
  0
VERTEX
  8
1
 10
8.9535
 20
8.5090
 30
0.0000
 42
1.0000
  0
VERTEX
  8
1
 10
8.8265
 20
8.5090
 30
0.0000
  0
SEQEND
  8
0
  0
POLYLINE
  8
1
 66
1
 10
0.0000
 20
0.0000
 30
0.0000
 40
0.1270
 41
0.1270
 70
0
  0
VERTEX
  8
1
 10
8.8265
 20
6.9850
 30
0.0000
 42
1.0000
  0
VERTEX
  8
1
 10
8.9535
 20
6.9850
 30
0.0000
  0
SEQEND
  8
0
  0
POLYLINE
  8
1
 66
1
 10
0.0000
 20
0.0000
 30
0.0000
 40
0.2540
 41
0.2540
 70
0
  0
VERTEX
  8
1
 10
6.9850
 20
20.9550
 30
0.0000
  0
VERTEX
  8
1
 10
9.5460
 20
20.9550
 30
0.0000
  0
SEQEND
  8
0
  0
POLYLINE
  8
1
 66
1
 10
0.0000
 20
0.0000
 30
0.0000
 40
0.1270
 41
0.1270
 70
0
  0
VERTEX
  8
1
 10
9.5460
 20
20.8915
 30
0.0000
 42
1.0000
  0
VERTEX
  8
1
 10
9.5460
 20
21.0185
 30
0.0000
  0
SEQEND
  8
0
  0
POLYLINE
  8
1
 66
1
 10
0.0000
 20
0.0000
 30
0.0000
 40
0.1270
 41
0.1270
 70
0
  0
VERTEX
  8
1
 10
6.9850
 20
21.0185
 30
0.0000
 42
1.0000
  0
VERTEX
  8
1
 10
6.9850
 20
20.8915
 30
0.0000
  0
SEQEND
  8
0
  0
POLYLINE
  8
1
 66
1
 10
0.0000
 20
0.0000
 30
0.0000
 40
0.2540
 41
0.2540
 70
0
  0
VERTEX
  8
1
 10
5.0800
 20
19.0500
 30
0.0000
  0
VERTEX
  8
1
 10
6.9850
 20
20.9550
 30
0.0000
  0
SEQEND
  8
0
  0
POLYLINE
  8
1
 66
1
 10
0.0000
 20
0.0000
 30
0.0000
 40
0.1270
 41
0.1270
 70
0
  0
VERTEX
  8
1
 10
7.0299
 20
20.9101
 30
0.0000
 42
1.0000
  0
VERTEX
  8
1
 10
6.9401
 20
20.9999
 30
0.0000
  0
SEQEND
  8
0
  0
POLYLINE
  8
1
 66
1
 10
0.0000
 20
0.0000
 30
0.0000
 40
0.1270
 41
0.1270
 70
0
  0
VERTEX
  8
1
 10
5.0351
 20
19.0949
 30
0.0000
 42
1.0000
  0
VERTEX
  8
1
 10
5.1249
 20
19.0051
 30
0.0000
  0
SEQEND
  8
0
  0
POLYLINE
  8
1
 66
1
 10
0.0000
 20
0.0000
 30
0.0000
 40
0.2540
 41
0.2540
 70
0
  0
VERTEX
  8
1
 10
13.3350
 20
34.2900
 30
0.0000
  0
VERTEX
  8
1
 10
15.6200
 20
34.2900
 30
0.0000
  0
SEQEND
  8
0
  0
POLYLINE
  8
1
 66
1
 10
0.0000
 20
0.0000
 30
0.0000
 40
0.1270
 41
0.1270
 70
0
  0
VERTEX
  8
1
 10
15.6200
 20
34.2265
 30
0.0000
 42
1.0000
  0
VERTEX
  8
1
 10
15.6200
 20
34.3535
 30
0.0000
  0
SEQEND
  8
0
  0
POLYLINE
  8
1
 66
1
 10
0.0000
 20
0.0000
 30
0.0000
 40
0.1270
 41
0.1270
 70
0
  0
VERTEX
  8
1
 10
13.3350
 20
34.3535
 30
0.0000
 42
1.0000
  0
VERTEX
  8
1
 10
13.3350
 20
34.2265
 30
0.0000
  0
SEQEND
  8
0
  0
POLYLINE
  8
1
 66
1
 10
0.0000
 20
0.0000
 30
0.0000
 40
0.2540
 41
0.2540
 70
0
  0
VERTEX
  8
1
 10
12.0650
 20
35.5600
 30
0.0000
  0
VERTEX
  8
1
 10
13.3350
 20
34.2900
 30
0.0000
  0
SEQEND
  8
0
  0
POLYLINE
  8
1
 66
1
 10
0.0000
 20
0.0000
 30
0.0000
 40
0.1270
 41
0.1270
 70
0
  0
VERTEX
  8
1
 10
13.2901
 20
34.2451
 30
0.0000
 42
1.0000
  0
VERTEX
  8
1
 10
13.3799
 20
34.3349
 30
0.0000
  0
SEQEND
  8
0
  0
POLYLINE
  8
1
 66
1
 10
0.0000
 20
0.0000
 30
0.0000
 40
0.1270
 41
0.1270
 70
0
  0
VERTEX
  8
1
 10
12.1099
 20
35.6049
 30
0.0000
 42
1.0000
  0
VERTEX
  8
1
 10
12.0201
 20
35.5151
 30
0.0000
  0
SEQEND
  8
0
  0
POLYLINE
  8
1
 66
1
 10
0.0000
 20
0.0000
 30
0.0000
 40
0.2540
 41
0.2540
 70
0
  0
VERTEX
  8
1
 10
1.9050
 20
35.5600
 30
0.0000
  0
VERTEX
  8
1
 10
12.0650
 20
35.5600
 30
0.0000
  0
SEQEND
  8
0
  0
POLYLINE
  8
1
 66
1
 10
0.0000
 20
0.0000
 30
0.0000
 40
0.1270
 41
0.1270
 70
0
  0
VERTEX
  8
1
 10
12.0650
 20
35.4965
 30
0.0000
 42
1.0000
  0
VERTEX
  8
1
 10
12.0650
 20
35.6235
 30
0.0000
  0
SEQEND
  8
0
  0
POLYLINE
  8
1
 66
1
 10
0.0000
 20
0.0000
 30
0.0000
 40
0.1270
 41
0.1270
 70
0
  0
VERTEX
  8
1
 10
1.9050
 20
35.6235
 30
0.0000
 42
1.0000
  0
VERTEX
  8
1
 10
1.9050
 20
35.4965
 30
0.0000
  0
SEQEND
  8
0
  0
POLYLINE
  8
1
 66
1
 10
0.0000
 20
0.0000
 30
0.0000
 40
0.2540
 41
0.2540
 70
0
  0
VERTEX
  8
1
 10
1.9050
 20
22.2250
 30
0.0000
  0
VERTEX
  8
1
 10
1.9050
 20
35.5600
 30
0.0000
  0
SEQEND
  8
0
  0
POLYLINE
  8
1
 66
1
 10
0.0000
 20
0.0000
 30
0.0000
 40
0.1270
 41
0.1270
 70
0
  0
VERTEX
  8
1
 10
1.9685
 20
35.5600
 30
0.0000
 42
1.0000
  0
VERTEX
  8
1
 10
1.8415
 20
35.5600
 30
0.0000
  0
SEQEND
  8
0
  0
POLYLINE
  8
1
 66
1
 10
0.0000
 20
0.0000
 30
0.0000
 40
0.1270
 41
0.1270
 70
0
  0
VERTEX
  8
1
 10
1.8415
 20
22.2250
 30
0.0000
 42
1.0000
  0
VERTEX
  8
1
 10
1.9685
 20
22.2250
 30
0.0000
  0
SEQEND
  8
0
  0
POLYLINE
  8
1
 66
1
 10
0.0000
 20
0.0000
 30
0.0000
 40
0.2540
 41
0.2540
 70
0
  0
VERTEX
  8
1
 10
5.0800
 20
19.0500
 30
0.0000
  0
VERTEX
  8
1
 10
2.8575
 20
21.2725
 30
0.0000
  0
SEQEND
  8
0
  0
POLYLINE
  8
1
 66
1
 10
0.0000
 20
0.0000
 30
0.0000
 40
0.1270
 41
0.1270
 70
0
  0
VERTEX
  8
1
 10
2.9024
 20
21.3174
 30
0.0000
 42
1.0000
  0
VERTEX
  8
1
 10
2.8126
 20
21.2276
 30
0.0000
  0
SEQEND
  8
0
  0
POLYLINE
  8
1
 66
1
 10
0.0000
 20
0.0000
 30
0.0000
 40
0.1270
 41
0.1270
 70
0
  0
VERTEX
  8
1
 10
5.0351
 20
19.0051
 30
0.0000
 42
1.0000
  0
VERTEX
  8
1
 10
5.1249
 20
19.0949
 30
0.0000
  0
SEQEND
  8
0
  0
POLYLINE
  8
1
 66
1
 10
0.0000
 20
0.0000
 30
0.0000
 40
0.2540
 41
0.2540
 70
0
  0
VERTEX
  8
1
 10
2.8575
 20
21.2725
 30
0.0000
  0
VERTEX
  8
1
 10
1.9050
 20
22.2250
 30
0.0000
  0
SEQEND
  8
0
  0
POLYLINE
  8
1
 66
1
 10
0.0000
 20
0.0000
 30
0.0000
 40
0.1270
 41
0.1270
 70
0
  0
VERTEX
  8
1
 10
1.9499
 20
22.2699
 30
0.0000
 42
1.0000
  0
VERTEX
  8
1
 10
1.8601
 20
22.1801
 30
0.0000
  0
SEQEND
  8
0
  0
POLYLINE
  8
1
 66
1
 10
0.0000
 20
0.0000
 30
0.0000
 40
0.1270
 41
0.1270
 70
0
  0
VERTEX
  8
1
 10
2.8126
 20
21.2276
 30
0.0000
 42
1.0000
  0
VERTEX
  8
1
 10
2.9024
 20
21.3174
 30
0.0000
  0
SEQEND
  8
0
  0
POLYLINE
  8
1
 66
1
 10
0.0000
 20
0.0000
 30
0.0000
 40
0.2540
 41
0.2540
 70
0
  0
VERTEX
  8
1
 10
2.8575
 20
6.9850
 30
0.0000
  0
VERTEX
  8
1
 10
5.0800
 20
6.9850
 30
0.0000
  0
SEQEND
  8
0
  0
POLYLINE
  8
1
 66
1
 10
0.0000
 20
0.0000
 30
0.0000
 40
0.1270
 41
0.1270
 70
0
  0
VERTEX
  8
1
 10
5.0800
 20
6.9215
 30
0.0000
 42
1.0000
  0
VERTEX
  8
1
 10
5.0800
 20
7.0485
 30
0.0000
  0
SEQEND
  8
0
  0
POLYLINE
  8
1
 66
1
 10
0.0000
 20
0.0000
 30
0.0000
 40
0.1270
 41
0.1270
 70
0
  0
VERTEX
  8
1
 10
2.8575
 20
7.0485
 30
0.0000
 42
1.0000
  0
VERTEX
  8
1
 10
2.8575
 20
6.9215
 30
0.0000
  0
SEQEND
  8
0
  0
POLYLINE
  8
1
 66
1
 10
0.0000
 20
0.0000
 30
0.0000
 40
0.2540
 41
0.2540
 70
0
  0
VERTEX
  8
1
 10
2.8575
 20
21.2725
 30
0.0000
  0
VERTEX
  8
1
 10
2.8575
 20
6.9850
 30
0.0000
  0
SEQEND
  8
0
  0
POLYLINE
  8
1
 66
1
 10
0.0000
 20
0.0000
 30
0.0000
 40
0.1270
 41
0.1270
 70
0
  0
VERTEX
  8
1
 10
2.7940
 20
6.9850
 30
0.0000
 42
1.0000
  0
VERTEX
  8
1
 10
2.9210
 20
6.9850
 30
0.0000
  0
SEQEND
  8
0
  0
POLYLINE
  8
1
 66
1
 10
0.0000
 20
0.0000
 30
0.0000
 40
0.1270
 41
0.1270
 70
0
  0
VERTEX
  8
1
 10
2.9210
 20
21.2725
 30
0.0000
 42
1.0000
  0
VERTEX
  8
1
 10
2.7940
 20
21.2725
 30
0.0000
  0
SEQEND
  8
0
  0
POLYLINE
  8
1
 66
1
 10
0.0000
 20
0.0000
 30
0.0000
 40
0.2540
 41
0.2540
 70
0
  0
VERTEX
  8
1
 10
5.0800
 20
6.9850
 30
0.0000
  0
VERTEX
  8
1
 10
5.0800
 20
8.5090
 30
0.0000
  0
SEQEND
  8
0
  0
POLYLINE
  8
1
 66
1
 10
0.0000
 20
0.0000
 30
0.0000
 40
0.1270
 41
0.1270
 70
0
  0
VERTEX
  8
1
 10
5.1435
 20
8.5090
 30
0.0000
 42
1.0000
  0
VERTEX
  8
1
 10
5.0165
 20
8.5090
 30
0.0000
  0
SEQEND
  8
0
  0
POLYLINE
  8
1
 66
1
 10
0.0000
 20
0.0000
 30
0.0000
 40
0.1270
 41
0.1270
 70
0
  0
VERTEX
  8
1
 10
5.0165
 20
6.9850
 30
0.0000
 42
1.0000
  0
VERTEX
  8
1
 10
5.1435
 20
6.9850
 30
0.0000
  0
SEQEND
  8
0
  0
ENDSEC
  0
EOF
