  0
SECTION
  2
HEADER
  9
$ACADVER
  1
AC1014
  9
$ACADMAINTVER
 70
     9
  9
$DWGCODEPAGE
  3
ANSI_1252
  9
$INSBASE
 10
0.0
 20
0.0
 30
0.0
  9
$EXTMIN
 10
1070.0
 20
-1473.0
 30
0.0
  9
$EXTMAX
 10
2290.0
 20
967.0
 30
0.0
  9
$LIMMIN
 10
0.0
 20
0.0
  9
$LIMMAX
 10
12.0
 20
9.0
  9
$ORTHOMODE
 70
     0
  9
$REGENMODE
 70
     1
  9
$FILLMODE
 70
     1
  9
$QTEXTMODE
 70
     0
  9
$MIRRTEXT
 70
     1
  9
$DRAGMODE
 70
     2
  9
$LTSCALE
 40
1.0
  9
$OSMODE
 70
    37
  9
$ATTMODE
 70
     1
  9
$TEXTSIZE
 40
0.2
  9
$TRACEWID
 40
0.05
  9
$TEXTSTYLE
  7
STANDARD
  9
$CLAYER
  8
DEFAULT
  9
$CELTYPE
  6
BYLAYER
  9
$CECOLOR
 62
   256
  9
$CELTSCALE
 40
1.0
  9
$DELOBJ
 70
     1
  9
$DISPSILH
 70
     0
  9
$DIMSCALE
 40
1.0
  9
$DIMASZ
 40
0.18
  9
$DIMEXO
 40
0.0625
  9
$DIMDLI
 40
0.38
  9
$DIMRND
 40
0.0
  9
$DIMDLE
 40
0.0
  9
$DIMEXE
 40
0.18
  9
$DIMTP
 40
0.0
  9
$DIMTM
 40
0.0
  9
$DIMTXT
 40
0.18
  9
$DIMCEN
 40
0.09
  9
$DIMTSZ
 40
0.0
  9
$DIMTOL
 70
     0
  9
$DIMLIM
 70
     0
  9
$DIMTIH
 70
     1
  9
$DIMTOH
 70
     1
  9
$DIMSE1
 70
     0
  9
$DIMSE2
 70
     0
  9
$DIMTAD
 70
     0
  9
$DIMZIN
 70
     0
  9
$DIMBLK
  1

  9
$DIMASO
 70
     1
  9
$DIMSHO
 70
     1
  9
$DIMPOST
  1

  9
$DIMAPOST
  1

  9
$DIMALT
 70
     0
  9
$DIMALTD
 70
     2
  9
$DIMALTF
 40
25.4
  9
$DIMLFAC
 40
1.0
  9
$DIMTOFL
 70
     0
  9
$DIMTVP
 40
0.0
  9
$DIMTIX
 70
     0
  9
$DIMSOXD
 70
     0
  9
$DIMSAH
 70
     0
  9
$DIMBLK1
  1

  9
$DIMBLK2
  1

  9
$DIMSTYLE
  2
STANDARD
  9
$DIMCLRD
 70
     0
  9
$DIMCLRE
 70
     0
  9
$DIMCLRT
 70
     0
  9
$DIMTFAC
 40
1.0
  9
$DIMGAP
 40
0.09
  9
$DIMJUST
 70
     0
  9
$DIMSD1
 70
     0
  9
$DIMSD2
 70
     0
  9
$DIMTOLJ
 70
     1
  9
$DIMTZIN
 70
     0
  9
$DIMALTZ
 70
     0
  9
$DIMALTTZ
 70
     0
  9
$DIMFIT
 70
     5
  9
$DIMUPT
 70
     0
  9
$DIMUNIT
 70
     2
  9
$DIMDEC
 70
     4
  9
$DIMTDEC
 70
     4
  9
$DIMALTU
 70
     2
  9
$DIMALTTD
 70
     2
  9
$DIMTXSTY
  7
STANDARD
  9
$DIMAUNIT
 70
     0
  9
$LUNITS
 70
     2
  9
$LUPREC
 70
     2
  9
$SKETCHINC
 40
0.1
  9
$FILLETRAD
 40
0.5
  9
$AUNITS
 70
     0
  9
$AUPREC
 70
     0
  9
$MENU
  1
.
  9
$ELEVATION
 40
0.0
  9
$PELEVATION
 40
0.0
  9
$THICKNESS
 40
0.0
  9
$LIMCHECK
 70
     0
  9
$CHAMFERA
 40
0.0
  9
$CHAMFERB
 40
0.0
  9
$CHAMFERC
 40
0.0
  9
$CHAMFERD
 40
0.0
  9
$SKPOLY
 70
     0
  9
$TDCREATE
 40
2457826.869493009
  9
$TDUPDATE
 40
2457826.869526713
  9
$TDINDWG
 40
0.0000000116
  9
$TDUSRTIMER
 40
0.0000000116
  9
$USRTIMER
 70
     1
  9
$ANGBASE
 50
0.0
  9
$ANGDIR
 70
     0
  9
$PDMODE
 70
     0
  9
$PDSIZE
 40
0.0
  9
$PLINEWID
 40
0.0
  9
$COORDS
 70
     1
  9
$SPLFRAME
 70
     0
  9
$SPLINETYPE
 70
     6
  9
$SPLINESEGS
 70
     8
  9
$ATTDIA
 70
     0
  9
$ATTREQ
 70
     1
  9
$HANDLING
 70
     1
  9
$HANDSEED
  5
40D
  9
$SURFTAB1
 70
     6
  9
$SURFTAB2
 70
     6
  9
$SURFTYPE
 70
     6
  9
$SURFU
 70
     6
  9
$SURFV
 70
     6
  9
$UCSNAME
  2

  9
$UCSORG
 10
0.0
 20
0.0
 30
0.0
  9
$UCSXDIR
 10
1.0
 20
0.0
 30
0.0
  9
$UCSYDIR
 10
0.0
 20
1.0
 30
0.0
  9
$PUCSNAME
  2

  9
$PUCSORG
 10
0.0
 20
0.0
 30
0.0
  9
$PUCSXDIR
 10
1.0
 20
0.0
 30
0.0
  9
$PUCSYDIR
 10
0.0
 20
1.0
 30
0.0
  9
$USERI1
 70
     0
  9
$USERI2
 70
     0
  9
$USERI3
 70
     0
  9
$USERI4
 70
     0
  9
$USERI5
 70
     0
  9
$USERR1
 40
0.0
  9
$USERR2
 40
0.0
  9
$USERR3
 40
0.0
  9
$USERR4
 40
0.0
  9
$USERR5
 40
0.0
  9
$WORLDVIEW
 70
     1
  9
$SHADEDGE
 70
     3
  9
$SHADEDIF
 70
    70
  9
$TILEMODE
 70
     1
  9
$MAXACTVP
 70
    64
  9
$PINSBASE
 10
0.0
 20
0.0
 30
0.0
  9
$PLIMCHECK
 70
     0
  9
$PEXTMIN
 10
1.000000000000000E+20
 20
1.000000000000000E+20
 30
1.000000000000000E+20
  9
$PEXTMAX
 10
-1.000000000000000E+20
 20
-1.000000000000000E+20
 30
-1.000000000000000E+20
  9
$PLIMMIN
 10
0.0
 20
0.0
  9
$PLIMMAX
 10
12.0
 20
9.0
  9
$UNITMODE
 70
     0
  9
$VISRETAIN
 70
     1
  9
$PLINEGEN
 70
     0
  9
$PSLTSCALE
 70
     1
  9
$TREEDEPTH
 70
  3020
  9
$PICKSTYLE
 70
     1
  9
$CMLSTYLE
  2
STANDARD
  9
$CMLJUST
 70
     0
  9
$CMLSCALE
 40
1.0
  9
$PROXYGRAPHICS
 70
     1
  9
$MEASUREMENT
 70
     0
  0
ENDSEC
  0
SECTION
  2
CLASSES
  0
CLASS
  1
ACDBDICTIONARYWDFLT
  2
AcDbDictionaryWithDefault
  3
ObjectDBX Classes
 90
        0
280
     0
281
     0
  0
CLASS
  1
VISUALSTYLE
  2
AcDbVisualStyle
  3
ObjectDBX Classes
 90
     4095
280
     0
281
     0
  0
CLASS
  1
MATERIAL
  2
AcDbMaterial
  3
ObjectDBX Classes
 90
     1153
280
     0
281
     0
  0
CLASS
  1
SCALE
  2
AcDbScale
  3
ObjectDBX Classes
 90
     1153
280
     0
281
     0
  0
CLASS
  1
TABLESTYLE
  2
AcDbTableStyle
  3
ObjectDBX Classes
 90
     4095
280
     0
281
     0
  0
CLASS
  1
MLEADERSTYLE
  2
AcDbMLeaderStyle
  3
ACDB_MLEADERSTYLE_CLASS
 90
     4095
280
     0
281
     0
  0
CLASS
  1
SUN
  2
AcDbSun
  3
SCENEOE
 90
     1153
280
     0
281
     0
  0
CLASS
  1
DICTIONARYVAR
  2
AcDbDictionaryVar
  3
ObjectDBX Classes
 90
        0
280
     0
281
     0
  0
CLASS
  1
XRECORD
  2
AcDbXrecord
  3
ObjectDBX Classes
 90
        0
280
     0
281
     0
  0
CLASS
  1
LWPOLYLINE
  2
AcDbPolyline
  3
ObjectDBX Classes
 90
        0
280
     0
281
     1
  0
CLASS
  1
HATCH
  2
AcDbHatch
  3
ObjectDBX Classes
 90
        0
280
     0
281
     1
  0
CLASS
  1
ACDBPLACEHOLDER
  2
AcDbPlaceHolder
  3
ObjectDBX Classes
 90
        0
280
     0
281
     0
  0
CLASS
  1
LAYOUT
  2
AcDbLayout
  3
ObjectDBX Classes
 90
        0
280
     0
281
     0
  0
ENDSEC
  0
SECTION
  2
TABLES
  0
TABLE
  2
VPORT
  5
8
102
{ACAD_XDICTIONARY
360
402
102
}
330
0
100
AcDbSymbolTable
 70
     1
  0
VPORT
  5
29
330
8
100
AcDbSymbolTableRecord
100
AcDbViewportTableRecord
  2
*ACTIVE
 70
     0
 10
0.0
 20
0.0
 11
1.0
 21
1.0
 12
1680.0
 22
-253.0
 13
0.0
 23
0.0
 14
0.5
 24
0.5
 15
0.5
 25
0.5
 16
0.0
 26
0.0
 36
1.0
 17
0.0
 27
0.0
 37
0.0
 40
2488.8
 41
0.5
 42
50.0
 43
0.0
 44
0.0
 50
0.0
 51
0.0
 71
     0
 72
   100
 73
     1
 74
     3
 75
     0
 76
     0
 77
     0
 78
     0
  0
ENDTAB
  0
TABLE
  2
LTYPE
  5
5
330
0
100
AcDbSymbolTable
 70
     1
  0
LTYPE
  5
14
330
5
100
AcDbSymbolTableRecord
100
AcDbLinetypeTableRecord
  2
BYBLOCK
 70
     0
  3

 72
    65
 73
     0
 40
0.0
  0
LTYPE
  5
15
330
5
100
AcDbSymbolTableRecord
100
AcDbLinetypeTableRecord
  2
BYLAYER
 70
     0
  3

 72
    65
 73
     0
 40
0.0
  0
LTYPE
  5
16
330
5
100
AcDbSymbolTableRecord
100
AcDbLinetypeTableRecord
  2
CONTINUOUS
 70
     0
  3
Solid line
 72
    65
 73
     0
 40
0.0
  0
ENDTAB
  0
TABLE
  2
LAYER
  5
2
330
0
100
AcDbSymbolTable
 70
     3
  0
LAYER
  5
10
330
2
100
AcDbSymbolTableRecord
100
AcDbLayerTableRecord
  2
0
 70
     0
 62
     7
  6
CONTINUOUS
  0
LAYER
  5
6E
330
2
100
AcDbSymbolTableRecord
100
AcDbLayerTableRecord
  2
DEFAULT
 70
     0
 62
    18
  6
CONTINUOUS
  0
LAYER
  5
7F
330
2
100
AcDbSymbolTableRecord
100
AcDbLayerTableRecord
  2
MAKE2D$VISIBLE$LINES
 70
     0
 62
    18
  6
CONTINUOUS
  0
ENDTAB
  0
TABLE
  2
STYLE
  5
3
330
0
100
AcDbSymbolTable
 70
     1
  0
STYLE
  5
11
330
3
100
AcDbSymbolTableRecord
100
AcDbTextStyleTableRecord
  2
STANDARD
 70
     0
 40
0.0
 41
1.0
 50
0.0
 71
     0
 42
0.2
  3
txt
  4

  0
ENDTAB
  0
TABLE
  2
VIEW
  5
6
330
0
100
AcDbSymbolTable
 70
     0
  0
ENDTAB
  0
TABLE
  2
UCS
  5
7
330
0
100
AcDbSymbolTable
 70
     0
  0
ENDTAB
  0
TABLE
  2
APPID
  5
9
330
0
100
AcDbSymbolTable
 70
     2
  0
APPID
  5
12
330
9
100
AcDbSymbolTableRecord
100
AcDbRegAppTableRecord
  2
ACAD
 70
     0
  0
APPID
  5
40C
330
9
100
AcDbSymbolTableRecord
100
AcDbRegAppTableRecord
  2
ACAD_MLEADERVER
 70
     0
  0
ENDTAB
  0
TABLE
  2
DIMSTYLE
  5
A
330
0
100
AcDbSymbolTable
 70
     1
  0
DIMSTYLE
105
27
330
A
100
AcDbSymbolTableRecord
100
AcDbDimStyleTableRecord
  2
STANDARD
 70
     0
  3

  4

  5

  6

  7

 40
1.0
 41
0.18
 42
0.0625
 43
0.38
 44
0.18
 45
0.0
 46
0.0
 47
0.0
 48
0.0
140
0.18
141
0.09
142
0.0
143
25.4
144
1.0
145
0.0
146
1.0
147
0.09
 71
     0
 72
     0
 73
     1
 74
     1
 75
     0
 76
     0
 77
     0
 78
     0
170
     0
171
     2
172
     0
173
     0
174
     0
175
     0
176
     0
177
     0
178
     0
270
     2
271
     4
272
     4
273
     2
274
     2
340
11
275
     0
280
     0
281
     0
282
     0
283
     1
284
     0
285
     0
286
     0
287
     3
288
     0
  0
ENDTAB
  0
TABLE
  2
BLOCK_RECORD
  5
1
330
0
100
AcDbSymbolTable
 70
     1
  0
BLOCK_RECORD
  5
1F
330
1
100
AcDbSymbolTableRecord
100
AcDbBlockTableRecord
  2
*MODEL_SPACE
  0
BLOCK_RECORD
  5
1B
330
1
100
AcDbSymbolTableRecord
100
AcDbBlockTableRecord
  2
*PAPER_SPACE
  0
ENDTAB
  0
ENDSEC
  0
SECTION
  2
BLOCKS
  0
BLOCK
  5
20
330
1F
100
AcDbEntity
  8
0
100
AcDbBlockBegin
  2
*MODEL_SPACE
 70
     0
 10
0.0
 20
0.0
 30
0.0
  3
*MODEL_SPACE
  1

  0
ENDBLK
  5
21
330
1F
100
AcDbEntity
  8
0
100
AcDbBlockEnd
  0
BLOCK
  5
1C
330
1B
100
AcDbEntity
 67
     1
  8
0
100
AcDbBlockBegin
  2
*PAPER_SPACE
 70
     0
 10
0.0
 20
0.0
 30
0.0
  3
*PAPER_SPACE
  1

  0
ENDBLK
  5
1D
330
1B
100
AcDbEntity
 67
     1
  8
0
100
AcDbBlockEnd
  0
ENDSEC
  0
SECTION
  2
ENTITIES
  0
ARC
  5
6F
330
1F
100
AcDbEntity
  8
DEFAULT
100
AcDbCircle
 10
1687.774933814811
 20
-344.5517065673078
 30
0.0
 40
17.00000000000119
100
AcDbArc
 50
293.8230051427728
 51
23.82300514276635
  0
LINE
  5
70
330
1F
100
AcDbEntity
  8
DEFAULT
100
AcDbLine
 10
1694.641448597738
 20
-360.1032651623777
 30
0.0
 11
1688.174129281005
 21
-362.9587952639272
 31
0.0
  0
ARC
  5
71
330
1F
100
AcDbEntity
  8
DEFAULT
100
AcDbCircle
 10
1709.012236052907
 20
-346.1061327738942
 30
0.0
 40
26.79997997835343
100
AcDbArc
 50
218.963940169532
 51
293.8230051427697
  0
LINE
  5
72
330
1F
100
AcDbEntity
  8
DEFAULT
100
AcDbLine
 10
1719.837086564876
 20
-370.6226891844851
 30
0.0
 11
2008.91315355186
 21
-242.9862805753158
 31
0.0
  0
ARC
  5
73
330
1F
100
AcDbEntity
  8
DEFAULT
100
AcDbCircle
 10
1998.088303039885
 20
-218.469724164668
 30
0.0
 40
26.79997997840837
100
AcDbArc
 50
293.8230051427343
 51
8.682070116277918
  0
LINE
  5
74
330
1F
100
AcDbEntity
  8
DEFAULT
100
AcDbLine
 10
2024.581186691842
 20
-214.4242275762411
 30
0.0
 11
2018.113867375005
 21
-217.2797576776355
 31
0.0
  0
ARC
  5
75
330
1F
100
AcDbEntity
  8
DEFAULT
100
AcDbCircle
 10
2011.24735259214
 20
-201.728199082588
 30
0.0
 40
16.99999999995521
100
AcDbArc
 50
203.8230051426104
 51
293.823005142611
  0
LINE
  5
76
330
1F
100
AcDbEntity
  8
DEFAULT
100
AcDbLine
 10
1995.695793997093
 20
-208.5947138654518
 30
0.0
 11
1985.032484277735
 21
-184.4440215330965
 31
0.0
  0
ARC
  5
77
330
1F
100
AcDbEntity
  8
DEFAULT
100
AcDbCircle
 10
2000.58404287286
 20
-177.5775067501934
 30
0.0
 40
17.00000000004231
100
AcDbArc
 50
113.823005142617
 51
203.8230051426252
  0
LINE
  5
78
330
1F
100
AcDbEntity
  8
DEFAULT
100
AcDbLine
 10
1993.717528089959
 20
-162.0259481550672
 30
0.0
 11
2000.18484740663
 21
-159.1704180537356
 31
0.0
  0
ARC
  5
79
330
1F
100
AcDbEntity
  8
DEFAULT
100
AcDbCircle
 10
1979.346740634865
 20
-176.0230805439306
 30
0.0
 40
26.79997997834865
100
AcDbArc
 50
38.96394016998561
 51
113.8230051427631
  0
LINE
  5
7A
330
1F
100
AcDbEntity
  8
DEFAULT
100
AcDbLine
 10
1968.521890122901
 20
-151.5065241333429
 30
0.0
 11
1679.445823135929
 21
-279.1429327425065
 31
0.0
  0
ARC
  5
7B
330
1F
100
AcDbEntity
  8
DEFAULT
100
AcDbCircle
 10
1690.270673647909
 20
-303.6594891531669
 30
0.0
 40
26.79997997842156
100
AcDbArc
 50
113.8230051427315
 51
188.682070115817
  0
LINE
  5
7C
330
1F
100
AcDbEntity
  8
DEFAULT
100
AcDbLine
 10
1663.777789995907
 20
-307.7049857413827
 30
0.0
 11
1670.245109312531
 21
-304.8494556398813
 31
0.0
  0
ARC
  5
7D
330
1F
100
AcDbEntity
  8
DEFAULT
100
AcDbCircle
 10
1677.111624095455
 20
-320.4010142349508
 30
0.0
 40
16.99999999999977
100
AcDbArc
 50
23.82300514276717
 51
113.8230051427649
  0
LINE
  5
7E
330
1F
100
AcDbEntity
  8
DEFAULT
100
AcDbLine
 10
1692.663182690524
 20
-313.5344994520264
 30
0.0
 11
1703.326492409882
 21
-337.6851917843831
 31
0.0
  0
LINE
  5
80
330
1F
100
AcDbEntity
  8
MAKE2D$VISIBLE$LINES
100
AcDbLine
 10
1169.594263361633
 20
-39.45625555165827
 30
0.0
 11
1185.594263361632
 21
-39.4562555513736
 31
0.0
  0
POLYLINE
  5
81
330
1F
100
AcDbEntity
  8
MAKE2D$VISIBLE$LINES
100
AcDb2dPolyline
 66
     1
 10
0.0
 20
0.0
 30
0.0
  0
VERTEX
  5
82
330
81
100
AcDbEntity
  8
MAKE2D$VISIBLE$LINES
100
AcDbVertex
100
AcDb2dVertex
 10
1185.594263361632
 20
-39.4562555513736
 30
0.0
 42
-0.9999999999999595
  0
VERTEX
  5
83
330
81
100
AcDbEntity
  8
MAKE2D$VISIBLE$LINES
100
AcDbVertex
100
AcDb2dVertex
 10
1192.594263361632
 20
-39.4562555513736
 30
0.0
  0
VERTEX
  5
84
330
81
100
AcDbEntity
  8
MAKE2D$VISIBLE$LINES
100
AcDbVertex
100
AcDb2dVertex
 10
1192.594263361632
 20
-48.45625555113168
 30
0.0
 42
-0.9999999999999644
  0
VERTEX
  5
85
330
81
100
AcDbEntity
  8
MAKE2D$VISIBLE$LINES
100
AcDbVertex
100
AcDb2dVertex
 10
1185.594263361632
 20
-48.45625555113168
 30
0.0
  0
SEQEND
  5
86
330
81
100
AcDbEntity
  8
MAKE2D$VISIBLE$LINES
  0
LINE
  5
87
330
1F
100
AcDbEntity
  8
MAKE2D$VISIBLE$LINES
100
AcDbLine
 10
1185.594263361632
 20
-48.45625555113168
 30
0.0
 11
1169.594263361633
 21
-48.45625555141635
 31
0.0
  0
POLYLINE
  5
88
330
1F
100
AcDbEntity
  8
MAKE2D$VISIBLE$LINES
100
AcDb2dPolyline
 66
     1
 10
0.0
 20
0.0
 30
0.0
  0
VERTEX
  5
89
330
88
100
AcDbEntity
  8
MAKE2D$VISIBLE$LINES
100
AcDbVertex
100
AcDb2dVertex
 10
1169.594263361633
 20
-48.45625555141635
 30
0.0
 42
-0.9999999999824839
  0
VERTEX
  5
8A
330
88
100
AcDbEntity
  8
MAKE2D$VISIBLE$LINES
100
AcDbVertex
100
AcDb2dVertex
 10
1162.594263361633
 20
-48.45625555153914
 30
0.0
  0
VERTEX
  5
8B
330
88
100
AcDbEntity
  8
MAKE2D$VISIBLE$LINES
100
AcDbVertex
100
AcDb2dVertex
 10
1162.594263361633
 20
-39.45625555165827
 30
0.0
 42
-0.9999999999999319
  0
VERTEX
  5
8C
330
88
100
AcDbEntity
  8
MAKE2D$VISIBLE$LINES
100
AcDbVertex
100
AcDb2dVertex
 10
1169.594263361633
 20
-39.45625555165827
 30
0.0
  0
SEQEND
  5
8D
330
88
100
AcDbEntity
  8
MAKE2D$VISIBLE$LINES
  0
POLYLINE
  5
8E
330
1F
100
AcDbEntity
  8
MAKE2D$VISIBLE$LINES
100
AcDb2dPolyline
 66
     1
 10
0.0
 20
0.0
 30
0.0
  0
VERTEX
  5
8F
330
8E
100
AcDbEntity
  8
MAKE2D$VISIBLE$LINES
100
AcDbVertex
100
AcDb2dVertex
 10
1185.594263361629
 20
-671.4562555509698
 30
0.0
 42
-0.9999999999999837
  0
VERTEX
  5
90
330
8E
100
AcDbEntity
  8
MAKE2D$VISIBLE$LINES
100
AcDbVertex
100
AcDb2dVertex
 10
1192.594263361629
 20
-671.4562555509698
 30
0.0
  0
VERTEX
  5
91
330
8E
100
AcDbEntity
  8
MAKE2D$VISIBLE$LINES
100
AcDbVertex
100
AcDb2dVertex
 10
1192.594263361629
 20
-680.4562555507279
 30
0.0
 42
-0.9999999999998862
  0
VERTEX
  5
92
330
8E
100
AcDbEntity
  8
MAKE2D$VISIBLE$LINES
100
AcDbVertex
100
AcDb2dVertex
 10
1185.594263361629
 20
-680.4562555507279
 30
0.0
  0
SEQEND
  5
93
330
8E
100
AcDbEntity
  8
MAKE2D$VISIBLE$LINES
  0
LINE
  5
94
330
1F
100
AcDbEntity
  8
MAKE2D$VISIBLE$LINES
100
AcDbLine
 10
1185.594263361629
 20
-680.4562555507279
 30
0.0
 11
1169.59426336163
 21
-680.4562555504427
 31
0.0
  0
POLYLINE
  5
95
330
1F
100
AcDbEntity
  8
MAKE2D$VISIBLE$LINES
100
AcDb2dPolyline
 66
     1
 10
0.0
 20
0.0
 30
0.0
  0
VERTEX
  5
96
330
95
100
AcDbEntity
  8
MAKE2D$VISIBLE$LINES
100
AcDbVertex
100
AcDb2dVertex
 10
1169.59426336163
 20
-680.4562555504427
 30
0.0
 42
-1.000000000000016
  0
VERTEX
  5
97
330
95
100
AcDbEntity
  8
MAKE2D$VISIBLE$LINES
100
AcDbVertex
100
AcDb2dVertex
 10
1162.59426336163
 20
-680.4562555504427
 30
0.0
  0
VERTEX
  5
98
330
95
100
AcDbEntity
  8
MAKE2D$VISIBLE$LINES
100
AcDbVertex
100
AcDb2dVertex
 10
1162.59426336163
 20
-671.4562555505619
 30
0.0
 42
-0.9999999999824435
  0
VERTEX
  5
99
330
95
100
AcDbEntity
  8
MAKE2D$VISIBLE$LINES
100
AcDbVertex
100
AcDb2dVertex
 10
1169.59426336163
 20
-671.4562555506848
 30
0.0
  0
SEQEND
  5
9A
330
95
100
AcDbEntity
  8
MAKE2D$VISIBLE$LINES
  0
LINE
  5
9B
330
1F
100
AcDbEntity
  8
MAKE2D$VISIBLE$LINES
100
AcDbLine
 10
1169.59426336163
 20
-671.4562555506848
 30
0.0
 11
1185.594263361629
 21
-671.4562555509698
 31
0.0
  0
LINE
  5
9C
330
1F
100
AcDbEntity
  8
MAKE2D$VISIBLE$LINES
100
AcDbLine
 10
1339.594263361628
 20
-680.4562555504436
 30
0.0
 11
1323.594263361629
 21
-680.4562555507288
 31
0.0
  0
POLYLINE
  5
9D
330
1F
100
AcDbEntity
  8
MAKE2D$VISIBLE$LINES
100
AcDb2dPolyline
 66
     1
 10
0.0
 20
0.0
 30
0.0
  0
VERTEX
  5
9E
330
9D
100
AcDbEntity
  8
MAKE2D$VISIBLE$LINES
100
AcDbVertex
100
AcDb2dVertex
 10
1323.594263361629
 20
-680.4562555507288
 30
0.0
 42
-0.9999999999999999
  0
VERTEX
  5
9F
330
9D
100
AcDbEntity
  8
MAKE2D$VISIBLE$LINES
100
AcDbVertex
100
AcDb2dVertex
 10
1316.594263361629
 20
-680.4562555507288
 30
0.0
  0
VERTEX
  5
A0
330
9D
100
AcDbEntity
  8
MAKE2D$VISIBLE$LINES
100
AcDbVertex
100
AcDb2dVertex
 10
1316.594263361629
 20
-671.4562555509708
 30
0.0
 42
-0.9999999999999999
  0
VERTEX
  5
A1
330
9D
100
AcDbEntity
  8
MAKE2D$VISIBLE$LINES
100
AcDbVertex
100
AcDb2dVertex
 10
1323.594263361629
 20
-671.4562555509708
 30
0.0
  0
SEQEND
  5
A2
330
9D
100
AcDbEntity
  8
MAKE2D$VISIBLE$LINES
  0
LINE
  5
A3
330
1F
100
AcDbEntity
  8
MAKE2D$VISIBLE$LINES
100
AcDbLine
 10
1323.594263361629
 20
-671.4562555509708
 30
0.0
 11
1339.594263361628
 21
-671.4562555506857
 31
0.0
  0
POLYLINE
  5
A4
330
1F
100
AcDbEntity
  8
MAKE2D$VISIBLE$LINES
100
AcDb2dPolyline
 66
     1
 10
0.0
 20
0.0
 30
0.0
  0
VERTEX
  5
A5
330
A4
100
AcDbEntity
  8
MAKE2D$VISIBLE$LINES
100
AcDbVertex
100
AcDb2dVertex
 10
1339.594263361628
 20
-671.4562555506857
 30
0.0
 42
-0.9999999999824111
  0
VERTEX
  5
A6
330
A4
100
AcDbEntity
  8
MAKE2D$VISIBLE$LINES
100
AcDbVertex
100
AcDb2dVertex
 10
1346.594263361628
 20
-671.4562555505628
 30
0.0
  0
VERTEX
  5
A7
330
A4
100
AcDbEntity
  8
MAKE2D$VISIBLE$LINES
100
AcDbVertex
100
AcDb2dVertex
 10
1346.594263361628
 20
-680.4562555504436
 30
0.0
 42
-1.000000000000032
  0
VERTEX
  5
A8
330
A4
100
AcDbEntity
  8
MAKE2D$VISIBLE$LINES
100
AcDbVertex
100
AcDb2dVertex
 10
1339.594263361628
 20
-680.4562555504436
 30
0.0
  0
SEQEND
  5
A9
330
A4
100
AcDbEntity
  8
MAKE2D$VISIBLE$LINES
  0
POLYLINE
  5
AA
330
1F
100
AcDbEntity
  8
MAKE2D$VISIBLE$LINES
100
AcDb2dPolyline
 66
     1
 10
0.0
 20
0.0
 30
0.0
  0
VERTEX
  5
AB
330
AA
100
AcDbEntity
  8
MAKE2D$VISIBLE$LINES
100
AcDbVertex
100
AcDb2dVertex
 10
1294.743398729211
 20
218.8061192079799
 30
0.0
 42
-0.9999999999999641
  0
VERTEX
  5
AC
330
AA
100
AcDbEntity
  8
MAKE2D$VISIBLE$LINES
100
AcDbVertex
100
AcDb2dVertex
 10
1301.093398729214
 20
218.8061192079808
 30
0.0
  0
VERTEX
  5
AD
330
AA
100
AcDbEntity
  8
MAKE2D$VISIBLE$LINES
100
AcDbVertex
100
AcDb2dVertex
 10
1301.093155407198
 20
209.8061192112614
 30
0.0
  0
SEQEND
  5
AE
330
AA
100
AcDbEntity
  8
MAKE2D$VISIBLE$LINES
  0
ARC
  5
AF
330
1F
100
AcDbEntity
  8
MAKE2D$VISIBLE$LINES
100
AcDbCircle
 10
1297.918155408358
 20
209.8062050498673
 30
0.0
 40
3.175000000000479
100
AcDbArc
 50
180.0015490953717
 51
359.9984509638298
  0
LINE
  5
B0
330
1F
100
AcDbEntity
  8
MAKE2D$VISIBLE$LINES
100
AcDbLine
 10
1294.743155409518
 20
209.8061192079808
 30
0.0
 11
1216.44339872921
 21
209.806119207982
 31
0.0
  0
POLYLINE
  5
B1
330
1F
100
AcDbEntity
  8
MAKE2D$VISIBLE$LINES
100
AcDb2dPolyline
 66
     1
 10
0.0
 20
0.0
 30
0.0
  0
VERTEX
  5
B2
330
B1
100
AcDbEntity
  8
MAKE2D$VISIBLE$LINES
100
AcDbVertex
100
AcDb2dVertex
 10
1216.44339872921
 20
209.806119207982
 30
0.0
 42
-0.9999999999998924
  0
VERTEX
  5
B3
330
B1
100
AcDbEntity
  8
MAKE2D$VISIBLE$LINES
100
AcDbVertex
100
AcDb2dVertex
 10
1210.093398729206
 20
209.806119207982
 30
0.0
  0
VERTEX
  5
B4
330
B1
100
AcDbEntity
  8
MAKE2D$VISIBLE$LINES
100
AcDbVertex
100
AcDb2dVertex
 10
1210.093398729209
 20
218.8061192079801
 30
0.0
 42
-0.9999999999999104
  0
VERTEX
  5
B5
330
B1
100
AcDbEntity
  8
MAKE2D$VISIBLE$LINES
100
AcDbVertex
100
AcDb2dVertex
 10
1216.443398729208
 20
218.806119207982
 30
0.0
  0
SEQEND
  5
B6
330
B1
100
AcDbEntity
  8
MAKE2D$VISIBLE$LINES
  0
LINE
  5
B7
330
1F
100
AcDbEntity
  8
MAKE2D$VISIBLE$LINES
100
AcDbLine
 10
1216.443398729208
 20
218.806119207982
 30
0.0
 11
1294.743398729211
 21
218.8061192079799
 31
0.0
  0
LINE
  5
B8
330
1F
100
AcDbEntity
  8
MAKE2D$VISIBLE$LINES
100
AcDbLine
 10
1405.593858712425
 20
227.8049566707534
 30
0.0
 11
1105.593858712425
 21
227.8049566707577
 31
0.0
  0
LINE
  5
B9
330
1F
100
AcDbEntity
  8
MAKE2D$VISIBLE$LINES
100
AcDbLine
 10
1105.593858712425
 20
227.8049566707577
 30
0.0
 11
1105.593332354849
 21
208.335694731918
 31
0.0
  0
POLYLINE
  5
BA
330
1F
100
AcDbEntity
  8
MAKE2D$VISIBLE$LINES
100
AcDb2dPolyline
 66
     1
 10
0.0
 20
0.0
 30
0.0
  0
VERTEX
  5
BB
330
BA
100
AcDbEntity
  8
MAKE2D$VISIBLE$LINES
100
AcDbVertex
100
AcDb2dVertex
 10
1105.593332354849
 20
208.335694731918
 30
0.0
 42
-0.9999709337095469
  0
VERTEX
  5
BC
330
BA
100
AcDbEntity
  8
MAKE2D$VISIBLE$LINES
100
AcDbVertex
100
AcDb2dVertex
 10
1105.593128887856
 20
201.3356947378326
 30
0.0
  0
VERTEX
  5
BD
330
BA
100
AcDbEntity
  8
MAKE2D$VISIBLE$LINES
100
AcDbVertex
100
AcDb2dVertex
 10
1087.592534096785
 20
201.3356947249413
 30
0.0
  0
SEQEND
  5
BE
330
BA
100
AcDbEntity
  8
MAKE2D$VISIBLE$LINES
  0
LINE
  5
BF
330
1F
100
AcDbEntity
  8
MAKE2D$VISIBLE$LINES
100
AcDbLine
 10
1087.592534096785
 20
201.3356947249413
 30
0.0
 11
1087.592534091232
 21
101.3356947249422
 31
0.0
  0
POLYLINE
  5
C0
330
1F
100
AcDbEntity
  8
MAKE2D$VISIBLE$LINES
100
AcDb2dPolyline
 66
     1
 10
0.0
 20
0.0
 30
0.0
  0
VERTEX
  5
C1
330
C0
100
AcDbEntity
  8
MAKE2D$VISIBLE$LINES
100
AcDbVertex
100
AcDb2dVertex
 10
1087.592534091232
 20
101.3356947249422
 30
0.0
  0
VERTEX
  5
C2
330
C0
100
AcDbEntity
  8
MAKE2D$VISIBLE$LINES
100
AcDbVertex
100
AcDb2dVertex
 10
1105.593411721472
 20
101.3356947242482
 30
0.0
 42
-1.000030701107474
  0
VERTEX
  5
C3
330
C0
100
AcDbEntity
  8
MAKE2D$VISIBLE$LINES
100
AcDbVertex
100
AcDb2dVertex
 10
1105.593222473399
 20
94.3356947301051
 30
0.0
  0
SEQEND
  5
C4
330
C0
100
AcDbEntity
  8
MAKE2D$VISIBLE$LINES
  0
LINE
  5
C5
330
1F
100
AcDbEntity
  8
MAKE2D$VISIBLE$LINES
100
AcDbLine
 10
1105.593222473399
 20
94.3356947301054
 30
0.0
 11
1105.592856755824
 21
84.84101914643361
 31
0.0
  0
LINE
  5
C6
330
1F
100
AcDbEntity
  8
MAKE2D$VISIBLE$LINES
100
AcDbLine
 10
1105.592856755824
 20
84.84101914643361
 30
0.0
 11
1405.594020041943
 21
84.84101914642952
 31
0.0
  0
LINE
  5
C7
330
1F
100
AcDbEntity
  8
MAKE2D$VISIBLE$LINES
100
AcDbLine
 10
1405.594020041943
 20
84.84101914642952
 30
0.0
 11
1405.594385766178
 21
94.33569495036728
 31
0.0
  0
POLYLINE
  5
C8
330
1F
100
AcDbEntity
  8
MAKE2D$VISIBLE$LINES
100
AcDb2dPolyline
 66
     1
 10
0.0
 20
0.0
 30
0.0
  0
VERTEX
  5
C9
330
C8
100
AcDbEntity
  8
MAKE2D$VISIBLE$LINES
100
AcDbVertex
100
AcDb2dVertex
 10
1405.594385766178
 20
94.33569495036728
 30
0.0
 42
-1.00034058181361
  0
VERTEX
  5
CA
330
C8
100
AcDbEntity
  8
MAKE2D$VISIBLE$LINES
100
AcDbVertex
100
AcDb2dVertex
 10
1405.5945817875
 20
101.3360191347157
 30
0.0
  0
VERTEX
  5
CB
330
C8
100
AcDbEntity
  8
MAKE2D$VISIBLE$LINES
100
AcDbVertex
100
AcDb2dVertex
 10
1423.594263367174
 20
101.3356947249397
 30
0.0
  0
SEQEND
  5
CC
330
C8
100
AcDbEntity
  8
MAKE2D$VISIBLE$LINES
  0
LINE
  5
CD
330
1F
100
AcDbEntity
  8
MAKE2D$VISIBLE$LINES
100
AcDbLine
 10
1423.594263367174
 20
101.3356947249397
 30
0.0
 11
1423.594263361635
 21
201.3356947249406
 31
0.0
  0
POLYLINE
  5
CE
330
1F
100
AcDbEntity
  8
MAKE2D$VISIBLE$LINES
100
AcDb2dPolyline
 66
     1
 10
0.0
 20
0.0
 30
0.0
  0
VERTEX
  5
CF
330
CE
100
AcDbEntity
  8
MAKE2D$VISIBLE$LINES
100
AcDbVertex
100
AcDb2dVertex
 10
1423.594263361635
 20
201.3356947249406
 30
0.0
  0
VERTEX
  5
D0
330
CE
100
AcDbEntity
  8
MAKE2D$VISIBLE$LINES
100
AcDbVertex
100
AcDb2dVertex
 10
1405.509241977501
 20
201.3370246227132
 30
0.0
  0
VERTEX
  5
D1
330
CE
100
AcDbEntity
  8
MAKE2D$VISIBLE$LINES
100
AcDbVertex
100
AcDb2dVertex
 10
1405.425012691629
 20
201.3400591182135
 30
0.0
  0
VERTEX
  5
D2
330
CE
100
AcDbEntity
  8
MAKE2D$VISIBLE$LINES
100
AcDbVertex
100
AcDb2dVertex
 10
1405.340527069271
 20
201.345146507831
 30
0.0
  0
VERTEX
  5
D3
330
CE
100
AcDbEntity
  8
MAKE2D$VISIBLE$LINES
100
AcDbVertex
100
AcDb2dVertex
 10
1405.25585861457
 20
201.352307317986
 30
0.0
  0
VERTEX
  5
D4
330
CE
100
AcDbEntity
  8
MAKE2D$VISIBLE$LINES
100
AcDbVertex
100
AcDb2dVertex
 10
1405.171082324395
 20
201.3615586239414
 30
0.0
  0
VERTEX
  5
D5
330
CE
100
AcDbEntity
  8
MAKE2D$VISIBLE$LINES
100
AcDbVertex
100
AcDb2dVertex
 10
1405.086274488434
 20
201.3729139321607
 30
0.0
  0
VERTEX
  5
D6
330
CE
100
AcDbEntity
  8
MAKE2D$VISIBLE$LINES
100
AcDbVertex
100
AcDb2dVertex
 10
1405.00151247898
 20
201.3863830764232
 30
0.0
  0
VERTEX
  5
D7
330
CE
100
AcDbEntity
  8
MAKE2D$VISIBLE$LINES
100
AcDbVertex
100
AcDb2dVertex
 10
1404.916874531491
 20
201.4019721287031
 30
0.0
  0
VERTEX
  5
D8
330
CE
100
AcDbEntity
  8
MAKE2D$VISIBLE$LINES
100
AcDbVertex
100
AcDb2dVertex
 10
1404.832439517144
 20
201.4196833257201
 30
0.0
  0
VERTEX
  5
D9
330
CE
100
AcDbEntity
  8
MAKE2D$VISIBLE$LINES
100
AcDbVertex
100
AcDb2dVertex
 10
1404.748286708687
 20
201.4395150119557
 30
0.0
  0
VERTEX
  5
DA
330
CE
100
AcDbEntity
  8
MAKE2D$VISIBLE$LINES
100
AcDbVertex
100
AcDb2dVertex
 10
1404.664495540959
 20
201.4614615998058
 30
0.0
  0
VERTEX
  5
DB
330
CE
100
AcDbEntity
  8
MAKE2D$VISIBLE$LINES
100
AcDbVertex
100
AcDb2dVertex
 10
1404.581145367579
 20
201.4855135474041
 30
0.0
  0
VERTEX
  5
DC
330
CE
100
AcDbEntity
  8
MAKE2D$VISIBLE$LINES
100
AcDbVertex
100
AcDb2dVertex
 10
1404.498315215289
 20
201.5116573545096
 30
0.0
  0
VERTEX
  5
DD
330
CE
100
AcDbEntity
  8
MAKE2D$VISIBLE$LINES
100
AcDbVertex
100
AcDb2dVertex
 10
1404.416083537549
 20
201.5398755766979
 30
0.0
  0
VERTEX
  5
DE
330
CE
100
AcDbEntity
  8
MAKE2D$VISIBLE$LINES
100
AcDbVertex
100
AcDb2dVertex
 10
1404.334527968951
 20
201.570146857945
 30
0.0
  0
VERTEX
  5
DF
330
CE
100
AcDbEntity
  8
MAKE2D$VISIBLE$LINES
100
AcDbVertex
100
AcDb2dVertex
 10
1404.253725082074
 20
201.6024459815289
 30
0.0
  0
VERTEX
  5
E0
330
CE
100
AcDbEntity
  8
MAKE2D$VISIBLE$LINES
100
AcDbVertex
100
AcDb2dVertex
 10
1404.173750148351
 20
201.6367439390183
 30
0.0
  0
VERTEX
  5
E1
330
CE
100
AcDbEntity
  8
MAKE2D$VISIBLE$LINES
100
AcDbVertex
100
AcDb2dVertex
 10
1404.094676904528
 20
201.6730080169613
 30
0.0
  0
VERTEX
  5
E2
330
CE
100
AcDbEntity
  8
MAKE2D$VISIBLE$LINES
100
AcDbVertex
100
AcDb2dVertex
 10
1404.016577326231
 20
201.7112019007284
 30
0.0
  0
VERTEX
  5
E3
330
CE
100
AcDbEntity
  8
MAKE2D$VISIBLE$LINES
100
AcDbVertex
100
AcDb2dVertex
 10
1403.939521410087
 20
201.7512857948208
 30
0.0
  0
VERTEX
  5
E4
330
CE
100
AcDbEntity
  8
MAKE2D$VISIBLE$LINES
100
AcDbVertex
100
AcDb2dVertex
 10
1403.863576965809
 20
201.7932165588129
 30
0.0
  0
VERTEX
  5
E5
330
CE
100
AcDbEntity
  8
MAKE2D$VISIBLE$LINES
100
AcDbVertex
100
AcDb2dVertex
 10
1403.788809419494
 20
201.8369478579654
 30
0.0
  0
VERTEX
  5
E6
330
CE
100
AcDbEntity
  8
MAKE2D$VISIBLE$LINES
100
AcDbVertex
100
AcDb2dVertex
 10
1403.715281629363
 20
201.8824303274305
 30
0.0
  0
VERTEX
  5
E7
330
CE
100
AcDbEntity
  8
MAKE2D$VISIBLE$LINES
100
AcDbVertex
100
AcDb2dVertex
 10
1403.643053714959
 20
201.9296117488619
 30
0.0
  0
VERTEX
  5
E8
330
CE
100
AcDbEntity
  8
MAKE2D$VISIBLE$LINES
100
AcDbVertex
100
AcDb2dVertex
 10
1403.572182900783
 20
201.9784372381501
 30
0.0
  0
VERTEX
  5
E9
330
CE
100
AcDbEntity
  8
MAKE2D$VISIBLE$LINES
100
AcDbVertex
100
AcDb2dVertex
 10
1403.502723375137
 20
202.0288494429317
 30
0.0
  0
VERTEX
  5
EA
330
CE
100
AcDbEntity
  8
MAKE2D$VISIBLE$LINES
100
AcDbVertex
100
AcDb2dVertex
 10
1403.434726164851
 20
202.0807887484552
 30
0.0
  0
VERTEX
  5
EB
330
CE
100
AcDbEntity
  8
MAKE2D$VISIBLE$LINES
100
AcDbVertex
100
AcDb2dVertex
 10
1403.368239026387
 20
202.1341934903482
 30
0.0
  0
VERTEX
  5
EC
330
CE
100
AcDbEntity
  8
MAKE2D$VISIBLE$LINES
100
AcDbVertex
100
AcDb2dVertex
 10
1403.303306353701
 20
202.1890001727996
 30
0.0
  0
VERTEX
  5
ED
330
CE
100
AcDbEntity
  8
MAKE2D$VISIBLE$LINES
100
AcDbVertex
100
AcDb2dVertex
 10
1403.239969103048
 20
202.2451436906647
 30
0.0
  0
VERTEX
  5
EE
330
CE
100
AcDbEntity
  8
MAKE2D$VISIBLE$LINES
100
AcDbVertex
100
AcDb2dVertex
 10
1403.178264734825
 20
202.3025575540039
 30
0.0
  0
VERTEX
  5
EF
330
CE
100
AcDbEntity
  8
MAKE2D$VISIBLE$LINES
100
AcDbVertex
100
AcDb2dVertex
 10
1403.11822717234
 20
202.3611741135903
 30
0.0
  0
VERTEX
  5
F0
330
CE
100
AcDbEntity
  8
MAKE2D$VISIBLE$LINES
100
AcDbVertex
100
AcDb2dVertex
 10
1403.059612003943
 20
202.4212130343057
 30
0.0
  0
VERTEX
  5
F1
330
CE
100
AcDbEntity
  8
MAKE2D$VISIBLE$LINES
100
AcDbVertex
100
AcDb2dVertex
 10
1403.002199570416
 20
202.4829187328904
 30
0.0
  0
VERTEX
  5
F2
330
CE
100
AcDbEntity
  8
MAKE2D$VISIBLE$LINES
100
AcDbVertex
100
AcDb2dVertex
 10
1402.946057520199
 20
202.5462572844678
 30
0.0
  0
VERTEX
  5
F3
330
CE
100
AcDbEntity
  8
MAKE2D$VISIBLE$LINES
100
AcDbVertex
100
AcDb2dVertex
 10
1402.891252342364
 20
202.6111912271022
 30
0.0
  0
VERTEX
  5
F4
330
CE
100
AcDbEntity
  8
MAKE2D$VISIBLE$LINES
100
AcDbVertex
100
AcDb2dVertex
 10
1402.837849141108
 20
202.6776796030278
 30
0.0
  0
VERTEX
  5
F5
330
CE
100
AcDbEntity
  8
MAKE2D$VISIBLE$LINES
100
AcDbVertex
100
AcDb2dVertex
 10
1402.785911411211
 20
202.7456780168193
 30
0.0
  0
VERTEX
  5
F6
330
CE
100
AcDbEntity
  8
MAKE2D$VISIBLE$LINES
100
AcDbVertex
100
AcDb2dVertex
 10
1402.735500815939
 20
202.8151387105841
 30
0.0
  0
VERTEX
  5
F7
330
CE
100
AcDbEntity
  8
MAKE2D$VISIBLE$LINES
100
AcDbVertex
100
AcDb2dVertex
 10
1402.686676968863
 20
202.8860106561119
 30
0.0
  0
VERTEX
  5
F8
330
CE
100
AcDbEntity
  8
MAKE2D$VISIBLE$LINES
100
AcDbVertex
100
AcDb2dVertex
 10
1402.639497221089
 20
202.9582396637711
 30
0.0
  0
VERTEX
  5
F9
330
CE
100
AcDbEntity
  8
MAKE2D$VISIBLE$LINES
100
AcDbVertex
100
AcDb2dVertex
 10
1402.594016455402
 20
203.0317685077898
 30
0.0
  0
VERTEX
  5
FA
330
CE
100
AcDbEntity
  8
MAKE2D$VISIBLE$LINES
100
AcDbVertex
100
AcDb2dVertex
 10
1402.550286888754
 20
203.1065370674132
 30
0.0
  0
VERTEX
  5
FB
330
CE
100
AcDbEntity
  8
MAKE2D$VISIBLE$LINES
100
AcDbVertex
100
AcDb2dVertex
 10
1402.508357884537
 20
203.1824824832798
 30
0.0
  0
VERTEX
  5
FC
330
CE
100
AcDbEntity
  8
MAKE2D$VISIBLE$LINES
100
AcDbVertex
100
AcDb2dVertex
 10
1402.468275775974
 20
203.2595393282154
 30
0.0
  0
VERTEX
  5
FD
330
CE
100
AcDbEntity
  8
MAKE2D$VISIBLE$LINES
100
AcDbVertex
100
AcDb2dVertex
 10
1402.430083701919
 20
203.3376397915102
 30
0.0
  0
VERTEX
  5
FE
330
CE
100
AcDbEntity
  8
MAKE2D$VISIBLE$LINES
100
AcDbVertex
100
AcDb2dVertex
 10
1402.393821456249
 20
203.4167138756124
 30
0.0
  0
VERTEX
  5
FF
330
CE
100
AcDbEntity
  8
MAKE2D$VISIBLE$LINES
100
AcDbVertex
100
AcDb2dVertex
 10
1402.359525351925
 20
203.4966896040566
 30
0.0
  0
VERTEX
  5
100
330
CE
100
AcDbEntity
  8
MAKE2D$VISIBLE$LINES
100
AcDbVertex
100
AcDb2dVertex
 10
1402.327228100692
 20
203.5774932393383
 30
0.0
  0
VERTEX
  5
101
330
CE
100
AcDbEntity
  8
MAKE2D$VISIBLE$LINES
100
AcDbVertex
100
AcDb2dVertex
 10
1402.296958709236
 20
203.6590495093518
 30
0.0
  0
VERTEX
  5
102
330
CE
100
AcDbEntity
  8
MAKE2D$VISIBLE$LINES
100
AcDbVertex
100
AcDb2dVertex
 10
1402.268742392505
 20
203.741281840935
 30
0.0
  0
VERTEX
  5
103
330
CE
100
AcDbEntity
  8
MAKE2D$VISIBLE$LINES
100
AcDbVertex
100
AcDb2dVertex
 10
1402.242600504724
 20
203.8241125989996
 30
0.0
  0
VERTEX
  5
104
330
CE
100
AcDbEntity
  8
MAKE2D$VISIBLE$LINES
100
AcDbVertex
100
AcDb2dVertex
 10
1402.218550488499
 20
203.9074633296825
 30
0.0
  0
VERTEX
  5
105
330
CE
100
AcDbEntity
  8
MAKE2D$VISIBLE$LINES
100
AcDbVertex
100
AcDb2dVertex
 10
1402.19660584224
 20
203.9912550059276
 30
0.0
  0
VERTEX
  5
106
330
CE
100
AcDbEntity
  8
MAKE2D$VISIBLE$LINES
100
AcDbVertex
100
AcDb2dVertex
 10
1402.176776105975
 20
204.0754082738968
 30
0.0
  0
VERTEX
  5
107
330
CE
100
AcDbEntity
  8
MAKE2D$VISIBLE$LINES
100
AcDbVertex
100
AcDb2dVertex
 10
1402.159066865468
 20
204.1598436986192
 30
0.0
  0
VERTEX
  5
108
330
CE
100
AcDbEntity
  8
MAKE2D$VISIBLE$LINES
100
AcDbVertex
100
AcDb2dVertex
 10
1402.143479774399
 20
204.2444820073113
 30
0.0
  0
VERTEX
  5
109
330
CE
100
AcDbEntity
  8
MAKE2D$VISIBLE$LINES
100
AcDbVertex
100
AcDb2dVertex
 10
1402.130012594222
 20
204.329244328846
 30
0.0
  0
VERTEX
  5
10A
330
CE
100
AcDbEntity
  8
MAKE2D$VISIBLE$LINES
100
AcDbVertex
100
AcDb2dVertex
 10
1402.118659251149
 20
204.4140524279056
 30
0.0
  0
VERTEX
  5
10B
330
CE
100
AcDbEntity
  8
MAKE2D$VISIBLE$LINES
100
AcDbVertex
100
AcDb2dVertex
 10
1402.109409909609
 20
204.4988289324265
 30
0.0
  0
VERTEX
  5
10C
330
CE
100
AcDbEntity
  8
MAKE2D$VISIBLE$LINES
100
AcDbVertex
100
AcDb2dVertex
 10
1402.10225106137
 20
204.5834975530332
 30
0.0
  0
VERTEX
  5
10D
330
CE
100
AcDbEntity
  8
MAKE2D$VISIBLE$LINES
100
AcDbVertex
100
AcDb2dVertex
 10
1402.097165629431
 20
204.6679832932529
 30
0.0
  0
VERTEX
  5
10E
330
CE
100
AcDbEntity
  8
MAKE2D$VISIBLE$LINES
100
AcDbVertex
100
AcDb2dVertex
 10
1402.094133085669
 20
204.7522126494162
 30
0.0
  0
VERTEX
  5
10F
330
CE
100
AcDbEntity
  8
MAKE2D$VISIBLE$LINES
100
AcDbVertex
100
AcDb2dVertex
 10
1402.093129581149
 20
204.8361137992626
 30
0.0
  0
VERTEX
  5
110
330
CE
100
AcDbEntity
  8
MAKE2D$VISIBLE$LINES
100
AcDbVertex
100
AcDb2dVertex
 10
1402.094137622333
 20
204.9200148947253
 30
0.0
  0
VERTEX
  5
111
330
CE
100
AcDbEntity
  8
MAKE2D$VISIBLE$LINES
100
AcDbVertex
100
AcDb2dVertex
 10
1402.097174720504
 20
205.0042440867912
 30
0.0
  0
VERTEX
  5
112
330
CE
100
AcDbEntity
  8
MAKE2D$VISIBLE$LINES
100
AcDbVertex
100
AcDb2dVertex
 10
1402.102264720711
 20
205.0887295519102
 30
0.0
  0
VERTEX
  5
113
330
CE
100
AcDbEntity
  8
MAKE2D$VISIBLE$LINES
100
AcDbVertex
100
AcDb2dVertex
 10
1402.109428147104
 20
205.1733977853031
 30
0.0
  0
VERTEX
  5
114
330
CE
100
AcDbEntity
  8
MAKE2D$VISIBLE$LINES
100
AcDbVertex
100
AcDb2dVertex
 10
1402.118682072628
 20
205.2581737895738
 30
0.0
  0
VERTEX
  5
115
330
CE
100
AcDbEntity
  8
MAKE2D$VISIBLE$LINES
100
AcDbVertex
100
AcDb2dVertex
 10
1402.13004000139
 20
205.3429812746165
 30
0.0
  0
VERTEX
  5
116
330
CE
100
AcDbEntity
  8
MAKE2D$VISIBLE$LINES
100
AcDbVertex
100
AcDb2dVertex
 10
1402.143511764779
 20
205.4277428678358
 30
0.0
  0
VERTEX
  5
117
330
CE
100
AcDbEntity
  8
MAKE2D$VISIBLE$LINES
100
AcDbVertex
100
AcDb2dVertex
 10
1402.15910343235
 20
205.5123803335859
 30
0.0
  0
VERTEX
  5
118
330
CE
100
AcDbEntity
  8
MAKE2D$VISIBLE$LINES
100
AcDbVertex
100
AcDb2dVertex
 10
1402.176817238387
 20
205.5968148006186
 30
0.0
  0
VERTEX
  5
119
330
CE
100
AcDbEntity
  8
MAKE2D$VISIBLE$LINES
100
AcDbVertex
100
AcDb2dVertex
 10
1402.196651524921
 20
205.6809669962401
 30
0.0
  0
VERTEX
  5
11A
330
CE
100
AcDbEntity
  8
MAKE2D$VISIBLE$LINES
100
AcDbVertex
100
AcDb2dVertex
 10
1402.218600701895
 20
205.7647574857816
 30
0.0
  0
VERTEX
  5
11B
330
CE
100
AcDbEntity
  8
MAKE2D$VISIBLE$LINES
100
AcDbVertex
100
AcDb2dVertex
 10
1402.242655224988
 20
205.8481069159207
 30
0.0
  0
VERTEX
  5
11C
330
CE
100
AcDbEntity
  8
MAKE2D$VISIBLE$LINES
100
AcDbVertex
100
AcDb2dVertex
 10
1402.268801591519
 20
205.9309362603317
 30
0.0
  0
VERTEX
  5
11D
330
CE
100
AcDbEntity
  8
MAKE2D$VISIBLE$LINES
100
AcDbVertex
100
AcDb2dVertex
 10
1402.297022354639
 20
206.0131670660945
 30
0.0
  0
VERTEX
  5
11E
330
CE
100
AcDbEntity
  8
MAKE2D$VISIBLE$LINES
100
AcDbVertex
100
AcDb2dVertex
 10
1402.327296155926
 20
206.0947216992756
 30
0.0
  0
VERTEX
  5
11F
330
CE
100
AcDbEntity
  8
MAKE2D$VISIBLE$LINES
100
AcDbVertex
100
AcDb2dVertex
 10
1402.35959777629
 20
206.1755235880764
 30
0.0
  0
VERTEX
  5
120
330
CE
100
AcDbEntity
  8
MAKE2D$VISIBLE$LINES
100
AcDbVertex
100
AcDb2dVertex
 10
1402.393898204976
 20
206.2554974619599
 30
0.0
  0
VERTEX
  5
121
330
CE
100
AcDbEntity
  8
MAKE2D$VISIBLE$LINES
100
AcDbVertex
100
AcDb2dVertex
 10
1402.430164726252
 20
206.3345695851904
 30
0.0
  0
VERTEX
  5
122
330
CE
100
AcDbEntity
  8
MAKE2D$VISIBLE$LINES
100
AcDbVertex
100
AcDb2dVertex
 10
1402.468361023265
 20
206.4126679832661
 30
0.0
  0
VERTEX
  5
123
330
CE
100
AcDbEntity
  8
MAKE2D$VISIBLE$LINES
100
AcDbVertex
100
AcDb2dVertex
 10
1402.508447298354
 20
206.4897226607869
 30
0.0
  0
VERTEX
  5
124
330
CE
100
AcDbEntity
  8
MAKE2D$VISIBLE$LINES
100
AcDbVertex
100
AcDb2dVertex
 10
1402.550380408996
 20
206.5656658093759
 30
0.0
  0
VERTEX
  5
125
330
CE
100
AcDbEntity
  8
MAKE2D$VISIBLE$LINES
100
AcDbVertex
100
AcDb2dVertex
 10
1402.594114018433
 20
206.6404320043642
 30
0.0
  0
VERTEX
  5
126
330
CE
100
AcDbEntity
  8
MAKE2D$VISIBLE$LINES
100
AcDbVertex
100
AcDb2dVertex
 10
1402.639598759873
 20
206.7139583890594
 30
0.0
  0
VERTEX
  5
127
330
CE
100
AcDbEntity
  8
MAKE2D$VISIBLE$LINES
100
AcDbVertex
100
AcDb2dVertex
 10
1402.686782413113
 20
206.7861848455305
 30
0.0
  0
VERTEX
  5
128
330
CE
100
AcDbEntity
  8
MAKE2D$VISIBLE$LINES
100
AcDbVertex
100
AcDb2dVertex
 10
1402.735610092275
 20
206.8570541509733
 30
0.0
  0
VERTEX
  5
129
330
CE
100
AcDbEntity
  8
MAKE2D$VISIBLE$LINES
100
AcDbVertex
100
AcDb2dVertex
 10
1402.78602444332
 20
206.9265121188571
 30
0.0
  0
VERTEX
  5
12A
330
CE
100
AcDbEntity
  8
MAKE2D$VISIBLE$LINES
100
AcDbVertex
100
AcDb2dVertex
 10
1402.837965849921
 20
206.9945077241951
 30
0.0
  0
VERTEX
  5
12B
330
CE
100
AcDbEntity
  8
MAKE2D$VISIBLE$LINES
100
AcDbVertex
100
AcDb2dVertex
 10
1402.891372646231
 20
207.0609932124291
 30
0.0
  0
VERTEX
  5
12C
330
CE
100
AcDbEntity
  8
MAKE2D$VISIBLE$LINES
100
AcDbVertex
100
AcDb2dVertex
 10
1402.946181335065
 20
207.1259241915672
 30
0.0
  0
VERTEX
  5
12D
330
CE
100
AcDbEntity
  8
MAKE2D$VISIBLE$LINES
100
AcDbVertex
100
AcDb2dVertex
 10
1403.002326810014
 20
207.1892597073638
 30
0.0
  0
VERTEX
  5
12E
330
CE
100
AcDbEntity
  8
MAKE2D$VISIBLE$LINES
100
AcDbVertex
100
AcDb2dVertex
 10
1403.059742579981
 20
207.2509623014786
 30
0.0
  0
VERTEX
  5
12F
330
CE
100
AcDbEntity
  8
MAKE2D$VISIBLE$LINES
100
AcDbVertex
100
AcDb2dVertex
 10
1403.11836099469
 20
207.3109980526926
 30
0.0
  0
VERTEX
  5
130
330
CE
100
AcDbEntity
  8
MAKE2D$VISIBLE$LINES
100
AcDbVertex
100
AcDb2dVertex
 10
1403.178401726576
 20
207.3696113658686
 30
0.0
  0
VERTEX
  5
131
330
CE
100
AcDbEntity
  8
MAKE2D$VISIBLE$LINES
100
AcDbVertex
100
AcDb2dVertex
 10
1403.240109199166
 20
207.4270218926724
 30
0.0
  0
VERTEX
  5
132
330
CE
100
AcDbEntity
  8
MAKE2D$VISIBLE$LINES
100
AcDbVertex
100
AcDb2dVertex
 10
1403.303449485494
 20
207.4831619857115
 30
0.0
  0
VERTEX
  5
133
330
CE
100
AcDbEntity
  8
MAKE2D$VISIBLE$LINES
100
AcDbVertex
100
AcDb2dVertex
 10
1403.368385121568
 20
207.5379651570718
 30
0.0
  0
VERTEX
  5
134
330
CE
100
AcDbEntity
  8
MAKE2D$VISIBLE$LINES
100
AcDbVertex
100
AcDb2dVertex
 10
1403.434875147612
 20
207.5913663038233
 30
0.0
  0
VERTEX
  5
135
330
CE
100
AcDbEntity
  8
MAKE2D$VISIBLE$LINES
100
AcDbVertex
100
AcDb2dVertex
 10
1403.502875166239
 20
207.6433019325557
 30
0.0
  0
VERTEX
  5
136
330
CE
100
AcDbEntity
  8
MAKE2D$VISIBLE$LINES
100
AcDbVertex
100
AcDb2dVertex
 10
1403.57233741765
 20
207.6937103814787
 30
0.0
  0
VERTEX
  5
137
330
CE
100
AcDbEntity
  8
MAKE2D$VISIBLE$LINES
100
AcDbVertex
100
AcDb2dVertex
 10
1403.643210871793
 20
207.7425320386
 30
0.0
  0
VERTEX
  5
138
330
CE
100
AcDbEntity
  8
MAKE2D$VISIBLE$LINES
100
AcDbVertex
100
AcDb2dVertex
 10
1403.715441337264
 20
207.7897095544864
 30
0.0
  0
VERTEX
  5
139
330
CE
100
AcDbEntity
  8
MAKE2D$VISIBLE$LINES
100
AcDbVertex
100
AcDb2dVertex
 10
1403.788971586596
 20
207.8351880481227
 30
0.0
  0
VERTEX
  5
13A
330
CE
100
AcDbEntity
  8
MAKE2D$VISIBLE$LINES
100
AcDbVertex
100
AcDb2dVertex
 10
1403.86374149742
 20
207.8789153044134
 30
0.0
  0
VERTEX
  5
13B
330
CE
100
AcDbEntity
  8
MAKE2D$VISIBLE$LINES
100
AcDbVertex
100
AcDb2dVertex
 10
1403.93968820885
 20
207.9208419619096
 30
0.0
  0
VERTEX
  5
13C
330
CE
100
AcDbEntity
  8
MAKE2D$VISIBLE$LINES
100
AcDbVertex
100
AcDb2dVertex
 10
1404.016746292279
 20
207.9609216894098
 30
0.0
  0
VERTEX
  5
13D
330
CE
100
AcDbEntity
  8
MAKE2D$VISIBLE$LINES
100
AcDbVertex
100
AcDb2dVertex
 10
1404.094847935666
 20
207.999111350155
 30
0.0
  0
VERTEX
  5
13E
330
CE
100
AcDbEntity
  8
MAKE2D$VISIBLE$LINES
100
AcDbVertex
100
AcDb2dVertex
 10
1404.173923140228
 20
208.0353711524313
 30
0.0
  0
VERTEX
  5
13F
330
CE
100
AcDbEntity
  8
MAKE2D$VISIBLE$LINES
100
AcDbVertex
100
AcDb2dVertex
 10
1404.253899928378
 20
208.0696647855012
 30
0.0
  0
VERTEX
  5
140
330
CE
100
AcDbEntity
  8
MAKE2D$VISIBLE$LINES
100
AcDbVertex
100
AcDb2dVertex
 10
1404.334704561601
 20
208.1019595398997
 30
0.0
  0
VERTEX
  5
141
330
CE
100
AcDbEntity
  8
MAKE2D$VISIBLE$LINES
100
AcDbVertex
100
AcDb2dVertex
 10
1404.416261766895
 20
208.1322264112658
 30
0.0
  0
VERTEX
  5
142
330
CE
100
AcDbEntity
  8
MAKE2D$VISIBLE$LINES
100
AcDbVertex
100
AcDb2dVertex
 10
1404.498494970318
 20
208.1604401870179
 30
0.0
  0
VERTEX
  5
143
330
CE
100
AcDbEntity
  8
MAKE2D$VISIBLE$LINES
100
AcDbVertex
100
AcDb2dVertex
 10
1404.581326536123
 20
208.1865795153295
 30
0.0
  0
VERTEX
  5
144
330
CE
100
AcDbEntity
  8
MAKE2D$VISIBLE$LINES
100
AcDbVertex
100
AcDb2dVertex
 10
1404.664678009908
 20
208.2106269560188
 30
0.0
  0
VERTEX
  5
145
330
CE
100
AcDbEntity
  8
MAKE2D$VISIBLE$LINES
100
AcDbVertex
100
AcDb2dVertex
 10
1404.748470364199
 20
208.2325690131177
 30
0.0
  0
VERTEX
  5
146
330
CE
100
AcDbEntity
  8
MAKE2D$VISIBLE$LINES
100
AcDbVertex
100
AcDb2dVertex
 10
1404.832624244864
 20
208.2523961490507
 30
0.0
  0
VERTEX
  5
147
330
CE
100
AcDbEntity
  8
MAKE2D$VISIBLE$LINES
100
AcDbVertex
100
AcDb2dVertex
 10
1404.917060216759
 20
208.2701027805088
 30
0.0
  0
VERTEX
  5
148
330
CE
100
AcDbEntity
  8
MAKE2D$VISIBLE$LINES
100
AcDbVertex
100
AcDb2dVertex
 10
1405.001699007049
 20
208.2856872562601
 30
0.0
  0
VERTEX
  5
149
330
CE
100
AcDbEntity
  8
MAKE2D$VISIBLE$LINES
100
AcDbVertex
100
AcDb2dVertex
 10
1405.086461744677
 20
208.2991518172889
 30
0.0
  0
VERTEX
  5
14A
330
CE
100
AcDbEntity
  8
MAKE2D$VISIBLE$LINES
100
AcDbVertex
100
AcDb2dVertex
 10
1405.171270194513
 20
208.3105025397997
 30
0.0
  0
VERTEX
  5
14B
330
CE
100
AcDbEntity
  8
MAKE2D$VISIBLE$LINES
100
AcDbVertex
100
AcDb2dVertex
 10
1405.256046984796
 20
208.3197492617554
 30
0.0
  0
VERTEX
  5
14C
330
CE
100
AcDbEntity
  8
MAKE2D$VISIBLE$LINES
100
AcDbVertex
100
AcDb2dVertex
 10
1405.34071582657
 20
208.3269054937445
 30
0.0
  0
VERTEX
  5
14D
330
CE
100
AcDbEntity
  8
MAKE2D$VISIBLE$LINES
100
AcDbVertex
100
AcDb2dVertex
 10
1405.425201723888
 20
208.3319883150852
 30
0.0
  0
VERTEX
  5
14E
330
CE
100
AcDbEntity
  8
MAKE2D$VISIBLE$LINES
100
AcDbVertex
100
AcDb2dVertex
 10
1405.509431173716
 20
208.3350182561723
 30
0.0
  0
VERTEX
  5
14F
330
CE
100
AcDbEntity
  8
MAKE2D$VISIBLE$LINES
100
AcDbVertex
100
AcDb2dVertex
 10
1405.593332354531
 20
208.3360191681597
 30
0.0
  0
SEQEND
  5
150
330
CE
100
AcDbEntity
  8
MAKE2D$VISIBLE$LINES
  0
LINE
  5
151
330
1F
100
AcDbEntity
  8
MAKE2D$VISIBLE$LINES
100
AcDbLine
 10
1405.593332354531
 20
208.3360191681597
 30
0.0
 11
1405.593858712425
 21
227.8049566707534
 31
0.0
  0
LINE
  5
152
330
1F
100
AcDbEntity
  8
MAKE2D$VISIBLE$LINES
100
AcDbLine
 10
1776.68852038905
 20
54.50147960687453
 30
0.0
 11
1785.68852038905
 21
54.50147960687454
 31
0.0
  0
LINE
  5
153
330
1F
100
AcDbEntity
  8
MAKE2D$VISIBLE$LINES
100
AcDbLine
 10
1785.68852038905
 20
54.50147960687454
 30
0.0
 11
1785.68852038905
 21
60.6714796068737
 31
0.0
  0
POLYLINE
  5
154
330
1F
100
AcDbEntity
  8
MAKE2D$VISIBLE$LINES
100
AcDb2dPolyline
 66
     1
 10
0.0
 20
0.0
 30
0.0
  0
VERTEX
  5
155
330
154
100
AcDbEntity
  8
MAKE2D$VISIBLE$LINES
100
AcDbVertex
100
AcDb2dVertex
 10
1785.68852038905
 20
60.6714796068737
 30
0.0
 42
-0.9999999999999675
  0
VERTEX
  5
156
330
154
100
AcDbEntity
  8
MAKE2D$VISIBLE$LINES
100
AcDbVertex
100
AcDb2dVertex
 10
1785.68852038905
 20
67.67147960687399
 30
0.0
  0
VERTEX
  5
157
330
154
100
AcDbEntity
  8
MAKE2D$VISIBLE$LINES
100
AcDbVertex
100
AcDb2dVertex
 10
1794.68852038905
 20
67.6714796068737
 30
0.0
 42
-0.9999999999999999
  0
VERTEX
  5
158
330
154
100
AcDbEntity
  8
MAKE2D$VISIBLE$LINES
100
AcDbVertex
100
AcDb2dVertex
 10
1794.68852038905
 20
60.67147960687353
 30
0.0
  0
SEQEND
  5
159
330
154
100
AcDbEntity
  8
MAKE2D$VISIBLE$LINES
  0
LINE
  5
15A
330
1F
100
AcDbEntity
  8
MAKE2D$VISIBLE$LINES
100
AcDbLine
 10
1794.68852038905
 20
60.67147960687371
 30
0.0
 11
1794.68852038905
 21
54.50147960687454
 31
0.0
  0
LINE
  5
15B
330
1F
100
AcDbEntity
  8
MAKE2D$VISIBLE$LINES
100
AcDbLine
 10
1794.68852038905
 20
54.50147960687454
 30
0.0
 11
1892.189385021472
 21
54.50147960624596
 31
0.0
  0
POLYLINE
  5
15C
330
1F
100
AcDbEntity
  8
MAKE2D$VISIBLE$LINES
100
AcDb2dPolyline
 66
     1
 10
0.0
 20
0.0
 30
0.0
  0
VERTEX
  5
15D
330
15C
100
AcDbEntity
  8
MAKE2D$VISIBLE$LINES
100
AcDbVertex
100
AcDb2dVertex
 10
1892.189385021472
 20
54.50147960624596
 30
0.0
 42
-1.000000000000106
  0
VERTEX
  5
15E
330
15C
100
AcDbEntity
  8
MAKE2D$VISIBLE$LINES
100
AcDbVertex
100
AcDb2dVertex
 10
1899.189385021471
 20
54.50147960624596
 30
0.0
  0
VERTEX
  5
15F
330
15C
100
AcDbEntity
  8
MAKE2D$VISIBLE$LINES
100
AcDbVertex
100
AcDb2dVertex
 10
1899.189385021472
 20
42.50147960687532
 30
0.0
  0
SEQEND
  5
160
330
15C
100
AcDbEntity
  8
MAKE2D$VISIBLE$LINES
  0
LINE
  5
161
330
1F
100
AcDbEntity
  8
MAKE2D$VISIBLE$LINES
100
AcDbLine
 10
1899.189385021472
 20
42.50147960687532
 30
0.0
 11
1990.189141701786
 21
42.50147960687609
 31
0.0
  0
POLYLINE
  5
162
330
1F
100
AcDbEntity
  8
MAKE2D$VISIBLE$LINES
100
AcDb2dPolyline
 66
     1
 10
0.0
 20
0.0
 30
0.0
  0
VERTEX
  5
163
330
162
100
AcDbEntity
  8
MAKE2D$VISIBLE$LINES
100
AcDbVertex
100
AcDb2dVertex
 10
1990.189141701786
 20
42.50147960687609
 30
0.0
  0
VERTEX
  5
164
330
162
100
AcDbEntity
  8
MAKE2D$VISIBLE$LINES
100
AcDbVertex
100
AcDb2dVertex
 10
1990.189141701786
 20
54.50147960624673
 30
0.0
 42
-0.9999999999999197
  0
VERTEX
  5
165
330
162
100
AcDbEntity
  8
MAKE2D$VISIBLE$LINES
100
AcDbVertex
100
AcDb2dVertex
 10
1997.189141701786
 20
54.50147960624673
 30
0.0
  0
SEQEND
  5
166
330
162
100
AcDbEntity
  8
MAKE2D$VISIBLE$LINES
  0
LINE
  5
167
330
1F
100
AcDbEntity
  8
MAKE2D$VISIBLE$LINES
100
AcDbLine
 10
1997.189141701786
 20
54.50147960624673
 30
0.0
 11
2094.690006334208
 21
54.50147960687665
 31
0.0
  0
LINE
  5
168
330
1F
100
AcDbEntity
  8
MAKE2D$VISIBLE$LINES
100
AcDbLine
 10
2094.690006334208
 20
54.50147960687665
 30
0.0
 11
2094.690006334208
 21
60.67147960687581
 31
0.0
  0
POLYLINE
  5
169
330
1F
100
AcDbEntity
  8
MAKE2D$VISIBLE$LINES
100
AcDb2dPolyline
 66
     1
 10
0.0
 20
0.0
 30
0.0
  0
VERTEX
  5
16A
330
169
100
AcDbEntity
  8
MAKE2D$VISIBLE$LINES
100
AcDbVertex
100
AcDb2dVertex
 10
2094.690006334208
 20
60.67147960687581
 30
0.0
 42
-0.999999999999804
  0
VERTEX
  5
16B
330
169
100
AcDbEntity
  8
MAKE2D$VISIBLE$LINES
100
AcDbVertex
100
AcDb2dVertex
 10
2094.690006334208
 20
67.67147960687598
 30
0.0
  0
VERTEX
  5
16C
330
169
100
AcDbEntity
  8
MAKE2D$VISIBLE$LINES
100
AcDbVertex
100
AcDb2dVertex
 10
2103.690006334208
 20
67.67147960687582
 30
0.0
 42
-0.9999999999999979
  0
VERTEX
  5
16D
330
169
100
AcDbEntity
  8
MAKE2D$VISIBLE$LINES
100
AcDbVertex
100
AcDb2dVertex
 10
2103.690006334208
 20
60.67147960687596
 30
0.0
  0
SEQEND
  5
16E
330
169
100
AcDbEntity
  8
MAKE2D$VISIBLE$LINES
  0
LINE
  5
16F
330
1F
100
AcDbEntity
  8
MAKE2D$VISIBLE$LINES
100
AcDbLine
 10
2103.690006334208
 20
60.67147960687582
 30
0.0
 11
2103.690006334208
 21
54.50147960687666
 31
0.0
  0
LINE
  5
170
330
1F
100
AcDbEntity
  8
MAKE2D$VISIBLE$LINES
100
AcDbLine
 10
2103.690006334208
 20
54.50147960687666
 30
0.0
 11
2112.690006334208
 21
54.50147960687689
 31
0.0
  0
LINE
  5
171
330
1F
100
AcDbEntity
  8
MAKE2D$VISIBLE$LINES
100
AcDbLine
 10
2112.690006334208
 20
54.50147960687689
 30
0.0
 11
2112.690006334208
 21
94.31147960687642
 31
0.0
  0
LINE
  5
172
330
1F
100
AcDbEntity
  8
MAKE2D$VISIBLE$LINES
100
AcDbLine
 10
2112.690006334208
 20
94.31147960687642
 30
0.0
 11
1776.68852038905
 21
94.31147960687404
 31
0.0
  0
LINE
  5
173
330
1F
100
AcDbEntity
  8
MAKE2D$VISIBLE$LINES
100
AcDbLine
 10
1776.68852038905
 20
94.31147960687404
 30
0.0
 11
1776.68852038905
 21
54.50147960687453
 31
0.0
  0
POLYLINE
  5
174
330
1F
100
AcDbEntity
  8
MAKE2D$VISIBLE$LINES
100
AcDb2dPolyline
 66
     1
 10
0.0
 20
0.0
 30
0.0
  0
VERTEX
  5
175
330
174
100
AcDbEntity
  8
MAKE2D$VISIBLE$LINES
100
AcDbVertex
100
AcDb2dVertex
 10
1622.391380437638
 20
-201.2044684052836
 30
0.0
 42
-0.9999999999997632
  0
VERTEX
  5
176
330
174
100
AcDbEntity
  8
MAKE2D$VISIBLE$LINES
100
AcDbVertex
100
AcDb2dVertex
 10
1628.866781441649
 20
-198.5456751005588
 30
0.0
  0
VERTEX
  5
177
330
174
100
AcDbEntity
  8
MAKE2D$VISIBLE$LINES
100
AcDbVertex
100
AcDb2dVertex
 10
1632.285229976206
 20
-206.8711906769185
 30
0.0
 42
-0.9999999999990373
  0
VERTEX
  5
178
330
174
100
AcDbEntity
  8
MAKE2D$VISIBLE$LINES
100
AcDbVertex
100
AcDb2dVertex
 10
1625.809828972197
 20
-209.5299839816492
 30
0.0
  0
SEQEND
  5
179
330
174
100
AcDbEntity
  8
MAKE2D$VISIBLE$LINES
  0
LINE
  5
17A
330
1F
100
AcDbEntity
  8
MAKE2D$VISIBLE$LINES
100
AcDbLine
 10
1625.809828972197
 20
-209.5299839816491
 30
0.0
 11
1586.957422948138
 21
-225.4827438100203
 31
0.0
  0
POLYLINE
  5
17B
330
1F
100
AcDbEntity
  8
MAKE2D$VISIBLE$LINES
100
AcDb2dPolyline
 66
     1
 10
0.0
 20
0.0
 30
0.0
  0
VERTEX
  5
17C
330
17B
100
AcDbEntity
  8
MAKE2D$VISIBLE$LINES
100
AcDbVertex
100
AcDb2dVertex
 10
1586.957422948138
 20
-225.4827438100203
 30
0.0
 42
-0.9999999999999177
  0
VERTEX
  5
17D
330
17B
100
AcDbEntity
  8
MAKE2D$VISIBLE$LINES
100
AcDbVertex
100
AcDb2dVertex
 10
1580.482021944129
 20
-228.1415371147471
 30
0.0
  0
VERTEX
  5
17E
330
17B
100
AcDbEntity
  8
MAKE2D$VISIBLE$LINES
100
AcDbVertex
100
AcDb2dVertex
 10
1577.063573409524
 20
-219.8160215382724
 30
0.0
 42
-0.999999999982205
  0
VERTEX
  5
17F
330
17B
100
AcDbEntity
  8
MAKE2D$VISIBLE$LINES
100
AcDbVertex
100
AcDb2dVertex
 10
1583.538974413581
 20
-217.1572282336594
 30
0.0
  0
SEQEND
  5
180
330
17B
100
AcDbEntity
  8
MAKE2D$VISIBLE$LINES
  0
LINE
  5
181
330
1F
100
AcDbEntity
  8
MAKE2D$VISIBLE$LINES
100
AcDbLine
 10
1583.538974413581
 20
-217.1572282336594
 30
0.0
 11
1622.391380437638
 21
-201.2044684052836
 31
0.0
  0
LINE
  5
182
330
1F
100
AcDbEntity
  8
MAKE2D$VISIBLE$LINES
100
AcDbLine
 10
1557.122767401795
 20
-188.3596648653003
 30
0.0
 11
1557.122767401794
 21
-230.9976726799834
 31
0.0
  0
ARC
  5
183
330
1F
100
AcDbEntity
  8
MAKE2D$VISIBLE$LINES
100
AcDbCircle
 10
1553.622767401794
 20
-230.9976726799834
 30
0.0
 40
3.5
100
AcDbArc
 50
179.9999999999995
 51
0.0000000000004653
  0
LINE
  5
184
330
1F
100
AcDbEntity
  8
MAKE2D$VISIBLE$LINES
100
AcDbLine
 10
1550.122767401794
 20
-230.9976726799834
 30
0.0
 11
1548.122767401795
 21
-230.9976726799434
 31
0.0
  0
LINE
  5
185
330
1F
100
AcDbEntity
  8
MAKE2D$VISIBLE$LINES
100
AcDbLine
 10
1548.122767401795
 20
-230.9976726799434
 30
0.0
 11
1548.122767401795
 21
-260.9976726799443
 31
0.0
  0
LINE
  5
186
330
1F
100
AcDbEntity
  8
MAKE2D$VISIBLE$LINES
100
AcDbLine
 10
1548.122767401795
 20
-260.9976726799443
 30
0.0
 11
1550.122767401798
 21
-260.9976726799443
 31
0.0
  0
POLYLINE
  5
187
330
1F
100
AcDbEntity
  8
MAKE2D$VISIBLE$LINES
100
AcDb2dPolyline
 66
     1
 10
0.0
 20
0.0
 30
0.0
  0
VERTEX
  5
188
330
187
100
AcDbEntity
  8
MAKE2D$VISIBLE$LINES
100
AcDbVertex
100
AcDb2dVertex
 10
1550.122767401798
 20
-260.9976726799443
 30
0.0
 42
-0.9999999999999919
  0
VERTEX
  5
189
330
187
100
AcDbEntity
  8
MAKE2D$VISIBLE$LINES
100
AcDbVertex
100
AcDb2dVertex
 10
1557.122767401798
 20
-260.9976726799443
 30
0.0
  0
VERTEX
  5
18A
330
187
100
AcDbEntity
  8
MAKE2D$VISIBLE$LINES
100
AcDbVertex
100
AcDb2dVertex
 10
1557.122767401794
 20
-280.9976726799434
 30
0.0
 42
-1.000000000000057
  0
VERTEX
  5
18B
330
187
100
AcDbEntity
  8
MAKE2D$VISIBLE$LINES
100
AcDbVertex
100
AcDb2dVertex
 10
1550.122767401794
 20
-280.9976726799434
 30
0.0
  0
SEQEND
  5
18C
330
187
100
AcDbEntity
  8
MAKE2D$VISIBLE$LINES
  0
LINE
  5
18D
330
1F
100
AcDbEntity
  8
MAKE2D$VISIBLE$LINES
100
AcDbLine
 10
1550.122767401794
 20
-280.9976726799434
 30
0.0
 11
1539.122767401795
 21
-280.9976726799425
 31
0.0
  0
LINE
  5
18E
330
1F
100
AcDbEntity
  8
MAKE2D$VISIBLE$LINES
100
AcDbLine
 10
1539.122767401795
 20
-280.9976726799425
 30
0.0
 11
1539.122767401795
 21
-364.9976726799416
 31
0.0
  0
LINE
  5
18F
330
1F
100
AcDbEntity
  8
MAKE2D$VISIBLE$LINES
100
AcDbLine
 10
1539.122767401795
 20
-364.9976726799416
 30
0.0
 11
1550.122767401795
 21
-364.9976726797333
 31
0.0
  0
POLYLINE
  5
190
330
1F
100
AcDbEntity
  8
MAKE2D$VISIBLE$LINES
100
AcDb2dPolyline
 66
     1
 10
0.0
 20
0.0
 30
0.0
  0
VERTEX
  5
191
330
190
100
AcDbEntity
  8
MAKE2D$VISIBLE$LINES
100
AcDbVertex
100
AcDb2dVertex
 10
1550.122767401795
 20
-364.9976726797333
 30
0.0
 42
-0.9999999999999919
  0
VERTEX
  5
192
330
190
100
AcDbEntity
  8
MAKE2D$VISIBLE$LINES
100
AcDbVertex
100
AcDb2dVertex
 10
1557.122767401795
 20
-364.9976726797333
 30
0.0
  0
VERTEX
  5
193
330
190
100
AcDbEntity
  8
MAKE2D$VISIBLE$LINES
100
AcDbVertex
100
AcDb2dVertex
 10
1557.122767401794
 20
-384.997672680098
 30
0.0
 42
-1.000000000000138
  0
VERTEX
  5
194
330
190
100
AcDbEntity
  8
MAKE2D$VISIBLE$LINES
100
AcDbVertex
100
AcDb2dVertex
 10
1550.122767401795
 20
-384.997672680098
 30
0.0
  0
SEQEND
  5
195
330
190
100
AcDbEntity
  8
MAKE2D$VISIBLE$LINES
  0
LINE
  5
196
330
1F
100
AcDbEntity
  8
MAKE2D$VISIBLE$LINES
100
AcDbLine
 10
1550.122767401795
 20
-384.997672680098
 30
0.0
 11
1548.122767401795
 21
-384.9976726799425
 31
0.0
  0
LINE
  5
197
330
1F
100
AcDbEntity
  8
MAKE2D$VISIBLE$LINES
100
AcDbLine
 10
1548.122767401795
 20
-384.9976726799425
 30
0.0
 11
1548.122767401795
 21
-414.9976726799425
 31
0.0
  0
LINE
  5
198
330
1F
100
AcDbEntity
  8
MAKE2D$VISIBLE$LINES
100
AcDbLine
 10
1548.122767401795
 20
-414.9976726799425
 30
0.0
 11
1550.122767401795
 21
-414.9976726799425
 31
0.0
  0
POLYLINE
  5
199
330
1F
100
AcDbEntity
  8
MAKE2D$VISIBLE$LINES
100
AcDb2dPolyline
 66
     1
 10
0.0
 20
0.0
 30
0.0
  0
VERTEX
  5
19A
330
199
100
AcDbEntity
  8
MAKE2D$VISIBLE$LINES
100
AcDbVertex
100
AcDb2dVertex
 10
1550.122767401795
 20
-414.9976726799425
 30
0.0
 42
-0.9999999999647976
  0
VERTEX
  5
19B
330
199
100
AcDbEntity
  8
MAKE2D$VISIBLE$LINES
100
AcDbVertex
100
AcDb2dVertex
 10
1557.122767401795
 20
-414.997672680189
 30
0.0
  0
VERTEX
  5
19C
330
199
100
AcDbEntity
  8
MAKE2D$VISIBLE$LINES
100
AcDbVertex
100
AcDb2dVertex
 10
1557.122767401795
 20
-457.6356804945838
 30
0.0
  0
SEQEND
  5
19D
330
199
100
AcDbEntity
  8
MAKE2D$VISIBLE$LINES
  0
POLYLINE
  5
19E
330
1F
100
AcDbEntity
  8
MAKE2D$VISIBLE$LINES
100
AcDb2dPolyline
 66
     1
 10
0.0
 20
0.0
 30
0.0
  0
VERTEX
  5
19F
330
19E
100
AcDbEntity
  8
MAKE2D$VISIBLE$LINES
100
AcDbVertex
100
AcDb2dVertex
 10
1557.122767401795
 20
-457.6356804945838
 30
0.0
  0
VERTEX
  5
1A0
330
19E
100
AcDbEntity
  8
MAKE2D$VISIBLE$LINES
100
AcDbVertex
100
AcDb2dVertex
 10
2245.572599234327
 20
-719.469597602811
 30
0.0
 42
0.5251397911661079
  0
VERTEX
  5
1A1
330
19E
100
AcDbEntity
  8
MAKE2D$VISIBLE$LINES
100
AcDbVertex
100
AcDb2dVertex
 10
2259.127422041914
 20
-710.1227674017945
 30
0.0
  0
VERTEX
  5
1A2
330
19E
100
AcDbEntity
  8
MAKE2D$VISIBLE$LINES
100
AcDbVertex
100
AcDb2dVertex
 10
2259.127422041914
 20
-691.2286423775121
 30
0.0
 42
0.2970537353308265
  0
VERTEX
  5
1A3
330
19E
100
AcDbEntity
  8
MAKE2D$VISIBLE$LINES
100
AcDbVertex
100
AcDb2dVertex
 10
2253.166548384801
 20
-682.0806667333487
 30
0.0
  0
VERTEX
  5
1A4
330
19E
100
AcDbEntity
  8
MAKE2D$VISIBLE$LINES
100
AcDbVertex
100
AcDb2dVertex
 10
1963.001578766416
 20
-553.9634724865209
 30
0.0
 42
-0.4329731462872618
  0
VERTEX
  5
1A5
330
19E
100
AcDbEntity
  8
MAKE2D$VISIBLE$LINES
100
AcDbVertex
100
AcDb2dVertex
 10
1958.1680409044
 20
-540.2029238177828
 30
0.0
  0
VERTEX
  5
1A6
330
19E
100
AcDbEntity
  8
MAKE2D$VISIBLE$LINES
100
AcDbVertex
100
AcDb2dVertex
 10
2258.000086246815
 20
36.54871610548734
 30
0.0
 42
0.1204301338839173
  0
VERTEX
  5
1A7
330
19E
100
AcDbEntity
  8
MAKE2D$VISIBLE$LINES
100
AcDbVertex
100
AcDb2dVertex
 10
2259.127422041915
 20
41.16128913006497
 30
0.0
  0
VERTEX
  5
1A8
330
19E
100
AcDbEntity
  8
MAKE2D$VISIBLE$LINES
100
AcDbVertex
100
AcDb2dVertex
 10
2259.127422041913
 20
64.12742204191574
 30
0.0
 42
0.5251397911659749
  0
VERTEX
  5
1A9
330
19E
100
AcDbEntity
  8
MAKE2D$VISIBLE$LINES
100
AcDbVertex
100
AcDb2dVertex
 10
2245.572599234326
 20
73.47425224293342
 30
0.0
  0
VERTEX
  5
1AA
330
19E
100
AcDbEntity
  8
MAKE2D$VISIBLE$LINES
100
AcDbVertex
100
AcDb2dVertex
 10
1557.122767401795
 20
-188.3596648653003
 30
0.0
  0
SEQEND
  5
1AB
330
19E
100
AcDbEntity
  8
MAKE2D$VISIBLE$LINES
  0
POLYLINE
  5
1AC
330
1F
100
AcDbEntity
  8
MAKE2D$VISIBLE$LINES
100
AcDb2dPolyline
 66
     1
 10
0.0
 20
0.0
 30
0.0
  0
VERTEX
  5
1AD
330
1AC
100
AcDbEntity
  8
MAKE2D$VISIBLE$LINES
100
AcDbVertex
100
AcDb2dVertex
 10
1688.713199867288
 20
-183.7019215533111
 30
0.0
 42
-0.9999999999994788
  0
VERTEX
  5
1AE
330
1AC
100
AcDbEntity
  8
MAKE2D$VISIBLE$LINES
100
AcDbVertex
100
AcDb2dVertex
 10
1682.237798863279
 20
-186.360714858036
 30
0.0
  0
VERTEX
  5
1AF
330
1AC
100
AcDbEntity
  8
MAKE2D$VISIBLE$LINES
100
AcDbVertex
100
AcDb2dVertex
 10
1678.819350328674
 20
-178.0351992815632
 30
0.0
 42
-0.9999999999828887
  0
VERTEX
  5
1B0
330
1AC
100
AcDbEntity
  8
MAKE2D$VISIBLE$LINES
100
AcDbVertex
100
AcDb2dVertex
 10
1685.294751332732
 20
-175.3764059769492
 30
0.0
  0
SEQEND
  5
1B1
330
1AC
100
AcDbEntity
  8
MAKE2D$VISIBLE$LINES
  0
LINE
  5
1B2
330
1F
100
AcDbEntity
  8
MAKE2D$VISIBLE$LINES
100
AcDbLine
 10
1685.294751332732
 20
-175.3764059769493
 30
0.0
 11
1724.147157356789
 21
-159.4236461485791
 31
0.0
  0
POLYLINE
  5
1B3
330
1F
100
AcDbEntity
  8
MAKE2D$VISIBLE$LINES
100
AcDb2dPolyline
 66
     1
 10
0.0
 20
0.0
 30
0.0
  0
VERTEX
  5
1B4
330
1B3
100
AcDbEntity
  8
MAKE2D$VISIBLE$LINES
100
AcDbVertex
100
AcDb2dVertex
 10
1724.147157356789
 20
-159.4236461485791
 30
0.0
 42
-1.000000000000465
  0
VERTEX
  5
1B5
330
1B3
100
AcDbEntity
  8
MAKE2D$VISIBLE$LINES
100
AcDbVertex
100
AcDb2dVertex
 10
1730.622558360798
 20
-156.7648528438498
 30
0.0
  0
VERTEX
  5
1B6
330
1B3
100
AcDbEntity
  8
MAKE2D$VISIBLE$LINES
100
AcDbVertex
100
AcDb2dVertex
 10
1734.041006895355
 20
-165.0903684202095
 30
0.0
 42
-0.9999999999997119
  0
VERTEX
  5
1B7
330
1B3
100
AcDbEntity
  8
MAKE2D$VISIBLE$LINES
100
AcDbVertex
100
AcDb2dVertex
 10
1727.565605891346
 20
-167.7491617249367
 30
0.0
  0
SEQEND
  5
1B8
330
1B3
100
AcDbEntity
  8
MAKE2D$VISIBLE$LINES
  0
LINE
  5
1B9
330
1F
100
AcDbEntity
  8
MAKE2D$VISIBLE$LINES
100
AcDbLine
 10
1727.565605891346
 20
-167.7491617249368
 30
0.0
 11
1688.713199867288
 21
-183.7019215533111
 31
0.0
  0
ARC
  5
1BA
330
1F
100
AcDbEntity
  8
MAKE2D$VISIBLE$LINES
100
AcDbCircle
 10
1611.767543504293
 20
-437.5783500662493
 30
0.0
 40
3.500000000000229
100
AcDbArc
 50
337.2659178981444
 51
157.265917898151
  0
POLYLINE
  5
1BB
330
1F
100
AcDbEntity
  8
MAKE2D$VISIBLE$LINES
100
AcDb2dPolyline
 66
     1
 10
0.0
 20
0.0
 30
0.0
  0
VERTEX
  5
1BC
330
1BB
100
AcDbEntity
  8
MAKE2D$VISIBLE$LINES
100
AcDbVertex
100
AcDb2dVertex
 10
1614.995622806347
 20
-438.9309416600602
 30
0.0
  0
VERTEX
  5
1BD
330
1BB
100
AcDbEntity
  8
MAKE2D$VISIBLE$LINES
100
AcDbVertex
100
AcDb2dVertex
 10
1611.517530136642
 20
-447.231717007976
 30
0.0
 42
-0.9999999999999615
  0
VERTEX
  5
1BE
330
1BB
100
AcDbEntity
  8
MAKE2D$VISIBLE$LINES
100
AcDbVertex
100
AcDb2dVertex
 10
1605.061371532533
 20
-444.5265338203547
 30
0.0
  0
SEQEND
  5
1BF
330
1BB
100
AcDbEntity
  8
MAKE2D$VISIBLE$LINES
  0
LINE
  5
1C0
330
1F
100
AcDbEntity
  8
MAKE2D$VISIBLE$LINES
100
AcDbLine
 10
1605.061371532533
 20
-444.5265338203546
 30
0.0
 11
1575.549108216545
 21
-432.1606544412091
 31
0.0
  0
POLYLINE
  5
1C1
330
1F
100
AcDbEntity
  8
MAKE2D$VISIBLE$LINES
100
AcDb2dPolyline
 66
     1
 10
0.0
 20
0.0
 30
0.0
  0
VERTEX
  5
1C2
330
1C1
100
AcDbEntity
  8
MAKE2D$VISIBLE$LINES
100
AcDbVertex
100
AcDb2dVertex
 10
1575.549108216545
 20
-432.1606544412091
 30
0.0
 42
-0.9999999999825039
  0
VERTEX
  5
1C3
330
1C1
100
AcDbEntity
  8
MAKE2D$VISIBLE$LINES
100
AcDbVertex
100
AcDb2dVertex
 10
1569.092949612389
 20
-429.4554712537012
 30
0.0
  0
VERTEX
  5
1C4
330
1C1
100
AcDbEntity
  8
MAKE2D$VISIBLE$LINES
100
AcDbVertex
100
AcDb2dVertex
 10
1572.571042282142
 20
-421.1546959056707
 30
0.0
 42
-0.9999999999999055
  0
VERTEX
  5
1C5
330
1C1
100
AcDbEntity
  8
MAKE2D$VISIBLE$LINES
100
AcDbVertex
100
AcDb2dVertex
 10
1579.027200886251
 20
-423.8598790932919
 30
0.0
  0
SEQEND
  5
1C6
330
1C1
100
AcDbEntity
  8
MAKE2D$VISIBLE$LINES
  0
LINE
  5
1C7
330
1F
100
AcDbEntity
  8
MAKE2D$VISIBLE$LINES
100
AcDbLine
 10
1579.027200886251
 20
-423.8598790932921
 30
0.0
 11
1608.539464202238
 21
-436.2257584724387
 31
0.0
  0
POLYLINE
  5
1C8
330
1F
100
AcDbEntity
  8
MAKE2D$VISIBLE$LINES
100
AcDb2dPolyline
 66
     1
 10
0.0
 20
0.0
 30
0.0
  0
VERTEX
  5
1C9
330
1C8
100
AcDbEntity
  8
MAKE2D$VISIBLE$LINES
100
AcDbVertex
100
AcDb2dVertex
 10
2175.858809006072
 20
-775.2044684052828
 30
0.0
 42
0.9999999999995687
  0
VERTEX
  5
1CA
330
1C8
100
AcDbEntity
  8
MAKE2D$VISIBLE$LINES
100
AcDbVertex
100
AcDb2dVertex
 10
2169.383408002061
 20
-772.5456751005578
 30
0.0
  0
VERTEX
  5
1CB
330
1C8
100
AcDbEntity
  8
MAKE2D$VISIBLE$LINES
100
AcDbVertex
100
AcDb2dVertex
 10
2165.964959467504
 20
-780.8711906769179
 30
0.0
 42
0.9999999999990564
  0
VERTEX
  5
1CC
330
1C8
100
AcDbEntity
  8
MAKE2D$VISIBLE$LINES
100
AcDbVertex
100
AcDb2dVertex
 10
2172.440360471513
 20
-783.5299839816481
 30
0.0
  0
SEQEND
  5
1CD
330
1C8
100
AcDbEntity
  8
MAKE2D$VISIBLE$LINES
  0
LINE
  5
1CE
330
1F
100
AcDbEntity
  8
MAKE2D$VISIBLE$LINES
100
AcDbLine
 10
2172.440360471513
 20
-783.5299839816482
 30
0.0
 11
2211.292766495572
 21
-799.4827438100194
 31
0.0
  0
POLYLINE
  5
1CF
330
1F
100
AcDbEntity
  8
MAKE2D$VISIBLE$LINES
100
AcDb2dPolyline
 66
     1
 10
0.0
 20
0.0
 30
0.0
  0
VERTEX
  5
1D0
330
1CF
100
AcDbEntity
  8
MAKE2D$VISIBLE$LINES
100
AcDbVertex
100
AcDb2dVertex
 10
2211.292766495572
 20
-799.4827438100194
 30
0.0
 42
0.9999999999996255
  0
VERTEX
  5
1D1
330
1CF
100
AcDbEntity
  8
MAKE2D$VISIBLE$LINES
100
AcDbVertex
100
AcDb2dVertex
 10
2217.768167499582
 20
-802.1415371147464
 30
0.0
  0
VERTEX
  5
1D2
330
1CF
100
AcDbEntity
  8
MAKE2D$VISIBLE$LINES
100
AcDbVertex
100
AcDb2dVertex
 10
2221.186616034186
 20
-793.8160215382715
 30
0.0
 42
0.9999999999819825
  0
VERTEX
  5
1D3
330
1CF
100
AcDbEntity
  8
MAKE2D$VISIBLE$LINES
100
AcDbVertex
100
AcDb2dVertex
 10
2214.711215030128
 20
-791.1572282336587
 30
0.0
  0
SEQEND
  5
1D4
330
1CF
100
AcDbEntity
  8
MAKE2D$VISIBLE$LINES
  0
LINE
  5
1D5
330
1F
100
AcDbEntity
  8
MAKE2D$VISIBLE$LINES
100
AcDbLine
 10
2214.711215030128
 20
-791.1572282336584
 30
0.0
 11
2175.858809006072
 21
-775.2044684052828
 31
0.0
  0
LINE
  5
1D6
330
1F
100
AcDbEntity
  8
MAKE2D$VISIBLE$LINES
100
AcDbLine
 10
2241.127422041915
 20
-762.3596648652996
 30
0.0
 11
2241.127422041916
 21
-804.9976726799824
 31
0.0
  0
ARC
  5
1D7
330
1F
100
AcDbEntity
  8
MAKE2D$VISIBLE$LINES
100
AcDbCircle
 10
2244.627422041916
 20
-804.9976726799823
 30
0.0
 40
3.5
100
AcDbArc
 50
180.0000000000018
 51
359.9999999999981
  0
LINE
  5
1D8
330
1F
100
AcDbEntity
  8
MAKE2D$VISIBLE$LINES
100
AcDbLine
 10
2248.127422041916
 20
-804.9976726799824
 30
0.0
 11
2250.127422041915
 21
-804.9976726799425
 31
0.0
  0
LINE
  5
1D9
330
1F
100
AcDbEntity
  8
MAKE2D$VISIBLE$LINES
100
AcDbLine
 10
2250.127422041915
 20
-804.9976726799425
 30
0.0
 11
2250.127422041915
 21
-834.9976726799434
 31
0.0
  0
LINE
  5
1DA
330
1F
100
AcDbEntity
  8
MAKE2D$VISIBLE$LINES
100
AcDbLine
 10
2250.127422041915
 20
-834.9976726799434
 30
0.0
 11
2248.127422041912
 21
-834.9976726799434
 31
0.0
  0
POLYLINE
  5
1DB
330
1F
100
AcDbEntity
  8
MAKE2D$VISIBLE$LINES
100
AcDb2dPolyline
 66
     1
 10
0.0
 20
0.0
 30
0.0
  0
VERTEX
  5
1DC
330
1DB
100
AcDbEntity
  8
MAKE2D$VISIBLE$LINES
100
AcDbVertex
100
AcDb2dVertex
 10
2248.127422041912
 20
-834.9976726799434
 30
0.0
 42
0.9999999999999999
  0
VERTEX
  5
1DD
330
1DB
100
AcDbEntity
  8
MAKE2D$VISIBLE$LINES
100
AcDbVertex
100
AcDb2dVertex
 10
2241.127422041912
 20
-834.9976726799434
 30
0.0
  0
VERTEX
  5
1DE
330
1DB
100
AcDbEntity
  8
MAKE2D$VISIBLE$LINES
100
AcDbVertex
100
AcDb2dVertex
 10
2241.127422041916
 20
-854.9976726799425
 30
0.0
 42
1.000000000000081
  0
VERTEX
  5
1DF
330
1DB
100
AcDbEntity
  8
MAKE2D$VISIBLE$LINES
100
AcDbVertex
100
AcDb2dVertex
 10
2248.127422041916
 20
-854.9976726799425
 30
0.0
  0
SEQEND
  5
1E0
330
1DB
100
AcDbEntity
  8
MAKE2D$VISIBLE$LINES
  0
LINE
  5
1E1
330
1F
100
AcDbEntity
  8
MAKE2D$VISIBLE$LINES
100
AcDbLine
 10
2248.127422041916
 20
-854.9976726799425
 30
0.0
 11
2259.127422041915
 21
-854.9976726799416
 31
0.0
  0
LINE
  5
1E2
330
1F
100
AcDbEntity
  8
MAKE2D$VISIBLE$LINES
100
AcDbLine
 10
2259.127422041915
 20
-854.9976726799416
 30
0.0
 11
2259.127422041915
 21
-938.9976726799408
 31
0.0
  0
LINE
  5
1E3
330
1F
100
AcDbEntity
  8
MAKE2D$VISIBLE$LINES
100
AcDbLine
 10
2259.127422041915
 20
-938.9976726799408
 30
0.0
 11
2248.127422041916
 21
-938.9976726797323
 31
0.0
  0
POLYLINE
  5
1E4
330
1F
100
AcDbEntity
  8
MAKE2D$VISIBLE$LINES
100
AcDb2dPolyline
 66
     1
 10
0.0
 20
0.0
 30
0.0
  0
VERTEX
  5
1E5
330
1E4
100
AcDbEntity
  8
MAKE2D$VISIBLE$LINES
100
AcDbVertex
100
AcDb2dVertex
 10
2248.127422041916
 20
-938.9976726797323
 30
0.0
 42
0.99999999999987
  0
VERTEX
  5
1E6
330
1E4
100
AcDbEntity
  8
MAKE2D$VISIBLE$LINES
100
AcDbVertex
100
AcDb2dVertex
 10
2241.127422041916
 20
-938.9976726797323
 30
0.0
  0
VERTEX
  5
1E7
330
1E4
100
AcDbEntity
  8
MAKE2D$VISIBLE$LINES
100
AcDbVertex
100
AcDb2dVertex
 10
2241.127422041916
 20
-958.9976726800973
 30
0.0
 42
0.9999999999998862
  0
VERTEX
  5
1E8
330
1E4
100
AcDbEntity
  8
MAKE2D$VISIBLE$LINES
100
AcDbVertex
100
AcDb2dVertex
 10
2248.127422041916
 20
-958.9976726800973
 30
0.0
  0
SEQEND
  5
1E9
330
1E4
100
AcDbEntity
  8
MAKE2D$VISIBLE$LINES
  0
LINE
  5
1EA
330
1F
100
AcDbEntity
  8
MAKE2D$VISIBLE$LINES
100
AcDbLine
 10
2248.127422041916
 20
-958.9976726800973
 30
0.0
 11
2250.127422041915
 21
-958.9976726799416
 31
0.0
  0
LINE
  5
1EB
330
1F
100
AcDbEntity
  8
MAKE2D$VISIBLE$LINES
100
AcDbLine
 10
2250.127422041915
 20
-958.9976726799416
 30
0.0
 11
2250.127422041915
 21
-988.9976726799416
 31
0.0
  0
LINE
  5
1EC
330
1F
100
AcDbEntity
  8
MAKE2D$VISIBLE$LINES
100
AcDbLine
 10
2250.127422041915
 20
-988.9976726799416
 30
0.0
 11
2248.127422041916
 21
-988.9976726799416
 31
0.0
  0
POLYLINE
  5
1ED
330
1F
100
AcDbEntity
  8
MAKE2D$VISIBLE$LINES
100
AcDb2dPolyline
 66
     1
 10
0.0
 20
0.0
 30
0.0
  0
VERTEX
  5
1EE
330
1ED
100
AcDbEntity
  8
MAKE2D$VISIBLE$LINES
100
AcDbVertex
100
AcDb2dVertex
 10
2248.127422041916
 20
-988.9976726799416
 30
0.0
 42
0.9999999999648382
  0
VERTEX
  5
1EF
330
1ED
100
AcDbEntity
  8
MAKE2D$VISIBLE$LINES
100
AcDbVertex
100
AcDb2dVertex
 10
2241.127422041915
 20
-988.997672680188
 30
0.0
  0
VERTEX
  5
1F0
330
1ED
100
AcDbEntity
  8
MAKE2D$VISIBLE$LINES
100
AcDbVertex
100
AcDb2dVertex
 10
2241.127422041915
 20
-1031.635680494583
 30
0.0
  0
SEQEND
  5
1F1
330
1ED
100
AcDbEntity
  8
MAKE2D$VISIBLE$LINES
  0
POLYLINE
  5
1F2
330
1F
100
AcDbEntity
  8
MAKE2D$VISIBLE$LINES
100
AcDb2dPolyline
 66
     1
 10
0.0
 20
0.0
 30
0.0
  0
VERTEX
  5
1F3
330
1F2
100
AcDbEntity
  8
MAKE2D$VISIBLE$LINES
100
AcDbVertex
100
AcDb2dVertex
 10
2241.127422041915
 20
-1031.635680494583
 30
0.0
  0
VERTEX
  5
1F4
330
1F2
100
AcDbEntity
  8
MAKE2D$VISIBLE$LINES
100
AcDbVertex
100
AcDb2dVertex
 10
1552.677590209384
 20
-1293.469597602811
 30
0.0
 42
-0.5251397911660413
  0
VERTEX
  5
1F5
330
1F2
100
AcDbEntity
  8
MAKE2D$VISIBLE$LINES
100
AcDbVertex
100
AcDb2dVertex
 10
1539.122767401798
 20
-1284.122767401794
 30
0.0
  0
VERTEX
  5
1F6
330
1F2
100
AcDbEntity
  8
MAKE2D$VISIBLE$LINES
100
AcDbVertex
100
AcDb2dVertex
 10
1539.122767401797
 20
-1265.228642377512
 30
0.0
 42
-0.2970537353308403
  0
VERTEX
  5
1F7
330
1F2
100
AcDbEntity
  8
MAKE2D$VISIBLE$LINES
100
AcDbVertex
100
AcDb2dVertex
 10
1545.08364105891
 20
-1256.080666733349
 30
0.0
  0
VERTEX
  5
1F8
330
1F2
100
AcDbEntity
  8
MAKE2D$VISIBLE$LINES
100
AcDbVertex
100
AcDb2dVertex
 10
1835.248610677294
 20
-1127.96347248652
 30
0.0
 42
0.4329731462872756
  0
VERTEX
  5
1F9
330
1F2
100
AcDbEntity
  8
MAKE2D$VISIBLE$LINES
100
AcDbVertex
100
AcDb2dVertex
 10
1840.082148539311
 20
-1114.202923817782
 30
0.0
  0
VERTEX
  5
1FA
330
1F2
100
AcDbEntity
  8
MAKE2D$VISIBLE$LINES
100
AcDbVertex
100
AcDb2dVertex
 10
1540.250103196895
 20
-537.4512838945127
 30
0.0
 42
-0.1204301338839545
  0
VERTEX
  5
1FB
330
1F2
100
AcDbEntity
  8
MAKE2D$VISIBLE$LINES
100
AcDbVertex
100
AcDb2dVertex
 10
1539.122767401795
 20
-532.8387108699352
 30
0.0
  0
VERTEX
  5
1FC
330
1F2
100
AcDbEntity
  8
MAKE2D$VISIBLE$LINES
100
AcDbVertex
100
AcDb2dVertex
 10
1539.122767401796
 20
-509.8725779580843
 30
0.0
 42
-0.5251397911658732
  0
VERTEX
  5
1FD
330
1F2
100
AcDbEntity
  8
MAKE2D$VISIBLE$LINES
100
AcDbVertex
100
AcDb2dVertex
 10
1552.677590209383
 20
-500.5257477570667
 30
0.0
  0
VERTEX
  5
1FE
330
1F2
100
AcDbEntity
  8
MAKE2D$VISIBLE$LINES
100
AcDbVertex
100
AcDb2dVertex
 10
2241.127422041915
 20
-762.3596648652996
 30
0.0
  0
SEQEND
  5
1FF
330
1F2
100
AcDbEntity
  8
MAKE2D$VISIBLE$LINES
  0
POLYLINE
  5
200
330
1F
100
AcDbEntity
  8
MAKE2D$VISIBLE$LINES
100
AcDb2dPolyline
 66
     1
 10
0.0
 20
0.0
 30
0.0
  0
VERTEX
  5
201
330
200
100
AcDbEntity
  8
MAKE2D$VISIBLE$LINES
100
AcDbVertex
100
AcDb2dVertex
 10
2109.536989576422
 20
-757.7019215533103
 30
0.0
 42
0.9999999999995656
  0
VERTEX
  5
202
330
200
100
AcDbEntity
  8
MAKE2D$VISIBLE$LINES
100
AcDbVertex
100
AcDb2dVertex
 10
2116.012390580431
 20
-760.3607148580355
 30
0.0
  0
VERTEX
  5
203
330
200
100
AcDbEntity
  8
MAKE2D$VISIBLE$LINES
100
AcDbVertex
100
AcDb2dVertex
 10
2119.430839115037
 20
-752.0351992815625
 30
0.0
 42
0.9999999999829116
  0
VERTEX
  5
204
330
200
100
AcDbEntity
  8
MAKE2D$VISIBLE$LINES
100
AcDbVertex
100
AcDb2dVertex
 10
2112.955438110978
 20
-749.3764059769485
 30
0.0
  0
SEQEND
  5
205
330
200
100
AcDbEntity
  8
MAKE2D$VISIBLE$LINES
  0
LINE
  5
206
330
1F
100
AcDbEntity
  8
MAKE2D$VISIBLE$LINES
100
AcDbLine
 10
2112.955438110978
 20
-749.3764059769486
 30
0.0
 11
2074.103032086921
 21
-733.4236461485782
 31
0.0
  0
POLYLINE
  5
207
330
1F
100
AcDbEntity
  8
MAKE2D$VISIBLE$LINES
100
AcDb2dPolyline
 66
     1
 10
0.0
 20
0.0
 30
0.0
  0
VERTEX
  5
208
330
207
100
AcDbEntity
  8
MAKE2D$VISIBLE$LINES
100
AcDbVertex
100
AcDb2dVertex
 10
2074.103032086921
 20
-733.4236461485782
 30
0.0
 42
1.00000000000035
  0
VERTEX
  5
209
330
207
100
AcDbEntity
  8
MAKE2D$VISIBLE$LINES
100
AcDbVertex
100
AcDb2dVertex
 10
2067.627631082911
 20
-730.7648528438486
 30
0.0
  0
VERTEX
  5
20A
330
207
100
AcDbEntity
  8
MAKE2D$VISIBLE$LINES
100
AcDbVertex
100
AcDb2dVertex
 10
2064.209182548355
 20
-739.0903684202085
 30
0.0
 42
0.9999999999999435
  0
VERTEX
  5
20B
330
207
100
AcDbEntity
  8
MAKE2D$VISIBLE$LINES
100
AcDbVertex
100
AcDb2dVertex
 10
2070.684583552364
 20
-741.7491617249358
 30
0.0
  0
SEQEND
  5
20C
330
207
100
AcDbEntity
  8
MAKE2D$VISIBLE$LINES
  0
LINE
  5
20D
330
1F
100
AcDbEntity
  8
MAKE2D$VISIBLE$LINES
100
AcDbLine
 10
2070.684583552364
 20
-741.7491617249359
 30
0.0
 11
2109.536989576422
 21
-757.7019215533103
 31
0.0
  0
ARC
  5
20E
330
1F
100
AcDbEntity
  8
MAKE2D$VISIBLE$LINES
100
AcDbCircle
 10
2186.482645939417
 20
-1011.578350066248
 30
0.0
 40
3.500000000000262
100
AcDbArc
 50
22.73408210184067
 51
202.734082101859
  0
POLYLINE
  5
20F
330
1F
100
AcDbEntity
  8
MAKE2D$VISIBLE$LINES
100
AcDb2dPolyline
 66
     1
 10
0.0
 20
0.0
 30
0.0
  0
VERTEX
  5
210
330
20F
100
AcDbEntity
  8
MAKE2D$VISIBLE$LINES
100
AcDbVertex
100
AcDb2dVertex
 10
2183.254566637363
 20
-1012.930941660059
 30
0.0
  0
VERTEX
  5
211
330
20F
100
AcDbEntity
  8
MAKE2D$VISIBLE$LINES
100
AcDbVertex
100
AcDb2dVertex
 10
2186.732659307068
 20
-1021.231717007975
 30
0.0
 42
0.9999999999998027
  0
VERTEX
  5
212
330
20F
100
AcDbEntity
  8
MAKE2D$VISIBLE$LINES
100
AcDbVertex
100
AcDb2dVertex
 10
2193.188817911178
 20
-1018.526533820354
 30
0.0
  0
SEQEND
  5
213
330
20F
100
AcDbEntity
  8
MAKE2D$VISIBLE$LINES
  0
LINE
  5
214
330
1F
100
AcDbEntity
  8
MAKE2D$VISIBLE$LINES
100
AcDbLine
 10
2193.188817911178
 20
-1018.526533820354
 30
0.0
 11
2222.701081227165
 21
-1006.160654441208
 31
0.0
  0
POLYLINE
  5
215
330
1F
100
AcDbEntity
  8
MAKE2D$VISIBLE$LINES
100
AcDb2dPolyline
 66
     1
 10
0.0
 20
0.0
 30
0.0
  0
VERTEX
  5
216
330
215
100
AcDbEntity
  8
MAKE2D$VISIBLE$LINES
100
AcDbVertex
100
AcDb2dVertex
 10
2222.701081227165
 20
-1006.160654441208
 30
0.0
 42
0.999999999982598
  0
VERTEX
  5
217
330
215
100
AcDbEntity
  8
MAKE2D$VISIBLE$LINES
100
AcDbVertex
100
AcDb2dVertex
 10
2229.157239831321
 20
-1003.4554712537
 30
0.0
  0
VERTEX
  5
218
330
215
100
AcDbEntity
  8
MAKE2D$VISIBLE$LINES
100
AcDbVertex
100
AcDb2dVertex
 10
2225.679147161567
 20
-995.1546959056699
 30
0.0
 42
0.9999999999999923
  0
VERTEX
  5
219
330
215
100
AcDbEntity
  8
MAKE2D$VISIBLE$LINES
100
AcDbVertex
100
AcDb2dVertex
 10
2219.222988557459
 20
-997.8598790932913
 30
0.0
  0
SEQEND
  5
21A
330
215
100
AcDbEntity
  8
MAKE2D$VISIBLE$LINES
  0
LINE
  5
21B
330
1F
100
AcDbEntity
  8
MAKE2D$VISIBLE$LINES
100
AcDbLine
 10
2219.222988557459
 20
-997.8598790932913
 30
0.0
 11
2189.710725241472
 21
-1010.225758472438
 31
0.0
  0
POLYLINE
  5
21C
330
1F
100
AcDbEntity
  8
MAKE2D$VISIBLE$LINES
100
AcDb2dPolyline
 66
     1
 10
0.0
 20
0.0
 30
0.0
  0
VERTEX
  5
21D
330
21C
100
AcDbEntity
  8
MAKE2D$VISIBLE$LINES
100
AcDbVertex
100
AcDb2dVertex
 10
1323.594263361632
 20
-48.45625555113259
 30
0.0
 42
-0.9999999999999666
  0
VERTEX
  5
21E
330
21C
100
AcDbEntity
  8
MAKE2D$VISIBLE$LINES
100
AcDbVertex
100
AcDb2dVertex
 10
1316.594263361632
 20
-48.45625555113259
 30
0.0
  0
VERTEX
  5
21F
330
21C
100
AcDbEntity
  8
MAKE2D$VISIBLE$LINES
100
AcDbVertex
100
AcDb2dVertex
 10
1316.594263361632
 20
-39.4562555513745
 30
0.0
 42
-0.9999999999999999
  0
VERTEX
  5
220
330
21C
100
AcDbEntity
  8
MAKE2D$VISIBLE$LINES
100
AcDbVertex
100
AcDb2dVertex
 10
1323.594263361632
 20
-39.4562555513745
 30
0.0
  0
SEQEND
  5
221
330
21C
100
AcDbEntity
  8
MAKE2D$VISIBLE$LINES
  0
LINE
  5
222
330
1F
100
AcDbEntity
  8
MAKE2D$VISIBLE$LINES
100
AcDbLine
 10
1323.594263361632
 20
-39.4562555513745
 30
0.0
 11
1339.594263361631
 21
-39.45625555165918
 31
0.0
  0
POLYLINE
  5
223
330
1F
100
AcDbEntity
  8
MAKE2D$VISIBLE$LINES
100
AcDb2dPolyline
 66
     1
 10
0.0
 20
0.0
 30
0.0
  0
VERTEX
  5
224
330
223
100
AcDbEntity
  8
MAKE2D$VISIBLE$LINES
100
AcDbVertex
100
AcDb2dVertex
 10
1339.594263361631
 20
-39.45625555165918
 30
0.0
 42
-0.9999999999999342
  0
VERTEX
  5
225
330
223
100
AcDbEntity
  8
MAKE2D$VISIBLE$LINES
100
AcDbVertex
100
AcDb2dVertex
 10
1346.594263361631
 20
-39.45625555165918
 30
0.0
  0
VERTEX
  5
226
330
223
100
AcDbEntity
  8
MAKE2D$VISIBLE$LINES
100
AcDbVertex
100
AcDb2dVertex
 10
1346.594263361631
 20
-48.45625555154004
 30
0.0
 42
-0.9999999999824546
  0
VERTEX
  5
227
330
223
100
AcDbEntity
  8
MAKE2D$VISIBLE$LINES
100
AcDbVertex
100
AcDb2dVertex
 10
1339.594263361631
 20
-48.45625555141726
 30
0.0
  0
SEQEND
  5
228
330
223
100
AcDbEntity
  8
MAKE2D$VISIBLE$LINES
  0
LINE
  5
229
330
1F
100
AcDbEntity
  8
MAKE2D$VISIBLE$LINES
100
AcDbLine
 10
1339.594263361631
 20
-48.45625555141726
 30
0.0
 11
1323.594263361632
 21
-48.45625555113259
 31
0.0
  0
POLYLINE
  5
22A
330
1F
100
AcDbEntity
  8
MAKE2D$VISIBLE$LINES
100
AcDb2dPolyline
 66
     1
 10
0.0
 20
0.0
 30
0.0
  0
VERTEX
  5
22B
330
22A
100
AcDbEntity
  8
MAKE2D$VISIBLE$LINES
100
AcDbVertex
100
AcDb2dVertex
 10
1219.594263361633
 20
-48.45625554966285
 30
0.0
 42
-0.9999999999999908
  0
VERTEX
  5
22C
330
22A
100
AcDbEntity
  8
MAKE2D$VISIBLE$LINES
100
AcDbVertex
100
AcDb2dVertex
 10
1212.594263361633
 20
-48.45625554966239
 30
0.0
  0
VERTEX
  5
22D
330
22A
100
AcDbEntity
  8
MAKE2D$VISIBLE$LINES
100
AcDbVertex
100
AcDb2dVertex
 10
1212.594263361633
 20
-39.45625554990431
 30
0.0
 42
-1.000000000000032
  0
VERTEX
  5
22E
330
22A
100
AcDbEntity
  8
MAKE2D$VISIBLE$LINES
100
AcDbVertex
100
AcDb2dVertex
 10
1219.594263361633
 20
-39.45625554990477
 30
0.0
  0
SEQEND
  5
22F
330
22A
100
AcDbEntity
  8
MAKE2D$VISIBLE$LINES
  0
LINE
  5
230
330
1F
100
AcDbEntity
  8
MAKE2D$VISIBLE$LINES
100
AcDbLine
 10
1219.594263361633
 20
-39.45625554990477
 30
0.0
 11
1289.594263361632
 21
-39.45625554990477
 31
0.0
  0
POLYLINE
  5
231
330
1F
100
AcDbEntity
  8
MAKE2D$VISIBLE$LINES
100
AcDb2dPolyline
 66
     1
 10
0.0
 20
0.0
 30
0.0
  0
VERTEX
  5
232
330
231
100
AcDbEntity
  8
MAKE2D$VISIBLE$LINES
100
AcDbVertex
100
AcDb2dVertex
 10
1289.594263361632
 20
-39.45625554990477
 30
0.0
 42
-0.9999999999999828
  0
VERTEX
  5
233
330
231
100
AcDbEntity
  8
MAKE2D$VISIBLE$LINES
100
AcDbVertex
100
AcDb2dVertex
 10
1296.594263361632
 20
-39.45625554990477
 30
0.0
  0
VERTEX
  5
234
330
231
100
AcDbEntity
  8
MAKE2D$VISIBLE$LINES
100
AcDbVertex
100
AcDb2dVertex
 10
1296.594263361632
 20
-48.45625554978562
 30
0.0
 42
-0.9999999999824679
  0
VERTEX
  5
235
330
231
100
AcDbEntity
  8
MAKE2D$VISIBLE$LINES
100
AcDbVertex
100
AcDb2dVertex
 10
1289.594263361632
 20
-48.45625554966285
 30
0.0
  0
SEQEND
  5
236
330
231
100
AcDbEntity
  8
MAKE2D$VISIBLE$LINES
  0
LINE
  5
237
330
1F
100
AcDbEntity
  8
MAKE2D$VISIBLE$LINES
100
AcDbLine
 10
1289.594263361632
 20
-48.45625554966285
 30
0.0
 11
1219.594263361633
 21
-48.45625554966285
 31
0.0
  0
LINE
  5
238
330
1F
100
AcDbEntity
  8
MAKE2D$VISIBLE$LINES
100
AcDbLine
 10
1289.594263361629
 20
-680.4562555507282
 30
0.0
 11
1219.59426336163
 21
-680.4562555507279
 31
0.0
  0
POLYLINE
  5
239
330
1F
100
AcDbEntity
  8
MAKE2D$VISIBLE$LINES
100
AcDb2dPolyline
 66
     1
 10
0.0
 20
0.0
 30
0.0
  0
VERTEX
  5
23A
330
239
100
AcDbEntity
  8
MAKE2D$VISIBLE$LINES
100
AcDbVertex
100
AcDb2dVertex
 10
1219.59426336163
 20
-680.4562555507279
 30
0.0
 42
-0.99999999999987
  0
VERTEX
  5
23B
330
239
100
AcDbEntity
  8
MAKE2D$VISIBLE$LINES
100
AcDbVertex
100
AcDb2dVertex
 10
1212.59426336163
 20
-680.4562555507274
 30
0.0
  0
VERTEX
  5
23C
330
239
100
AcDbEntity
  8
MAKE2D$VISIBLE$LINES
100
AcDbVertex
100
AcDb2dVertex
 10
1212.594263361631
 20
-671.4562555509692
 30
0.0
 42
-1.00000000000013
  0
VERTEX
  5
23D
330
239
100
AcDbEntity
  8
MAKE2D$VISIBLE$LINES
100
AcDbVertex
100
AcDb2dVertex
 10
1219.59426336163
 20
-671.4562555509698
 30
0.0
  0
SEQEND
  5
23E
330
239
100
AcDbEntity
  8
MAKE2D$VISIBLE$LINES
  0
LINE
  5
23F
330
1F
100
AcDbEntity
  8
MAKE2D$VISIBLE$LINES
100
AcDbLine
 10
1219.59426336163
 20
-671.4562555509698
 30
0.0
 11
1289.594263361629
 21
-671.4562555509702
 31
0.0
  0
POLYLINE
  5
240
330
1F
100
AcDbEntity
  8
MAKE2D$VISIBLE$LINES
100
AcDb2dPolyline
 66
     1
 10
0.0
 20
0.0
 30
0.0
  0
VERTEX
  5
241
330
240
100
AcDbEntity
  8
MAKE2D$VISIBLE$LINES
100
AcDbVertex
100
AcDb2dVertex
 10
1289.594263361629
 20
-671.4562555509702
 30
0.0
 42
-0.9999999999824437
  0
VERTEX
  5
242
330
240
100
AcDbEntity
  8
MAKE2D$VISIBLE$LINES
100
AcDbVertex
100
AcDb2dVertex
 10
1296.594263361629
 20
-671.4562555508475
 30
0.0
  0
VERTEX
  5
243
330
240
100
AcDbEntity
  8
MAKE2D$VISIBLE$LINES
100
AcDbVertex
100
AcDb2dVertex
 10
1296.594263361629
 20
-680.4562555507282
 30
0.0
 42
-0.9999999999999999
  0
VERTEX
  5
244
330
240
100
AcDbEntity
  8
MAKE2D$VISIBLE$LINES
100
AcDbVertex
100
AcDb2dVertex
 10
1289.594263361629
 20
-680.4562555507282
 30
0.0
  0
SEQEND
  5
245
330
240
100
AcDbEntity
  8
MAKE2D$VISIBLE$LINES
  0
LINE
  5
246
330
1F
100
AcDbEntity
  8
MAKE2D$VISIBLE$LINES
100
AcDbLine
 10
1389.23227117627
 20
-759.9562555510521
 30
0.0
 11
1389.232271176275
 21
40.04374444894836
 31
0.0
  0
LINE
  5
247
330
1F
100
AcDbEntity
  8
MAKE2D$VISIBLE$LINES
100
AcDbLine
 10
1389.232271176275
 20
40.04374444894836
 30
0.0
 11
1119.956255546992
 21
40.04374444895063
 31
0.0
  0
LINE
  5
248
330
1F
100
AcDbEntity
  8
MAKE2D$VISIBLE$LINES
100
AcDbLine
 10
1119.956255546992
 20
40.04374444895063
 30
0.0
 11
1119.956255546987
 21
-759.9562555510498
 31
0.0
  0
LINE
  5
249
330
1F
100
AcDbEntity
  8
MAKE2D$VISIBLE$LINES
100
AcDbLine
 10
1119.956255546987
 20
-759.9562555510498
 30
0.0
 11
1389.23227117627
 21
-759.9562555510521
 31
0.0
  0
POLYLINE
  5
24A
330
1F
100
AcDbEntity
  8
MAKE2D$VISIBLE$LINES
100
AcDb2dPolyline
 66
     1
 10
0.0
 20
0.0
 30
0.0
  0
VERTEX
  5
24B
330
24A
100
AcDbEntity
  8
MAKE2D$VISIBLE$LINES
100
AcDbVertex
100
AcDb2dVertex
 10
1659.35053428632
 20
-317.3117281051355
 30
0.0
  0
VERTEX
  5
24C
330
24A
100
AcDbEntity
  8
MAKE2D$VISIBLE$LINES
100
AcDbVertex
100
AcDb2dVertex
 10
1673.072497752559
 20
-311.2530385907922
 30
0.0
 42
-0.4142135623731639
  0
VERTEX
  5
24D
330
24A
100
AcDbEntity
  8
MAKE2D$VISIBLE$LINES
100
AcDbVertex
100
AcDb2dVertex
 10
1686.259599739613
 20
-316.3618878920539
 30
0.0
  0
VERTEX
  5
24E
330
24A
100
AcDbEntity
  8
MAKE2D$VISIBLE$LINES
100
AcDbVertex
100
AcDb2dVertex
 10
1696.922909458971
 20
-340.5125802244104
 30
0.0
 42
-0.4142135623730663
  0
VERTEX
  5
24F
330
24A
100
AcDbEntity
  8
MAKE2D$VISIBLE$LINES
100
AcDbVertex
100
AcDb2dVertex
 10
1691.81406015771
 20
-353.6996822114666
 30
0.0
  0
SEQEND
  5
250
330
24A
100
AcDbEntity
  8
MAKE2D$VISIBLE$LINES
  0
LINE
  5
251
330
1F
100
AcDbEntity
  8
MAKE2D$VISIBLE$LINES
100
AcDbLine
 10
1691.81406015771
 20
-353.6996822114666
 30
0.0
 11
1678.092096691388
 21
-359.7583717258491
 31
0.0
  0
POLYLINE
  5
252
330
1F
100
AcDbEntity
  8
MAKE2D$VISIBLE$LINES
100
AcDb2dPolyline
 66
     1
 10
0.0
 20
0.0
 30
0.0
  0
VERTEX
  5
253
330
252
100
AcDbEntity
  8
MAKE2D$VISIBLE$LINES
100
AcDbVertex
100
AcDb2dVertex
 10
1678.092096691388
 20
-359.7583717258491
 30
0.0
 42
0.4142135623734853
  0
VERTEX
  5
254
330
252
100
AcDbEntity
  8
MAKE2D$VISIBLE$LINES
100
AcDbVertex
100
AcDb2dVertex
 10
1722.664475004899
 20
-377.0262721353981
 30
0.0
  0
VERTEX
  5
255
330
252
100
AcDbEntity
  8
MAKE2D$VISIBLE$LINES
100
AcDbVertex
100
AcDb2dVertex
 10
2011.740541991883
 20
-249.3898635262291
 30
0.0
 42
0.4142135623728121
  0
VERTEX
  5
256
330
252
100
AcDbEntity
  8
MAKE2D$VISIBLE$LINES
100
AcDbVertex
100
AcDb2dVertex
 10
2029.008442401459
 20
-204.817485212699
 30
0.0
  0
SEQEND
  5
257
330
252
100
AcDbEntity
  8
MAKE2D$VISIBLE$LINES
  0
POLYLINE
  5
258
330
1F
100
AcDbEntity
  8
MAKE2D$VISIBLE$LINES
100
AcDb2dPolyline
 66
     1
 10
0.0
 20
0.0
 30
0.0
  0
VERTEX
  5
259
330
258
100
AcDbEntity
  8
MAKE2D$VISIBLE$LINES
100
AcDbVertex
100
AcDb2dVertex
 10
2029.008442401459
 20
-204.8174852126991
 30
0.0
  0
VERTEX
  5
25A
330
258
100
AcDbEntity
  8
MAKE2D$VISIBLE$LINES
100
AcDbVertex
100
AcDb2dVertex
 10
2015.286478935061
 20
-210.8761747266877
 30
0.0
 42
-0.4142135623730831
  0
VERTEX
  5
25B
330
258
100
AcDbEntity
  8
MAKE2D$VISIBLE$LINES
100
AcDbVertex
100
AcDb2dVertex
 10
2002.099376948004
 20
-205.7673254254247
 30
0.0
  0
VERTEX
  5
25C
330
258
100
AcDbEntity
  8
MAKE2D$VISIBLE$LINES
100
AcDbVertex
100
AcDb2dVertex
 10
1991.436067228645
 20
-181.6166330930683
 30
0.0
 42
-0.4142135623730274
  0
VERTEX
  5
25D
330
258
100
AcDbEntity
  8
MAKE2D$VISIBLE$LINES
100
AcDbVertex
100
AcDb2dVertex
 10
1996.544916529907
 20
-168.4295311060129
 30
0.0
  0
VERTEX
  5
25E
330
258
100
AcDbEntity
  8
MAKE2D$VISIBLE$LINES
100
AcDbVertex
100
AcDb2dVertex
 10
2010.266879996378
 20
-162.3708415919714
 30
0.0
  0
SEQEND
  5
25F
330
258
100
AcDbEntity
  8
MAKE2D$VISIBLE$LINES
  0
POLYLINE
  5
260
330
1F
100
AcDbEntity
  8
MAKE2D$VISIBLE$LINES
100
AcDb2dPolyline
 66
     1
 10
0.0
 20
0.0
 30
0.0
  0
VERTEX
  5
261
330
260
100
AcDbEntity
  8
MAKE2D$VISIBLE$LINES
100
AcDbVertex
100
AcDb2dVertex
 10
2010.266879996378
 20
-162.3708415919714
 30
0.0
 42
0.4142135623734145
  0
VERTEX
  5
262
330
260
100
AcDbEntity
  8
MAKE2D$VISIBLE$LINES
100
AcDbVertex
100
AcDb2dVertex
 10
1965.694501682878
 20
-145.1029411824301
 30
0.0
  0
VERTEX
  5
263
330
260
100
AcDbEntity
  8
MAKE2D$VISIBLE$LINES
100
AcDbVertex
100
AcDb2dVertex
 10
1676.618434695907
 20
-272.7393497915925
 30
0.0
 42
0.4142135623727607
  0
VERTEX
  5
264
330
260
100
AcDbEntity
  8
MAKE2D$VISIBLE$LINES
100
AcDbVertex
100
AcDb2dVertex
 10
1659.35053428632
 20
-317.3117281051355
 30
0.0
  0
SEQEND
  5
265
330
260
100
AcDbEntity
  8
MAKE2D$VISIBLE$LINES
  0
POLYLINE
  5
266
330
1F
100
AcDbEntity
  8
MAKE2D$VISIBLE$LINES
100
AcDb2dPolyline
 66
     1
 10
0.0
 20
0.0
 30
0.0
  0
VERTEX
  5
267
330
266
100
AcDbEntity
  8
MAKE2D$VISIBLE$LINES
100
AcDbVertex
100
AcDb2dVertex
 10
1545.094263360244
 20
563.4057366334599
 30
0.0
 42
0.999999999999951
  0
VERTEX
  5
268
330
266
100
AcDbEntity
  8
MAKE2D$VISIBLE$LINES
100
AcDbVertex
100
AcDb2dVertex
 10
1545.094263360244
 20
570.4057366334597
 30
0.0
  0
VERTEX
  5
269
330
266
100
AcDbEntity
  8
MAKE2D$VISIBLE$LINES
100
AcDbVertex
100
AcDb2dVertex
 10
1536.094263360486
 20
570.4057366334599
 30
0.0
 42
1.000000000000487
  0
VERTEX
  5
26A
330
266
100
AcDbEntity
  8
MAKE2D$VISIBLE$LINES
100
AcDbVertex
100
AcDb2dVertex
 10
1536.094263360486
 20
563.4057366334599
 30
0.0
  0
SEQEND
  5
26B
330
266
100
AcDbEntity
  8
MAKE2D$VISIBLE$LINES
  0
LINE
  5
26C
330
1F
100
AcDbEntity
  8
MAKE2D$VISIBLE$LINES
100
AcDbLine
 10
1536.094263360486
 20
563.4057366334599
 30
0.0
 11
1536.094263360486
 21
493.4057366334608
 31
0.0
  0
POLYLINE
  5
26D
330
1F
100
AcDbEntity
  8
MAKE2D$VISIBLE$LINES
100
AcDb2dPolyline
 66
     1
 10
0.0
 20
0.0
 30
0.0
  0
VERTEX
  5
26E
330
26D
100
AcDbEntity
  8
MAKE2D$VISIBLE$LINES
100
AcDbVertex
100
AcDb2dVertex
 10
1536.094263360486
 20
493.4057366334608
 30
0.0
 42
0.9999999999999675
  0
VERTEX
  5
26F
330
26D
100
AcDbEntity
  8
MAKE2D$VISIBLE$LINES
100
AcDbVertex
100
AcDb2dVertex
 10
1536.094263360486
 20
486.4057366334611
 30
0.0
  0
VERTEX
  5
270
330
26D
100
AcDbEntity
  8
MAKE2D$VISIBLE$LINES
100
AcDbVertex
100
AcDb2dVertex
 10
1545.094263360367
 20
486.4057366334607
 30
0.0
 42
0.9999999999824191
  0
VERTEX
  5
271
330
26D
100
AcDbEntity
  8
MAKE2D$VISIBLE$LINES
100
AcDbVertex
100
AcDb2dVertex
 10
1545.094263360244
 20
493.4057366334611
 30
0.0
  0
SEQEND
  5
272
330
26D
100
AcDbEntity
  8
MAKE2D$VISIBLE$LINES
  0
LINE
  5
273
330
1F
100
AcDbEntity
  8
MAKE2D$VISIBLE$LINES
100
AcDbLine
 10
1545.094263360244
 20
493.4057366334608
 30
0.0
 11
1545.094263360244
 21
563.4057366334599
 31
0.0
  0
LINE
  5
274
330
1F
100
AcDbEntity
  8
MAKE2D$VISIBLE$LINES
100
AcDbLine
 10
1971.17909426055
 20
-923.6629554944817
 30
0.0
 11
1923.773951394985
 21
-923.6629554944833
 31
0.0
  0
ARC
  5
275
330
1F
100
AcDbEntity
  8
MAKE2D$VISIBLE$LINES
100
AcDbCircle
 10
1923.773951394867
 20
-954.0479554944818
 30
0.0
 40
30.38499999999851
100
AcDbArc
 50
89.99999999977791
 51
194.0451600412948
  0
POLYLINE
  5
276
330
1F
100
AcDbEntity
  8
MAKE2D$VISIBLE$LINES
100
AcDb2dPolyline
 66
     1
 10
0.0
 20
0.0
 30
0.0
  0
VERTEX
  5
277
330
276
100
AcDbEntity
  8
MAKE2D$VISIBLE$LINES
100
AcDbVertex
100
AcDb2dVertex
 10
1894.29731874419
 20
-961.421987809093
 30
0.0
  0
VERTEX
  5
278
330
276
100
AcDbEntity
  8
MAKE2D$VISIBLE$LINES
100
AcDbVertex
100
AcDb2dVertex
 10
1902.891148581417
 20
-988.3187964734766
 30
0.0
 42
0.4340120189679342
  0
VERTEX
  5
279
330
276
100
AcDbEntity
  8
MAKE2D$VISIBLE$LINES
100
AcDbVertex
100
AcDb2dVertex
 10
1906.851493466653
 20
-990.1957411239641
 30
0.0
  0
VERTEX
  5
27A
330
276
100
AcDbEntity
  8
MAKE2D$VISIBLE$LINES
100
AcDbVertex
100
AcDb2dVertex
 10
1927.185059973189
 20
-982.039748834194
 30
0.0
 42
0.3894513089536161
  0
VERTEX
  5
27B
330
276
100
AcDbEntity
  8
MAKE2D$VISIBLE$LINES
100
AcDbVertex
100
AcDb2dVertex
 10
1933.08878432754
 20
-969.8696533648464
 30
0.0
  0
VERTEX
  5
27C
330
276
100
AcDbEntity
  8
MAKE2D$VISIBLE$LINES
100
AcDbVertex
100
AcDb2dVertex
 10
1928.505828121045
 20
-954.5734174812084
 30
0.0
  0
SEQEND
  5
27D
330
276
100
AcDbEntity
  8
MAKE2D$VISIBLE$LINES
  0
POLYLINE
  5
27E
330
1F
100
AcDbEntity
  8
MAKE2D$VISIBLE$LINES
100
AcDb2dPolyline
 66
     1
 10
0.0
 20
0.0
 30
0.0
  0
VERTEX
  5
27F
330
27E
100
AcDbEntity
  8
MAKE2D$VISIBLE$LINES
100
AcDbVertex
100
AcDb2dVertex
 10
1928.505828121045
 20
-954.5734174812084
 30
0.0
 42
-0.964265492663545
  0
VERTEX
  5
280
330
27E
100
AcDbEntity
  8
MAKE2D$VISIBLE$LINES
100
AcDbVertex
100
AcDb2dVertex
 10
1926.085923380827
 20
-948.0099400608983
 30
0.0
  0
VERTEX
  5
281
330
27E
100
AcDbEntity
  8
MAKE2D$VISIBLE$LINES
100
AcDbVertex
100
AcDb2dVertex
 10
1934.411438957298
 20
-944.5914915263293
 30
0.0
 42
-1.000000000000325
  0
VERTEX
  5
282
330
27E
100
AcDbEntity
  8
MAKE2D$VISIBLE$LINES
100
AcDbVertex
100
AcDb2dVertex
 10
1937.070232262002
 20
-951.066892530349
 30
0.0
  0
SEQEND
  5
283
330
27E
100
AcDbEntity
  8
MAKE2D$VISIBLE$LINES
  0
POLYLINE
  5
284
330
1F
100
AcDbEntity
  8
MAKE2D$VISIBLE$LINES
100
AcDb2dPolyline
 66
     1
 10
0.0
 20
0.0
 30
0.0
  0
VERTEX
  5
285
330
284
100
AcDbEntity
  8
MAKE2D$VISIBLE$LINES
100
AcDbVertex
100
AcDb2dVertex
 10
1937.070232262002
 20
-951.0668925303484
 30
0.0
  0
VERTEX
  5
286
330
284
100
AcDbEntity
  8
MAKE2D$VISIBLE$LINES
100
AcDbVertex
100
AcDb2dVertex
 10
1951.482854878544
 20
-986.1683465604843
 30
0.0
 42
0.3921365845239856
  0
VERTEX
  5
287
330
284
100
AcDbEntity
  8
MAKE2D$VISIBLE$LINES
100
AcDbVertex
100
AcDb2dVertex
 10
1955.553619976743
 20
-988.0538816123128
 30
0.0
  0
VERTEX
  5
288
330
284
100
AcDbEntity
  8
MAKE2D$VISIBLE$LINES
100
AcDbVertex
100
AcDb2dVertex
 10
1975.302690977706
 20
-981.6481240673202
 30
0.0
 42
-0.0795573786245149
  0
VERTEX
  5
289
330
284
100
AcDbEntity
  8
MAKE2D$VISIBLE$LINES
100
AcDbVertex
100
AcDb2dVertex
 10
1976.303134153243
 20
-981.4960882379994
 30
0.0
  0
VERTEX
  5
28A
330
284
100
AcDbEntity
  8
MAKE2D$VISIBLE$LINES
100
AcDbVertex
100
AcDb2dVertex
 10
2094.594263361634
 20
-981.4960882379984
 30
0.0
  0
SEQEND
  5
28B
330
284
100
AcDbEntity
  8
MAKE2D$VISIBLE$LINES
  0
LINE
  5
28C
330
1F
100
AcDbEntity
  8
MAKE2D$VISIBLE$LINES
100
AcDbLine
 10
2094.594263361634
 20
-981.4960882379984
 30
0.0
 11
2094.594263361634
 21
-923.6629554944817
 31
0.0
  0
LINE
  5
28D
330
1F
100
AcDbEntity
  8
MAKE2D$VISIBLE$LINES
100
AcDbLine
 10
2094.594263361634
 20
-923.6629554944817
 30
0.0
 11
2085.724540662862
 21
-923.6629554944817
 31
0.0
  0
LINE
  5
28E
330
1F
100
AcDbEntity
  8
MAKE2D$VISIBLE$LINES
100
AcDbLine
 10
2085.724540662862
 20
-923.6629554944817
 30
0.0
 11
2085.724540662862
 21
-943.9534941286817
 31
0.0
  0
POLYLINE
  5
28F
330
1F
100
AcDbEntity
  8
MAKE2D$VISIBLE$LINES
100
AcDb2dPolyline
 66
     1
 10
0.0
 20
0.0
 30
0.0
  0
VERTEX
  5
290
330
28F
100
AcDbEntity
  8
MAKE2D$VISIBLE$LINES
100
AcDbVertex
100
AcDb2dVertex
 10
2085.724540662862
 20
-943.9534941286817
 30
0.0
 42
-1.000000000000125
  0
VERTEX
  5
291
330
28F
100
AcDbEntity
  8
MAKE2D$VISIBLE$LINES
100
AcDbVertex
100
AcDb2dVertex
 10
2085.724540662859
 20
-950.3034941286818
 30
0.0
  0
VERTEX
  5
292
330
28F
100
AcDbEntity
  8
MAKE2D$VISIBLE$LINES
100
AcDbVertex
100
AcDb2dVertex
 10
2076.724540662861
 20
-950.3034941286833
 30
0.0
 42
-0.9999999999999284
  0
VERTEX
  5
293
330
28F
100
AcDbEntity
  8
MAKE2D$VISIBLE$LINES
100
AcDbVertex
100
AcDb2dVertex
 10
2076.724540662862
 20
-943.953494128682
 30
0.0
  0
SEQEND
  5
294
330
28F
100
AcDbEntity
  8
MAKE2D$VISIBLE$LINES
  0
LINE
  5
295
330
1F
100
AcDbEntity
  8
MAKE2D$VISIBLE$LINES
100
AcDbLine
 10
2076.724540662862
 20
-943.953494128682
 30
0.0
 11
2076.724540662863
 21
-923.6629554944819
 31
0.0
  0
LINE
  5
296
330
1F
100
AcDbEntity
  8
MAKE2D$VISIBLE$LINES
100
AcDbLine
 10
2076.724540662863
 20
-923.6629554944819
 30
0.0
 11
1987.17909426055
 21
-923.6629554944817
 31
0.0
  0
POLYLINE
  5
297
330
1F
100
AcDbEntity
  8
MAKE2D$VISIBLE$LINES
100
AcDb2dPolyline
 66
     1
 10
0.0
 20
0.0
 30
0.0
  0
VERTEX
  5
298
330
297
100
AcDbEntity
  8
MAKE2D$VISIBLE$LINES
100
AcDbVertex
100
AcDb2dVertex
 10
1987.17909426055
 20
-923.6629554944817
 30
0.0
  0
VERTEX
  5
299
330
297
100
AcDbEntity
  8
MAKE2D$VISIBLE$LINES
100
AcDbVertex
100
AcDb2dVertex
 10
1987.17909426055
 20
-945.4686507821866
 30
0.0
 42
-1.000000000000014
  0
VERTEX
  5
29A
330
297
100
AcDbEntity
  8
MAKE2D$VISIBLE$LINES
100
AcDbVertex
100
AcDb2dVertex
 10
1971.17909426055
 20
-945.4686507821866
 30
0.0
  0
VERTEX
  5
29B
330
297
100
AcDbEntity
  8
MAKE2D$VISIBLE$LINES
100
AcDbVertex
100
AcDb2dVertex
 10
1971.17909426055
 20
-923.6629554944817
 30
0.0
  0
SEQEND
  5
29C
330
297
100
AcDbEntity
  8
MAKE2D$VISIBLE$LINES
  0
LINE
  5
29D
330
1F
100
AcDbEntity
  8
MAKE2D$VISIBLE$LINES
100
AcDbLine
 10
2061.349069142534
 20
-963.4778469385077
 30
0.0
 11
1974.049069142534
 21
-963.4778469385096
 31
0.0
  0
POLYLINE
  5
29E
330
1F
100
AcDbEntity
  8
MAKE2D$VISIBLE$LINES
100
AcDb2dPolyline
 66
     1
 10
0.0
 20
0.0
 30
0.0
  0
VERTEX
  5
29F
330
29E
100
AcDbEntity
  8
MAKE2D$VISIBLE$LINES
100
AcDbVertex
100
AcDb2dVertex
 10
1974.049069142534
 20
-963.4778469385096
 30
0.0
 42
1.00000000000009
  0
VERTEX
  5
2A0
330
29E
100
AcDbEntity
  8
MAKE2D$VISIBLE$LINES
100
AcDbVertex
100
AcDb2dVertex
 10
1967.699069142534
 20
-963.4778469385092
 30
0.0
  0
VERTEX
  5
2A1
330
29E
100
AcDbEntity
  8
MAKE2D$VISIBLE$LINES
100
AcDbVertex
100
AcDb2dVertex
 10
1967.699069142535
 20
-972.4778469385074
 30
0.0
  0
SEQEND
  5
2A2
330
29E
100
AcDbEntity
  8
MAKE2D$VISIBLE$LINES
  0
ARC
  5
2A3
330
1F
100
AcDbEntity
  8
MAKE2D$VISIBLE$LINES
100
AcDbCircle
 10
1970.874069142535
 20
-972.4778469385083
 30
0.0
 40
3.174999999999727
100
AcDbArc
 50
179.9999999999836
 51
359.9999999999918
  0
LINE
  5
2A4
330
1F
100
AcDbEntity
  8
MAKE2D$VISIBLE$LINES
100
AcDbLine
 10
1974.049069142534
 20
-972.4778469385087
 30
0.0
 11
2061.349069142534
 21
-972.4778469385087
 31
0.0
  0
POLYLINE
  5
2A5
330
1F
100
AcDbEntity
  8
MAKE2D$VISIBLE$LINES
100
AcDb2dPolyline
 66
     1
 10
0.0
 20
0.0
 30
0.0
  0
VERTEX
  5
2A6
330
2A5
100
AcDbEntity
  8
MAKE2D$VISIBLE$LINES
100
AcDbVertex
100
AcDb2dVertex
 10
2061.349069142534
 20
-972.4778469385087
 30
0.0
 42
0.9999999999999284
  0
VERTEX
  5
2A7
330
2A5
100
AcDbEntity
  8
MAKE2D$VISIBLE$LINES
100
AcDbVertex
100
AcDb2dVertex
 10
2067.699069142533
 20
-972.4778469385087
 30
0.0
  0
VERTEX
  5
2A8
330
2A5
100
AcDbEntity
  8
MAKE2D$VISIBLE$LINES
100
AcDbVertex
100
AcDb2dVertex
 10
2067.699069142534
 20
-963.4778469385096
 30
0.0
 42
1.000000000000268
  0
VERTEX
  5
2A9
330
2A5
100
AcDbEntity
  8
MAKE2D$VISIBLE$LINES
100
AcDbVertex
100
AcDb2dVertex
 10
2061.349069142535
 20
-963.4778469385077
 30
0.0
  0
SEQEND
  5
2AA
330
2A5
100
AcDbEntity
  8
MAKE2D$VISIBLE$LINES
  0
LINE
  5
2AB
330
1F
100
AcDbEntity
  8
MAKE2D$VISIBLE$LINES
100
AcDbLine
 10
1971.17909426055
 20
-826.6629554944817
 30
0.0
 11
1923.773951394985
 21
-826.6629554944833
 31
0.0
  0
ARC
  5
2AC
330
1F
100
AcDbEntity
  8
MAKE2D$VISIBLE$LINES
100
AcDbCircle
 10
1923.773951394867
 20
-857.0479554944819
 30
0.0
 40
30.38499999999863
100
AcDbArc
 50
89.99999999977834
 51
194.0451600412946
  0
POLYLINE
  5
2AD
330
1F
100
AcDbEntity
  8
MAKE2D$VISIBLE$LINES
100
AcDb2dPolyline
 66
     1
 10
0.0
 20
0.0
 30
0.0
  0
VERTEX
  5
2AE
330
2AD
100
AcDbEntity
  8
MAKE2D$VISIBLE$LINES
100
AcDbVertex
100
AcDb2dVertex
 10
1894.29731874419
 20
-864.421987809093
 30
0.0
  0
VERTEX
  5
2AF
330
2AD
100
AcDbEntity
  8
MAKE2D$VISIBLE$LINES
100
AcDbVertex
100
AcDb2dVertex
 10
1902.891148581417
 20
-891.3187964734767
 30
0.0
 42
0.4340120189680663
  0
VERTEX
  5
2B0
330
2AD
100
AcDbEntity
  8
MAKE2D$VISIBLE$LINES
100
AcDbVertex
100
AcDb2dVertex
 10
1906.851493466653
 20
-893.1957411239641
 30
0.0
  0
VERTEX
  5
2B1
330
2AD
100
AcDbEntity
  8
MAKE2D$VISIBLE$LINES
100
AcDbVertex
100
AcDb2dVertex
 10
1927.185059973189
 20
-885.0397488341943
 30
0.0
 42
0.3894513089536198
  0
VERTEX
  5
2B2
330
2AD
100
AcDbEntity
  8
MAKE2D$VISIBLE$LINES
100
AcDbVertex
100
AcDb2dVertex
 10
1933.08878432754
 20
-872.8696533648462
 30
0.0
  0
VERTEX
  5
2B3
330
2AD
100
AcDbEntity
  8
MAKE2D$VISIBLE$LINES
100
AcDbVertex
100
AcDb2dVertex
 10
1928.505828121045
 20
-857.5734174812081
 30
0.0
  0
SEQEND
  5
2B4
330
2AD
100
AcDbEntity
  8
MAKE2D$VISIBLE$LINES
  0
POLYLINE
  5
2B5
330
1F
100
AcDbEntity
  8
MAKE2D$VISIBLE$LINES
100
AcDb2dPolyline
 66
     1
 10
0.0
 20
0.0
 30
0.0
  0
VERTEX
  5
2B6
330
2B5
100
AcDbEntity
  8
MAKE2D$VISIBLE$LINES
100
AcDbVertex
100
AcDb2dVertex
 10
1928.505828121045
 20
-857.5734174812081
 30
0.0
 42
-0.9642654926635045
  0
VERTEX
  5
2B7
330
2B5
100
AcDbEntity
  8
MAKE2D$VISIBLE$LINES
100
AcDbVertex
100
AcDb2dVertex
 10
1926.085923380827
 20
-851.0099400608983
 30
0.0
  0
VERTEX
  5
2B8
330
2B5
100
AcDbEntity
  8
MAKE2D$VISIBLE$LINES
100
AcDbVertex
100
AcDb2dVertex
 10
1934.411438957298
 20
-847.5914915263293
 30
0.0
 42
-1.00000000000029
  0
VERTEX
  5
2B9
330
2B5
100
AcDbEntity
  8
MAKE2D$VISIBLE$LINES
100
AcDbVertex
100
AcDb2dVertex
 10
1937.070232262002
 20
-854.0668925303487
 30
0.0
  0
SEQEND
  5
2BA
330
2B5
100
AcDbEntity
  8
MAKE2D$VISIBLE$LINES
  0
POLYLINE
  5
2BB
330
1F
100
AcDbEntity
  8
MAKE2D$VISIBLE$LINES
100
AcDb2dPolyline
 66
     1
 10
0.0
 20
0.0
 30
0.0
  0
VERTEX
  5
2BC
330
2BB
100
AcDbEntity
  8
MAKE2D$VISIBLE$LINES
100
AcDbVertex
100
AcDb2dVertex
 10
1937.070232262002
 20
-854.0668925303485
 30
0.0
  0
VERTEX
  5
2BD
330
2BB
100
AcDbEntity
  8
MAKE2D$VISIBLE$LINES
100
AcDbVertex
100
AcDb2dVertex
 10
1951.482854878544
 20
-889.1683465604843
 30
0.0
 42
0.3921365845240223
  0
VERTEX
  5
2BE
330
2BB
100
AcDbEntity
  8
MAKE2D$VISIBLE$LINES
100
AcDbVertex
100
AcDb2dVertex
 10
1955.553619976743
 20
-891.053881612313
 30
0.0
  0
VERTEX
  5
2BF
330
2BB
100
AcDbEntity
  8
MAKE2D$VISIBLE$LINES
100
AcDbVertex
100
AcDb2dVertex
 10
1975.302690977706
 20
-884.6481240673202
 30
0.0
 42
-0.0795573786245247
  0
VERTEX
  5
2C0
330
2BB
100
AcDbEntity
  8
MAKE2D$VISIBLE$LINES
100
AcDbVertex
100
AcDb2dVertex
 10
1976.303134153243
 20
-884.4960882379993
 30
0.0
  0
VERTEX
  5
2C1
330
2BB
100
AcDbEntity
  8
MAKE2D$VISIBLE$LINES
100
AcDbVertex
100
AcDb2dVertex
 10
2094.594263361634
 20
-884.4960882379982
 30
0.0
  0
SEQEND
  5
2C2
330
2BB
100
AcDbEntity
  8
MAKE2D$VISIBLE$LINES
  0
LINE
  5
2C3
330
1F
100
AcDbEntity
  8
MAKE2D$VISIBLE$LINES
100
AcDbLine
 10
2094.594263361634
 20
-884.4960882379982
 30
0.0
 11
2094.594263361634
 21
-826.6629554944817
 31
0.0
  0
LINE
  5
2C4
330
1F
100
AcDbEntity
  8
MAKE2D$VISIBLE$LINES
100
AcDbLine
 10
2094.594263361634
 20
-826.6629554944817
 30
0.0
 11
2085.724540662862
 21
-826.6629554944817
 31
0.0
  0
LINE
  5
2C5
330
1F
100
AcDbEntity
  8
MAKE2D$VISIBLE$LINES
100
AcDbLine
 10
2085.724540662862
 20
-826.6629554944817
 30
0.0
 11
2085.724540662862
 21
-846.9534941286815
 31
0.0
  0
POLYLINE
  5
2C6
330
1F
100
AcDbEntity
  8
MAKE2D$VISIBLE$LINES
100
AcDb2dPolyline
 66
     1
 10
0.0
 20
0.0
 30
0.0
  0
VERTEX
  5
2C7
330
2C6
100
AcDbEntity
  8
MAKE2D$VISIBLE$LINES
100
AcDbVertex
100
AcDb2dVertex
 10
2085.724540662862
 20
-846.9534941286815
 30
0.0
 42
-1.000000000000161
  0
VERTEX
  5
2C8
330
2C6
100
AcDbEntity
  8
MAKE2D$VISIBLE$LINES
100
AcDbVertex
100
AcDb2dVertex
 10
2085.724540662859
 20
-853.3034941286817
 30
0.0
  0
VERTEX
  5
2C9
330
2C6
100
AcDbEntity
  8
MAKE2D$VISIBLE$LINES
100
AcDbVertex
100
AcDb2dVertex
 10
2076.724540662861
 20
-853.3034941286835
 30
0.0
 42
-0.9999999999999106
  0
VERTEX
  5
2CA
330
2C6
100
AcDbEntity
  8
MAKE2D$VISIBLE$LINES
100
AcDbVertex
100
AcDb2dVertex
 10
2076.724540662862
 20
-846.953494128682
 30
0.0
  0
SEQEND
  5
2CB
330
2C6
100
AcDbEntity
  8
MAKE2D$VISIBLE$LINES
  0
LINE
  5
2CC
330
1F
100
AcDbEntity
  8
MAKE2D$VISIBLE$LINES
100
AcDbLine
 10
2076.724540662862
 20
-846.953494128682
 30
0.0
 11
2076.724540662863
 21
-826.6629554944819
 31
0.0
  0
LINE
  5
2CD
330
1F
100
AcDbEntity
  8
MAKE2D$VISIBLE$LINES
100
AcDbLine
 10
2076.724540662863
 20
-826.6629554944819
 30
0.0
 11
1987.17909426055
 21
-826.6629554944817
 31
0.0
  0
POLYLINE
  5
2CE
330
1F
100
AcDbEntity
  8
MAKE2D$VISIBLE$LINES
100
AcDb2dPolyline
 66
     1
 10
0.0
 20
0.0
 30
0.0
  0
VERTEX
  5
2CF
330
2CE
100
AcDbEntity
  8
MAKE2D$VISIBLE$LINES
100
AcDbVertex
100
AcDb2dVertex
 10
1987.17909426055
 20
-826.6629554944817
 30
0.0
  0
VERTEX
  5
2D0
330
2CE
100
AcDbEntity
  8
MAKE2D$VISIBLE$LINES
100
AcDbVertex
100
AcDb2dVertex
 10
1987.17909426055
 20
-848.4686507821866
 30
0.0
 42
-0.9999999999999999
  0
VERTEX
  5
2D1
330
2CE
100
AcDbEntity
  8
MAKE2D$VISIBLE$LINES
100
AcDbVertex
100
AcDb2dVertex
 10
1971.17909426055
 20
-848.4686507821866
 30
0.0
  0
VERTEX
  5
2D2
330
2CE
100
AcDbEntity
  8
MAKE2D$VISIBLE$LINES
100
AcDbVertex
100
AcDb2dVertex
 10
1971.17909426055
 20
-826.6629554944817
 30
0.0
  0
SEQEND
  5
2D3
330
2CE
100
AcDbEntity
  8
MAKE2D$VISIBLE$LINES
  0
LINE
  5
2D4
330
1F
100
AcDbEntity
  8
MAKE2D$VISIBLE$LINES
100
AcDbLine
 10
2061.349069142534
 20
-866.4778469385077
 30
0.0
 11
1974.049069142534
 21
-866.4778469385096
 31
0.0
  0
POLYLINE
  5
2D5
330
1F
100
AcDbEntity
  8
MAKE2D$VISIBLE$LINES
100
AcDb2dPolyline
 66
     1
 10
0.0
 20
0.0
 30
0.0
  0
VERTEX
  5
2D6
330
2D5
100
AcDbEntity
  8
MAKE2D$VISIBLE$LINES
100
AcDbVertex
100
AcDb2dVertex
 10
1974.049069142534
 20
-866.4778469385096
 30
0.0
 42
1.000000000000036
  0
VERTEX
  5
2D7
330
2D5
100
AcDbEntity
  8
MAKE2D$VISIBLE$LINES
100
AcDbVertex
100
AcDb2dVertex
 10
1967.699069142534
 20
-866.4778469385092
 30
0.0
  0
VERTEX
  5
2D8
330
2D5
100
AcDbEntity
  8
MAKE2D$VISIBLE$LINES
100
AcDbVertex
100
AcDb2dVertex
 10
1967.699069142535
 20
-875.4778469385074
 30
0.0
  0
SEQEND
  5
2D9
330
2D5
100
AcDbEntity
  8
MAKE2D$VISIBLE$LINES
  0
ARC
  5
2DA
330
1F
100
AcDbEntity
  8
MAKE2D$VISIBLE$LINES
100
AcDbCircle
 10
1970.874069142534
 20
-875.4778469385085
 30
0.0
 40
3.174999999999272
100
AcDbArc
 50
179.9999999999795
 51
359.9999999999959
  0
LINE
  5
2DB
330
1F
100
AcDbEntity
  8
MAKE2D$VISIBLE$LINES
100
AcDbLine
 10
1974.049069142534
 20
-875.4778469385087
 30
0.0
 11
2061.349069142534
 21
-875.4778469385087
 31
0.0
  0
POLYLINE
  5
2DC
330
1F
100
AcDbEntity
  8
MAKE2D$VISIBLE$LINES
100
AcDb2dPolyline
 66
     1
 10
0.0
 20
0.0
 30
0.0
  0
VERTEX
  5
2DD
330
2DC
100
AcDbEntity
  8
MAKE2D$VISIBLE$LINES
100
AcDbVertex
100
AcDb2dVertex
 10
2061.349069142534
 20
-875.4778469385087
 30
0.0
 42
0.9999999999999284
  0
VERTEX
  5
2DE
330
2DC
100
AcDbEntity
  8
MAKE2D$VISIBLE$LINES
100
AcDbVertex
100
AcDb2dVertex
 10
2067.699069142533
 20
-875.4778469385087
 30
0.0
  0
VERTEX
  5
2DF
330
2DC
100
AcDbEntity
  8
MAKE2D$VISIBLE$LINES
100
AcDbVertex
100
AcDb2dVertex
 10
2067.699069142535
 20
-866.4778469385096
 30
0.0
 42
1.000000000000071
  0
VERTEX
  5
2E0
330
2DC
100
AcDbEntity
  8
MAKE2D$VISIBLE$LINES
100
AcDbVertex
100
AcDb2dVertex
 10
2061.349069142533
 20
-866.4778469385077
 30
0.0
  0
SEQEND
  5
2E1
330
2DC
100
AcDbEntity
  8
MAKE2D$VISIBLE$LINES
  0
POLYLINE
  5
2E2
330
1F
100
AcDbEntity
  8
MAKE2D$VISIBLE$LINES
100
AcDb2dPolyline
 66
     1
 10
0.0
 20
0.0
 30
0.0
  0
VERTEX
  5
2E3
330
2E2
100
AcDbEntity
  8
MAKE2D$VISIBLE$LINES
100
AcDbVertex
100
AcDb2dVertex
 10
1115.082852731046
 20
899.488361127506
 30
0.0
  0
VERTEX
  5
2E4
330
2E2
100
AcDbEntity
  8
MAKE2D$VISIBLE$LINES
100
AcDbVertex
100
AcDb2dVertex
 10
1100.085070428086
 20
899.4883612898118
 30
0.0
 42
0.4142131669266148
  0
VERTEX
  5
2E5
330
2E2
100
AcDbEntity
  8
MAKE2D$VISIBLE$LINES
100
AcDbVertex
100
AcDb2dVertex
 10
1098.085070425979
 20
897.4883612908029
 30
0.0
  0
SEQEND
  5
2E6
330
2E2
100
AcDbEntity
  8
MAKE2D$VISIBLE$LINES
  0
POLYLINE
  5
2E7
330
1F
100
AcDbEntity
  8
MAKE2D$VISIBLE$LINES
100
AcDb2dPolyline
 66
     1
 10
0.0
 20
0.0
 30
0.0
  0
VERTEX
  5
2E8
330
2E7
100
AcDbEntity
  8
MAKE2D$VISIBLE$LINES
100
AcDbVertex
100
AcDb2dVertex
 10
1098.08507042598
 20
897.4883612908034
 30
0.0
  0
VERTEX
  5
2E9
330
2E7
100
AcDbEntity
  8
MAKE2D$VISIBLE$LINES
100
AcDbVertex
100
AcDb2dVertex
 10
1098.085070428043
 20
278.4883612889125
 30
0.0
 42
0.4142135623788414
  0
VERTEX
  5
2EA
330
2E7
100
AcDbEntity
  8
MAKE2D$VISIBLE$LINES
100
AcDbVertex
100
AcDb2dVertex
 10
1100.085070428084
 20
276.4883612889103
 30
0.0
  0
VERTEX
  5
2EB
330
2E7
100
AcDbEntity
  8
MAKE2D$VISIBLE$LINES
100
AcDbVertex
100
AcDb2dVertex
 10
1115.082852731045
 20
276.488361451216
 30
0.0
  0
SEQEND
  5
2EC
330
2E7
100
AcDbEntity
  8
MAKE2D$VISIBLE$LINES
  0
POLYLINE
  5
2ED
330
1F
100
AcDbEntity
  8
MAKE2D$VISIBLE$LINES
100
AcDb2dPolyline
 66
     1
 10
0.0
 20
0.0
 30
0.0
  0
VERTEX
  5
2EE
330
2ED
100
AcDbEntity
  8
MAKE2D$VISIBLE$LINES
100
AcDbVertex
100
AcDb2dVertex
 10
1115.082852731045
 20
276.488361451216
 30
0.0
 42
-1.000000000000057
  0
VERTEX
  5
2EF
330
2ED
100
AcDbEntity
  8
MAKE2D$VISIBLE$LINES
100
AcDbVertex
100
AcDb2dVertex
 10
1122.082852731045
 20
276.488361451216
 30
0.0
  0
VERTEX
  5
2F0
330
2ED
100
AcDbEntity
  8
MAKE2D$VISIBLE$LINES
100
AcDbVertex
100
AcDb2dVertex
 10
1122.0956443145
 20
256.9861018653846
 30
0.0
 42
0.4142135623731348
  0
VERTEX
  5
2F1
330
2ED
100
AcDbEntity
  8
MAKE2D$VISIBLE$LINES
100
AcDbVertex
100
AcDb2dVertex
 10
1124.096553968785
 20
254.987011933593
 30
0.0
  0
VERTEX
  5
2F2
330
2ED
100
AcDbEntity
  8
MAKE2D$VISIBLE$LINES
100
AcDbVertex
100
AcDb2dVertex
 10
1166.092772754209
 20
255.0012237067358
 30
0.0
 42
0.4140803225507194
  0
VERTEX
  5
2F3
330
2ED
100
AcDbEntity
  8
MAKE2D$VISIBLE$LINES
100
AcDbVertex
100
AcDb2dVertex
 10
1168.091862892965
 20
257.0012234997771
 30
0.0
  0
VERTEX
  5
2F4
330
2ED
100
AcDbEntity
  8
MAKE2D$VISIBLE$LINES
100
AcDbVertex
100
AcDb2dVertex
 10
1168.091862892953
 20
265.4883612898338
 30
0.0
 42
0.4142135623804237
  0
VERTEX
  5
2F5
330
2ED
100
AcDbEntity
  8
MAKE2D$VISIBLE$LINES
100
AcDbVertex
100
AcDb2dVertex
 10
1166.091862892903
 20
267.4883612898347
 30
0.0
  0
VERTEX
  5
2F6
330
2ED
100
AcDbEntity
  8
MAKE2D$VISIBLE$LINES
100
AcDbVertex
100
AcDb2dVertex
 10
1154.312430838303
 20
267.4883612893564
 30
0.0
  0
SEQEND
  5
2F7
330
2ED
100
AcDbEntity
  8
MAKE2D$VISIBLE$LINES
  0
POLYLINE
  5
2F8
330
1F
100
AcDbEntity
  8
MAKE2D$VISIBLE$LINES
100
AcDb2dPolyline
 66
     1
 10
0.0
 20
0.0
 30
0.0
  0
VERTEX
  5
2F9
330
2F8
100
AcDbEntity
  8
MAKE2D$VISIBLE$LINES
100
AcDbVertex
100
AcDb2dVertex
 10
1154.312430838303
 20
267.4883612893564
 30
0.0
 42
-1.000000000000008
  0
VERTEX
  5
2FA
330
2F8
100
AcDbEntity
  8
MAKE2D$VISIBLE$LINES
100
AcDbVertex
100
AcDb2dVertex
 10
1147.312430838303
 20
267.4883612893564
 30
0.0
  0
VERTEX
  5
2FB
330
2F8
100
AcDbEntity
  8
MAKE2D$VISIBLE$LINES
100
AcDbVertex
100
AcDb2dVertex
 10
1147.328277963204
 20
276.4883612893609
 30
0.0
 42
-0.9999999999999595
  0
VERTEX
  5
2FC
330
2F8
100
AcDbEntity
  8
MAKE2D$VISIBLE$LINES
100
AcDbVertex
100
AcDb2dVertex
 10
1154.328277963204
 20
276.4883612893609
 30
0.0
  0
SEQEND
  5
2FD
330
2F8
100
AcDbEntity
  8
MAKE2D$VISIBLE$LINES
  0
POLYLINE
  5
2FE
330
1F
100
AcDbEntity
  8
MAKE2D$VISIBLE$LINES
100
AcDb2dPolyline
 66
     1
 10
0.0
 20
0.0
 30
0.0
  0
VERTEX
  5
2FF
330
2FE
100
AcDbEntity
  8
MAKE2D$VISIBLE$LINES
100
AcDbVertex
100
AcDb2dVertex
 10
1154.328277963204
 20
276.4883612893609
 30
0.0
  0
VERTEX
  5
300
330
2FE
100
AcDbEntity
  8
MAKE2D$VISIBLE$LINES
100
AcDbVertex
100
AcDb2dVertex
 10
1167.085070427929
 20
276.4883612892655
 30
0.0
 42
0.414213562373469
  0
VERTEX
  5
301
330
2FE
100
AcDbEntity
  8
MAKE2D$VISIBLE$LINES
100
AcDbVertex
100
AcDb2dVertex
 10
1168.085070427934
 20
277.4883612892663
 30
0.0
  0
VERTEX
  5
302
330
2FE
100
AcDbEntity
  8
MAKE2D$VISIBLE$LINES
100
AcDbVertex
100
AcDb2dVertex
 10
1168.085070427935
 20
898.4883612894556
 30
0.0
 42
0.4142135623740967
  0
VERTEX
  5
303
330
2FE
100
AcDbEntity
  8
MAKE2D$VISIBLE$LINES
100
AcDbVertex
100
AcDb2dVertex
 10
1167.085070427929
 20
899.4883612894563
 30
0.0
  0
VERTEX
  5
304
330
2FE
100
AcDbEntity
  8
MAKE2D$VISIBLE$LINES
100
AcDbVertex
100
AcDb2dVertex
 10
1154.328277963206
 20
899.4883612893608
 30
0.0
  0
SEQEND
  5
305
330
2FE
100
AcDbEntity
  8
MAKE2D$VISIBLE$LINES
  0
POLYLINE
  5
306
330
1F
100
AcDbEntity
  8
MAKE2D$VISIBLE$LINES
100
AcDb2dPolyline
 66
     1
 10
0.0
 20
0.0
 30
0.0
  0
VERTEX
  5
307
330
306
100
AcDbEntity
  8
MAKE2D$VISIBLE$LINES
100
AcDbVertex
100
AcDb2dVertex
 10
1154.328277963206
 20
899.4883612893608
 30
0.0
 42
-0.9999999999999024
  0
VERTEX
  5
308
330
306
100
AcDbEntity
  8
MAKE2D$VISIBLE$LINES
100
AcDbVertex
100
AcDb2dVertex
 10
1147.328277963205
 20
899.4883612893608
 30
0.0
  0
VERTEX
  5
309
330
306
100
AcDbEntity
  8
MAKE2D$VISIBLE$LINES
100
AcDbVertex
100
AcDb2dVertex
 10
1147.312430838305
 20
908.4883612893657
 30
0.0
 42
-0.9999999999999999
  0
VERTEX
  5
30A
330
306
100
AcDbEntity
  8
MAKE2D$VISIBLE$LINES
100
AcDbVertex
100
AcDb2dVertex
 10
1154.312430838305
 20
908.4883612893657
 30
0.0
  0
SEQEND
  5
30B
330
306
100
AcDbEntity
  8
MAKE2D$VISIBLE$LINES
  0
POLYLINE
  5
30C
330
1F
100
AcDbEntity
  8
MAKE2D$VISIBLE$LINES
100
AcDb2dPolyline
 66
     1
 10
0.0
 20
0.0
 30
0.0
  0
VERTEX
  5
30D
330
30C
100
AcDbEntity
  8
MAKE2D$VISIBLE$LINES
100
AcDbVertex
100
AcDb2dVertex
 10
1154.312430838305
 20
908.4883612893657
 30
0.0
  0
VERTEX
  5
30E
330
30C
100
AcDbEntity
  8
MAKE2D$VISIBLE$LINES
100
AcDbVertex
100
AcDb2dVertex
 10
1166.091862892904
 20
908.4883612888871
 30
0.0
 42
0.4142135623802456
  0
VERTEX
  5
30F
330
30C
100
AcDbEntity
  8
MAKE2D$VISIBLE$LINES
100
AcDbVertex
100
AcDb2dVertex
 10
1168.091862892954
 20
910.488361288888
 30
0.0
  0
VERTEX
  5
310
330
30C
100
AcDbEntity
  8
MAKE2D$VISIBLE$LINES
100
AcDbVertex
100
AcDb2dVertex
 10
1168.091862892967
 20
918.9754990789453
 30
0.0
 42
0.4140803225504415
  0
VERTEX
  5
311
330
30C
100
AcDbEntity
  8
MAKE2D$VISIBLE$LINES
100
AcDbVertex
100
AcDb2dVertex
 10
1166.09277275421
 20
920.975498871986
 30
0.0
  0
VERTEX
  5
312
330
30C
100
AcDbEntity
  8
MAKE2D$VISIBLE$LINES
100
AcDbVertex
100
AcDb2dVertex
 10
1124.096553968786
 20
920.989710645129
 30
0.0
 42
0.414213562372882
  0
VERTEX
  5
313
330
30C
100
AcDbEntity
  8
MAKE2D$VISIBLE$LINES
100
AcDbVertex
100
AcDb2dVertex
 10
1122.095644314501
 20
918.9906207133372
 30
0.0
  0
VERTEX
  5
314
330
30C
100
AcDbEntity
  8
MAKE2D$VISIBLE$LINES
100
AcDbVertex
100
AcDb2dVertex
 10
1122.082852731046
 20
899.488361127506
 30
0.0
 42
-0.9999999999999999
  0
VERTEX
  5
315
330
30C
100
AcDbEntity
  8
MAKE2D$VISIBLE$LINES
100
AcDbVertex
100
AcDb2dVertex
 10
1115.082852731046
 20
899.488361127506
 30
0.0
  0
SEQEND
  5
316
330
30C
100
AcDbEntity
  8
MAKE2D$VISIBLE$LINES
  0
LINE
  5
317
330
1F
100
AcDbEntity
  8
MAKE2D$VISIBLE$LINES
100
AcDbLine
 10
1239.276914525922
 20
746.9999802567253
 30
0.0
 11
1301.1053416805
 21
746.9999802203018
 31
0.0
  0
POLYLINE
  5
318
330
1F
100
AcDbEntity
  8
MAKE2D$VISIBLE$LINES
100
AcDb2dPolyline
 66
     1
 10
0.0
 20
0.0
 30
0.0
  0
VERTEX
  5
319
330
318
100
AcDbEntity
  8
MAKE2D$VISIBLE$LINES
100
AcDbVertex
100
AcDb2dVertex
 10
1301.1053416805
 20
746.9999802203018
 30
0.0
 42
-0.9999999947966511
  0
VERTEX
  5
31A
330
318
100
AcDbEntity
  8
MAKE2D$VISIBLE$LINES
100
AcDbVertex
100
AcDb2dVertex
 10
1308.1053416805
 20
746.9999801838787
 30
0.0
  0
VERTEX
  5
31B
330
318
100
AcDbEntity
  8
MAKE2D$VISIBLE$LINES
100
AcDbVertex
100
AcDb2dVertex
 10
1308.105341680498
 20
737.9999801841208
 30
0.0
 42
-1.000000000000244
  0
VERTEX
  5
31C
330
318
100
AcDbEntity
  8
MAKE2D$VISIBLE$LINES
100
AcDbVertex
100
AcDb2dVertex
 10
1301.105341680501
 20
737.9999801841202
 30
0.0
  0
SEQEND
  5
31D
330
318
100
AcDbEntity
  8
MAKE2D$VISIBLE$LINES
  0
LINE
  5
31E
330
1F
100
AcDbEntity
  8
MAKE2D$VISIBLE$LINES
100
AcDbLine
 10
1301.1053416805
 20
737.9999801841202
 30
0.0
 11
1239.276914525922
 21
737.9999802569672
 31
0.0
  0
POLYLINE
  5
31F
330
1F
100
AcDbEntity
  8
MAKE2D$VISIBLE$LINES
100
AcDb2dPolyline
 66
     1
 10
0.0
 20
0.0
 30
0.0
  0
VERTEX
  5
320
330
31F
100
AcDbEntity
  8
MAKE2D$VISIBLE$LINES
100
AcDbVertex
100
AcDb2dVertex
 10
1239.276914525922
 20
737.9999802569672
 30
0.0
 42
-0.9999999999823298
  0
VERTEX
  5
321
330
31F
100
AcDbEntity
  8
MAKE2D$VISIBLE$LINES
100
AcDbVertex
100
AcDb2dVertex
 10
1232.276914525921
 20
737.9999802568442
 30
0.0
  0
VERTEX
  5
322
330
31F
100
AcDbEntity
  8
MAKE2D$VISIBLE$LINES
100
AcDbVertex
100
AcDb2dVertex
 10
1232.276914525921
 20
746.9999802567253
 30
0.0
 42
-0.999999999999886
  0
VERTEX
  5
323
330
31F
100
AcDbEntity
  8
MAKE2D$VISIBLE$LINES
100
AcDbVertex
100
AcDb2dVertex
 10
1239.276914525922
 20
746.9999802567253
 30
0.0
  0
SEQEND
  5
324
330
31F
100
AcDbEntity
  8
MAKE2D$VISIBLE$LINES
  0
POLYLINE
  5
325
330
1F
100
AcDbEntity
  8
MAKE2D$VISIBLE$LINES
100
AcDb2dPolyline
 66
     1
 10
0.0
 20
0.0
 30
0.0
  0
VERTEX
  5
326
330
325
100
AcDbEntity
  8
MAKE2D$VISIBLE$LINES
100
AcDbVertex
100
AcDb2dVertex
 10
1301.105341680501
 20
437.999980329814
 30
0.0
 42
-1.00000000000039
  0
VERTEX
  5
327
330
325
100
AcDbEntity
  8
MAKE2D$VISIBLE$LINES
100
AcDbVertex
100
AcDb2dVertex
 10
1308.105341680498
 20
437.999980329814
 30
0.0
  0
VERTEX
  5
328
330
325
100
AcDbEntity
  8
MAKE2D$VISIBLE$LINES
100
AcDbVertex
100
AcDb2dVertex
 10
1308.105341680501
 20
428.9999803300558
 30
0.0
 42
-0.9999999947967158
  0
VERTEX
  5
329
330
325
100
AcDbEntity
  8
MAKE2D$VISIBLE$LINES
100
AcDbVertex
100
AcDb2dVertex
 10
1301.105341680501
 20
428.9999802936325
 30
0.0
  0
SEQEND
  5
32A
330
325
100
AcDbEntity
  8
MAKE2D$VISIBLE$LINES
  0
LINE
  5
32B
330
1F
100
AcDbEntity
  8
MAKE2D$VISIBLE$LINES
100
AcDbLine
 10
1301.105341680501
 20
428.9999802936325
 30
0.0
 11
1239.276914525922
 21
428.999980257209
 31
0.0
  0
POLYLINE
  5
32C
330
1F
100
AcDbEntity
  8
MAKE2D$VISIBLE$LINES
100
AcDb2dPolyline
 66
     1
 10
0.0
 20
0.0
 30
0.0
  0
VERTEX
  5
32D
330
32C
100
AcDbEntity
  8
MAKE2D$VISIBLE$LINES
100
AcDbVertex
100
AcDb2dVertex
 10
1239.276914525922
 20
428.999980257209
 30
0.0
 42
-0.9999999999997401
  0
VERTEX
  5
32E
330
32C
100
AcDbEntity
  8
MAKE2D$VISIBLE$LINES
100
AcDbVertex
100
AcDb2dVertex
 10
1232.27691452592
 20
428.999980257209
 30
0.0
  0
VERTEX
  5
32F
330
32C
100
AcDbEntity
  8
MAKE2D$VISIBLE$LINES
100
AcDbVertex
100
AcDb2dVertex
 10
1232.276914525922
 20
437.9999802570898
 30
0.0
 42
-0.9999999999825572
  0
VERTEX
  5
330
330
32C
100
AcDbEntity
  8
MAKE2D$VISIBLE$LINES
100
AcDbVertex
100
AcDb2dVertex
 10
1239.276914525922
 20
437.9999802569671
 30
0.0
  0
SEQEND
  5
331
330
32C
100
AcDbEntity
  8
MAKE2D$VISIBLE$LINES
  0
LINE
  5
332
330
1F
100
AcDbEntity
  8
MAKE2D$VISIBLE$LINES
100
AcDbLine
 10
1239.276914525922
 20
437.9999802569671
 30
0.0
 11
1301.105341680501
 21
437.999980329814
 31
0.0
  0
LINE
  5
333
330
1F
100
AcDbEntity
  8
MAKE2D$VISIBLE$LINES
100
AcDbLine
 10
2177.094263361309
 20
493.4057366334614
 30
0.0
 11
2177.094263361309
 21
563.4057366334605
 31
0.0
  0
POLYLINE
  5
334
330
1F
100
AcDbEntity
  8
MAKE2D$VISIBLE$LINES
100
AcDb2dPolyline
 66
     1
 10
0.0
 20
0.0
 30
0.0
  0
VERTEX
  5
335
330
334
100
AcDbEntity
  8
MAKE2D$VISIBLE$LINES
100
AcDbVertex
100
AcDb2dVertex
 10
2177.094263361309
 20
563.4057366334605
 30
0.0
 42
0.9999999999997401
  0
VERTEX
  5
336
330
334
100
AcDbEntity
  8
MAKE2D$VISIBLE$LINES
100
AcDbVertex
100
AcDb2dVertex
 10
2177.094263361309
 20
570.4057366334605
 30
0.0
  0
VERTEX
  5
337
330
334
100
AcDbEntity
  8
MAKE2D$VISIBLE$LINES
100
AcDbVertex
100
AcDb2dVertex
 10
2168.094263361551
 20
570.4057366334605
 30
0.0
 42
1.000000000000016
  0
VERTEX
  5
338
330
334
100
AcDbEntity
  8
MAKE2D$VISIBLE$LINES
100
AcDbVertex
100
AcDb2dVertex
 10
2168.094263361551
 20
563.4057366334607
 30
0.0
  0
SEQEND
  5
339
330
334
100
AcDbEntity
  8
MAKE2D$VISIBLE$LINES
  0
LINE
  5
33A
330
1F
100
AcDbEntity
  8
MAKE2D$VISIBLE$LINES
100
AcDbLine
 10
2168.094263361551
 20
563.4057366334605
 30
0.0
 11
2168.094263361551
 21
493.4057366334614
 31
0.0
  0
POLYLINE
  5
33B
330
1F
100
AcDbEntity
  8
MAKE2D$VISIBLE$LINES
100
AcDb2dPolyline
 66
     1
 10
0.0
 20
0.0
 30
0.0
  0
VERTEX
  5
33C
330
33B
100
AcDbEntity
  8
MAKE2D$VISIBLE$LINES
100
AcDbVertex
100
AcDb2dVertex
 10
2168.094263361551
 20
493.4057366334614
 30
0.0
 42
0.9999999999825248
  0
VERTEX
  5
33D
330
33B
100
AcDbEntity
  8
MAKE2D$VISIBLE$LINES
100
AcDbVertex
100
AcDb2dVertex
 10
2168.094263361429
 20
486.4057366334614
 30
0.0
  0
VERTEX
  5
33E
330
33B
100
AcDbEntity
  8
MAKE2D$VISIBLE$LINES
100
AcDbVertex
100
AcDb2dVertex
 10
2177.094263361309
 20
486.4057366334614
 30
0.0
 42
1.000000000000065
  0
VERTEX
  5
33F
330
33B
100
AcDbEntity
  8
MAKE2D$VISIBLE$LINES
100
AcDbVertex
100
AcDb2dVertex
 10
2177.094263361309
 20
493.4057366334605
 30
0.0
  0
SEQEND
  5
340
330
33B
100
AcDbEntity
  8
MAKE2D$VISIBLE$LINES
  0
LINE
  5
341
330
1F
100
AcDbEntity
  8
MAKE2D$VISIBLE$LINES
100
AcDbLine
 10
1238.843297348365
 20
899.4999802569664
 30
0.0
 11
1205.846915525915
 21
899.4999802569664
 31
0.0
  0
POLYLINE
  5
342
330
1F
100
AcDbEntity
  8
MAKE2D$VISIBLE$LINES
100
AcDb2dPolyline
 66
     1
 10
0.0
 20
0.0
 30
0.0
  0
VERTEX
  5
343
330
342
100
AcDbEntity
  8
MAKE2D$VISIBLE$LINES
100
AcDbVertex
100
AcDb2dVertex
 10
1205.846915525915
 20
899.4999802569664
 30
0.0
 42
0.4142135623729598
  0
VERTEX
  5
344
330
342
100
AcDbEntity
  8
MAKE2D$VISIBLE$LINES
100
AcDbVertex
100
AcDb2dVertex
 10
1203.846915525916
 20
897.4999802569673
 30
0.0
  0
VERTEX
  5
345
330
342
100
AcDbEntity
  8
MAKE2D$VISIBLE$LINES
100
AcDbVertex
100
AcDb2dVertex
 10
1203.846915525917
 20
278.4999802569666
 30
0.0
 42
0.4142135623727609
  0
VERTEX
  5
346
330
342
100
AcDbEntity
  8
MAKE2D$VISIBLE$LINES
100
AcDbVertex
100
AcDb2dVertex
 10
1205.846915525917
 20
276.4999802569677
 30
0.0
  0
VERTEX
  5
347
330
342
100
AcDbEntity
  8
MAKE2D$VISIBLE$LINES
100
AcDbVertex
100
AcDb2dVertex
 10
1238.843297348367
 20
276.499980256968
 30
0.0
  0
SEQEND
  5
348
330
342
100
AcDbEntity
  8
MAKE2D$VISIBLE$LINES
  0
POLYLINE
  5
349
330
1F
100
AcDbEntity
  8
MAKE2D$VISIBLE$LINES
100
AcDb2dPolyline
 66
     1
 10
0.0
 20
0.0
 30
0.0
  0
VERTEX
  5
34A
330
349
100
AcDbEntity
  8
MAKE2D$VISIBLE$LINES
100
AcDbVertex
100
AcDb2dVertex
 10
1238.843297348367
 20
276.499980256968
 30
0.0
 42
-0.9999999999999675
  0
VERTEX
  5
34B
330
349
100
AcDbEntity
  8
MAKE2D$VISIBLE$LINES
100
AcDbVertex
100
AcDb2dVertex
 10
1245.843297348367
 20
276.499980256968
 30
0.0
  0
VERTEX
  5
34C
330
349
100
AcDbEntity
  8
MAKE2D$VISIBLE$LINES
100
AcDbVertex
100
AcDb2dVertex
 10
1245.845846525913
 20
257.0000000000025
 30
0.0
 42
0.4141873648142741
  0
VERTEX
  5
34D
330
349
100
AcDbEntity
  8
MAKE2D$VISIBLE$LINES
100
AcDbVertex
100
AcDb2dVertex
 10
1247.845846517911
 20
255.000178889779
 30
0.0
  0
VERTEX
  5
34E
330
349
100
AcDbEntity
  8
MAKE2D$VISIBLE$LINES
100
AcDbVertex
100
AcDb2dVertex
 10
1299.845846525916
 20
255.0000000000078
 30
0.0
 42
0.4142135623729448
  0
VERTEX
  5
34F
330
349
100
AcDbEntity
  8
MAKE2D$VISIBLE$LINES
100
AcDbVertex
100
AcDb2dVertex
 10
1301.845846525912
 20
257.0000000000057
 30
0.0
  0
VERTEX
  5
350
330
349
100
AcDbEntity
  8
MAKE2D$VISIBLE$LINES
100
AcDbVertex
100
AcDb2dVertex
 10
1301.845846525913
 20
265.4999802569757
 30
0.0
 42
0.4142135623732415
  0
VERTEX
  5
351
330
349
100
AcDbEntity
  8
MAKE2D$VISIBLE$LINES
100
AcDbVertex
100
AcDb2dVertex
 10
1299.845846525912
 20
267.4999802569758
 30
0.0
  0
VERTEX
  5
352
330
349
100
AcDbEntity
  8
MAKE2D$VISIBLE$LINES
100
AcDbVertex
100
AcDb2dVertex
 10
1286.845846525925
 20
267.499980256968
 30
0.0
  0
SEQEND
  5
353
330
349
100
AcDbEntity
  8
MAKE2D$VISIBLE$LINES
  0
POLYLINE
  5
354
330
1F
100
AcDbEntity
  8
MAKE2D$VISIBLE$LINES
100
AcDb2dPolyline
 66
     1
 10
0.0
 20
0.0
 30
0.0
  0
VERTEX
  5
355
330
354
100
AcDbEntity
  8
MAKE2D$VISIBLE$LINES
100
AcDbVertex
100
AcDb2dVertex
 10
1286.845846525925
 20
267.499980256968
 30
0.0
 42
-0.9999999999998458
  0
VERTEX
  5
356
330
354
100
AcDbEntity
  8
MAKE2D$VISIBLE$LINES
100
AcDbVertex
100
AcDb2dVertex
 10
1279.845846525925
 20
267.499980256968
 30
0.0
  0
VERTEX
  5
357
330
354
100
AcDbEntity
  8
MAKE2D$VISIBLE$LINES
100
AcDbVertex
100
AcDb2dVertex
 10
1279.845846525925
 20
276.4999802569662
 30
0.0
 42
-1.000000000000073
  0
VERTEX
  5
358
330
354
100
AcDbEntity
  8
MAKE2D$VISIBLE$LINES
100
AcDbVertex
100
AcDb2dVertex
 10
1286.845846525925
 20
276.4999802569662
 30
0.0
  0
SEQEND
  5
359
330
354
100
AcDbEntity
  8
MAKE2D$VISIBLE$LINES
  0
LINE
  5
35A
330
1F
100
AcDbEntity
  8
MAKE2D$VISIBLE$LINES
100
AcDbLine
 10
1286.845846525925
 20
276.4999802569662
 30
0.0
 11
1348.844365348377
 21
276.4999802569685
 31
0.0
  0
POLYLINE
  5
35B
330
1F
100
AcDbEntity
  8
MAKE2D$VISIBLE$LINES
100
AcDb2dPolyline
 66
     1
 10
0.0
 20
0.0
 30
0.0
  0
VERTEX
  5
35C
330
35B
100
AcDbEntity
  8
MAKE2D$VISIBLE$LINES
100
AcDbVertex
100
AcDb2dVertex
 10
1348.844365348377
 20
276.4999802569685
 30
0.0
 42
-0.9999999999999919
  0
VERTEX
  5
35D
330
35B
100
AcDbEntity
  8
MAKE2D$VISIBLE$LINES
100
AcDbVertex
100
AcDb2dVertex
 10
1355.844365348377
 20
276.4999802569685
 30
0.0
  0
VERTEX
  5
35E
330
35B
100
AcDbEntity
  8
MAKE2D$VISIBLE$LINES
100
AcDbVertex
100
AcDb2dVertex
 10
1355.846914525916
 20
257.0000000000034
 30
0.0
 42
0.4141873648149839
  0
VERTEX
  5
35F
330
35B
100
AcDbEntity
  8
MAKE2D$VISIBLE$LINES
100
AcDbVertex
100
AcDb2dVertex
 10
1357.846914517914
 20
255.0001788897791
 30
0.0
  0
VERTEX
  5
360
330
35B
100
AcDbEntity
  8
MAKE2D$VISIBLE$LINES
100
AcDbVertex
100
AcDb2dVertex
 10
1409.846914525914
 20
255.0000000000001
 30
0.0
 42
0.4142135623723856
  0
VERTEX
  5
361
330
35B
100
AcDbEntity
  8
MAKE2D$VISIBLE$LINES
100
AcDbVertex
100
AcDb2dVertex
 10
1411.846914525915
 20
257.0000000000034
 30
0.0
  0
VERTEX
  5
362
330
35B
100
AcDbEntity
  8
MAKE2D$VISIBLE$LINES
100
AcDbVertex
100
AcDb2dVertex
 10
1411.846914525915
 20
265.4999802569685
 30
0.0
 42
0.414213562373081
  0
VERTEX
  5
363
330
35B
100
AcDbEntity
  8
MAKE2D$VISIBLE$LINES
100
AcDbVertex
100
AcDb2dVertex
 10
1409.846914525912
 20
267.4999802569685
 30
0.0
  0
VERTEX
  5
364
330
35B
100
AcDbEntity
  8
MAKE2D$VISIBLE$LINES
100
AcDbVertex
100
AcDb2dVertex
 10
1396.846914525923
 20
267.4999802569639
 30
0.0
  0
SEQEND
  5
365
330
35B
100
AcDbEntity
  8
MAKE2D$VISIBLE$LINES
  0
POLYLINE
  5
366
330
1F
100
AcDbEntity
  8
MAKE2D$VISIBLE$LINES
100
AcDb2dPolyline
 66
     1
 10
0.0
 20
0.0
 30
0.0
  0
VERTEX
  5
367
330
366
100
AcDbEntity
  8
MAKE2D$VISIBLE$LINES
100
AcDbVertex
100
AcDb2dVertex
 10
1396.846914525923
 20
267.4999802569639
 30
0.0
 42
-0.9999999999999999
  0
VERTEX
  5
368
330
366
100
AcDbEntity
  8
MAKE2D$VISIBLE$LINES
100
AcDbVertex
100
AcDb2dVertex
 10
1389.846914525923
 20
267.4999802569639
 30
0.0
  0
VERTEX
  5
369
330
366
100
AcDbEntity
  8
MAKE2D$VISIBLE$LINES
100
AcDbVertex
100
AcDb2dVertex
 10
1389.846914525923
 20
276.4999802569616
 30
0.0
 42
-0.9999999999999999
  0
VERTEX
  5
36A
330
366
100
AcDbEntity
  8
MAKE2D$VISIBLE$LINES
100
AcDbVertex
100
AcDb2dVertex
 10
1396.846914525923
 20
276.4999802569616
 30
0.0
  0
SEQEND
  5
36B
330
366
100
AcDbEntity
  8
MAKE2D$VISIBLE$LINES
  0
POLYLINE
  5
36C
330
1F
100
AcDbEntity
  8
MAKE2D$VISIBLE$LINES
100
AcDb2dPolyline
 66
     1
 10
0.0
 20
0.0
 30
0.0
  0
VERTEX
  5
36D
330
36C
100
AcDbEntity
  8
MAKE2D$VISIBLE$LINES
100
AcDbVertex
100
AcDb2dVertex
 10
1396.846914525923
 20
276.4999802569616
 30
0.0
  0
VERTEX
  5
36E
330
36C
100
AcDbEntity
  8
MAKE2D$VISIBLE$LINES
100
AcDbVertex
100
AcDb2dVertex
 10
1410.846914525914
 20
276.4999802569649
 30
0.0
 42
0.4142135623732636
  0
VERTEX
  5
36F
330
36C
100
AcDbEntity
  8
MAKE2D$VISIBLE$LINES
100
AcDbVertex
100
AcDb2dVertex
 10
1411.846914525914
 20
277.4999802569648
 30
0.0
  0
VERTEX
  5
370
330
36C
100
AcDbEntity
  8
MAKE2D$VISIBLE$LINES
100
AcDbVertex
100
AcDb2dVertex
 10
1411.846914525912
 20
898.4999802569699
 30
0.0
 42
0.4142135623731145
  0
VERTEX
  5
371
330
36C
100
AcDbEntity
  8
MAKE2D$VISIBLE$LINES
100
AcDbVertex
100
AcDb2dVertex
 10
1410.846914525912
 20
899.49998025697
 30
0.0
  0
VERTEX
  5
372
330
36C
100
AcDbEntity
  8
MAKE2D$VISIBLE$LINES
100
AcDbVertex
100
AcDb2dVertex
 10
1396.846914525921
 20
899.4999802569728
 30
0.0
  0
SEQEND
  5
373
330
36C
100
AcDbEntity
  8
MAKE2D$VISIBLE$LINES
  0
POLYLINE
  5
374
330
1F
100
AcDbEntity
  8
MAKE2D$VISIBLE$LINES
100
AcDb2dPolyline
 66
     1
 10
0.0
 20
0.0
 30
0.0
  0
VERTEX
  5
375
330
374
100
AcDbEntity
  8
MAKE2D$VISIBLE$LINES
100
AcDbVertex
100
AcDb2dVertex
 10
1396.846914525921
 20
899.4999802569728
 30
0.0
 42
-0.9999999999999999
  0
VERTEX
  5
376
330
374
100
AcDbEntity
  8
MAKE2D$VISIBLE$LINES
100
AcDbVertex
100
AcDb2dVertex
 10
1389.846914525921
 20
899.4999802569728
 30
0.0
  0
VERTEX
  5
377
330
374
100
AcDbEntity
  8
MAKE2D$VISIBLE$LINES
100
AcDbVertex
100
AcDb2dVertex
 10
1389.846914525921
 20
908.499980256971
 30
0.0
 42
-0.9999999999999999
  0
VERTEX
  5
378
330
374
100
AcDbEntity
  8
MAKE2D$VISIBLE$LINES
100
AcDbVertex
100
AcDb2dVertex
 10
1396.846914525921
 20
908.4999802569712
 30
0.0
  0
SEQEND
  5
379
330
374
100
AcDbEntity
  8
MAKE2D$VISIBLE$LINES
  0
POLYLINE
  5
37A
330
1F
100
AcDbEntity
  8
MAKE2D$VISIBLE$LINES
100
AcDb2dPolyline
 66
     1
 10
0.0
 20
0.0
 30
0.0
  0
VERTEX
  5
37B
330
37A
100
AcDbEntity
  8
MAKE2D$VISIBLE$LINES
100
AcDbVertex
100
AcDb2dVertex
 10
1396.846914525921
 20
908.4999802569712
 30
0.0
  0
VERTEX
  5
37C
330
37A
100
AcDbEntity
  8
MAKE2D$VISIBLE$LINES
100
AcDbVertex
100
AcDb2dVertex
 10
1409.84691452591
 20
908.4999802569664
 30
0.0
 42
0.4142135623734119
  0
VERTEX
  5
37D
330
37A
100
AcDbEntity
  8
MAKE2D$VISIBLE$LINES
100
AcDbVertex
100
AcDb2dVertex
 10
1411.846914525912
 20
910.4999802569664
 30
0.0
  0
VERTEX
  5
37E
330
37A
100
AcDbEntity
  8
MAKE2D$VISIBLE$LINES
100
AcDbVertex
100
AcDb2dVertex
 10
1411.846914525912
 20
918.999960513931
 30
0.0
 42
0.4142135623727533
  0
VERTEX
  5
37F
330
37A
100
AcDbEntity
  8
MAKE2D$VISIBLE$LINES
100
AcDbVertex
100
AcDb2dVertex
 10
1409.846914525912
 20
920.9999605139349
 30
0.0
  0
VERTEX
  5
380
330
37A
100
AcDbEntity
  8
MAKE2D$VISIBLE$LINES
100
AcDbVertex
100
AcDb2dVertex
 10
1357.846914517911
 20
920.9997816241555
 30
0.0
 42
0.4141873648143722
  0
VERTEX
  5
381
330
37A
100
AcDbEntity
  8
MAKE2D$VISIBLE$LINES
100
AcDbVertex
100
AcDb2dVertex
 10
1355.846914525912
 20
918.999960513931
 30
0.0
  0
VERTEX
  5
382
330
37A
100
AcDbEntity
  8
MAKE2D$VISIBLE$LINES
100
AcDbVertex
100
AcDb2dVertex
 10
1355.844365348375
 20
899.4999802569664
 30
0.0
 42
-1.000000000000081
  0
VERTEX
  5
383
330
37A
100
AcDbEntity
  8
MAKE2D$VISIBLE$LINES
100
AcDbVertex
100
AcDb2dVertex
 10
1348.844365348375
 20
899.4999802569664
 30
0.0
  0
SEQEND
  5
384
330
37A
100
AcDbEntity
  8
MAKE2D$VISIBLE$LINES
  0
LINE
  5
385
330
1F
100
AcDbEntity
  8
MAKE2D$VISIBLE$LINES
100
AcDbLine
 10
1348.844365348375
 20
899.4999802569664
 30
0.0
 11
1286.845846525922
 21
899.4999802569682
 31
0.0
  0
POLYLINE
  5
386
330
1F
100
AcDbEntity
  8
MAKE2D$VISIBLE$LINES
100
AcDb2dPolyline
 66
     1
 10
0.0
 20
0.0
 30
0.0
  0
VERTEX
  5
387
330
386
100
AcDbEntity
  8
MAKE2D$VISIBLE$LINES
100
AcDbVertex
100
AcDb2dVertex
 10
1286.845846525922
 20
899.4999802569682
 30
0.0
 42
-1.000000000000032
  0
VERTEX
  5
388
330
386
100
AcDbEntity
  8
MAKE2D$VISIBLE$LINES
100
AcDbVertex
100
AcDb2dVertex
 10
1279.845846525922
 20
899.4999802569682
 30
0.0
  0
VERTEX
  5
389
330
386
100
AcDbEntity
  8
MAKE2D$VISIBLE$LINES
100
AcDbVertex
100
AcDb2dVertex
 10
1279.845846525922
 20
908.4999802569656
 30
0.0
 42
-0.9999999999997239
  0
VERTEX
  5
38A
330
386
100
AcDbEntity
  8
MAKE2D$VISIBLE$LINES
100
AcDbVertex
100
AcDb2dVertex
 10
1286.845846525922
 20
908.499980256966
 30
0.0
  0
SEQEND
  5
38B
330
386
100
AcDbEntity
  8
MAKE2D$VISIBLE$LINES
  0
POLYLINE
  5
38C
330
1F
100
AcDbEntity
  8
MAKE2D$VISIBLE$LINES
100
AcDb2dPolyline
 66
     1
 10
0.0
 20
0.0
 30
0.0
  0
VERTEX
  5
38D
330
38C
100
AcDbEntity
  8
MAKE2D$VISIBLE$LINES
100
AcDbVertex
100
AcDb2dVertex
 10
1286.845846525922
 20
908.4999802569656
 30
0.0
  0
VERTEX
  5
38E
330
38C
100
AcDbEntity
  8
MAKE2D$VISIBLE$LINES
100
AcDbVertex
100
AcDb2dVertex
 10
1299.845846525909
 20
908.4999802569586
 30
0.0
 42
0.4142135623730615
  0
VERTEX
  5
38F
330
38C
100
AcDbEntity
  8
MAKE2D$VISIBLE$LINES
100
AcDbVertex
100
AcDb2dVertex
 10
1301.84584652591
 20
910.4999802569583
 30
0.0
  0
VERTEX
  5
390
330
38C
100
AcDbEntity
  8
MAKE2D$VISIBLE$LINES
100
AcDbVertex
100
AcDb2dVertex
 10
1301.84584652591
 20
918.9999605139284
 30
0.0
 42
0.4142135623731553
  0
VERTEX
  5
391
330
38C
100
AcDbEntity
  8
MAKE2D$VISIBLE$LINES
100
AcDbVertex
100
AcDb2dVertex
 10
1299.845846525914
 20
920.9999605139266
 30
0.0
  0
VERTEX
  5
392
330
38C
100
AcDbEntity
  8
MAKE2D$VISIBLE$LINES
100
AcDbVertex
100
AcDb2dVertex
 10
1247.845846517909
 20
920.9997816241547
 30
0.0
 42
0.4141873648141643
  0
VERTEX
  5
393
330
38C
100
AcDbEntity
  8
MAKE2D$VISIBLE$LINES
100
AcDbVertex
100
AcDb2dVertex
 10
1245.84584652591
 20
918.999960513931
 30
0.0
  0
VERTEX
  5
394
330
38C
100
AcDbEntity
  8
MAKE2D$VISIBLE$LINES
100
AcDbVertex
100
AcDb2dVertex
 10
1245.843297348365
 20
899.4999802569664
 30
0.0
 42
-0.9999999999999999
  0
VERTEX
  5
395
330
38C
100
AcDbEntity
  8
MAKE2D$VISIBLE$LINES
100
AcDbVertex
100
AcDb2dVertex
 10
1238.843297348365
 20
899.4999802569664
 30
0.0
  0
SEQEND
  5
396
330
38C
100
AcDbEntity
  8
MAKE2D$VISIBLE$LINES
  0
POLYLINE
  5
397
330
1F
100
AcDbEntity
  8
MAKE2D$VISIBLE$LINES
100
AcDb2dPolyline
 66
     1
 10
0.0
 20
0.0
 30
0.0
 70
     1
  0
VERTEX
  5
398
330
397
100
AcDbEntity
  8
MAKE2D$VISIBLE$LINES
100
AcDbVertex
100
AcDb2dVertex
 10
1306.922828931516
 20
623.9999802569686
 30
0.0
  0
VERTEX
  5
399
330
397
100
AcDbEntity
  8
MAKE2D$VISIBLE$LINES
100
AcDbVertex
100
AcDb2dVertex
 10
1306.922828931517
 20
551.9999802569712
 30
0.0
 42
-0.4142135623728556
  0
VERTEX
  5
39A
330
397
100
AcDbEntity
  8
MAKE2D$VISIBLE$LINES
100
AcDbVertex
100
AcDb2dVertex
 10
1302.922828931517
 20
547.9999802569671
 30
0.0
  0
VERTEX
  5
39B
330
397
100
AcDbEntity
  8
MAKE2D$VISIBLE$LINES
100
AcDbVertex
100
AcDb2dVertex
 10
1230.922828931515
 20
547.9999802569678
 30
0.0
 42
-0.414213562373293
  0
VERTEX
  5
39C
330
397
100
AcDbEntity
  8
MAKE2D$VISIBLE$LINES
100
AcDbVertex
100
AcDb2dVertex
 10
1226.922828931516
 20
551.999980256968
 30
0.0
  0
VERTEX
  5
39D
330
397
100
AcDbEntity
  8
MAKE2D$VISIBLE$LINES
100
AcDbVertex
100
AcDb2dVertex
 10
1226.922828931515
 20
623.9999802569663
 30
0.0
 42
-0.4142135623727771
  0
VERTEX
  5
39E
330
397
100
AcDbEntity
  8
MAKE2D$VISIBLE$LINES
100
AcDbVertex
100
AcDb2dVertex
 10
1230.922828931515
 20
627.9999802569673
 30
0.0
  0
VERTEX
  5
39F
330
397
100
AcDbEntity
  8
MAKE2D$VISIBLE$LINES
100
AcDbVertex
100
AcDb2dVertex
 10
1302.922828931515
 20
627.9999802569681
 30
0.0
 42
-0.414213562373183
  0
SEQEND
  5
3A0
330
397
100
AcDbEntity
  8
MAKE2D$VISIBLE$LINES
  0
CIRCLE
  5
3A1
330
1F
100
AcDbEntity
  8
MAKE2D$VISIBLE$LINES
100
AcDbCircle
 10
1844.179488343955
 20
-261.0646066590675
 30
0.0
 40
29.99999999999996
  0
POLYLINE
  5
3A2
330
1F
100
AcDbEntity
  8
MAKE2D$VISIBLE$LINES
100
AcDb2dPolyline
 66
     1
 10
0.0
 20
0.0
 30
0.0
 70
     1
  0
VERTEX
  5
3A3
330
3A2
100
AcDbEntity
  8
MAKE2D$VISIBLE$LINES
100
AcDbVertex
100
AcDb2dVertex
 10
2181.567620042545
 20
-818.9428870890672
 30
0.0
  0
VERTEX
  5
3A4
330
3A2
100
AcDbEntity
  8
MAKE2D$VISIBLE$LINES
100
AcDbVertex
100
AcDb2dVertex
 10
1623.679243428855
 20
-572.6171724148866
 30
0.0
 42
0.7086375475770745
  0
VERTEX
  5
3A5
330
3A2
100
AcDbEntity
  8
MAKE2D$VISIBLE$LINES
100
AcDbVertex
100
AcDb2dVertex
 10
1610.767452881075
 20
-586.3777210836312
 30
0.0
  0
VERTEX
  5
3A6
330
3A2
100
AcDbEntity
  8
MAKE2D$VISIBLE$LINES
100
AcDbVertex
100
AcDb2dVertex
 10
1877.335947537533
 20
-1099.144180950885
 30
0.0
 42
0.3956995671418573
  0
VERTEX
  5
3A7
330
3A2
100
AcDbEntity
  8
MAKE2D$VISIBLE$LINES
100
AcDbVertex
100
AcDb2dVertex
 10
1890.247738085318
 20
-1103.679583570477
 30
0.0
  0
VERTEX
  5
3A8
330
3A2
100
AcDbEntity
  8
MAKE2D$VISIBLE$LINES
100
AcDbVertex
100
AcDb2dVertex
 10
2181.567620042541
 20
-975.0524582708132
 30
0.0
 42
0.2970537353305855
  0
VERTEX
  5
3A9
330
3A2
100
AcDbEntity
  8
MAKE2D$VISIBLE$LINES
100
AcDbVertex
100
AcDb2dVertex
 10
2183.951969505387
 20
-971.3932680131476
 30
0.0
  0
VERTEX
  5
3AA
330
3A2
100
AcDbEntity
  8
MAKE2D$VISIBLE$LINES
100
AcDbVertex
100
AcDb2dVertex
 10
2183.951969505385
 20
-822.6020773467302
 30
0.0
 42
0.2970537353303956
  0
SEQEND
  5
3AB
330
3A2
100
AcDbEntity
  8
MAKE2D$VISIBLE$LINES
  0
POLYLINE
  5
3AC
330
1F
100
AcDbEntity
  8
MAKE2D$VISIBLE$LINES
100
AcDb2dPolyline
 66
     1
 10
0.0
 20
0.0
 30
0.0
 70
     1
  0
VERTEX
  5
3AD
330
3AC
100
AcDbEntity
  8
MAKE2D$VISIBLE$LINES
100
AcDbVertex
100
AcDb2dVertex
 10
1616.682569401165
 20
-244.9428870890681
 30
0.0
  0
VERTEX
  5
3AE
330
3AC
100
AcDbEntity
  8
MAKE2D$VISIBLE$LINES
100
AcDbVertex
100
AcDb2dVertex
 10
2174.570946014855
 20
1.382827585112822
 30
0.0
 42
-0.7086375475771296
  0
VERTEX
  5
3AF
330
3AC
100
AcDbEntity
  8
MAKE2D$VISIBLE$LINES
100
AcDbVertex
100
AcDb2dVertex
 10
2187.482736562635
 20
-12.37772108363128
 30
0.0
  0
VERTEX
  5
3B0
330
3AC
100
AcDbEntity
  8
MAKE2D$VISIBLE$LINES
100
AcDbVertex
100
AcDb2dVertex
 10
1920.914241906177
 20
-525.1441809508852
 30
0.0
 42
-0.3956995671418488
  0
VERTEX
  5
3B1
330
3AC
100
AcDbEntity
  8
MAKE2D$VISIBLE$LINES
100
AcDbVertex
100
AcDb2dVertex
 10
1908.002451358393
 20
-529.6795835704771
 30
0.0
  0
VERTEX
  5
3B2
330
3AC
100
AcDbEntity
  8
MAKE2D$VISIBLE$LINES
100
AcDbVertex
100
AcDb2dVertex
 10
1616.68256940117
 20
-401.052458270814
 30
0.0
 42
-0.2970537353305773
  0
VERTEX
  5
3B3
330
3AC
100
AcDbEntity
  8
MAKE2D$VISIBLE$LINES
100
AcDbVertex
100
AcDb2dVertex
 10
1614.298219938323
 20
-397.3932680131485
 30
0.0
  0
VERTEX
  5
3B4
330
3AC
100
AcDbEntity
  8
MAKE2D$VISIBLE$LINES
100
AcDbVertex
100
AcDb2dVertex
 10
1614.298219938325
 20
-248.6020773467309
 30
0.0
 42
-0.2970537353305437
  0
SEQEND
  5
3B5
330
3AC
100
AcDbEntity
  8
MAKE2D$VISIBLE$LINES
  0
POLYLINE
  5
3B6
330
1F
100
AcDbEntity
  8
MAKE2D$VISIBLE$LINES
100
AcDb2dPolyline
 66
     1
 10
0.0
 20
0.0
 30
0.0
 70
     1
  0
VERTEX
  5
3B7
330
3B6
100
AcDbEntity
  8
MAKE2D$VISIBLE$LINES
100
AcDbVertex
100
AcDb2dVertex
 10
1698.594243339634
 20
744.605736633704
 30
0.0
  0
VERTEX
  5
3B8
330
3B6
100
AcDbEntity
  8
MAKE2D$VISIBLE$LINES
100
AcDbVertex
100
AcDb2dVertex
 10
2014.594283382843
 20
744.605736633353
 30
0.0
 42
0.4142135623728564
  0
VERTEX
  5
3B9
330
3B6
100
AcDbEntity
  8
MAKE2D$VISIBLE$LINES
100
AcDbVertex
100
AcDb2dVertex
 10
2048.394263361271
 20
778.4057166117087
 30
0.0
  0
VERTEX
  5
3BA
330
3B6
100
AcDbEntity
  8
MAKE2D$VISIBLE$LINES
100
AcDbVertex
100
AcDb2dVertex
 10
2048.394263361359
 20
824.8057566553192
 30
0.0
 42
0.4142135623734536
  0
VERTEX
  5
3BB
330
3B6
100
AcDbEntity
  8
MAKE2D$VISIBLE$LINES
100
AcDbVertex
100
AcDb2dVertex
 10
2014.594283383015
 20
858.6057366337039
 30
0.0
  0
VERTEX
  5
3BC
330
3B6
100
AcDbEntity
  8
MAKE2D$VISIBLE$LINES
100
AcDbVertex
100
AcDb2dVertex
 10
1698.594243339821
 20
858.605736634056
 30
0.0
 42
0.4142135623727705
  0
VERTEX
  5
3BD
330
3B6
100
AcDbEntity
  8
MAKE2D$VISIBLE$LINES
100
AcDbVertex
100
AcDb2dVertex
 10
1664.794263361377
 20
824.8057566556903
 30
0.0
  0
VERTEX
  5
3BE
330
3B6
100
AcDbEntity
  8
MAKE2D$VISIBLE$LINES
100
AcDbVertex
100
AcDb2dVertex
 10
1664.794263361284
 20
778.4057166121007
 30
0.0
 42
0.4142135623734951
  0
SEQEND
  5
3BF
330
3B6
100
AcDbEntity
  8
MAKE2D$VISIBLE$LINES
  0
POLYLINE
  5
3C0
330
1F
100
AcDbEntity
  8
MAKE2D$VISIBLE$LINES
100
AcDb2dPolyline
 66
     1
 10
0.0
 20
0.0
 30
0.0
 70
     1
  0
VERTEX
  5
3C1
330
3C0
100
AcDbEntity
  8
MAKE2D$VISIBLE$LINES
100
AcDbVertex
100
AcDb2dVertex
 10
1698.594243339638
 20
751.605736633704
 30
0.0
  0
VERTEX
  5
3C2
330
3C0
100
AcDbEntity
  8
MAKE2D$VISIBLE$LINES
100
AcDbVertex
100
AcDb2dVertex
 10
2014.594283382849
 20
751.605736633353
 30
0.0
 42
0.4142135623728264
  0
VERTEX
  5
3C3
330
3C0
100
AcDbEntity
  8
MAKE2D$VISIBLE$LINES
100
AcDbVertex
100
AcDb2dVertex
 10
2041.394263361271
 20
778.4057166117204
 30
0.0
  0
VERTEX
  5
3C4
330
3C0
100
AcDbEntity
  8
MAKE2D$VISIBLE$LINES
100
AcDbVertex
100
AcDb2dVertex
 10
2041.394263361359
 20
824.8057566553293
 30
0.0
 42
0.4142135623733848
  0
VERTEX
  5
3C5
330
3C0
100
AcDbEntity
  8
MAKE2D$VISIBLE$LINES
100
AcDbVertex
100
AcDb2dVertex
 10
2014.594283383011
 20
851.605736633704
 30
0.0
  0
VERTEX
  5
3C6
330
3C0
100
AcDbEntity
  8
MAKE2D$VISIBLE$LINES
100
AcDbVertex
100
AcDb2dVertex
 10
1698.594243339815
 20
851.6057366340551
 30
0.0
 42
0.4142135623727438
  0
VERTEX
  5
3C7
330
3C0
100
AcDbEntity
  8
MAKE2D$VISIBLE$LINES
100
AcDbVertex
100
AcDb2dVertex
 10
1671.794263361377
 20
824.8057566556768
 30
0.0
  0
VERTEX
  5
3C8
330
3C0
100
AcDbEntity
  8
MAKE2D$VISIBLE$LINES
100
AcDbVertex
100
AcDb2dVertex
 10
1671.794263361282
 20
778.4057166120897
 30
0.0
 42
0.4142135623734207
  0
SEQEND
  5
3C9
330
3C0
100
AcDbEntity
  8
MAKE2D$VISIBLE$LINES
  0
POLYLINE
  5
3CA
330
1F
100
AcDbEntity
  8
MAKE2D$VISIBLE$LINES
100
AcDb2dPolyline
 66
     1
 10
0.0
 20
0.0
 30
0.0
 70
     1
  0
VERTEX
  5
3CB
330
3CA
100
AcDbEntity
  8
MAKE2D$VISIBLE$LINES
100
AcDbVertex
100
AcDb2dVertex
 10
1466.594263360163
 20
928.4057366326227
 30
0.0
  0
VERTEX
  5
3CC
330
3CA
100
AcDbEntity
  8
MAKE2D$VISIBLE$LINES
100
AcDbVertex
100
AcDb2dVertex
 10
2246.594263361634
 20
928.405736632621
 30
0.0
 42
-0.4142135623732345
  0
VERTEX
  5
3CD
330
3CA
100
AcDbEntity
  8
MAKE2D$VISIBLE$LINES
100
AcDbVertex
100
AcDb2dVertex
 10
2256.594263361634
 20
918.405736632621
 30
0.0
  0
VERTEX
  5
3CE
330
3CA
100
AcDbEntity
  8
MAKE2D$VISIBLE$LINES
100
AcDbVertex
100
AcDb2dVertex
 10
2256.594263361633
 20
138.4057366342972
 30
0.0
 42
-0.4142135623730487
  0
VERTEX
  5
3CF
330
3CA
100
AcDbEntity
  8
MAKE2D$VISIBLE$LINES
100
AcDbVertex
100
AcDb2dVertex
 10
2246.594263361633
 20
128.4057366342983
 30
0.0
  0
VERTEX
  5
3D0
330
3CA
100
AcDbEntity
  8
MAKE2D$VISIBLE$LINES
100
AcDbVertex
100
AcDb2dVertex
 10
1466.594263360162
 20
128.4057366342996
 30
0.0
 42
-0.4142135623731694
  0
VERTEX
  5
3D1
330
3CA
100
AcDbEntity
  8
MAKE2D$VISIBLE$LINES
100
AcDbVertex
100
AcDb2dVertex
 10
1456.594263360163
 20
138.4057366343004
 30
0.0
  0
VERTEX
  5
3D2
330
3CA
100
AcDbEntity
  8
MAKE2D$VISIBLE$LINES
100
AcDbVertex
100
AcDb2dVertex
 10
1456.594263360163
 20
918.4057366326227
 30
0.0
 42
-0.4142135623730999
  0
SEQEND
  5
3D3
330
3CA
100
AcDbEntity
  8
MAKE2D$VISIBLE$LINES
  0
POLYLINE
  5
3D4
330
1F
100
AcDbEntity
  8
DEFAULT
100
AcDb2dPolyline
 66
     1
 10
0.0
 20
0.0
 30
0.0
 70
     1
  0
VERTEX
  5
3D5
330
3D4
100
AcDbEntity
  8
DEFAULT
100
AcDbVertex
100
AcDb2dVertex
 10
1070.0
 20
-1473.0
 30
0.0
  0
VERTEX
  5
3D6
330
3D4
100
AcDbEntity
  8
DEFAULT
100
AcDbVertex
100
AcDb2dVertex
 10
2290.0
 20
-1473.0
 30
0.0
  0
VERTEX
  5
3D7
330
3D4
100
AcDbEntity
  8
DEFAULT
100
AcDbVertex
100
AcDb2dVertex
 10
2290.0
 20
967.0
 30
0.0
  0
VERTEX
  5
3D8
330
3D4
100
AcDbEntity
  8
DEFAULT
100
AcDbVertex
100
AcDb2dVertex
 10
1070.0
 20
967.0
 30
0.0
  0
SEQEND
  5
3D9
330
3D4
100
AcDbEntity
  8
DEFAULT
  0
ENDSEC
  0
SECTION
  2
OBJECTS
  0
DICTIONARY
  5
C
330
0
100
AcDbDictionary
  3
ACAD_GROUP
350
D
  3
ACAD_LAYOUT
350
1A
  3
ACAD_MATERIAL
350
43
  3
ACAD_MLEADERSTYLE
350
6B
  3
ACAD_MLINESTYLE
350
17
  3
ACAD_PLOTSETTINGS
350
19
  3
ACAD_SCALELIST
350
47
  3
ACAD_VISUALSTYLE
350
2A
  3
ACDBHEADERROUNDTRIPXREC
350
3DA
  3
ACDBVARIABLEDICTIONARY
350
3FB
  0
DICTIONARY
  5
402
330
8
100
AcDbDictionary
280
     1
  3
ACAD_XREC_ROUNDTRIP
360
403
  0
DICTIONARY
  5
D
102
{ACAD_REACTORS
330
C
102
}
330
C
100
AcDbDictionary
  0
DICTIONARY
  5
1A
102
{ACAD_REACTORS
330
C
102
}
330
C
100
AcDbDictionary
  0
DICTIONARY
  5
43
102
{ACAD_REACTORS
330
C
102
}
330
C
100
AcDbDictionary
  3
BYBLOCK
350
45
  3
BYLAYER
350
44
  3
GLOBAL
350
46
  0
DICTIONARY
  5
6B
102
{ACAD_REACTORS
330
C
102
}
330
C
100
AcDbDictionary
  3
STANDARD
350
6C
  0
DICTIONARY
  5
17
102
{ACAD_REACTORS
330
C
102
}
330
C
100
AcDbDictionary
  3
STANDARD
350
18
  0
DICTIONARY
  5
19
102
{ACAD_REACTORS
330
C
102
}
330
C
100
AcDbDictionary
  0
DICTIONARY
  5
47
102
{ACAD_REACTORS
330
C
102
}
330
C
100
AcDbDictionary
  3
A0
350
48
  3
A1
350
49
  3
A2
350
4A
  3
A3
350
4B
  3
A4
350
4C
  3
A5
350
4D
  3
A6
350
4E
  3
A7
350
4F
  3
A8
350
50
  3
A9
350
51
  3
B0
350
52
  3
B1
350
53
  3
B2
350
54
  3
B3
350
55
  3
B4
350
56
  3
B5
350
57
  3
B6
350
58
  3
B7
350
59
  3
B8
350
5A
  3
B9
350
5B
  3
C0
350
5C
  3
C1
350
5D
  3
C2
350
5E
  3
C3
350
5F
  3
C4
350
60
  3
C5
350
61
  3
C6
350
62
  3
C7
350
63
  3
C8
350
64
  3
C9
350
65
  3
D0
350
66
  3
D1
350
67
  3
D2
350
68
  0
DICTIONARY
  5
2A
102
{ACAD_REACTORS
330
C
102
}
330
C
100
AcDbDictionary
  3
2DWIREFRAME
350
2F
  3
BASIC
350
32
  3
BRIGHTEN
350
36
  3
COLORCHANGE
350
3A
  3
CONCEPTUAL
350
34
  3
DIM
350
35
  3
EDGECOLOROFF
350
3D
  3
FACEPATTERN
350
39
  3
FLAT
350
2B
  3
FLATWITHEDGES
350
2C
  3
GOURAUD
350
2D
  3
GOURAUDWITHEDGES
350
2E
  3
HIDDEN
350
31
  3
JITTEROFF
350
3B
  3
LINEPATTERN
350
38
  3
OVERHANGOFF
350
3C
  3
REALISTIC
350
33
  3
SHADED
350
42
  3
SHADED_WITH_EDGES
350
41
  3
SHADES_OF_GRAY
350
3E
  3
SKETCHY
350
3F
  3
THICKEN
350
37
  3
WIREFRAME
350
30
  3
X-RAY
350
40
  0
DICTIONARY
  5
3DA
102
{ACAD_REACTORS
330
C
102
}
330
C
100
AcDbDictionary
  3
CEPSNID
350
3E4
  3
CEPSNTYPE
350
3E3
  3
DIMSTYLEDATA
350
3FA
  3
FINGERPRINTGUID
350
3E5
  3
HYPERLINKBASE
350
3DD
  3
INSUNITS
350
3E2
  3
LAYOUTDICT
350
3DF
  3
LWETCUNION
350
3E1
  3
PLOTSETDICT
350
3E0
  3
PSVPSCALE
350
3E7
  3
PUCSBASE
350
3EA
  3
PUCSORGBACK
350
3F0
  3
PUCSORGBOTTOM
350
3EC
  3
PUCSORGFRONT
350
3EF
  3
PUCSORGLEFT
350
3ED
  3
PUCSORGRIGHT
350
3EE
  3
PUCSORGTOP
350
3EB
  3
PUCSORTHOREF
350
3E8
  3
PUCSORTHOVIEW
350
3E9
  3
STYLESHEET
350
3DE
  3
TSTACKALIGN
350
3DB
  3
TSTACKSIZE
350
3DC
  3
UCSBASE
350
3F3
  3
UCSORGBACK
350
3F9
  3
UCSORGBOTTOM
350
3F5
  3
UCSORGFRONT
350
3F8
  3
UCSORGLEFT
350
3F6
  3
UCSORGRIGHT
350
3F7
  3
UCSORGTOP
350
3F4
  3
UCSORTHOREF
350
3F1
  3
UCSORTHOVIEW
350
3F2
  3
VERSIONGUID
350
3E6
  0
DICTIONARY
  5
3FB
102
{ACAD_REACTORS
330
C
102
}
330
C
100
AcDbDictionary
  3
CANNOSCALE
350
404
  3
CMLEADERSTYLE
350
3FD
  3
CTABLESTYLE
350
3FC
  3
DIMASSOC
350
400
  3
HIDETEXT
350
401
  3
MSLTSCALE
350
405
  0
XRECORD
  5
403
102
{ACAD_REACTORS
330
402
102
}
330
402
100
AcDbXrecord
102
VTR_0.000_0.000_1.000_1.000_GRIDDISPLAY
 70
     3
102
VTR_0.000_0.000_1.000_1.000_GRIDMAJOR
 70
     5
102
VTR_0.000_0.000_1.000_1.000_DEFAULTLIGHTING
280
     1
102
VTR_0.000_0.000_1.000_1.000_DEFAULTLIGHTINGTYPE
 70
     1
102
VTR_0.000_0.000_1.000_1.000_BRIGHTNESS
141
0.0
102
VTR_0.000_0.000_1.000_1.000_CONTRAST
142
0.0
  0
MATERIAL
  5
45
102
{ACAD_REACTORS
330
43
102
}
102
{ACAD_XDICTIONARY
360
408
102
}
330
43
100
AcDbMaterial
  1
BYBLOCK
  0
MATERIAL
  5
44
102
{ACAD_REACTORS
330
43
102
}
102
{ACAD_XDICTIONARY
360
406
102
}
330
43
100
AcDbMaterial
  1
BYLAYER
  0
MATERIAL
  5
46
102
{ACAD_REACTORS
330
43
102
}
102
{ACAD_XDICTIONARY
360
40A
102
}
330
43
100
AcDbMaterial
  1
GLOBAL
  0
ACAD_PROXY_OBJECT
  5
6C
102
{ACAD_REACTORS
330
6B
102
}
330
6B
100
AcDbProxyObject
 90
      499
 91
      505
 93
      610
310
40901902A4063FBFFFFFE056BD1B81E855B9FC0AD7A3703D0AD73F4214DD185B99185C9900AD7A3703D0AC73F90141901A02B5E8DC0F42B1CFC02B5E8DC0F42B1CFE5764000000000000300FC0
340
14
340
0
340
11
340
0
 94
        0
1001
ACAD_MLEADERVER
1070
     2
  0
MLINESTYLE
  5
18
102
{ACAD_REACTORS
330
17
102
}
330
17
100
AcDbMlineStyle
  2
Standard
 70
     0
  3

 62
   256
 51
90.0
 52
90.0
 71
     2
 49
0.5
 62
   256
  6
BYLAYER
 49
-0.5
 62
   256
  6
BYLAYER
  0
ACAD_PROXY_OBJECT
  5
48
102
{ACAD_REACTORS
330
47
102
}
330
47
100
AcDbProxyObject
 90
      499
 91
      503
 93
       41
310
903313A31580
  0
ACAD_PROXY_OBJECT
  5
49
102
{ACAD_REACTORS
330
47
102
}
330
47
100
AcDbProxyObject
 90
      499
 91
      503
 93
      105
310
903313A324000000000000004000
  0
ACAD_PROXY_OBJECT
  5
4A
102
{ACAD_REACTORS
330
47
102
}
330
47
100
AcDbProxyObject
 90
      499
 91
      503
 93
      105
310
903313A344000000000000104000
  0
ACAD_PROXY_OBJECT
  5
4B
102
{ACAD_REACTORS
330
47
102
}
330
47
100
AcDbProxyObject
 90
      499
 91
      503
 93
      105
310
903313A354000000000000144000
  0
ACAD_PROXY_OBJECT
  5
4C
102
{ACAD_REACTORS
330
47
102
}
330
47
100
AcDbProxyObject
 90
      499
 91
      503
 93
      105
310
903313A384000000000000204000
  0
ACAD_PROXY_OBJECT
  5
4D
102
{ACAD_REACTORS
330
47
102
}
330
47
100
AcDbProxyObject
 90
      499
 91
      503
 93
      113
310
904313A31304000000000000244000
  0
ACAD_PROXY_OBJECT
  5
4E
102
{ACAD_REACTORS
330
47
102
}
330
47
100
AcDbProxyObject
 90
      499
 91
      503
 93
      113
310
904313A31364000000000000304000
  0
ACAD_PROXY_OBJECT
  5
4F
102
{ACAD_REACTORS
330
47
102
}
330
47
100
AcDbProxyObject
 90
      499
 91
      503
 93
      113
310
904313A32304000000000000344000
  0
ACAD_PROXY_OBJECT
  5
50
102
{ACAD_REACTORS
330
47
102
}
330
47
100
AcDbProxyObject
 90
      499
 91
      503
 93
      113
310
904313A333040000000000003E4000
  0
ACAD_PROXY_OBJECT
  5
51
102
{ACAD_REACTORS
330
47
102
}
330
47
100
AcDbProxyObject
 90
      499
 91
      503
 93
      113
310
904313A34304000000000000444000
  0
ACAD_PROXY_OBJECT
  5
52
102
{ACAD_REACTORS
330
47
102
}
330
47
100
AcDbProxyObject
 90
      499
 91
      503
 93
      113
310
904313A35304000000000000494000
  0
ACAD_PROXY_OBJECT
  5
53
102
{ACAD_REACTORS
330
47
102
}
330
47
100
AcDbProxyObject
 90
      499
 91
      503
 93
      121
310
905313A3130304000000000000594000
  0
ACAD_PROXY_OBJECT
  5
54
102
{ACAD_REACTORS
330
47
102
}
330
47
100
AcDbProxyObject
 90
      499
 91
      503
 93
      105
310
903323A310000000000000010100
  0
ACAD_PROXY_OBJECT
  5
55
102
{ACAD_REACTORS
330
47
102
}
330
47
100
AcDbProxyObject
 90
      499
 91
      503
 93
      105
310
903343A310000000000000410100
  0
ACAD_PROXY_OBJECT
  5
56
102
{ACAD_REACTORS
330
47
102
}
330
47
100
AcDbProxyObject
 90
      499
 91
      503
 93
      105
310
903383A310000000000000810100
  0
ACAD_PROXY_OBJECT
  5
57
102
{ACAD_REACTORS
330
47
102
}
330
47
100
AcDbProxyObject
 90
      499
 91
      503
 93
      113
310
90431303A310000000000000910100
  0
ACAD_PROXY_OBJECT
  5
58
102
{ACAD_REACTORS
330
47
102
}
330
47
100
AcDbProxyObject
 90
      499
 91
      503
 93
      121
310
9053130303A310000000000001650100
  0
ACAD_PROXY_OBJECT
  5
59
102
{ACAD_REACTORS
330
47
102
}
330
47
100
AcDbProxyObject
 90
      499
 91
      503
 93
      257
310
90E312F31323822203D2031272D3022000000000000200FC000000000000284000
  0
ACAD_PROXY_OBJECT
  5
5A
102
{ACAD_REACTORS
330
47
102
}
330
47
100
AcDbProxyObject
 90
      499
 91
      503
 93
      249
310
90D312F363422203D2031272D3022000000000000240FC000000000000284000
  0
ACAD_PROXY_OBJECT
  5
5B
102
{ACAD_REACTORS
330
47
102
}
330
47
100
AcDbProxyObject
 90
      499
 91
      503
 93
      249
310
90D312F333222203D2031272D3022000000000000280FC000000000000284000
  0
ACAD_PROXY_OBJECT
  5
5C
102
{ACAD_REACTORS
330
47
102
}
330
47
100
AcDbProxyObject
 90
      499
 91
      503
 93
      249
310
90D312F313622203D2031272D30220000000000002C0FC000000000000284000
  0
ACAD_PROXY_OBJECT
  5
5D
102
{ACAD_REACTORS
330
47
102
}
330
47
100
AcDbProxyObject
 90
      499
 91
      503
 93
      249
310
90D332F333222203D2031272D30220000000000002E0FC000000000000284000
  0
ACAD_PROXY_OBJECT
  5
5E
102
{ACAD_REACTORS
330
47
102
}
330
47
100
AcDbProxyObject
 90
      499
 91
      503
 93
      241
310
90C312F3822203D2031272D3022000000000000300FC000000000000284000
  0
ACAD_PROXY_OBJECT
  5
5F
102
{ACAD_REACTORS
330
47
102
}
330
47
100
AcDbProxyObject
 90
      499
 91
      503
 93
      249
310
90D332F313622203D2031272D3022000000000000320FC000000000000284000
  0
ACAD_PROXY_OBJECT
  5
60
102
{ACAD_REACTORS
330
47
102
}
330
47
100
AcDbProxyObject
 90
      499
 91
      503
 93
      241
310
90C312F3422203D2031272D3022000000000000340FC000000000000284000
  0
ACAD_PROXY_OBJECT
  5
61
102
{ACAD_REACTORS
330
47
102
}
330
47
100
AcDbProxyObject
 90
      499
 91
      503
 93
      241
310
90C332F3822203D2031272D3022000000000000360FC000000000000284000
  0
ACAD_PROXY_OBJECT
  5
62
102
{ACAD_REACTORS
330
47
102
}
330
47
100
AcDbProxyObject
 90
      499
 91
      503
 93
      241
310
90C312F3222203D2031272D3022000000000000380FC000000000000284000
  0
ACAD_PROXY_OBJECT
  5
63
102
{ACAD_REACTORS
330
47
102
}
330
47
100
AcDbProxyObject
 90
      499
 91
      503
 93
      241
310
90C332F3422203D2031272D30220000000000003A0FC000000000000284000
  0
ACAD_PROXY_OBJECT
  5
64
102
{ACAD_REACTORS
330
47
102
}
330
47
100
AcDbProxyObject
 90
      499
 91
      503
 93
      161
310
90A3122203D2031272D30224000000000000284000
  0
ACAD_PROXY_OBJECT
  5
65
102
{ACAD_REACTORS
330
47
102
}
330
47
100
AcDbProxyObject
 90
      499
 91
      503
 93
      257
310
90E312D312F3222203D2031272D30220000000000003E0FC000000000000284000
  0
ACAD_PROXY_OBJECT
  5
66
102
{ACAD_REACTORS
330
47
102
}
330
47
100
AcDbProxyObject
 90
      499
 91
      503
 93
      225
310
90A3322203D2031272D302200000000000002100000000000000284000
  0
ACAD_PROXY_OBJECT
  5
67
102
{ACAD_REACTORS
330
47
102
}
330
47
100
AcDbProxyObject
 90
      499
 91
      503
 93
      225
310
90A3622203D2031272D302200000000000006100000000000000284000
  0
ACAD_PROXY_OBJECT
  5
68
102
{ACAD_REACTORS
330
47
102
}
330
47
100
AcDbProxyObject
 90
      499
 91
      503
 93
      249
310
90D31272D3022203D2031272D30220000000000000A100000000000000284000
  0
ACAD_PROXY_OBJECT
  5
2F
102
{ACAD_REACTORS
330
2A
102
}
330
2A
100
AcDbProxyObject
 90
      499
 91
      501
 93
      436
310
42CC9915DA5C99599C985B595049028333333333333E33F0000000000000F90107901411070040501600405405064090741402480A0340
1001
ACAD
1000
AcDbSavedByObjectVersion
1070
     0
  0
ACAD_PROXY_OBJECT
  5
32
102
{ACAD_REACTORS
330
2A
102
}
330
2A
100
AcDbProxyObject
 90
      499
 91
      501
 93
      388
310
4150985CDA58D07406404333333333333E33F0000000000000F90107A41107004050150841D405064090741402480A0350
1001
ACAD
1000
AcDbSavedByObjectVersion
1070
     0
  0
ACAD_PROXY_OBJECT
  5
36
102
{ACAD_REACTORS
330
2A
102
}
330
2A
100
AcDbProxyObject
 90
      499
 91
      501
 93
      428
310
42109C9A59DA1D195B90C409028333333333333E33F0000000000000F9010790141107004050150841D405064090741402480A029950
1001
ACAD
1000
AcDbSavedByObjectVersion
1070
     0
  0
ACAD_PROXY_OBJECT
  5
3A
102
{ACAD_REACTORS
330
2A
102
}
330
2A
100
AcDbProxyObject
 90
      499
 91
      501
 93
      452
310
42D0DBDB1BDC90DA185B99D95104090240C333333333333E33F0000000000000F90108901411070040501508421405064090741402480A0350
1001
ACAD
1000
AcDbSavedByObjectVersion
1070
     0
  0
ACAD_PROXY_OBJECT
  5
34
102
{ACAD_REACTORS
330
2A
102
}
330
2A
100
AcDbProxyObject
 90
      499
 91
      501
 93
      500
310
4290DBDB98D95C1D1D585B10940D028333333333333E33F0000000000000F90107902409070040501000000000018199010841D405064090740C02480A0340
1001
ACAD
1000
AcDbSavedByObjectVersion
1070
     0
  0
ACAD_PROXY_OBJECT
  5
35
102
{ACAD_REACTORS
330
2A
102
}
330
2A
100
AcDbProxyObject
 90
      499
 91
      501
 93
      412
310
40D11A5B50B409028333333333333E33F0000000000000F9010790141107004050150841D405064090741402480A02677FFFFFD0
1001
ACAD
1000
AcDbSavedByObjectVersion
1070
     0
  0
ACAD_PROXY_OBJECT
  5
3D
102
{ACAD_REACTORS
330
2A
102
}
330
2A
100
AcDbProxyObject
 90
      499
 91
      501
 93
      452
310
43115919D950DBDB1BDC93D999916409028333333333333E33F0000000000000F9010790141107004050150841D405064090741402480A0350
1001
ACAD
1000
AcDbSavedByObjectVersion
1070
     0
  0
ACAD_PROXY_OBJECT
  5
39
102
{ACAD_REACTORS
330
2A
102
}
330
2A
100
AcDbProxyObject
 90
      499
 91
      501
 93
      444
310
42D19858D95C185D1D195C9B90F409028333333333333E33F0000000000000F9010790141107004050150841D405064090741402480A0350
1001
ACAD
1000
AcDbSavedByObjectVersion
1070
     0
  0
ACAD_PROXY_OBJECT
  5
2B
102
{ACAD_REACTORS
330
2A
102
}
330
2A
100
AcDbProxyObject
 90
      499
 91
      501
 93
      380
310
41119B185D240901404333333333333E33F0000000000000F9010740A907004050150841D405064090741402480A1B50
1001
ACAD
1000
AcDbSavedByObjectVersion
1070
     0
  0
ACAD_PROXY_OBJECT
  5
2C
102
{ACAD_REACTORS
330
2A
102
}
330
2A
100
AcDbProxyObject
 90
      499
 91
      501
 93
      468
310
43519B185D15DA5D1A115919D95CD0140901404333333333333E33F0000000000000F90107409019070040501600405405064090741402480A1B50
1001
ACAD
1000
AcDbSavedByObjectVersion
1070
     0
  0
ACAD_PROXY_OBJECT
  5
2D
102
{ACAD_REACTORS
330
2A
102
}
330
2A
100
AcDbProxyObject
 90
      499
 91
      501
 93
      404
310
41D1DBDD5C985D5910240902404333333333333E33F0000000000000F9010740A9070040501641D405064090741402480A1B50
1001
ACAD
1000
AcDbSavedByObjectVersion
1070
     0
  0
ACAD_PROXY_OBJECT
  5
2E
102
{ACAD_REACTORS
330
2A
102
}
330
2A
100
AcDbProxyObject
 90
      499
 91
      501
 93
      492
310
4411DBDD5C985D5915DA5D1A115919D95CD0340902404333333333333E33F0000000000000F90107409019070040501600405405064090741402480A1B50
1001
ACAD
1000
AcDbSavedByObjectVersion
1070
     0
  0
ACAD_PROXY_OBJECT
  5
31
102
{ACAD_REACTORS
330
2A
102
}
330
2A
100
AcDbProxyObject
 90
      499
 91
      501
 93
      476
310
41921A5919195B90640502408333333333333E33F0000000000000F901079024090700405020000000000001110200405405064090740C02480A0340
1001
ACAD
1000
AcDbSavedByObjectVersion
1070
     0
  0
ACAD_PROXY_OBJECT
  5
3B
102
{ACAD_REACTORS
330
2A
102
}
330
2A
100
AcDbProxyObject
 90
      499
 91
      501
 93
      428
310
42529A5D1D195C93D999914409028333333333333E33F0000000000000F9010790141107004050150A41D405064090741402480A0350
1001
ACAD
1000
AcDbSavedByObjectVersion
1070
     0
  0
ACAD_PROXY_OBJECT
  5
38
102
{ACAD_REACTORS
330
2A
102
}
330
2A
100
AcDbProxyObject
 90
      499
 91
      501
 93
      444
310
42D31A5B995C185D1D195C9B90E409028333333333333E33F0000000000000F9010790141107004050750841D405064090741402483A0350
1001
ACAD
1000
AcDbSavedByObjectVersion
1070
     0
  0
ACAD_PROXY_OBJECT
  5
3C
102
{ACAD_REACTORS
330
2A
102
}
330
2A
100
AcDbProxyObject
 90
      499
 91
      501
 93
      444
310
42D3DD995C9A185B99D3D999915409028333333333333E33F0000000000000F9010790141107004050150941D405064090741402480A0350
1001
ACAD
1000
AcDbSavedByObjectVersion
1070
     0
  0
ACAD_PROXY_OBJECT
  5
33
102
{ACAD_REACTORS
330
2A
102
}
330
2A
100
AcDbProxyObject
 90
      499
 91
      501
 93
      428
310
425499585B1A5CDD1A58D08409038333333333333E33F0000000000000F9010740A907004050150800405405064090740C02480A1B40
1001
ACAD
1000
AcDbSavedByObjectVersion
1070
     0
  0
ACAD_PROXY_OBJECT
  5
42
102
{ACAD_REACTORS
330
2A
102
}
330
2A
100
AcDbProxyObject
 90
      499
 91
      501
 93
      420
310
4194DA1859195911B40902404333333333333E33F0000000000000F9010740A41107004050150800405405064090840C02480A0B40
1001
ACAD
1000
AcDbSavedByObjectVersion
1070
     0
  0
ACAD_PROXY_OBJECT
  5
41
102
{ACAD_REACTORS
330
2A
102
}
330
2A
100
AcDbProxyObject
 90
      499
 91
      501
 93
      516
310
4454DA18591959081DDA5D1A08195919D95CD1A40902404333333333333E33F0000000000000F901074090142907004050250800405405064090740C02480A0B40
1001
ACAD
1000
AcDbSavedByObjectVersion
1070
     0
  0
ACAD_PROXY_OBJECT
  5
3E
102
{ACAD_REACTORS
330
2A
102
}
330
2A
100
AcDbProxyObject
 90
      499
 91
      501
 93
      532
310
4394DA1859195CC81BD98811DC985E5174090240C333333333333E33F0000000000000F901079024090741D01000000000000111010841D405064090740C02480A0340
1001
ACAD
1000
AcDbSavedByObjectVersion
1070
     0
  0
ACAD_PROXY_OBJECT
  5
3F
102
{ACAD_REACTORS
330
2A
102
}
330
2A
100
AcDbProxyObject
 90
      499
 91
      501
 93
      476
310
41D4DAD95D18DA1E51840502408333333333333E33F0000000000000F901079024090741D01000000000000111010B41D405064090741802480A0340
1001
ACAD
1000
AcDbSavedByObjectVersion
1070
     0
  0
ACAD_PROXY_OBJECT
  5
37
102
{ACAD_REACTORS
330
2A
102
}
330
2A
100
AcDbProxyObject
 90
      499
 91
      501
 93
      412
310
41D51A1A58DAD95B90D409028333333333333E33F0000000000000F9010790141107004050150C41D405064090741402480A0350
1001
ACAD
1000
AcDbSavedByObjectVersion
1070
     0
  0
ACAD_PROXY_OBJECT
  5
30
102
{ACAD_REACTORS
330
2A
102
}
330
2A
100
AcDbProxyObject
 90
      499
 91
      501
 93
      420
310
4255DA5C99599C985B595059028333333333333E33F0000000000000F90107901411070040501600405405064090740C02480A0340
1001
ACAD
1000
AcDbSavedByObjectVersion
1070
     0
  0
ACAD_PROXY_OBJECT
  5
40
102
{ACAD_REACTORS
330
2A
102
}
330
2A
100
AcDbProxyObject
 90
      499
 91
      501
 93
      404
310
41560B54985E51940902404000000000000E03F0000000000000F9010740501907004050150841D405064090740C02480A1B40
1001
ACAD
1000
AcDbSavedByObjectVersion
1070
     0
  0
XRECORD
  5
3E4
102
{ACAD_REACTORS
330
3DA
102
}
330
3DA
100
AcDbXrecord
340
0
  0
XRECORD
  5
3E3
102
{ACAD_REACTORS
330
3DA
102
}
330
3DA
100
AcDbXrecord
 90
        0
  0
XRECORD
  5
3FA
102
{ACAD_REACTORS
330
3DA
102
}
330
3DA
100
AcDbXrecord
1000
DSTYLE
1002
{
1070
   279
 70
     2
1070
   340
340
11
1002
}
  0
XRECORD
  5
3E5
102
{ACAD_REACTORS
330
3DA
102
}
330
3DA
100
AcDbXrecord
  1
{D6B7850F-EEAD-4879-9472-6D1E8997EBFE}
  0
XRECORD
  5
3DD
102
{ACAD_REACTORS
330
3DA
102
}
330
3DA
100
AcDbXrecord
  1

  0
XRECORD
  5
3E2
102
{ACAD_REACTORS
330
3DA
102
}
330
3DA
100
AcDbXrecord
 90
        4
  0
XRECORD
  5
3DF
102
{ACAD_REACTORS
330
3DA
102
}
330
3DA
100
AcDbXrecord
340
1A
  0
XRECORD
  5
3E1
102
{ACAD_REACTORS
330
3DA
102
}
330
3DA
100
AcDbXrecord
 90
    10781
  0
XRECORD
  5
3E0
102
{ACAD_REACTORS
330
3DA
102
}
330
3DA
100
AcDbXrecord
340
19
  0
XRECORD
  5
3E7
102
{ACAD_REACTORS
330
3DA
102
}
330
3DA
100
AcDbXrecord
 40
0.0
  0
XRECORD
  5
3EA
102
{ACAD_REACTORS
330
3DA
102
}
330
3DA
100
AcDbXrecord
340
0
  0
XRECORD
  5
3F0
102
{ACAD_REACTORS
330
3DA
102
}
330
3DA
100
AcDbXrecord
 10
0.0
 20
0.0
 30
0.0
  0
XRECORD
  5
3EC
102
{ACAD_REACTORS
330
3DA
102
}
330
3DA
100
AcDbXrecord
 10
0.0
 20
0.0
 30
0.0
  0
XRECORD
  5
3EF
102
{ACAD_REACTORS
330
3DA
102
}
330
3DA
100
AcDbXrecord
 10
0.0
 20
0.0
 30
0.0
  0
XRECORD
  5
3ED
102
{ACAD_REACTORS
330
3DA
102
}
330
3DA
100
AcDbXrecord
 10
0.0
 20
0.0
 30
0.0
  0
XRECORD
  5
3EE
102
{ACAD_REACTORS
330
3DA
102
}
330
3DA
100
AcDbXrecord
 10
0.0
 20
0.0
 30
0.0
  0
XRECORD
  5
3EB
102
{ACAD_REACTORS
330
3DA
102
}
330
3DA
100
AcDbXrecord
 10
0.0
 20
0.0
 30
0.0
  0
XRECORD
  5
3E8
102
{ACAD_REACTORS
330
3DA
102
}
330
3DA
100
AcDbXrecord
340
0
  0
XRECORD
  5
3E9
102
{ACAD_REACTORS
330
3DA
102
}
330
3DA
100
AcDbXrecord
 70
     0
  0
XRECORD
  5
3DE
102
{ACAD_REACTORS
330
3DA
102
}
330
3DA
100
AcDbXrecord
  1

  0
XRECORD
  5
3DB
102
{ACAD_REACTORS
330
3DA
102
}
330
3DA
100
AcDbXrecord
 90
        1
  0
XRECORD
  5
3DC
102
{ACAD_REACTORS
330
3DA
102
}
330
3DA
100
AcDbXrecord
 90
       70
  0
XRECORD
  5
3F3
102
{ACAD_REACTORS
330
3DA
102
}
330
3DA
100
AcDbXrecord
340
0
  0
XRECORD
  5
3F9
102
{ACAD_REACTORS
330
3DA
102
}
330
3DA
100
AcDbXrecord
 10
0.0
 20
0.0
 30
0.0
  0
XRECORD
  5
3F5
102
{ACAD_REACTORS
330
3DA
102
}
330
3DA
100
AcDbXrecord
 10
0.0
 20
0.0
 30
0.0
  0
XRECORD
  5
3F8
102
{ACAD_REACTORS
330
3DA
102
}
330
3DA
100
AcDbXrecord
 10
0.0
 20
0.0
 30
0.0
  0
XRECORD
  5
3F6
102
{ACAD_REACTORS
330
3DA
102
}
330
3DA
100
AcDbXrecord
 10
0.0
 20
0.0
 30
0.0
  0
XRECORD
  5
3F7
102
{ACAD_REACTORS
330
3DA
102
}
330
3DA
100
AcDbXrecord
 10
0.0
 20
0.0
 30
0.0
  0
XRECORD
  5
3F4
102
{ACAD_REACTORS
330
3DA
102
}
330
3DA
100
AcDbXrecord
 10
0.0
 20
0.0
 30
0.0
  0
XRECORD
  5
3F1
102
{ACAD_REACTORS
330
3DA
102
}
330
3DA
100
AcDbXrecord
340
0
  0
XRECORD
  5
3F2
102
{ACAD_REACTORS
330
3DA
102
}
330
3DA
100
AcDbXrecord
 70
     0
  0
XRECORD
  5
3E6
102
{ACAD_REACTORS
330
3DA
102
}
330
3DA
100
AcDbXrecord
  1
{FAEB1C32-E019-11D5-929B-00C0DF256EC4}
  0
DICTIONARYVAR
  5
404
102
{ACAD_REACTORS
330
3FB
102
}
330
3FB
100
DictionaryVariables
280
     0
  1
1:1
  0
DICTIONARYVAR
  5
3FD
102
{ACAD_REACTORS
330
3FB
102
}
330
3FB
100
DictionaryVariables
280
     0
  1
Standard
  0
DICTIONARYVAR
  5
3FC
102
{ACAD_REACTORS
330
3FB
102
}
330
3FB
100
DictionaryVariables
280
     0
  1
Standard
  0
DICTIONARYVAR
  5
400
102
{ACAD_REACTORS
330
3FB
102
}
330
3FB
100
DictionaryVariables
280
     0
  1
2
  0
DICTIONARYVAR
  5
401
102
{ACAD_REACTORS
330
3FB
102
}
330
3FB
100
DictionaryVariables
280
     0
  1
1
  0
DICTIONARYVAR
  5
405
102
{ACAD_REACTORS
330
3FB
102
}
330
3FB
100
DictionaryVariables
280
     0
  1
1
  0
DICTIONARY
  5
408
330
45
100
AcDbDictionary
280
     1
  3
ACAD_XREC_ROUNDTRIP
360
409
  0
DICTIONARY
  5
406
330
44
100
AcDbDictionary
280
     1
  3
ACAD_XREC_ROUNDTRIP
360
407
  0
DICTIONARY
  5
40A
330
46
100
AcDbDictionary
280
     1
  3
ACAD_XREC_ROUNDTRIP
360
40B
  0
XRECORD
  5
409
102
{ACAD_REACTORS
330
408
102
}
330
408
100
AcDbXrecord
102
MATERIAL
148
0.0
149
0.0
149
0.0
 93
        0
 94
      127
282
     0
 72
     1
 77
     1
171
     1
175
     1
179
     1
273
     0
  0
XRECORD
  5
407
102
{ACAD_REACTORS
330
406
102
}
330
406
100
AcDbXrecord
102
MATERIAL
148
0.0
149
0.0
149
0.0
 93
        0
 94
      127
282
     0
 72
     1
 77
     1
171
     1
175
     1
179
     1
273
     0
  0
XRECORD
  5
40B
102
{ACAD_REACTORS
330
40A
102
}
330
40A
100
AcDbXrecord
102
MATERIAL
148
0.0
149
0.0
149
0.0
 93
        0
 94
      127
282
     0
 72
     1
 77
     1
171
     1
175
     1
179
     1
273
     0
  0
ENDSEC
  0
EOF
