999
dxfrw 0.6.3
  0
SECTION
  2
HEADER
  9
$ACADVER
  1
AC1021
  9
$DWGCODEPAGE
  3
ANSI_1252
  9
$INSBASE
 10
0
 20
0
 30
0
  9
$EXTMIN
 10
49.25358400000005
 20
94.73698600000063
 30
0
  9
$EXTMAX
 10
454.006409885294
 20
450.6342200000005
 30
0
  9
$LIMMIN
 10
0
 20
0
  9
$LIMMAX
 10
420
 20
297
  9
$ORTHOMODE
 70
    0
  9
$REGENMODE
 70
    1
  9
$FILLMODE
 70
    1
  9
$QTEXTMODE
 70
    0
  9
$MIRRTEXT
 70
    0
  9
$LTSCALE
 40
1
  9
$ATTMODE
 70
    0
  9
$TEXTSIZE
 40
2.5
  9
$TRACEWID
 40
15.68
  9
$TEXTSTYLE
  7
STANDARD
  9
$CLAYER
  8
0
  9
$CELTYPE
  6
BYLAYER
  9
$CECOLOR
 62
  256
  9
$CELTSCALE
 40
1
  9
$DISPSILH
 70
    0
  9
$DIMSCALE
 40
1
  9
$DIMASZ
 40
2.5
  9
$DIMEXO
 40
0.625
  9
$DIMDLI
 40
3.75
  9
$DIMRND
 40
0
  9
$DIMDLE
 40
0
  9
$DIMEXE
 40
1.25
  9
$DIMTP
 40
0
  9
$DIMTM
 40
0
  9
$DIMTXT
 40
2.5
  9
$DIMCEN
 40
2.5
  9
$DIMTSZ
 40
0
  9
$DIMTOL
 70
    0
  9
$DIMLIM
 70
    0
  9
$DIMTIH
 70
    0
  9
$DIMTOH
 70
    0
  9
$DIMSE1
 70
    0
  9
$DIMSE2
 70
    0
  9
$DIMTAD
 70
    1
  9
$DIMZIN
 70
    8
  9
$DIMBLK
  1

  9
$DIMASO
 70
    1
  9
$DIMSHO
 70
    1
  9
$DIMPOST
  1

  9
$DIMAPOST
  1

  9
$DIMALT
 70
    0
  9
$DIMALTD
 70
    3
  9
$DIMALTF
 40
0.03937
  9
$DIMLFAC
 40
1
  9
$DIMTOFL
 70
    1
  9
$DIMTVP
 40
0
  9
$DIMTIX
 70
    0
  9
$DIMSOXD
 70
    0
  9
$DIMSAH
 70
    0
  9
$DIMBLK1
  1

  9
$DIMBLK2
  1

  9
$DIMSTYLE
  2
Standard
  9
$DIMCLRD
 70
    0
  9
$DIMCLRE
 70
    0
  9
$DIMCLRT
 70
    0
  9
$DIMTFAC
 40
1
  9
$DIMGAP
 40
0.625
  9
$DIMJUST
 70
    0
  9
$DIMSD1
 70
    0
  9
$DIMSD2
 70
    0
  9
$DIMTOLJ
 70
    0
  9
$DIMTZIN
 70
    8
  9
$DIMALTZ
 70
    0
  9
$DIMALTTZ
 70
    0
  9
$DIMUPT
 70
    0
  9
$DIMDEC
 70
    2
  9
$DIMTDEC
 70
    2
  9
$DIMALTU
 70
    2
  9
$DIMALTTD
 70
    3
  9
$DIMTXSTY
  7
STANDARD
  9
$DIMAUNIT
 70
    0
  9
$DIMADEC
 70
    0
  9
$DIMALTRND
 40
0
  9
$DIMAZIN
 70
    0
  9
$DIMDSEP
 70
   44
  9
$DIMATFIT
 70
    3
  9
$DIMFRAC
 70
    0
  9
$DIMLDRBLK
  1
STANDARD
  9
$DIMLUNIT
 70
    2
  9
$DIMLWD
 70
   -2
  9
$DIMLWE
 70
   -2
  9
$DIMTMOVE
 70
    0
  9
$DIMFXL
 40
1
  9
$DIMFXLON
 70
    0
  9
$DIMJOGANG
 40
0.7854
  9
$DIMTFILL
 70
    0
  9
$DIMTFILLCLR
 70
    0
  9
$DIMARCSYM
 70
    0
  9
$DIMLTYPE
  6

  9
$DIMLTEX1
  6

  9
$DIMLTEX2
  6

  9
$LUNITS
 70
    2
  9
$LUPREC
 70
    4
  9
$SKETCHINC
 40
1
  9
$FILLETRAD
 40
0
  9
$AUNITS
 70
    0
  9
$AUPREC
 70
    2
  9
$MENU
  1
.
  9
$ELEVATION
 40
0
  9
$PELEVATION
 40
0
  9
$THICKNESS
 40
0
  9
$LIMCHECK
 70
    0
  9
$CHAMFERA
 40
0
  9
$CHAMFERB
 40
0
  9
$CHAMFERC
 40
0
  9
$CHAMFERD
 40
0
  9
$SKPOLY
 70
    0
  9
$USRTIMER
 70
    1
  9
$ANGBASE
 50
0
  9
$ANGDIR
 70
    0
  9
$PDMODE
 70
   34
  9
$PDSIZE
 40
0
  9
$PLINEWID
 40
0
  9
$SPLFRAME
 70
    0
  9
$SPLINETYPE
 70
    2
  9
$SPLINESEGS
 70
    8
  9
$HANDSEED
  5
20000
  9
$SURFTAB1
 70
    6
  9
$SURFTAB2
 70
    6
  9
$SURFTYPE
 70
    6
  9
$SURFU
 70
    6
  9
$SURFV
 70
    6
  9
$UCSBASE
  2

  9
$UCSNAME
  2

  9
$UCSORG
 10
0
 20
0
 30
0
  9
$UCSXDIR
 10
1
 20
0
 30
0
  9
$UCSYDIR
 10
0
 20
1
 30
0
  9
$UCSORTHOREF
  2

  9
$UCSORTHOVIEW
 70
    0
  9
$UCSORGTOP
 10
0
 20
0
 30
0
  9
$UCSORGBOTTOM
 10
0
 20
0
 30
0
  9
$UCSORGLEFT
 10
0
 20
0
 30
0
  9
$UCSORGRIGHT
 10
0
 20
0
 30
0
  9
$UCSORGFRONT
 10
0
 20
0
 30
0
  9
$UCSORGBACK
 10
0
 20
0
 30
0
  9
$PUCSBASE
  2

  9
$PUCSNAME
  2

  9
$PUCSORG
 10
0
 20
0
 30
0
  9
$PUCSXDIR
 10
1
 20
0
 30
0
  9
$PUCSYDIR
 10
0
 20
1
 30
0
  9
$PUCSORTHOREF
  2

  9
$PUCSORTHOVIEW
 70
    0
  9
$PUCSORGTOP
 10
0
 20
0
 30
0
  9
$PUCSORGBOTTOM
 10
0
 20
0
 30
0
  9
$PUCSORGLEFT
 10
0
 20
0
 30
0
  9
$PUCSORGRIGHT
 10
0
 20
0
 30
0
  9
$PUCSORGFRONT
 10
0
 20
0
 30
0
  9
$PUCSORGBACK
 10
0
 20
0
 30
0
  9
$USERI1
 70
    0
  9
$USERI2
 70
    0
  9
$USERI3
 70
    0
  9
$USERI4
 70
    0
  9
$USERI5
 70
    0
  9
$USERR1
 40
0
  9
$USERR2
 40
0
  9
$USERR3
 40
0
  9
$USERR4
 40
0
  9
$USERR5
 40
0
  9
$WORLDVIEW
 70
    1
  9
$SHADEDGE
 70
    3
  9
$SHADEDIF
 70
   70
  9
$TILEMODE
 70
    1
  9
$MAXACTVP
 70
   64
  9
$PINSBASE
 10
0
 20
0
 30
0
  9
$PLIMCHECK
 70
    0
  9
$PEXTMIN
 10
0
 20
0
 30
0
  9
$PEXTMAX
 10
0
 20
0
 30
0
  9
$GRIDMODE
 70
    1
  9
$SNAPSTYLE
 70
    0
  9
$PLIMMIN
 10
0
 20
0
  9
$PLIMMAX
 10
210
 20
297
  9
$UNITMODE
 70
    0
  9
$VISRETAIN
 70
    1
  9
$PLINEGEN
 70
    0
  9
$PSLTSCALE
 70
    1
  9
$TREEDEPTH
 70
 3020
  9
$CMLSTYLE
  2
Standard
  9
$CMLJUST
 70
    0
  9
$CMLSCALE
 40
20
  9
$PROXYGRAPHICS
 70
    1
  9
$MEASUREMENT
 70
    1
  9
$CELWEIGHT
370
   -1
  9
$ENDCAPS
280
    0
  9
$JOINSTYLE
280
    0
  9
$LWDISPLAY
290
    0
  9
$INSUNITS
 70
    4
  9
$HYPERLINKBASE
  1

  9
$STYLESHEET
  1

  9
$XEDIT
290
    1
  9
$CEPSNTYPE
380
    0
  9
$PSTYLEMODE
290
    1
  9
$EXTNAMES
290
    1
  9
$PSVPSCALE
 40
1
  9
$OLESTARTUP
290
    0
  9
$SORTENTS
280
  127
  9
$INDEXCTL
280
    0
  9
$HIDETEXT
280
    1
  9
$XCLIPFRAME
290
    0
  9
$HALOGAP
280
    0
  9
$OBSCOLOR
 70
  257
  9
$OBSLTYPE
280
    0
  9
$INTERSECTIONDISPLAY
280
    0
  9
$INTERSECTIONCOLOR
 70
  257
  9
$DIMASSOC
280
    1
  9
$PROJECTNAME
  1

  9
$CAMERADISPLAY
290
    0
  9
$LENSLENGTH
 40
50
  9
$CAMERAHEIGHT
 40
0
  9
$STEPSPERSEC
 40
2
  9
$STEPSIZE
 40
50
  9
$3DDWFPREC
 40
2
  9
$PSOLWIDTH
 40
5
  9
$PSOLHEIGHT
 40
80
  9
$LOFTANG1
 40
1.570796326794897
  9
$LOFTANG2
 40
1.570796326794897
  9
$LOFTMAG1
 40
0
  9
$LOFTMAG2
 40
0
  9
$LOFTPARAM
 70
    7
  9
$LOFTNORMALS
280
    1
  9
$LATITUDE
 40
1
  9
$LONGITUDE
 40
1
  9
$NORTHDIRECTION
 40
0
  9
$TIMEZONE
 70
-8000
  9
$LIGHTGLYPHDISPLAY
280
    1
  9
$TILEMODELIGHTSYNCH
280
    1
  9
$SOLIDHIST
280
    1
  9
$SHOWHIST
280
    1
  9
$DWFFRAME
280
    2
  9
$DGNFRAME
280
    0
  9
$REALWORLDSCALE
290
    1
  9
$INTERFERECOLOR
 62
    1
  9
$CSHADOW
280
    0
  9
$SHADOWPLANELOCATION
 40
0
  0
ENDSEC
  0
SECTION
  2
CLASSES
  0
ENDSEC
  0
SECTION
  2
TABLES
  0
TABLE
  2
VPORT
  5
8
330
0
100
AcDbSymbolTable
 70
    1
  0
VPORT
  5
31
330
2
100
AcDbSymbolTableRecord
100
AcDbViewportTableRecord
  2
*ACTIVE
 70
    0
 10
0
 20
0
 11
1
 21
1
 12
342.2770564203587
 22
282.7634851915594
 13
0
 23
0
 14
10
 24
10
 15
10
 25
10
 16
0
 26
0
 36
1
 17
0
 27
0
 37
0
 40
509.2703607638556
 41
1.731395348837209
 42
50
 43
0
 44
0
 50
0
 51
0
 71
    0
 72
  100
 73
    1
 74
    3
 75
    0
 76
    1
 77
    0
 78
    0
281
    0
 65
    1
110
0
120
0
130
0
111
1
121
0
131
0
112
0
122
1
132
0
 79
    0
146
0
348
10020
 60
    7
 61
    5
292
1
282
    1
141
0
142
0
 63
  250
421
3358443
  0
ENDTAB
  0
TABLE
  2
LTYPE
  5
5
330
0
100
AcDbSymbolTable
 70
    4
  0
LTYPE
  5
14
330
5
100
AcDbSymbolTableRecord
100
AcDbLinetypeTableRecord
  2
ByBlock
 70
    0
  3

 72
   65
 73
    0
 40
0
  0
LTYPE
  5
15
330
5
100
AcDbSymbolTableRecord
100
AcDbLinetypeTableRecord
  2
ByLayer
 70
    0
  3

 72
   65
 73
    0
 40
0
  0
LTYPE
  5
16
330
5
100
AcDbSymbolTableRecord
100
AcDbLinetypeTableRecord
  2
Continuous
 70
    0
  3
Solid line
 72
   65
 73
    0
 40
0
  0
LTYPE
  5
32
330
5
100
AcDbSymbolTableRecord
100
AcDbLinetypeTableRecord
  2
DOT
 70
    0
  3
Dot . . . . . . . . . . . . . . . . . . . . . .
 72
   65
 73
    2
 40
6.35
 49
0
 74
    0
 49
-6.35
 74
    0
  0
LTYPE
  5
33
330
5
100
AcDbSymbolTableRecord
100
AcDbLinetypeTableRecord
  2
DOTTINY
 70
    0
  3
Dot (.15x) .....................................
 72
   65
 73
    2
 40
0.9525
 49
0
 74
    0
 49
-0.9525
 74
    0
  0
LTYPE
  5
34
330
5
100
AcDbSymbolTableRecord
100
AcDbLinetypeTableRecord
  2
DOT2
 70
    0
  3
Dot (.5x) .....................................
 72
   65
 73
    2
 40
3.175
 49
0
 74
    0
 49
-3.175
 74
    0
  0
LTYPE
  5
35
330
5
100
AcDbSymbolTableRecord
100
AcDbLinetypeTableRecord
  2
DOTX2
 70
    0
  3
Dot (2x) .  .  .  .  .  .  .  .  .  .  .  .  .
 72
   65
 73
    2
 40
12.7
 49
0
 74
    0
 49
-12.7
 74
    0
  0
LTYPE
  5
36
330
5
100
AcDbSymbolTableRecord
100
AcDbLinetypeTableRecord
  2
DASHED
 70
    0
  3
Dashed _ _ _ _ _ _ _ _ _ _ _ _ _ _ _ _ _
 72
   65
 73
    2
 40
19.05
 49
12.7
 74
    0
 49
-6.35
 74
    0
  0
LTYPE
  5
37
330
5
100
AcDbSymbolTableRecord
100
AcDbLinetypeTableRecord
  2
DASHEDTINY
 70
    0
  3
Dashed (.15x) _ _ _ _ _ _ _ _ _ _ _ _ _ _ _ _ _
 72
   65
 73
    2
 40
2.8575
 49
1.905
 74
    0
 49
-0.9525
 74
    0
  0
LTYPE
  5
38
330
5
100
AcDbSymbolTableRecord
100
AcDbLinetypeTableRecord
  2
DASHED2
 70
    0
  3
Dashed (.5x) _ _ _ _ _ _ _ _ _ _ _ _ _ _ _ _ _
 72
   65
 73
    2
 40
9.524999999999999
 49
6.35
 74
    0
 49
-3.175
 74
    0
  0
LTYPE
  5
39
330
5
100
AcDbSymbolTableRecord
100
AcDbLinetypeTableRecord
  2
DASHEDX2
 70
    0
  3
Dashed (2x) ____  ____  ____  ____  ____  ___
 72
   65
 73
    2
 40
38.09999999999999
 49
25.4
 74
    0
 49
-12.7
 74
    0
  0
LTYPE
  5
3A
330
5
100
AcDbSymbolTableRecord
100
AcDbLinetypeTableRecord
  2
DASHDOT
 70
    0
  3
Dash dot __ . __ . __ . __ . __ . __ . __ . __
 72
   65
 73
    4
 40
25.4
 49
12.7
 74
    0
 49
-6.35
 74
    0
 49
0
 74
    0
 49
-6.35
 74
    0
  0
LTYPE
  5
3B
330
5
100
AcDbSymbolTableRecord
100
AcDbLinetypeTableRecord
  2
DASHDOTTINY
 70
    0
  3
Dash dot (.15x) _._._._._._._._._._._._._._._.
 72
   65
 73
    4
 40
3.81
 49
1.905
 74
    0
 49
-0.9525
 74
    0
 49
0
 74
    0
 49
-0.9525
 74
    0
  0
LTYPE
  5
3C
330
5
100
AcDbSymbolTableRecord
100
AcDbLinetypeTableRecord
  2
DASHDOT2
 70
    0
  3
Dash dot (.5x) _._._._._._._._._._._._._._._.
 72
   65
 73
    4
 40
12.7
 49
6.35
 74
    0
 49
-3.175
 74
    0
 49
0
 74
    0
 49
-3.175
 74
    0
  0
LTYPE
  5
3D
330
5
100
AcDbSymbolTableRecord
100
AcDbLinetypeTableRecord
  2
DASHDOTX2
 70
    0
  3
Dash dot (2x) ____  .  ____  .  ____  .  ___
 72
   65
 73
    4
 40
50.8
 49
25.4
 74
    0
 49
-12.7
 74
    0
 49
0
 74
    0
 49
-12.7
 74
    0
  0
LTYPE
  5
3E
330
5
100
AcDbSymbolTableRecord
100
AcDbLinetypeTableRecord
  2
DIVIDE
 70
    0
  3
Divide ____ . . ____ . . ____ . . ____ . . ____
 72
   65
 73
    6
 40
31.75
 49
12.7
 74
    0
 49
-6.35
 74
    0
 49
0
 74
    0
 49
-6.35
 74
    0
 49
0
 74
    0
 49
-6.35
 74
    0
  0
LTYPE
  5
3F
330
5
100
AcDbSymbolTableRecord
100
AcDbLinetypeTableRecord
  2
DIVIDETINY
 70
    0
  3
Divide (.15x) __..__..__..__..__..__..__..__.._
 72
   65
 73
    6
 40
4.7625
 49
1.905
 74
    0
 49
-0.9525
 74
    0
 49
0
 74
    0
 49
-0.9525
 74
    0
 49
0
 74
    0
 49
-0.9525
 74
    0
  0
LTYPE
  5
40
330
5
100
AcDbSymbolTableRecord
100
AcDbLinetypeTableRecord
  2
DIVIDE2
 70
    0
  3
Divide (.5x) __..__..__..__..__..__..__..__.._
 72
   65
 73
    6
 40
15.875
 49
6.35
 74
    0
 49
-3.175
 74
    0
 49
0
 74
    0
 49
-3.175
 74
    0
 49
0
 74
    0
 49
-3.175
 74
    0
  0
LTYPE
  5
41
330
5
100
AcDbSymbolTableRecord
100
AcDbLinetypeTableRecord
  2
DIVIDEX2
 70
    0
  3
Divide (2x) ________  .  .  ________  .  .  _
 72
   65
 73
    6
 40
63.5
 49
25.4
 74
    0
 49
-12.7
 74
    0
 49
0
 74
    0
 49
-12.7
 74
    0
 49
0
 74
    0
 49
-12.7
 74
    0
  0
LTYPE
  5
42
330
5
100
AcDbSymbolTableRecord
100
AcDbLinetypeTableRecord
  2
BORDER
 70
    0
  3
Border __ __ . __ __ . __ __ . __ __ . __ __ .
 72
   65
 73
    6
 40
44.45
 49
12.7
 74
    0
 49
-6.35
 74
    0
 49
12.7
 74
    0
 49
-6.35
 74
    0
 49
0
 74
    0
 49
-6.35
 74
    0
  0
LTYPE
  5
43
330
5
100
AcDbSymbolTableRecord
100
AcDbLinetypeTableRecord
  2
BORDERTINY
 70
    0
  3
Border (.15x) __.__.__.__.__.__.__.__.__.__.__.
 72
   65
 73
    6
 40
6.6675
 49
1.905
 74
    0
 49
-0.9525
 74
    0
 49
1.905
 74
    0
 49
-0.9525
 74
    0
 49
0
 74
    0
 49
-0.9525
 74
    0
  0
LTYPE
  5
44
330
5
100
AcDbSymbolTableRecord
100
AcDbLinetypeTableRecord
  2
BORDER2
 70
    0
  3
Border (.5x) __.__.__.__.__.__.__.__.__.__.__.
 72
   65
 73
    6
 40
22.225
 49
6.35
 74
    0
 49
-3.175
 74
    0
 49
6.35
 74
    0
 49
-3.175
 74
    0
 49
0
 74
    0
 49
-3.175
 74
    0
  0
LTYPE
  5
45
330
5
100
AcDbSymbolTableRecord
100
AcDbLinetypeTableRecord
  2
BORDERX2
 70
    0
  3
Border (2x) ____  ____  .  ____  ____  .  ___
 72
   65
 73
    6
 40
88.89999999999999
 49
25.4
 74
    0
 49
-12.7
 74
    0
 49
25.4
 74
    0
 49
-12.7
 74
    0
 49
0
 74
    0
 49
-12.7
 74
    0
  0
LTYPE
  5
46
330
5
100
AcDbSymbolTableRecord
100
AcDbLinetypeTableRecord
  2
CENTER
 70
    0
  3
Center ____ _ ____ _ ____ _ ____ _ ____ _ ____
 72
   65
 73
    4
 40
50.8
 49
31.75
 74
    0
 49
-6.35
 74
    0
 49
6.35
 74
    0
 49
-6.35
 74
    0
  0
LTYPE
  5
47
330
5
100
AcDbSymbolTableRecord
100
AcDbLinetypeTableRecord
  2
CENTERTINY
 70
    0
  3
Center (.15x) ___ _ ___ _ ___ _ ___ _ ___ _ ___
 72
   65
 73
    4
 40
7.619999999999999
 49
4.7625
 74
    0
 49
-0.9525
 74
    0
 49
0.9525
 74
    0
 49
-0.9525
 74
    0
  0
LTYPE
  5
48
330
5
100
AcDbSymbolTableRecord
100
AcDbLinetypeTableRecord
  2
CENTER2
 70
    0
  3
Center (.5x) ___ _ ___ _ ___ _ ___ _ ___ _ ___
 72
   65
 73
    4
 40
28.575
 49
19.05
 74
    0
 49
-3.175
 74
    0
 49
3.175
 74
    0
 49
-3.175
 74
    0
  0
LTYPE
  5
49
330
5
100
AcDbSymbolTableRecord
100
AcDbLinetypeTableRecord
  2
CENTERX2
 70
    0
  3
Center (2x) ________  __  ________  __  _____
 72
   65
 73
    4
 40
101.6
 49
63.5
 74
    0
 49
-12.7
 74
    0
 49
12.7
 74
    0
 49
-12.7
 74
    0
  0
ENDTAB
  0
TABLE
  2
LAYER
  5
2
330
0
100
AcDbSymbolTable
 70
    1
  0
LAYER
  5
10
330
2
100
AcDbSymbolTableRecord
100
AcDbLayerTableRecord
  2
0
 70
    0
 62
    7
  6
CONTINUOUS
370
   -3
390
F
  0
LAYER
  5
4A
330
2
100
AcDbSymbolTableRecord
100
AcDbLayerTableRecord
  2
Layer_1
 70
    0
 62
    7
  6
CONTINUOUS
370
   -3
390
F
  0
LAYER
  5
4B
330
2
100
AcDbSymbolTableRecord
100
AcDbLayerTableRecord
  2
g1
 70
    0
 62
    6
  6
DOTTINY
370
    0
390
F
  0
LAYER
  5
4C
330
2
100
AcDbSymbolTableRecord
100
AcDbLayerTableRecord
  2
g2
 70
    0
 62
    4
  6
DOTTINY
370
   -3
390
F
  0
ENDTAB
  0
TABLE
  2
STYLE
  5
3
330
0
100
AcDbSymbolTable
 70
    3
  0
STYLE
  5
4D
330
2
100
AcDbSymbolTableRecord
100
AcDbTextStyleTableRecord
  2
Standard
 70
    0
 40
0
 41
1
 50
0
 71
    0
 42
1
  3
txt
  4

  0
ENDTAB
  0
TABLE
  2
VIEW
  5
6
330
0
100
AcDbSymbolTable
 70
    0
  0
ENDTAB
  0
TABLE
  2
UCS
  5
7
330
0
100
AcDbSymbolTable
 70
    0
  0
ENDTAB
  0
TABLE
  2
APPID
  5
9
330
0
100
AcDbSymbolTable
 70
    1
  0
APPID
  5
12
330
9
100
AcDbSymbolTableRecord
100
AcDbRegAppTableRecord
  2
ACAD
 70
    0
  0
APPID
  5
4E
330
9
100
AcDbSymbolTableRecord
100
AcDbRegAppTableRecord
  2
LibreCad
 70
    0
  0
ENDTAB
  0
TABLE
  2
DIMSTYLE
  5
A
330
0
100
AcDbSymbolTable
 70
    1
100
AcDbDimStyleTable
 71
    1
  0
DIMSTYLE
105
4F
330
A
100
AcDbSymbolTableRecord
100
AcDbDimStyleTableRecord
  2
Standard
 70
    0
 40
1
 41
2.5
 42
0.625
 43
0.38
 44
1.25
 45
0
 46
0
 47
0
 48
0
 49
1
140
2.5
141
0.09
142
0
143
25.4
144
1
145
0
146
1
147
0.625
148
0
 71
    0
 72
    0
 73
    0
 74
    1
 75
    0
 76
    0
 77
    0
 78
    8
 79
    0
170
    0
171
    2
172
    0
173
    0
174
    0
175
    0
176
    0
177
    0
178
    0
179
    0
271
    2
272
    4
273
    2
274
    2
275
    0
276
    0
277
    2
278
   44
279
    0
280
    0
281
    0
282
    0
283
    1
284
    0
285
    0
286
    0
288
    0
289
    3
340
STANDARD
341

371
   -2
372
   -2
  0
ENDTAB
  0
TABLE
  2
BLOCK_RECORD
  5
1
330
0
100
AcDbSymbolTable
 70
    2
  0
BLOCK_RECORD
  5
1F
330
1
100
AcDbSymbolTableRecord
100
AcDbBlockTableRecord
  2
*Model_Space
 70
    0
280
    1
281
    0
  0
BLOCK_RECORD
  5
1E
330
1
100
AcDbSymbolTableRecord
100
AcDbBlockTableRecord
  2
*Paper_Space
 70
    0
280
    1
281
    0
  0
ENDTAB
  0
ENDSEC
  0
SECTION
  2
BLOCKS
  0
BLOCK
  5
20
330
1F
100
AcDbEntity
  8
0
100
AcDbBlockBegin
  2
*Model_Space
 70
    0
 10
0
 20
0
 30
0
  3
*Model_Space
  1

  0
ENDBLK
  5
21
330
1F
100
AcDbEntity
  8
0
100
AcDbBlockEnd
  0
BLOCK
  5
1C
330
1B
100
AcDbEntity
  8
0
100
AcDbBlockBegin
  2
*Paper_Space
 70
    0
 10
0
 20
0
 30
0
  3
*Paper_Space
  1

  0
ENDBLK
  5
1D
330
1F
100
AcDbEntity
  8
0
100
AcDbBlockEnd
  0
ENDSEC
  0
SECTION
  2
ENTITIES
  0
SPLINE
  5
50
100
AcDbEntity
  8
Layer_1
  6
ByLayer
 62
    7
370
   -1
100
AcDbSpline
210
0
220
0
230
0
 70
    8
 71
    3
 72
    8
 73
    4
 74
    0
 42
1e-07
 43
1e-07
 40
0
 40
0
 40
0
 40
0
 40
1
 40
1
 40
1
 40
1
 10
129.253584
 20
112.5542975000006
 30
0
 10
116.9644085
 20
112.5542320000006
 30
0
 10
107.070961
 20
122.4477450000007
 30
0
 10
107.070961
 20
134.7369860000006
 30
0
  0
SPLINE
  5
51
100
AcDbEntity
  8
Layer_1
  6
ByLayer
 62
    7
370
   -1
100
AcDbSpline
210
0
220
0
230
0
 70
    8
 71
    3
 72
    8
 73
    4
 74
    0
 42
1e-07
 43
1e-07
 40
0
 40
0
 40
0
 40
0
 40
1
 40
1
 40
1
 40
1
 10
107.070961
 20
390.6342200000005
 30
0
 10
107.070961
 20
402.9233955000007
 30
0
 10
116.9644085
 20
412.8168430000006
 30
0
 10
129.253584
 20
412.8168430000006
 30
0
  0
SPLINE
  5
52
100
AcDbEntity
  8
Layer_1
  6
ByLayer
 62
    7
370
   -1
100
AcDbSpline
210
0
220
0
230
0
 70
    8
 71
    3
 72
    8
 73
    4
 74
    0
 42
1e-07
 43
1e-07
 40
0
 40
0
 40
0
 40
0
 40
1
 40
1
 40
1
 40
1
 10
384.6735195000001
 20
412.8168430000006
 30
0
 10
396.962695
 20
412.8168430000006
 30
0
 10
406.8561424999999
 20
402.9233955000007
 30
0
 10
406.8561424999999
 20
390.6342200000005
 30
0
  0
SPLINE
  5
53
100
AcDbEntity
  8
Layer_1
  6
ByLayer
 62
    7
370
   -1
100
AcDbSpline
210
0
220
0
230
0
 70
    8
 71
    3
 72
    8
 73
    4
 74
    0
 42
1e-07
 43
1e-07
 40
0
 40
0
 40
0
 40
0
 40
1
 40
1
 40
1
 40
1
 10
406.8561424999999
 20
134.7369860000006
 30
0
 10
406.8561424999999
 20
122.4477450000007
 30
0
 10
396.962695
 20
112.5529875000007
 30
0
 10
384.6735195000001
 20
112.5542975000006
 30
0
  0
LWPOLYLINE
  5
54
100
AcDbEntity
  8
Layer_1
  6
ByLayer
 62
    7
370
   -1
100
AcDbPolyline
 90
    2
 70
    0
 43
0
 10
107.070961
 20
134.7369860000006
 10
107.070961
 20
390.6342200000005
  0
SPLINE
  5
55
100
AcDbEntity
  8
Layer_1
  6
ByLayer
 62
    7
370
   -1
100
AcDbSpline
210
0
220
0
230
0
 70
    8
 71
    3
 72
    8
 73
    4
 74
    0
 42
1e-07
 43
1e-07
 40
0
 40
0
 40
0
 40
0
 40
1
 40
1
 40
1
 40
1
 10
351.7050115
 20
112.5577690000006
 30
0
 10
351.8098115000001
 20
112.9546990000007
 30
0
 10
353.7923
 20
124.5932630000005
 30
0
 10
354.5723394999999
 20
132.3754490000005
 30
0
  0
SPLINE
  5
56
100
AcDbEntity
  8
Layer_1
  6
ByLayer
 62
    7
370
   -1
100
AcDbSpline
210
0
220
0
230
0
 70
    8
 71
    3
 72
    8
 73
    4
 74
    0
 42
1e-07
 43
1e-07
 40
0
 40
0
 40
0
 40
0
 40
1
 40
1
 40
1
 40
1
 10
354.5723394999999
 20
132.3754490000005
 30
0
 10
355.8367514999999
 20
144.9840680000006
 30
0
 10
358.859249
 20
153.8151710000006
 30
0
 10
355.669923
 20
171.9460950000006
 30
0
  0
SPLINE
  5
57
100
AcDbEntity
  8
Layer_1
  6
ByLayer
 62
    7
370
   -1
100
AcDbSpline
210
0
220
0
230
0
 70
    8
 71
    3
 72
    8
 73
    4
 74
    0
 42
1e-07
 43
1e-07
 40
0
 40
0
 40
0
 40
0
 40
1
 40
1
 40
1
 40
1
 10
355.669923
 20
171.9460950000006
 30
0
 10
352.8737934999999
 20
187.8423555000006
 30
0
 10
343.8140300000001
 20
199.8912770000005
 30
0
 10
328.519256
 20
205.0467820000006
 30
0
  0
SPLINE
  5
58
100
AcDbEntity
  8
Layer_1
  6
ByLayer
 62
    7
370
   -1
100
AcDbSpline
210
0
220
0
230
0
 70
    8
 71
    3
 72
    8
 73
    4
 74
    0
 42
1e-07
 43
1e-07
 40
0
 40
0
 40
0
 40
0
 40
1
 40
1
 40
1
 40
1
 10
328.519256
 20
205.0467820000006
 30
0
 10
313.4526185
 20
210.1253900000007
 30
0
 10
286.9489605000001
 20
194.1093300000007
 30
0
 10
273.0625675000001
 20
202.1006575000006
 30
0
  0
SPLINE
  5
59
100
AcDbEntity
  8
Layer_1
  6
ByLayer
 62
    7
370
   -1
100
AcDbSpline
210
0
220
0
230
0
 70
    8
 71
    3
 72
    8
 73
    4
 74
    0
 42
1e-07
 43
1e-07
 40
0
 40
0
 40
0
 40
0
 40
1
 40
1
 40
1
 40
1
 10
273.0625675000001
 20
202.1006575000006
 30
0
 10
272.031663
 20
206.7715280000006
 30
0
 10
278.085697
 20
211.7932820000006
 30
0
 10
284.5005049999999
 20
221.0483665000007
 30
0
  0
SPLINE
  5
5A
100
AcDbEntity
  8
Layer_1
  6
ByLayer
 62
    7
370
   -1
100
AcDbSpline
210
0
220
0
230
0
 70
    8
 71
    3
 72
    8
 73
    4
 74
    0
 42
1e-07
 43
1e-07
 40
0
 40
0
 40
0
 40
0
 40
1
 40
1
 40
1
 40
1
 10
284.5005049999999
 20
221.0483665000007
 30
0
 10
292.6473295000001
 20
232.8021450000006
 30
0
 10
301.8185739999999
 20
249.6463215000006
 30
0
 10
302.6394855
 20
262.5253245000006
 30
0
  0
SPLINE
  5
5B
100
AcDbEntity
  8
Layer_1
  6
ByLayer
 62
    7
370
   -1
100
AcDbSpline
210
0
220
0
230
0
 70
    8
 71
    3
 72
    8
 73
    4
 74
    0
 42
1e-07
 43
1e-07
 40
0
 40
0
 40
0
 40
0
 40
1
 40
1
 40
1
 40
1
 10
302.6394855
 20
262.5253245000006
 30
0
 10
303.8471745000001
 20
281.4697585000006
 30
0
 10
283.537786
 20
294.7318710000007
 30
0
 10
282.3054035
 20
298.9187620000007
 30
0
  0
SPLINE
  5
5C
100
AcDbEntity
  8
Layer_1
  6
ByLayer
 62
    7
370
   -1
100
AcDbSpline
210
0
220
0
230
0
 70
    8
 71
    3
 72
    8
 73
    4
 74
    0
 42
1e-07
 43
1e-07
 40
0
 40
0
 40
0
 40
0
 40
1
 40
1
 40
1
 40
1
 10
282.3054035
 20
298.9187620000007
 30
0
 10
287.210371
 20
307.5587360000006
 30
0
 10
312.013256
 20
307.9681110000006
 30
0
 10
323.7245905
 20
313.0140345000007
 30
0
  0
SPLINE
  5
5D
100
AcDbEntity
  8
Layer_1
  6
ByLayer
 62
    7
370
   -1
100
AcDbSpline
210
0
220
0
230
0
 70
    8
 71
    3
 72
    8
 73
    4
 74
    0
 42
1e-07
 43
1e-07
 40
0
 40
0
 40
0
 40
0
 40
1
 40
1
 40
1
 40
1
 10
323.7245905
 20
313.0140345000007
 30
0
 10
333.4302494999999
 20
317.1956855000006
 30
0
 10
338.4204325
 20
319.1882610000005
 30
0
 10
345.9072790000001
 20
326.6470735000006
 30
0
  0
SPLINE
  5
5E
100
AcDbEntity
  8
Layer_1
  6
ByLayer
 62
    7
370
   -1
100
AcDbSpline
210
0
220
0
230
0
 70
    8
 71
    3
 72
    8
 73
    4
 74
    0
 42
1e-07
 43
1e-07
 40
0
 40
0
 40
0
 40
0
 40
1
 40
1
 40
1
 40
1
 10
345.9072790000001
 20
326.6470735000006
 30
0
 10
353.5142524999999
 20
334.2256855000006
 30
0
 10
357.1423629999999
 20
342.1158155000006
 30
0
 10
359.7714020000001
 20
352.5269095000007
 30
0
  0
SPLINE
  5
5F
100
AcDbEntity
  8
Layer_1
  6
ByLayer
 62
    7
370
   -1
100
AcDbSpline
210
0
220
0
230
0
 70
    8
 71
    3
 72
    8
 73
    4
 74
    0
 42
1e-07
 43
1e-07
 40
0
 40
0
 40
0
 40
0
 40
1
 40
1
 40
1
 40
1
 10
359.7714020000001
 20
352.5269095000007
 30
0
 10
361.7364019999999
 20
360.3081785000005
 30
0
 10
364.062569
 20
371.4694440000006
 30
0
 10
359.0204445
 20
377.7134280000006
 30
0
  0
SPLINE
  5
60
100
AcDbEntity
  8
Layer_1
  6
ByLayer
 62
    7
370
   -1
100
AcDbSpline
210
0
220
0
230
0
 70
    8
 71
    3
 72
    8
 73
    4
 74
    0
 42
1e-07
 43
1e-07
 40
0
 40
0
 40
0
 40
0
 40
1
 40
1
 40
1
 40
1
 10
359.0204445
 20
377.7134280000006
 30
0
 10
355.5826770000001
 20
381.9707315000006
 30
0
 10
350.798819
 20
384.1901990000007
 30
0
 10
345.618424
 20
384.4144710000006
 30
0
  0
LWPOLYLINE
  5
61
100
AcDbEntity
  8
Layer_1
  6
ByLayer
 62
    7
370
   -1
100
AcDbPolyline
 90
    2
 70
    0
 43
0
 10
129.253584
 20
412.8168430000006
 10
384.6735195000001
 20
412.8168430000006
  0
SPLINE
  5
62
100
AcDbEntity
  8
Layer_1
  6
ByLayer
 62
    7
370
   -1
100
AcDbSpline
210
0
220
0
230
0
 70
    8
 71
    3
 72
    8
 73
    4
 74
    0
 42
1e-07
 43
1e-07
 40
0
 40
0
 40
0
 40
0
 40
1
 40
1
 40
1
 40
1
 10
345.618424
 20
384.4144055000005
 30
0
 10
343.8915819999999
 20
384.4890755000006
 30
0
 10
342.145876
 20
384.3312205000005
 30
0
 10
340.3615905
 20
383.9519755000006
 30
0
  0
SPLINE
  5
63
100
AcDbEntity
  8
Layer_1
  6
ByLayer
 62
    7
370
   -1
100
AcDbSpline
210
0
220
0
230
0
 70
    8
 71
    3
 72
    8
 73
    4
 74
    0
 42
1e-07
 43
1e-07
 40
0
 40
0
 40
0
 40
0
 40
1
 40
1
 40
1
 40
1
 10
340.3615905
 20
383.9519755000006
 30
0
 10
334.882057
 20
382.7890230000007
 30
0
 10
328.3056605
 20
378.2186295000005
 30
0
 10
327.4216724999999
 20
372.6872855000007
 30
0
  0
SPLINE
  5
64
100
AcDbEntity
  8
Layer_1
  6
ByLayer
 62
    7
370
   -1
100
AcDbSpline
210
0
220
0
230
0
 70
    8
 71
    3
 72
    8
 73
    4
 74
    0
 42
1e-07
 43
1e-07
 40
0
 40
0
 40
0
 40
0
 40
1
 40
1
 40
1
 40
1
 10
327.4216724999999
 20
372.6872855000007
 30
0
 10
325.560228
 20
361.0390930000005
 30
0
 10
347.6515440000001
 20
355.4372055000007
 30
0
 10
346.6004655000001
 20
343.6880775000005
 30
0
  0
SPLINE
  5
65
100
AcDbEntity
  8
Layer_1
  6
ByLayer
 62
    7
370
   -1
100
AcDbSpline
210
0
220
0
230
0
 70
    8
 71
    3
 72
    8
 73
    4
 74
    0
 42
1e-07
 43
1e-07
 40
0
 40
0
 40
0
 40
0
 40
1
 40
1
 40
1
 40
1
 10
346.6004655000001
 20
343.6880775000005
 30
0
 10
345.7375685
 20
334.0440540000006
 30
0
 10
337.0584255
 20
330.5974440000006
 30
0
 10
328.6925689999999
 20
325.7224755000005
 30
0
  0
SPLINE
  5
66
100
AcDbEntity
  8
Layer_1
  6
ByLayer
 62
    7
370
   -1
100
AcDbSpline
210
0
220
0
230
0
 70
    8
 71
    3
 72
    8
 73
    4
 74
    0
 42
1e-07
 43
1e-07
 40
0
 40
0
 40
0
 40
0
 40
1
 40
1
 40
1
 40
1
 10
233.8385475
 20
300.2470365000006
 30
0
 10
207.0664705
 20
291.5274145000005
 30
0
 10
189.9298365
 20
283.8869050000007
 30
0
 10
167.2905475
 20
267.1463495000006
 30
0
  0
SPLINE
  5
67
100
AcDbEntity
  8
Layer_1
  6
ByLayer
 62
    7
370
   -1
100
AcDbSpline
210
0
220
0
230
0
 70
    8
 71
    3
 72
    8
 73
    4
 74
    0
 42
1e-07
 43
1e-07
 40
0
 40
0
 40
0
 40
0
 40
1
 40
1
 40
1
 40
1
 10
167.2905475
 20
267.1463495000006
 30
0
 10
152.103783
 20
255.9164400000005
 30
0
 10
136.4693915
 20
244.2134895000005
 30
0
 10
129.9728395
 20
226.4781200000007
 30
0
  0
SPLINE
  5
68
100
AcDbEntity
  8
Layer_1
  6
ByLayer
 62
    7
370
   -1
100
AcDbSpline
210
0
220
0
230
0
 70
    8
 71
    3
 72
    8
 73
    4
 74
    0
 42
1e-07
 43
1e-07
 40
0
 40
0
 40
0
 40
0
 40
1
 40
1
 40
1
 40
1
 10
129.9728395
 20
226.4781200000007
 30
0
 10
128.107858
 20
221.3865430000006
 30
0
 10
127.897865
 20
215.1973825000006
 30
0
 10
129.9728395
 20
210.1877460000007
 30
0
  0
SPLINE
  5
69
100
AcDbEntity
  8
Layer_1
  6
ByLayer
 62
    7
370
   -1
100
AcDbSpline
210
0
220
0
230
0
 70
    8
 71
    3
 72
    8
 73
    4
 74
    0
 42
1e-07
 43
1e-07
 40
0
 40
0
 40
0
 40
0
 40
1
 40
1
 40
1
 40
1
 10
129.9728395
 20
210.1877460000007
 30
0
 10
131.906989
 20
205.5182510000006
 30
0
 10
135.664724
 20
199.3805735000006
 30
0
 10
140.7175905000001
 20
199.5007660000006
 30
0
  0
SPLINE
  5
6A
100
AcDbEntity
  8
Layer_1
  6
ByLayer
 62
    7
370
   -1
100
AcDbSpline
210
0
220
0
230
0
 70
    8
 71
    3
 72
    8
 73
    4
 74
    0
 42
1e-07
 43
1e-07
 40
0
 40
0
 40
0
 40
0
 40
1
 40
1
 40
1
 40
1
 10
140.7175905000001
 20
199.5007660000006
 30
0
 10
146.2121890000001
 20
199.6311110000006
 30
0
 10
150.922163
 20
206.2655405000006
 30
0
 10
151.808902
 20
211.6896610000007
 30
0
  0
SPLINE
  5
6B
100
AcDbEntity
  8
Layer_1
  6
ByLayer
 62
    7
370
   -1
100
AcDbSpline
210
0
220
0
230
0
 70
    8
 71
    3
 72
    8
 73
    4
 74
    0
 42
1e-07
 43
1e-07
 40
0
 40
0
 40
0
 40
0
 40
1
 40
1
 40
1
 40
1
 10
151.808902
 20
211.6896610000007
 30
0
 10
152.6993745
 20
217.1355930000006
 30
0
 10
144.655385
 20
221.3251040000006
 30
0
 10
145.1079245
 20
226.8247460000007
 30
0
  0
SPLINE
  5
6C
100
AcDbEntity
  8
Layer_1
  6
ByLayer
 62
    7
370
   -1
100
AcDbSpline
210
0
220
0
230
0
 70
    8
 71
    3
 72
    8
 73
    4
 74
    0
 42
1e-07
 43
1e-07
 40
0
 40
0
 40
0
 40
0
 40
1
 40
1
 40
1
 40
1
 10
145.1079245
 20
226.8247460000007
 30
0
 10
145.940495
 20
236.9424655000007
 30
0
 10
158.6892185
 20
250.7232725000006
 30
0
 10
166.943987
 20
256.6326825000006
 30
0
  0
SPLINE
  5
6D
100
AcDbEntity
  8
Layer_1
  6
ByLayer
 62
    7
370
   -1
100
AcDbSpline
210
0
220
0
230
0
 70
    8
 71
    3
 72
    8
 73
    4
 74
    0
 42
1e-07
 43
1e-07
 40
0
 40
0
 40
0
 40
0
 40
1
 40
1
 40
1
 40
1
 10
166.943987
 20
256.6326825000006
 30
0
 10
182.3526
 20
267.6634065000005
 30
0
 10
200.536186
 20
270.0907055000007
 30
0
 10
219.4544855
 20
268.9948905000006
 30
0
  0
SPLINE
  5
6E
100
AcDbEntity
  8
Layer_1
  6
ByLayer
 62
    7
370
   -1
100
AcDbSpline
210
0
220
0
230
0
 70
    8
 71
    3
 72
    8
 73
    4
 74
    0
 42
1e-07
 43
1e-07
 40
0
 40
0
 40
0
 40
0
 40
1
 40
1
 40
1
 40
1
 10
219.4544855
 20
268.9948905000006
 30
0
 10
234.6031945000001
 20
268.1174525000006
 30
0
 10
254.1347705
 20
264.4045195000007
 30
0
 10
259.3717575
 20
250.1627235000007
 30
0
  0
SPLINE
  5
6F
100
AcDbEntity
  8
Layer_1
  6
ByLayer
 62
    7
370
   -1
100
AcDbSpline
210
0
220
0
230
0
 70
    8
 71
    3
 72
    8
 73
    4
 74
    0
 42
1e-07
 43
1e-07
 40
0
 40
0
 40
0
 40
0
 40
1
 40
1
 40
1
 40
1
 10
259.3717575
 20
250.1627235000007
 30
0
 10
269.7609745
 20
221.9098225000006
 30
0
 10
240.30307
 20
187.2317645000006
 30
0
 10
227.1952755
 20
170.2704740000006
 30
0
  0
SPLINE
  5
70
100
AcDbEntity
  8
Layer_1
  6
ByLayer
 62
    7
370
   -1
100
AcDbSpline
210
0
220
0
230
0
 70
    8
 71
    3
 72
    8
 73
    4
 74
    0
 42
1e-07
 43
1e-07
 40
0
 40
0
 40
0
 40
0
 40
1
 40
1
 40
1
 40
1
 10
227.1952755
 20
170.2704740000006
 30
0
 10
210.3679325000001
 20
148.4960470000006
 30
0
 10
172.535329
 20
128.9262845000005
 30
0
 10
159.7569995
 20
112.5541010000007
 30
0
  0
SPLINE
  5
71
100
AcDbEntity
  8
Layer_1
  6
ByLayer
 62
    7
370
   -1
100
AcDbSpline
210
0
220
0
230
0
 70
    8
 71
    3
 72
    8
 73
    4
 74
    0
 42
1e-07
 43
1e-07
 40
0
 40
0
 40
0
 40
0
 40
1
 40
1
 40
1
 40
1
 10
193.748028
 20
121.1109555000007
 30
0
 10
208.044713
 20
143.2064635000006
 30
0
 10
234.5574755
 20
169.7051435000006
 30
0
 10
258.447487
 20
184.3084340000007
 30
0
  0
SPLINE
  5
72
100
AcDbEntity
  8
Layer_1
  6
ByLayer
 62
    7
370
   -1
100
AcDbSpline
210
0
220
0
230
0
 70
    8
 71
    3
 72
    8
 73
    4
 74
    0
 42
1e-07
 43
1e-07
 40
0
 40
0
 40
0
 40
0
 40
1
 40
1
 40
1
 40
1
 10
258.447487
 20
184.3084340000007
 30
0
 10
268.1416835000001
 20
190.2342190000006
 30
0
 10
281.895439
 20
189.4612535000006
 30
0
 10
293.2234020000001
 20
188.5832260000006
 30
0
  0
SPLINE
  5
73
100
AcDbEntity
  8
Layer_1
  6
ByLayer
 62
    7
370
   -1
100
AcDbSpline
210
0
220
0
230
0
 70
    8
 71
    3
 72
    8
 73
    4
 74
    0
 42
1e-07
 43
1e-07
 40
0
 40
0
 40
0
 40
0
 40
1
 40
1
 40
1
 40
1
 10
293.2234020000001
 20
188.5832260000006
 30
0
 10
306.023543
 20
187.5910975000007
 30
0
 10
320.4687165
 20
180.8620205000006
 30
0
 10
329.9634654999999
 20
167.6714340000005
 30
0
  0
SPLINE
  5
74
100
AcDbEntity
  8
Layer_1
  6
ByLayer
 62
    7
370
   -1
100
AcDbSpline
210
0
220
0
230
0
 70
    8
 71
    3
 72
    8
 73
    4
 74
    0
 42
1e-07
 43
1e-07
 40
0
 40
0
 40
0
 40
0
 40
1
 40
1
 40
1
 40
1
 10
329.9634654999999
 20
167.6714340000005
 30
0
 10
335.9977185000001
 20
159.2882855000006
 30
0
 10
334.7765365
 20
153.2566525000006
 30
0
 10
335.1625280000001
 20
143.4669570000006
 30
0
  0
SPLINE
  5
75
100
AcDbEntity
  8
Layer_1
  6
ByLayer
 62
    7
370
   -1
100
AcDbSpline
210
0
220
0
230
0
 70
    8
 71
    3
 72
    8
 73
    4
 74
    0
 42
1e-07
 43
1e-07
 40
0
 40
0
 40
0
 40
0
 40
1
 40
1
 40
1
 40
1
 10
335.1625280000001
 20
143.4669570000006
 30
0
 10
335.5948280000001
 20
132.5045495000006
 30
0
 10
334.004095
 20
112.5868510000007
 30
0
 10
334.004095
 20
112.5868510000007
 30
0
  0
LWPOLYLINE
  5
76
100
AcDbEntity
  8
Layer_1
  6
ByLayer
 62
    7
370
   -1
100
AcDbPolyline
 90
    2
 70
    0
 43
0
 10
406.8561424999999
 20
390.6342200000005
 10
406.8561424999999
 20
134.7369860000006
  0
SPLINE
  5
77
100
AcDbEntity
  8
Layer_1
  6
ByLayer
 62
    7
370
   -1
100
AcDbSpline
210
0
220
0
230
0
 70
    8
 71
    3
 72
    8
 73
    4
 74
    0
 42
1e-07
 43
1e-07
 40
0
 40
0
 40
0
 40
0
 40
1
 40
1
 40
1
 40
1
 10
192.72518
 20
112.5541010000007
 30
0
 10
192.72518
 20
112.5541010000007
 30
0
 10
192.1396100000001
 20
118.6250995000006
 30
0
 10
193.748028
 20
121.1104315000007
 30
0
  0
LWPOLYLINE
  5
78
100
AcDbEntity
  8
Layer_1
  6
ByLayer
 62
    7
370
   -1
100
AcDbPolyline
 90
    2
 70
    0
 43
0
 10
384.6735195000001
 20
112.5542975000006
 10
351.7050115
 20
112.5577690000006
  0
SPLINE
  5
79
100
AcDbEntity
  8
Layer_1
  6
ByLayer
 62
    7
370
   -1
100
AcDbSpline
210
0
220
0
230
0
 70
    8
 71
    3
 72
    8
 73
    4
 74
    0
 42
1e-07
 43
1e-07
 40
0
 40
0
 40
0
 40
0
 40
1
 40
1
 40
1
 40
1
 10
234.762818
 20
352.3535310000005
 30
0
 10
233.1350775
 20
352.2945810000006
 30
0
 10
231.685628
 20
352.1504810000007
 30
0
 10
230.5457970000001
 20
351.8334610000006
 30
0
  0
SPLINE
  5
7A
100
AcDbEntity
  8
Layer_1
  6
ByLayer
 62
    7
370
   -1
100
AcDbSpline
210
0
220
0
230
0
 70
    8
 71
    3
 72
    8
 73
    4
 74
    0
 42
1e-07
 43
1e-07
 40
0
 40
0
 40
0
 40
0
 40
1
 40
1
 40
1
 40
1
 10
230.5457970000001
 20
351.8334610000006
 30
0
 10
224.573114
 20
350.1736255000006
 30
0
 10
221.6556785000001
 20
348.0930180000007
 30
0
 10
219.0500885
 20
343.6882085000006
 30
0
  0
SPLINE
  5
7B
100
AcDbEntity
  8
Layer_1
  6
ByLayer
 62
    7
370
   -1
100
AcDbSpline
210
0
220
0
230
0
 70
    8
 71
    3
 72
    8
 73
    4
 74
    0
 42
1e-07
 43
1e-07
 40
0
 40
0
 40
0
 40
0
 40
1
 40
1
 40
1
 40
1
 10
219.0500885
 20
343.6882085000006
 30
0
 10
217.3022865
 20
340.7334380000006
 30
0
 10
216.314088
 20
336.5443200000007
 30
0
 10
216.508361
 20
333.1168360000007
 30
0
  0
SPLINE
  5
7C
100
AcDbEntity
  8
Layer_1
  6
ByLayer
 62
    7
370
   -1
100
AcDbSpline
210
0
220
0
230
0
 70
    8
 71
    3
 72
    8
 73
    4
 74
    0
 42
1e-07
 43
1e-07
 40
0
 40
0
 40
0
 40
0
 40
1
 40
1
 40
1
 40
1
 10
216.508361
 20
333.1168360000007
 30
0
 10
216.787391
 20
328.1913670000006
 30
0
 10
219.705416
 20
323.3556985000006
 30
0
 10
223.3248804999999
 20
320.0036050000006
 30
0
  0
SPLINE
  5
7D
100
AcDbEntity
  8
Layer_1
  6
ByLayer
 62
    7
370
   -1
100
AcDbSpline
210
0
220
0
230
0
 70
    8
 71
    3
 72
    8
 73
    4
 74
    0
 42
1e-07
 43
1e-07
 40
0
 40
0
 40
0
 40
0
 40
1
 40
1
 40
1
 40
1
 10
223.3248804999999
 20
320.0036050000006
 30
0
 10
228.388489
 20
315.3141325000006
 30
0
 10
235.488558
 20
313.8751630000007
 30
0
 10
242.3881315
 20
313.7069590000006
 30
0
  0
SPLINE
  5
7E
100
AcDbEntity
  8
Layer_1
  6
ByLayer
 62
    7
370
   -1
100
AcDbSpline
210
0
220
0
230
0
 70
    8
 71
    3
 72
    8
 73
    4
 74
    0
 42
1e-07
 43
1e-07
 40
0
 40
0
 40
0
 40
0
 40
1
 40
1
 40
1
 40
1
 10
264.339736
 20
319.0793345000006
 30
0
 10
268.8315295000001
 20
320.9806030000005
 30
0
 10
270.6926465
 20
322.6059200000005
 30
0
 10
269.5387985
 20
327.5711475000006
 30
0
  0
SPLINE
  5
7F
100
AcDbEntity
  8
Layer_1
  6
ByLayer
 62
    7
370
   -1
100
AcDbSpline
210
0
220
0
230
0
 70
    8
 71
    3
 72
    8
 73
    4
 74
    0
 42
1e-07
 43
1e-07
 40
0
 40
0
 40
0
 40
0
 40
1
 40
1
 40
1
 40
1
 10
269.5387985
 20
327.5711475000006
 30
0
 10
267.363216
 20
336.9326040000007
 30
0
 10
257.947591
 20
346.1667940000006
 30
0
 10
249.204651
 20
350.1581675000007
 30
0
  0
SPLINE
  5
80
100
AcDbEntity
  8
Layer_1
  6
ByLayer
 62
    7
370
   -1
100
AcDbSpline
210
0
220
0
230
0
 70
    8
 71
    3
 72
    8
 73
    4
 74
    0
 42
1e-07
 43
1e-07
 40
0
 40
0
 40
0
 40
0
 40
1
 40
1
 40
1
 40
1
 10
249.204651
 20
350.1581675000007
 30
0
 10
245.9762870000001
 20
351.6319830000007
 30
0
 10
239.646105
 20
352.5241585000005
 30
0
 10
234.762818
 20
352.3533345000006
 30
0
  0
LWPOLYLINE
  5
81
100
AcDbEntity
  8
Layer_1
  6
ByLayer
 62
    7
370
   -1
100
AcDbPolyline
 90
    2
 70
    0
 43
0
 10
159.7569995
 20
112.5541010000007
 10
129.253584
 20
112.5542975000006
  0
LWPOLYLINE
  5
82
100
AcDbEntity
  8
Layer_1
  6
ByLayer
 62
    7
370
   -1
100
AcDbPolyline
 90
    2
 70
    0
 43
0
 10
334.004095
 20
112.5868510000007
 10
192.72518
 20
112.5541010000007
  0
ELLIPSE
  5
83
100
AcDbEntity
  8
0
  6
ByLayer
 62
  256
370
   -1
100
AcDbEllipse
 10
259.500092046523
 20
312.1923430948162
 30
0
 11
2.499999999999931
 21
-6.49999999999981
 31
0
 40
0.2153874475853179
 41
3.974272687933235
 42
5.621528664824206
  0
ELLIPSE
  5
84
100
AcDbEntity
  8
0
  6
ByLayer
 62
  256
370
   -1
100
AcDbEllipse
 10
248.2999447720863
 20
307.8845941431102
 30
0
 11
2.499999999999963
 21
-6.500000000000058
 31
0
 40
0.2153874475853288
 41
0.9798248634572091
 42
2.650720722449263
  0
LINE
  5
85
100
AcDbEntity
  8
Layer_1
  6
CONTINUOUS
 62
    7
370
   -3
100
AcDbLine
 10
328.6925689999999
 20
325.7224755000005
 11
326.2762544693867
 21
324.384624625609
  0
LINE
  5
86
100
AcDbEntity
  8
Layer_1
  6
CONTINUOUS
 62
    7
370
    0
100
AcDbLine
 10
326.2762544693867
 20
324.384624625609
 11
323.7465258851666
 21
323.1158758180832
  0
LINE
  5
87
100
AcDbEntity
  8
Layer_1
  6
CONTINUOUS
 62
    7
370
    0
100
AcDbLine
 10
323.7465258851666
 20
323.1158758180832
 11
321.1106778555437
 21
321.9126396396065
  0
LINE
  5
88
100
AcDbEntity
  8
Layer_1
  6
CONTINUOUS
 62
    7
370
    0
100
AcDbLine
 10
321.1106778555437
 20
321.9126396396065
 11
318.3760049887214
 21
320.771326652362
  0
LINE
  5
89
100
AcDbEntity
  8
Layer_1
  6
CONTINUOUS
 62
    7
370
    0
100
AcDbLine
 10
318.3760049887214
 20
320.771326652362
 11
315.5498018929039
 21
319.688347418533
  0
LINE
  5
8A
100
AcDbEntity
  8
Layer_1
  6
CONTINUOUS
 62
    7
370
    0
100
AcDbLine
 10
315.5498018929039
 20
319.688347418533
 11
312.6393631762949
 21
318.6601125003027
  0
LINE
  5
8B
100
AcDbEntity
  8
Layer_1
  6
CONTINUOUS
 62
    7
370
    0
100
AcDbLine
 10
312.6393631762949
 20
318.6601125003027
 11
309.6519834470981
 21
317.6830324598542
  0
LINE
  5
8C
100
AcDbEntity
  8
Layer_1
  6
CONTINUOUS
 62
    7
370
    0
100
AcDbLine
 10
309.6519834470981
 20
317.6830324598542
 11
306.5949573135175
 21
316.7535178593708
  0
LINE
  5
8D
100
AcDbEntity
  8
Layer_1
  6
CONTINUOUS
 62
    7
370
    0
100
AcDbLine
 10
306.5949573135175
 20
316.7535178593708
 11
303.4755793837569
 21
315.8679792610357
  0
LINE
  5
8E
100
AcDbEntity
  8
Layer_1
  6
CONTINUOUS
 62
    7
370
    0
100
AcDbLine
 10
303.4755793837569
 20
315.8679792610357
 11
300.3011442660199
 21
315.0228272270322
  0
LINE
  5
8F
100
AcDbEntity
  8
Layer_1
  6
CONTINUOUS
 62
    7
370
    0
100
AcDbLine
 10
300.3011442660199
 20
315.0228272270322
 11
297.0789465685107
 21
314.2144723195433
  0
LINE
  5
90
100
AcDbEntity
  8
Layer_1
  6
CONTINUOUS
 62
    7
370
    0
100
AcDbLine
 10
297.0789465685107
 20
314.2144723195433
 11
293.8162808994328
 21
313.4393251007525
  0
LINE
  5
91
100
AcDbEntity
  8
Layer_1
  6
CONTINUOUS
 62
    7
370
    0
100
AcDbLine
 10
293.8162808994328
 20
313.4393251007525
 11
290.5204418669901
 21
312.6937961328427
  0
LINE
  5
92
100
AcDbEntity
  8
Layer_1
  6
CONTINUOUS
 62
    7
370
    0
100
AcDbLine
 10
290.5204418669901
 20
312.6937961328427
 11
287.1987240793864
 21
311.9742959779973
  0
LINE
  5
93
100
AcDbEntity
  8
Layer_1
  6
CONTINUOUS
 62
    7
370
    0
100
AcDbLine
 10
287.1987240793864
 20
311.9742959779973
 11
283.8584221448257
 21
311.2772351983995
  0
LINE
  5
94
100
AcDbEntity
  8
Layer_1
  6
CONTINUOUS
 62
    7
370
    0
100
AcDbLine
 10
283.8584221448257
 20
311.2772351983995
 11
280.5068306715116
 21
310.5990243562323
  0
LINE
  5
95
100
AcDbEntity
  8
Layer_1
  6
CONTINUOUS
 62
    7
370
    0
100
AcDbLine
 10
280.5068306715116
 20
310.5990243562323
 11
277.151244267648
 21
309.9360740136792
  0
LINE
  5
96
100
AcDbEntity
  8
Layer_1
  6
CONTINUOUS
 62
    7
370
    0
100
AcDbLine
 10
277.151244267648
 20
309.9360740136792
 11
273.7989575414388
 21
309.2847947329233
  0
LINE
  5
97
100
AcDbEntity
  8
Layer_1
  6
CONTINUOUS
 62
    7
370
    0
100
AcDbLine
 10
273.7989575414388
 20
309.2847947329233
 11
270.4572651010877
 21
308.6415970761477
  0
LINE
  5
98
100
AcDbEntity
  8
Layer_1
  6
CONTINUOUS
 62
    7
370
    0
100
AcDbLine
 10
270.4572651010877
 20
308.6415970761477
 11
267.1334615547985
 21
308.0028916055359
  0
LINE
  5
99
100
AcDbEntity
  8
Layer_1
  6
CONTINUOUS
 62
    7
370
    0
100
AcDbLine
 10
267.1334615547985
 20
308.0028916055359
 11
263.8348415107752
 21
307.3650888832707
  0
LINE
  5
9A
100
AcDbEntity
  8
Layer_1
  6
CONTINUOUS
 62
    7
370
    0
100
AcDbLine
 10
247.9748051117788
 20
304.0639861735597
 11
244.9804728536304
 21
303.3562217472229
  0
LINE
  5
9B
100
AcDbEntity
  8
Layer_1
  6
CONTINUOUS
 62
    7
370
    0
100
AcDbLine
 10
244.9804728536304
 20
303.3562217472229
 11
242.0623863551745
 21
302.6242340045154
  0
LINE
  5
9C
100
AcDbEntity
  8
Layer_1
  6
CONTINUOUS
 62
    7
370
    0
100
AcDbLine
 10
242.0623863551745
 20
302.6242340045154
 11
239.2278402246149
 21
301.8644335076203
  0
LINE
  5
9D
100
AcDbEntity
  8
Layer_1
  6
CONTINUOUS
 62
    7
370
    0
100
AcDbLine
 10
239.2278402246149
 20
301.8644335076203
 11
236.4841290701555
 21
301.073230818721
  0
LINE
  5
9E
100
AcDbEntity
  8
Layer_1
  6
CONTINUOUS
 62
    7
370
    0
100
AcDbLine
 10
236.4841290701555
 20
301.073230818721
 11
233.8385475
 21
300.2470365000006
  0
LINE
  5
9F
100
AcDbEntity
  8
Layer_1
  6
CONTINUOUS
 62
    7
370
    0
100
AcDbLine
 10
250.8554397547043
 20
304.710146451753
 11
247.9748051117788
 21
304.0639861735597
  0
LINE
  5
A0
100
AcDbEntity
  8
Layer_1
  6
CONTINUOUS
 62
    7
370
    0
100
AcDbLine
 10
263.8348415107752
 20
307.3650888832707
 11
260.6123246743258
 21
306.7331543394347
  0
LINE
  5
A1
100
AcDbEntity
  8
Layer_1
  6
CONTINUOUS
 62
    7
370
   -3
100
AcDbLine
 10
242.3881315
 20
313.7069590000006
 11
243.0338843691383
 21
313.6969487878728
  0
LINE
  5
A2
100
AcDbEntity
  8
Layer_1
  6
CONTINUOUS
 62
    7
370
    0
100
AcDbLine
 10
243.0338843691383
 20
313.6969487878728
 11
243.6770413750629
 21
313.6985284413755
  0
LINE
  5
A3
100
AcDbEntity
  8
Layer_1
  6
CONTINUOUS
 62
    7
370
    0
100
AcDbLine
 10
243.6770413750629
 20
313.6985284413755
 11
244.3183011477963
 21
313.7117632340478
  0
LINE
  5
A4
100
AcDbEntity
  8
Layer_1
  6
CONTINUOUS
 62
    7
370
    0
100
AcDbLine
 10
244.3183011477963
 20
313.7117632340478
 11
244.958362317361
 21
313.7367184394286
  0
LINE
  5
A5
100
AcDbEntity
  8
Layer_1
  6
CONTINUOUS
 62
    7
370
    0
100
AcDbLine
 10
244.958362317361
 20
313.7367184394286
 11
245.5979235137793
 21
313.7734593310569
  0
LINE
  5
A6
100
AcDbEntity
  8
Layer_1
  6
CONTINUOUS
 62
    7
370
    0
100
AcDbLine
 10
245.5979235137793
 20
313.7734593310569
 11
246.2376833670739
 21
313.8220511824718
  0
LINE
  5
A7
100
AcDbEntity
  8
Layer_1
  6
CONTINUOUS
 62
    7
370
    0
100
AcDbLine
 10
257.070940453308
 20
316.2645145438897
 11
257.8209678669397
 21
316.5245595631405
  0
LINE
  5
A8
100
AcDbEntity
  8
Layer_1
  6
CONTINUOUS
 62
    7
370
    0
100
AcDbLine
 10
257.8209678669397
 20
316.5245595631405
 11
258.5837692778524
 21
316.7976304658796
  0
LINE
  5
A9
100
AcDbEntity
  8
Layer_1
  6
CONTINUOUS
 62
    7
370
    0
100
AcDbLine
 10
258.5837692778524
 20
316.7976304658796
 11
259.3600433160686
 21
317.0837925256459
  0
LINE
  5
AA
100
AcDbEntity
  8
Layer_1
  6
CONTINUOUS
 62
    7
370
    0
100
AcDbLine
 10
259.3600433160686
 20
317.0837925256459
 11
260.1504886116109
 21
317.3831110159786
  0
LINE
  5
AB
100
AcDbEntity
  8
Layer_1
  6
CONTINUOUS
 62
    7
370
    0
100
AcDbLine
 10
260.1504886116109
 20
317.3831110159786
 11
260.9558037945017
 21
317.6956512104165
  0
LINE
  5
AC
100
AcDbEntity
  8
Layer_1
  6
CONTINUOUS
 62
    7
370
    0
100
AcDbLine
 10
260.9558037945017
 20
317.6956512104165
 11
261.7766874947635
 21
318.0214783824987
  0
LINE
  5
AD
100
AcDbEntity
  8
Layer_1
  6
CONTINUOUS
 62
    7
370
    0
100
AcDbLine
 10
261.7766874947635
 20
318.0214783824987
 11
262.6138383424188
 21
318.360657805764
  0
LINE
  5
AE
100
AcDbEntity
  8
Layer_1
  6
CONTINUOUS
 62
    7
370
    0
100
AcDbLine
 10
262.6138383424188
 20
318.360657805764
 11
263.4679549674901
 21
318.7132547537517
  0
LINE
  5
AF
100
AcDbEntity
  8
Layer_1
  6
CONTINUOUS
 62
    7
370
    0
100
AcDbLine
 10
263.4679549674901
 20
318.7132547537517
 11
264.339736
 21
319.0793345000006
  0
LINE
  5
B0
100
AcDbEntity
  8
Layer_1
  6
CONTINUOUS
 62
    7
370
    0
100
AcDbLine
 10
256.7822069124393
 20
316.1678394865581
 11
257.070940453308
 21
316.2645145438897
  0
LINE
  5
B1
100
AcDbEntity
  8
Layer_1
  6
CONTINUOUS
 62
    7
370
    0
100
AcDbLine
 10
246.2376833670739
 20
313.8220511824718
 11
246.7551010851491
 21
313.8709196850192
  0
LWPOLYLINE
  5
B2
100
AcDbEntity
  8
0
  6
ByLayer
 62
  256
370
   -1
100
AcDbPolyline
 90
    4
 70
    1
 43
0
 10
97.070961
 20
422.8168430000006
 10
416.8561424999999
 20
422.8168430000006
 10
416.8561424999999
 20
102.6060567434519
 10
97.070961
 20
102.6060567434519
  0
ENDSEC
  0
SECTION
  2
OBJECTS
  0
DICTIONARY
  5
C
330
0
100
AcDbDictionary
281
    1
  3
ACAD_GROUP
350
D
  0
DICTIONARY
  5
D
330
C
100
AcDbDictionary
281
    1
  0
ENDSEC
  0
EOF
