  0
SECTION
  2
HEADER
  9
$ACADVER
  1
AC1009
  9
$DWGCODEPAGE
  3
mac-roman
  9
$INSBASE
 10
0.0
 20
0.0
 30
0.0
  9
$EXTMIN
 10
911.0000000000016
 20
3.999999999999545
 30
0.0
  9
$EXTMAX
 10
1365.465847493026
 20
489.5000000000004
 30
0.0
  9
$LIMMIN
 10
0.0
 20
0.0
  9
$LIMMAX
 10
12.0
 20
9.0
  9
$ORTHOMODE
 70
     0
  9
$REGENMODE
 70
     1
  9
$FILLMODE
 70
     1
  9
$QTEXTMODE
 70
     0
  9
$MIRRTEXT
 70
     1
  9
$DRAGMODE
 70
     2
  9
$LTSCALE
 40
1.0
  9
$OSMODE
 70
    37
  9
$ATTMODE
 70
     1
  9
$TEXTSIZE
 40
0.2
  9
$TRACEWID
 40
0.05
  9
$TEXTSTYLE
  7
STANDARD
  9
$CLAYER
  8
NO_CUT!!!
  9
$CELTYPE
  6
BYLAYER
  9
$CECOLOR
 62
   256
  9
$DIMSCALE
 40
1.0
  9
$DIMASZ
 40
0.18
  9
$DIMEXO
 40
0.0625
  9
$DIMDLI
 40
0.38
  9
$DIMRND
 40
0.0
  9
$DIMDLE
 40
0.0
  9
$DIMEXE
 40
0.18
  9
$DIMTP
 40
0.0
  9
$DIMTM
 40
0.0
  9
$DIMTXT
 40
0.18
  9
$DIMCEN
 40
0.09
  9
$DIMTSZ
 40
0.0
  9
$DIMTOL
 70
     0
  9
$DIMLIM
 70
     0
  9
$DIMTIH
 70
     1
  9
$DIMTOH
 70
     1
  9
$DIMSE1
 70
     0
  9
$DIMSE2
 70
     0
  9
$DIMTAD
 70
     0
  9
$DIMZIN
 70
     0
  9
$DIMBLK
  1

  9
$DIMASO
 70
     1
  9
$DIMSHO
 70
     1
  9
$DIMPOST
  1

  9
$DIMAPOST
  1

  9
$DIMALT
 70
     0
  9
$DIMALTD
 70
     2
  9
$DIMALTF
 40
25.4
  9
$DIMLFAC
 40
1.0
  9
$DIMTOFL
 70
     0
  9
$DIMTVP
 40
0.0
  9
$DIMTIX
 70
     0
  9
$DIMSOXD
 70
     0
  9
$DIMSAH
 70
     0
  9
$DIMBLK1
  1

  9
$DIMBLK2
  1

  9
$DIMSTYLE
  2
STANDARD
  9
$DIMCLRD
 70
     0
  9
$DIMCLRE
 70
     0
  9
$DIMCLRT
 70
     0
  9
$DIMTFAC
 40
1.0
  9
$DIMGAP
 40
0.09
  9
$LUNITS
 70
     2
  9
$LUPREC
 70
     3
  9
$SKETCHINC
 40
0.1
  9
$FILLETRAD
 40
0.5
  9
$AUNITS
 70
     0
  9
$AUPREC
 70
     0
  9
$MENU
  1
.
  9
$ELEVATION
 40
0.0
  9
$PELEVATION
 40
0.0
  9
$THICKNESS
 40
0.0
  9
$LIMCHECK
 70
     0
  9
$CHAMFERA
 40
0.0
  9
$CHAMFERB
 40
0.0
  9
$SKPOLY
 70
     0
  9
$TDCREATE
 40
2457929.118819444
  9
$TDUPDATE
 40
2457929.118831018
  9
$TDINDWG
 40
0.0000000116
  9
$TDUSRTIMER
 40
0.0000000116
  9
$USRTIMER
 70
     1
  9
$ANGBASE
 50
0.0
  9
$ANGDIR
 70
     0
  9
$PDMODE
 70
     0
  9
$PDSIZE
 40
0.0
  9
$PLINEWID
 40
0.0
  9
$COORDS
 70
     1
  9
$SPLFRAME
 70
     0
  9
$SPLINETYPE
 70
     6
  9
$SPLINESEGS
 70
     8
  9
$ATTDIA
 70
     0
  9
$ATTREQ
 70
     1
  9
$HANDLING
 70
     1
  9
$HANDSEED
  5
1CB
  9
$SURFTAB1
 70
     6
  9
$SURFTAB2
 70
     6
  9
$SURFTYPE
 70
     6
  9
$SURFU
 70
     6
  9
$SURFV
 70
     6
  9
$UCSNAME
  2

  9
$UCSORG
 10
0.0
 20
0.0
 30
0.0
  9
$UCSXDIR
 10
1.0
 20
0.0
 30
0.0
  9
$UCSYDIR
 10
0.0
 20
1.0
 30
0.0
  9
$PUCSNAME
  2

  9
$PUCSORG
 10
0.0
 20
0.0
 30
0.0
  9
$PUCSXDIR
 10
1.0
 20
0.0
 30
0.0
  9
$PUCSYDIR
 10
0.0
 20
1.0
 30
0.0
  9
$USERI1
 70
     0
  9
$USERI2
 70
     0
  9
$USERI3
 70
     0
  9
$USERI4
 70
     0
  9
$USERI5
 70
     0
  9
$USERR1
 40
0.0
  9
$USERR2
 40
0.0
  9
$USERR3
 40
0.0
  9
$USERR4
 40
0.0
  9
$USERR5
 40
0.0
  9
$WORLDVIEW
 70
     1
  9
$SHADEDGE
 70
     3
  9
$SHADEDIF
 70
    70
  9
$TILEMODE
 70
     1
  9
$MAXACTVP
 70
    64
  9
$PLIMCHECK
 70
     0
  9
$PEXTMIN
 10
1.000000000000000E+20
 20
1.000000000000000E+20
 30
1.000000000000000E+20
  9
$PEXTMAX
 10
-1.000000000000000E+20
 20
-1.000000000000000E+20
 30
-1.000000000000000E+20
  9
$PLIMMIN
 10
0.0
 20
0.0
  9
$PLIMMAX
 10
12.0
 20
9.0
  9
$UNITMODE
 70
     0
  9
$VISRETAIN
 70
     1
  9
$PLINEGEN
 70
     0
  9
$PSLTSCALE
 70
     1
  0
ENDSEC
  0
SECTION
  2
TABLES
  0
TABLE
  2
VPORT
 70
     1
  0
VPORT
  2
*ACTIVE
 70
     0
 10
0.0
 20
0.0
 11
1.0
 21
1.0
 12
1138.232923746514
 22
246.75
 13
0.0
 23
0.0
 14
0.5
 24
0.5
 15
0.5
 25
0.5
 16
0.0
 26
0.0
 36
1.0
 17
0.0
 27
0.0
 37
0.0
 40
495.2100000000009
 41
0.936077955701388
 42
50.0
 43
0.0
 44
0.0
 50
0.0
 51
0.0
 71
     0
 72
   100
 73
     1
 74
     3
 75
     0
 76
     0
 77
     0
 78
     0
  0
ENDTAB
  0
TABLE
  2
LTYPE
 70
     1
  0
LTYPE
  2
CONTINUOUS
 70
     0
  3
Solid line
 72
    65
 73
     0
 40
0.0
  0
ENDTAB
  0
TABLE
  2
LAYER
 70
     9
  0
LAYER
  2
0
 70
     0
 62
     7
  6
CONTINUOUS
  0
LAYER
  2
2D-MILL_14MM_PLYWOOD$MILL-
 70
     0
 62
     3
  6
CONTINUOUS
  0
LAYER
  2
NO_CUT!!!
 70
     0
 62
     7
  6
CONTINUOUS
  0
LAYER
  2
MILL_8_5MM_POCKET
 70
     0
 62
    30
  6
CONTINUOUS
  0
LAYER
  2
MILL_16MM_POCKET
 70
     0
 62
     6
  6
CONTINUOUS
  0
LAYER
  2
MILL_4MM_POCKET
 70
     0
 62
     5
  6
CONTINUOUS
  0
LAYER
  2
2D-MILL_14MM_PLYWOOD$MILL_
 70
     0
 62
     1
  6
CONTINUOUS
  0
LAYER
  2
2D-MILL_14MM_PLYWOOD$MILL0
 70
     0
 62
     5
  6
CONTINUOUS
  0
LAYER
  2
2D-MILL_14MM_PLYWOOD$MILL1
 70
     0
 62
     6
  6
CONTINUOUS
  0
ENDTAB
  0
TABLE
  2
STYLE
 70
     1
  0
STYLE
  2
STANDARD
 70
     0
 40
0.0
 41
1.0
 50
0.0
 71
     0
 42
0.2
  3
txt
  4

  0
ENDTAB
  0
TABLE
  2
VIEW
 70
     0
  0
ENDTAB
  0
TABLE
  2
UCS
 70
     0
  0
ENDTAB
  0
TABLE
  2
APPID
 70
     1
  0
APPID
  2
ACAD
 70
     0
  0
ENDTAB
  0
TABLE
  2
DIMSTYLE
 70
     1
  0
DIMSTYLE
  2
STANDARD
 70
     0
  3

  4

  5

  6

  7

 40
1.0
 41
0.18
 42
0.0625
 43
0.38
 44
0.18
 45
0.0
 46
0.0
 47
0.0
 48
0.0
140
0.18
141
0.09
142
0.0
143
25.4
144
1.0
145
0.0
146
1.0
147
0.09
 71
     0
 72
     0
 73
     1
 74
     1
 75
     0
 76
     0
 77
     0
 78
     0
170
     0
171
     2
172
     0
173
     0
174
     0
175
     0
176
     0
177
     0
178
     0
  0
ENDTAB
  0
ENDSEC
  0
SECTION
  2
BLOCKS
  0
BLOCK
  8
0
  2
$MODEL_SPACE
 70
     0
 10
0.0
 20
0.0
 30
0.0
  3
$MODEL_SPACE
  1

  0
ENDBLK
  5
21
  8
0
  0
BLOCK
 67
     1
  8
0
  2
$PAPER_SPACE
 70
     0
 10
0.0
 20
0.0
 30
0.0
  3
$PAPER_SPACE
  1

  0
ENDBLK
  5
1D
 67
     1
  8
0
  0
ENDSEC
  0
SECTION
  2
ENTITIES
  0
POLYLINE
  5
6F
  8
2D-MILL_14MM_PLYWOOD$MILL-
 66
     1
 10
0.0
 20
0.0
 30
0.0
 70
     1
  0
VERTEX
  5
70
  8
2D-MILL_14MM_PLYWOOD$MILL-
 10
951.0000000000016
 20
23.02651515151535
 30
0.0
 42
-1.000000000000214
  0
VERTEX
  5
71
  8
2D-MILL_14MM_PLYWOOD$MILL-
 10
955.2500000000011
 20
23.02651515151535
 30
0.0
  0
VERTEX
  5
72
  8
2D-MILL_14MM_PLYWOOD$MILL-
 10
955.2500000000016
 20
20.00000000000023
 30
0.0
  0
VERTEX
  5
73
  8
2D-MILL_14MM_PLYWOOD$MILL-
 10
960.8000000000015
 20
20.00000000000023
 30
0.0
  0
VERTEX
  5
74
  8
2D-MILL_14MM_PLYWOOD$MILL-
 10
960.8000000000015
 20
475.9999999999999
 30
0.0
  0
VERTEX
  5
75
  8
2D-MILL_14MM_PLYWOOD$MILL-
 10
955.2500000000016
 20
475.9999999999994
 30
0.0
  0
VERTEX
  5
76
  8
2D-MILL_14MM_PLYWOOD$MILL-
 10
955.2500000000016
 20
472.9734848484842
 30
0.0
 42
-0.9999999999999731
  0
VERTEX
  5
77
  8
2D-MILL_14MM_PLYWOOD$MILL-
 10
951.0000000000018
 20
472.9734848484842
 30
0.0
  0
VERTEX
  5
78
  8
2D-MILL_14MM_PLYWOOD$MILL-
 10
951.0000000000016
 20
484.9999999999997
 30
0.0
  0
VERTEX
  5
79
  8
2D-MILL_14MM_PLYWOOD$MILL-
 10
931.0000000000016
 20
484.9999999999997
 30
0.0
  0
VERTEX
  5
7A
  8
2D-MILL_14MM_PLYWOOD$MILL-
 10
931.0000000000015
 20
472.9734848484842
 30
0.0
 42
-0.9999999999997323
  0
VERTEX
  5
7B
  8
2D-MILL_14MM_PLYWOOD$MILL-
 10
926.7500000000019
 20
472.9734848484842
 30
0.0
  0
VERTEX
  5
7C
  8
2D-MILL_14MM_PLYWOOD$MILL-
 10
926.7500000000016
 20
475.9999999999994
 30
0.0
  0
VERTEX
  5
7D
  8
2D-MILL_14MM_PLYWOOD$MILL-
 10
921.0000000000016
 20
475.9999999999994
 30
0.0
  0
VERTEX
  5
7E
  8
2D-MILL_14MM_PLYWOOD$MILL-
 10
921.0000000000015
 20
20.00000000000023
 30
0.0
  0
VERTEX
  5
7F
  8
2D-MILL_14MM_PLYWOOD$MILL-
 10
926.7500000000015
 20
20.00000000000023
 30
0.0
  0
VERTEX
  5
80
  8
2D-MILL_14MM_PLYWOOD$MILL-
 10
926.7500000000015
 20
23.02651515151535
 30
0.0
 42
-0.9999999999999097
  0
VERTEX
  5
81
  8
2D-MILL_14MM_PLYWOOD$MILL-
 10
931.0000000000013
 20
23.02651515151535
 30
0.0
  0
VERTEX
  5
82
  8
2D-MILL_14MM_PLYWOOD$MILL-
 10
931.0000000000016
 20
11.00000000000028
 30
0.0
  0
VERTEX
  5
83
  8
2D-MILL_14MM_PLYWOOD$MILL-
 10
951.0000000000016
 20
11.00000000000017
 30
0.0
  0
SEQEND
  5
84
  8
2D-MILL_14MM_PLYWOOD$MILL-
  0
POLYLINE
  5
87
  8
MILL_8_5MM_POCKET
 66
     1
 10
0.0
 20
0.0
 30
0.0
 70
     1
  0
VERTEX
  5
88
  8
MILL_8_5MM_POCKET
 10
1348.932514159692
 20
210.9999999999993
 30
0.0
  0
VERTEX
  5
89
  8
MILL_8_5MM_POCKET
 10
1348.932514159693
 20
278.9999999999993
 30
0.0
  0
VERTEX
  5
8A
  8
MILL_8_5MM_POCKET
 10
1341.715089854649
 20
278.9999999999993
 30
0.0
 42
0.6546536707080146
  0
VERTEX
  5
8B
  8
MILL_8_5MM_POCKET
 10
1332.549938464737
 20
278.9999999999995
 30
0.0
  0
VERTEX
  5
8C
  8
MILL_8_5MM_POCKET
 10
1324.132514159693
 20
278.9999999999993
 30
0.0
  0
VERTEX
  5
8D
  8
MILL_8_5MM_POCKET
 10
1324.132514159693
 20
210.9999999999993
 30
0.0
  0
VERTEX
  5
8E
  8
MILL_8_5MM_POCKET
 10
1332.549938464737
 20
210.9999999999993
 30
0.0
 42
0.6546536707080135
  0
VERTEX
  5
8F
  8
MILL_8_5MM_POCKET
 10
1341.715089854648
 20
210.9999999999994
 30
0.0
  0
SEQEND
  5
90
  8
MILL_8_5MM_POCKET
  0
POLYLINE
  5
92
  8
MILL_16MM_POCKET
 66
     1
 10
0.0
 20
0.0
 30
0.0
 70
     1
  0
VERTEX
  5
93
  8
MILL_16MM_POCKET
 10
1348.932514159693
 20
210.9999999999993
 30
0.0
  0
VERTEX
  5
94
  8
MILL_16MM_POCKET
 10
1352.132514159693
 20
210.9999999999993
 30
0.0
  0
VERTEX
  5
95
  8
MILL_16MM_POCKET
 10
1352.132514159693
 20
278.9999999999993
 30
0.0
  0
VERTEX
  5
96
  8
MILL_16MM_POCKET
 10
1348.932514159693
 20
278.9999999999993
 30
0.0
  0
SEQEND
  5
97
  8
MILL_16MM_POCKET
  0
POLYLINE
  5
98
  8
NO_CUT!!!
 66
     1
 10
0.0
 20
0.0
 30
0.0
 70
     1
  0
VERTEX
  5
99
  8
NO_CUT!!!
 10
1365.465847493026
 20
6.999999999999346
 30
0.0
  0
VERTEX
  5
9A
  8
NO_CUT!!!
 10
1365.465847493026
 20
482.9999999999993
 30
0.0
  0
VERTEX
  5
9B
  8
NO_CUT!!!
 10
1280.465847493026
 20
482.9999999999993
 30
0.0
  0
VERTEX
  5
9C
  8
NO_CUT!!!
 10
1280.465847493026
 20
6.999999999999346
 30
0.0
  0
SEQEND
  5
9D
  8
NO_CUT!!!
  0
POLYLINE
  5
9F
  8
MILL_4MM_POCKET
 66
     1
 10
0.0
 20
0.0
 30
0.0
 70
     1
  0
VERTEX
  5
A0
  8
MILL_4MM_POCKET
 10
1353.632514159693
 20
207.9999999999993
 30
0.0
  0
VERTEX
  5
A1
  8
MILL_4MM_POCKET
 10
1321.132514159693
 20
207.9999999999993
 30
0.0
  0
VERTEX
  5
A2
  8
MILL_4MM_POCKET
 10
1321.132514159693
 20
281.9999999999993
 30
0.0
  0
VERTEX
  5
A3
  8
MILL_4MM_POCKET
 10
1353.632514159693
 20
281.9999999999993
 30
0.0
  0
SEQEND
  5
A4
  8
MILL_4MM_POCKET
  0
POLYLINE
  5
A6
  8
2D-MILL_14MM_PLYWOOD$MILL_
 66
     1
 10
0.0
 20
0.0
 30
0.0
 70
     1
  0
VERTEX
  5
A7
  8
2D-MILL_14MM_PLYWOOD$MILL_
 10
1052.0
 20
482.4999999999995
 30
0.0
  0
VERTEX
  5
A8
  8
2D-MILL_14MM_PLYWOOD$MILL_
 10
1059.0
 20
482.4999999999995
 30
0.0
  0
VERTEX
  5
A9
  8
2D-MILL_14MM_PLYWOOD$MILL_
 10
1059.0
 20
489.4999999999995
 30
0.0
  0
VERTEX
  5
AA
  8
2D-MILL_14MM_PLYWOOD$MILL_
 10
1052.0
 20
489.4999999999995
 30
0.0
  0
SEQEND
  5
AB
  8
2D-MILL_14MM_PLYWOOD$MILL_
  0
POLYLINE
  5
AC
  8
2D-MILL_14MM_PLYWOOD$MILL_
 66
     1
 10
0.0
 20
0.0
 30
0.0
 70
     1
  0
VERTEX
  5
AD
  8
2D-MILL_14MM_PLYWOOD$MILL_
 10
1150.0
 20
482.5000000000004
 30
0.0
  0
VERTEX
  5
AE
  8
2D-MILL_14MM_PLYWOOD$MILL_
 10
1157.0
 20
482.5000000000004
 30
0.0
  0
VERTEX
  5
AF
  8
2D-MILL_14MM_PLYWOOD$MILL_
 10
1157.0
 20
489.5000000000004
 30
0.0
  0
VERTEX
  5
B0
  8
2D-MILL_14MM_PLYWOOD$MILL_
 10
1150.0
 20
489.5000000000004
 30
0.0
  0
SEQEND
  5
B1
  8
2D-MILL_14MM_PLYWOOD$MILL_
  0
POLYLINE
  5
B2
  8
2D-MILL_14MM_PLYWOOD$MILL_
 66
     1
 10
0.0
 20
0.0
 30
0.0
 70
     1
  0
VERTEX
  5
B3
  8
2D-MILL_14MM_PLYWOOD$MILL_
 10
1052.0
 20
244.4999999999994
 30
0.0
  0
VERTEX
  5
B4
  8
2D-MILL_14MM_PLYWOOD$MILL_
 10
1059.0
 20
244.4999999999994
 30
0.0
  0
VERTEX
  5
B5
  8
2D-MILL_14MM_PLYWOOD$MILL_
 10
1059.0
 20
251.4999999999994
 30
0.0
  0
VERTEX
  5
B6
  8
2D-MILL_14MM_PLYWOOD$MILL_
 10
1052.0
 20
251.4999999999994
 30
0.0
  0
SEQEND
  5
B7
  8
2D-MILL_14MM_PLYWOOD$MILL_
  0
POLYLINE
  5
B8
  8
2D-MILL_14MM_PLYWOOD$MILL_
 66
     1
 10
0.0
 20
0.0
 30
0.0
 70
     1
  0
VERTEX
  5
B9
  8
2D-MILL_14MM_PLYWOOD$MILL_
 10
1150.0
 20
244.5000000000004
 30
0.0
  0
VERTEX
  5
BA
  8
2D-MILL_14MM_PLYWOOD$MILL_
 10
1157.0
 20
244.5000000000004
 30
0.0
  0
VERTEX
  5
BB
  8
2D-MILL_14MM_PLYWOOD$MILL_
 10
1157.0
 20
251.5000000000004
 30
0.0
  0
VERTEX
  5
BC
  8
2D-MILL_14MM_PLYWOOD$MILL_
 10
1150.0
 20
251.5000000000004
 30
0.0
  0
SEQEND
  5
BD
  8
2D-MILL_14MM_PLYWOOD$MILL_
  0
POLYLINE
  5
BE
  8
2D-MILL_14MM_PLYWOOD$MILL_
 66
     1
 10
0.0
 20
0.0
 30
0.0
 70
     1
  0
VERTEX
  5
BF
  8
2D-MILL_14MM_PLYWOOD$MILL_
 10
1150.0
 20
66.50000000000102
 30
0.0
  0
VERTEX
  5
C0
  8
2D-MILL_14MM_PLYWOOD$MILL_
 10
1157.0
 20
66.50000000000102
 30
0.0
  0
VERTEX
  5
C1
  8
2D-MILL_14MM_PLYWOOD$MILL_
 10
1157.0
 20
73.50000000000102
 30
0.0
  0
VERTEX
  5
C2
  8
2D-MILL_14MM_PLYWOOD$MILL_
 10
1150.0
 20
73.50000000000102
 30
0.0
  0
SEQEND
  5
C3
  8
2D-MILL_14MM_PLYWOOD$MILL_
  0
POLYLINE
  5
C4
  8
2D-MILL_14MM_PLYWOOD$MILL_
 66
     1
 10
0.0
 20
0.0
 30
0.0
 70
     1
  0
VERTEX
  5
C5
  8
2D-MILL_14MM_PLYWOOD$MILL_
 10
1052.0
 20
66.5
 30
0.0
  0
VERTEX
  5
C6
  8
2D-MILL_14MM_PLYWOOD$MILL_
 10
1059.0
 20
66.5
 30
0.0
  0
VERTEX
  5
C7
  8
2D-MILL_14MM_PLYWOOD$MILL_
 10
1059.0
 20
73.5
 30
0.0
  0
VERTEX
  5
C8
  8
2D-MILL_14MM_PLYWOOD$MILL_
 10
1052.0
 20
73.5
 30
0.0
  0
SEQEND
  5
C9
  8
2D-MILL_14MM_PLYWOOD$MILL_
  0
POLYLINE
  5
CA
  8
2D-MILL_14MM_PLYWOOD$MILL_
 66
     1
 10
0.0
 20
0.0
 30
0.0
 70
     1
  0
VERTEX
  5
CB
  8
2D-MILL_14MM_PLYWOOD$MILL_
 10
911.0000000000016
 20
244.5000000000004
 30
0.0
  0
VERTEX
  5
CC
  8
2D-MILL_14MM_PLYWOOD$MILL_
 10
918.0000000000016
 20
244.5000000000004
 30
0.0
  0
VERTEX
  5
CD
  8
2D-MILL_14MM_PLYWOOD$MILL_
 10
918.0000000000016
 20
251.5000000000004
 30
0.0
  0
VERTEX
  5
CE
  8
2D-MILL_14MM_PLYWOOD$MILL_
 10
911.0000000000016
 20
251.5000000000004
 30
0.0
  0
SEQEND
  5
CF
  8
2D-MILL_14MM_PLYWOOD$MILL_
  0
POLYLINE
  5
D0
  8
2D-MILL_14MM_PLYWOOD$MILL_
 66
     1
 10
0.0
 20
0.0
 30
0.0
 70
     1
  0
VERTEX
  5
D1
  8
2D-MILL_14MM_PLYWOOD$MILL_
 10
911.0000000000016
 20
482.5000000000004
 30
0.0
  0
VERTEX
  5
D2
  8
2D-MILL_14MM_PLYWOOD$MILL_
 10
918.0000000000016
 20
482.5000000000004
 30
0.0
  0
VERTEX
  5
D3
  8
2D-MILL_14MM_PLYWOOD$MILL_
 10
918.0000000000016
 20
489.5000000000004
 30
0.0
  0
VERTEX
  5
D4
  8
2D-MILL_14MM_PLYWOOD$MILL_
 10
911.0000000000016
 20
489.5000000000004
 30
0.0
  0
SEQEND
  5
D5
  8
2D-MILL_14MM_PLYWOOD$MILL_
  0
POLYLINE
  5
D6
  8
2D-MILL_14MM_PLYWOOD$MILL-
 66
     1
 10
0.0
 20
0.0
 30
0.0
 70
     1
  0
VERTEX
  5
D7
  8
2D-MILL_14MM_PLYWOOD$MILL-
 10
1062.0
 20
6.999999999999204
 30
0.0
  0
VERTEX
  5
D8
  8
2D-MILL_14MM_PLYWOOD$MILL-
 10
1147.0
 20
6.999999999999204
 30
0.0
  0
VERTEX
  5
D9
  8
2D-MILL_14MM_PLYWOOD$MILL-
 10
1147.0
 20
482.9999999999987
 30
0.0
  0
VERTEX
  5
DA
  8
2D-MILL_14MM_PLYWOOD$MILL-
 10
1062.0
 20
482.9999999999992
 30
0.0
  0
SEQEND
  5
DB
  8
2D-MILL_14MM_PLYWOOD$MILL-
  0
POLYLINE
  5
DD
  8
2D-MILL_14MM_PLYWOOD$MILL0
 66
     1
 10
0.0
 20
0.0
 30
0.0
 70
     1
  0
VERTEX
  5
DE
  8
2D-MILL_14MM_PLYWOOD$MILL0
 10
1142.75
 20
472.9999999999994
 30
0.0
  0
VERTEX
  5
DF
  8
2D-MILL_14MM_PLYWOOD$MILL0
 10
1142.75
 20
470.9999999999994
 30
0.0
 42
-1.000000000000067
  0
VERTEX
  5
E0
  8
2D-MILL_14MM_PLYWOOD$MILL0
 10
1138.5
 20
470.9999999999994
 30
0.0
  0
VERTEX
  5
E1
  8
2D-MILL_14MM_PLYWOOD$MILL0
 10
1138.5
 20
485.9999999999994
 30
0.0
  0
VERTEX
  5
E2
  8
2D-MILL_14MM_PLYWOOD$MILL0
 10
1147.0
 20
485.9999999999994
 30
0.0
  0
VERTEX
  5
E3
  8
2D-MILL_14MM_PLYWOOD$MILL0
 10
1147.0
 20
472.9999999999994
 30
0.0
  0
SEQEND
  5
E4
  8
2D-MILL_14MM_PLYWOOD$MILL0
  0
POLYLINE
  5
E5
  8
2D-MILL_14MM_PLYWOOD$MILL0
 66
     1
 10
0.0
 20
0.0
 30
0.0
 70
     1
  0
VERTEX
  5
E6
  8
2D-MILL_14MM_PLYWOOD$MILL0
 10
1125.75
 20
470.9999999999994
 30
0.0
 42
-1.000000000000107
  0
VERTEX
  5
E7
  8
2D-MILL_14MM_PLYWOOD$MILL0
 10
1121.5
 20
470.9999999999994
 30
0.0
  0
VERTEX
  5
E8
  8
2D-MILL_14MM_PLYWOOD$MILL0
 10
1121.5
 20
485.9999999999994
 30
0.0
  0
VERTEX
  5
E9
  8
2D-MILL_14MM_PLYWOOD$MILL0
 10
1125.75
 20
485.9999999999994
 30
0.0
  0
SEQEND
  5
EA
  8
2D-MILL_14MM_PLYWOOD$MILL0
  0
POLYLINE
  5
EB
  8
2D-MILL_14MM_PLYWOOD$MILL0
 66
     1
 10
0.0
 20
0.0
 30
0.0
 70
     1
  0
VERTEX
  5
EC
  8
2D-MILL_14MM_PLYWOOD$MILL0
 10
1066.25
 20
9.999999999999659
 30
0.0
  0
VERTEX
  5
ED
  8
2D-MILL_14MM_PLYWOOD$MILL0
 10
1066.25
 20
11.99999999999966
 30
0.0
 42
-1.000000000000053
  0
VERTEX
  5
EE
  8
2D-MILL_14MM_PLYWOOD$MILL0
 10
1070.5
 20
11.99999999999966
 30
0.0
  0
VERTEX
  5
EF
  8
2D-MILL_14MM_PLYWOOD$MILL0
 10
1070.5
 20
3.999999999999659
 30
0.0
  0
VERTEX
  5
F0
  8
2D-MILL_14MM_PLYWOOD$MILL0
 10
1062.0
 20
3.999999999999659
 30
0.0
  0
VERTEX
  5
F1
  8
2D-MILL_14MM_PLYWOOD$MILL0
 10
1062.0
 20
9.999999999999432
 30
0.0
  0
SEQEND
  5
F2
  8
2D-MILL_14MM_PLYWOOD$MILL0
  0
POLYLINE
  5
F3
  8
2D-MILL_14MM_PLYWOOD$MILL0
 66
     1
 10
0.0
 20
0.0
 30
0.0
 70
     1
  0
VERTEX
  5
F4
  8
2D-MILL_14MM_PLYWOOD$MILL0
 10
1125.75
 20
18.99999999999966
 30
0.0
 42
-1.000000000000053
  0
VERTEX
  5
F5
  8
2D-MILL_14MM_PLYWOOD$MILL0
 10
1130.0
 20
18.99999999999966
 30
0.0
  0
VERTEX
  5
F6
  8
2D-MILL_14MM_PLYWOOD$MILL0
 10
1134.25
 20
18.99999999999966
 30
0.0
 42
-1.000000000000002
  0
VERTEX
  5
F7
  8
2D-MILL_14MM_PLYWOOD$MILL0
 10
1138.5
 20
18.99999999999966
 30
0.0
  0
VERTEX
  5
F8
  8
2D-MILL_14MM_PLYWOOD$MILL0
 10
1138.5
 20
3.999999999999659
 30
0.0
  0
VERTEX
  5
F9
  8
2D-MILL_14MM_PLYWOOD$MILL0
 10
1125.75
 20
3.999999999999659
 30
0.0
  0
SEQEND
  5
FA
  8
2D-MILL_14MM_PLYWOOD$MILL0
  0
POLYLINE
  5
FB
  8
2D-MILL_14MM_PLYWOOD$MILL0
 66
     1
 10
0.0
 20
0.0
 30
0.0
 70
     1
  0
VERTEX
  5
FC
  8
2D-MILL_14MM_PLYWOOD$MILL0
 10
1117.25
 20
18.99999999999966
 30
0.0
 42
-1.000000000000053
  0
VERTEX
  5
FD
  8
2D-MILL_14MM_PLYWOOD$MILL0
 10
1121.5
 20
18.99999999999966
 30
0.0
  0
VERTEX
  5
FE
  8
2D-MILL_14MM_PLYWOOD$MILL0
 10
1121.5
 20
3.999999999999659
 30
0.0
  0
VERTEX
  5
FF
  8
2D-MILL_14MM_PLYWOOD$MILL0
 10
1117.25
 20
3.999999999999659
 30
0.0
  0
SEQEND
  5
100
  8
2D-MILL_14MM_PLYWOOD$MILL0
  0
POLYLINE
  5
101
  8
2D-MILL_14MM_PLYWOOD$MILL0
 66
     1
 10
0.0
 20
0.0
 30
0.0
 70
     1
  0
VERTEX
  5
102
  8
2D-MILL_14MM_PLYWOOD$MILL0
 10
1108.75
 20
18.99999999999966
 30
0.0
 42
-1.000000000000053
  0
VERTEX
  5
103
  8
2D-MILL_14MM_PLYWOOD$MILL0
 10
1113.0
 20
18.99999999999966
 30
0.0
  0
VERTEX
  5
104
  8
2D-MILL_14MM_PLYWOOD$MILL0
 10
1113.0
 20
3.999999999999659
 30
0.0
  0
VERTEX
  5
105
  8
2D-MILL_14MM_PLYWOOD$MILL0
 10
1108.75
 20
3.999999999999659
 30
0.0
  0
SEQEND
  5
106
  8
2D-MILL_14MM_PLYWOOD$MILL0
  0
POLYLINE
  5
107
  8
2D-MILL_14MM_PLYWOOD$MILL0
 66
     1
 10
0.0
 20
0.0
 30
0.0
 70
     1
  0
VERTEX
  5
108
  8
2D-MILL_14MM_PLYWOOD$MILL0
 10
1100.25
 20
18.99999999999966
 30
0.0
 42
-1.000000000000029
  0
VERTEX
  5
109
  8
2D-MILL_14MM_PLYWOOD$MILL0
 10
1104.5
 20
18.99999999999966
 30
0.0
  0
VERTEX
  5
10A
  8
2D-MILL_14MM_PLYWOOD$MILL0
 10
1104.5
 20
3.999999999999659
 30
0.0
  0
VERTEX
  5
10B
  8
2D-MILL_14MM_PLYWOOD$MILL0
 10
1100.25
 20
3.999999999999659
 30
0.0
  0
SEQEND
  5
10C
  8
2D-MILL_14MM_PLYWOOD$MILL0
  0
POLYLINE
  5
10D
  8
2D-MILL_14MM_PLYWOOD$MILL0
 66
     1
 10
0.0
 20
0.0
 30
0.0
 70
     1
  0
VERTEX
  5
10E
  8
2D-MILL_14MM_PLYWOOD$MILL0
 10
1091.75
 20
11.99999999999966
 30
0.0
 42
-0.9999999999999465
  0
VERTEX
  5
10F
  8
2D-MILL_14MM_PLYWOOD$MILL0
 10
1096.0
 20
11.99999999999966
 30
0.0
  0
VERTEX
  5
110
  8
2D-MILL_14MM_PLYWOOD$MILL0
 10
1096.0
 20
3.999999999999659
 30
0.0
  0
VERTEX
  5
111
  8
2D-MILL_14MM_PLYWOOD$MILL0
 10
1091.75
 20
3.999999999999659
 30
0.0
  0
SEQEND
  5
112
  8
2D-MILL_14MM_PLYWOOD$MILL0
  0
POLYLINE
  5
113
  8
2D-MILL_14MM_PLYWOOD$MILL0
 66
     1
 10
0.0
 20
0.0
 30
0.0
 70
     1
  0
VERTEX
  5
114
  8
2D-MILL_14MM_PLYWOOD$MILL0
 10
1083.25
 20
11.99999999999966
 30
0.0
 42
-1.000000000000053
  0
VERTEX
  5
115
  8
2D-MILL_14MM_PLYWOOD$MILL0
 10
1087.5
 20
11.99999999999966
 30
0.0
  0
VERTEX
  5
116
  8
2D-MILL_14MM_PLYWOOD$MILL0
 10
1087.5
 20
3.999999999999659
 30
0.0
  0
VERTEX
  5
117
  8
2D-MILL_14MM_PLYWOOD$MILL0
 10
1083.25
 20
3.999999999999659
 30
0.0
  0
SEQEND
  5
118
  8
2D-MILL_14MM_PLYWOOD$MILL0
  0
POLYLINE
  5
119
  8
2D-MILL_14MM_PLYWOOD$MILL0
 66
     1
 10
0.0
 20
0.0
 30
0.0
 70
     1
  0
VERTEX
  5
11A
  8
2D-MILL_14MM_PLYWOOD$MILL0
 10
1083.25
 20
477.9999999999994
 30
0.0
 42
-0.9999999999999332
  0
VERTEX
  5
11B
  8
2D-MILL_14MM_PLYWOOD$MILL0
 10
1079.0
 20
477.9999999999994
 30
0.0
  0
VERTEX
  5
11C
  8
2D-MILL_14MM_PLYWOOD$MILL0
 10
1074.75
 20
477.9999999999994
 30
0.0
 42
-0.9999999999999465
  0
VERTEX
  5
11D
  8
2D-MILL_14MM_PLYWOOD$MILL0
 10
1070.5
 20
477.9999999999994
 30
0.0
  0
VERTEX
  5
11E
  8
2D-MILL_14MM_PLYWOOD$MILL0
 10
1070.5
 20
485.9999999999994
 30
0.0
  0
VERTEX
  5
11F
  8
2D-MILL_14MM_PLYWOOD$MILL0
 10
1083.25
 20
485.9999999999994
 30
0.0
  0
SEQEND
  5
120
  8
2D-MILL_14MM_PLYWOOD$MILL0
  0
POLYLINE
  5
121
  8
2D-MILL_14MM_PLYWOOD$MILL0
 66
     1
 10
0.0
 20
0.0
 30
0.0
 70
     1
  0
VERTEX
  5
122
  8
2D-MILL_14MM_PLYWOOD$MILL0
 10
1091.75
 20
477.9999999999994
 30
0.0
 42
-0.9999999999999465
  0
VERTEX
  5
123
  8
2D-MILL_14MM_PLYWOOD$MILL0
 10
1087.5
 20
477.9999999999994
 30
0.0
  0
VERTEX
  5
124
  8
2D-MILL_14MM_PLYWOOD$MILL0
 10
1087.5
 20
485.9999999999994
 30
0.0
  0
VERTEX
  5
125
  8
2D-MILL_14MM_PLYWOOD$MILL0
 10
1091.75
 20
485.9999999999994
 30
0.0
  0
SEQEND
  5
126
  8
2D-MILL_14MM_PLYWOOD$MILL0
  0
POLYLINE
  5
127
  8
2D-MILL_14MM_PLYWOOD$MILL0
 66
     1
 10
0.0
 20
0.0
 30
0.0
 70
     1
  0
VERTEX
  5
128
  8
2D-MILL_14MM_PLYWOOD$MILL0
 10
1100.25
 20
477.9999999999994
 30
0.0
 42
-0.9999999999999999
  0
VERTEX
  5
129
  8
2D-MILL_14MM_PLYWOOD$MILL0
 10
1096.0
 20
477.9999999999994
 30
0.0
  0
VERTEX
  5
12A
  8
2D-MILL_14MM_PLYWOOD$MILL0
 10
1096.0
 20
485.9999999999994
 30
0.0
  0
VERTEX
  5
12B
  8
2D-MILL_14MM_PLYWOOD$MILL0
 10
1100.25
 20
485.9999999999994
 30
0.0
  0
SEQEND
  5
12C
  8
2D-MILL_14MM_PLYWOOD$MILL0
  0
POLYLINE
  5
12D
  8
2D-MILL_14MM_PLYWOOD$MILL0
 66
     1
 10
0.0
 20
0.0
 30
0.0
 70
     1
  0
VERTEX
  5
12E
  8
2D-MILL_14MM_PLYWOOD$MILL0
 10
1108.75
 20
470.9999999999994
 30
0.0
 42
-0.9999999999999999
  0
VERTEX
  5
12F
  8
2D-MILL_14MM_PLYWOOD$MILL0
 10
1104.499999999999
 20
470.9999999999994
 30
0.0
  0
VERTEX
  5
130
  8
2D-MILL_14MM_PLYWOOD$MILL0
 10
1104.5
 20
485.9999999999994
 30
0.0
  0
VERTEX
  5
131
  8
2D-MILL_14MM_PLYWOOD$MILL0
 10
1108.75
 20
485.9999999999994
 30
0.0
  0
SEQEND
  5
132
  8
2D-MILL_14MM_PLYWOOD$MILL0
  0
POLYLINE
  5
133
  8
2D-MILL_14MM_PLYWOOD$MILL0
 66
     1
 10
0.0
 20
0.0
 30
0.0
 70
     1
  0
VERTEX
  5
134
  8
2D-MILL_14MM_PLYWOOD$MILL0
 10
1117.25
 20
470.9999999999994
 30
0.0
 42
-0.9999999999998529
  0
VERTEX
  5
135
  8
2D-MILL_14MM_PLYWOOD$MILL0
 10
1113.000000000001
 20
470.9999999999994
 30
0.0
  0
VERTEX
  5
136
  8
2D-MILL_14MM_PLYWOOD$MILL0
 10
1113.0
 20
485.9999999999994
 30
0.0
  0
VERTEX
  5
137
  8
2D-MILL_14MM_PLYWOOD$MILL0
 10
1117.25
 20
485.9999999999994
 30
0.0
  0
SEQEND
  5
138
  8
2D-MILL_14MM_PLYWOOD$MILL0
  0
POLYLINE
  5
13A
  8
2D-MILL_14MM_PLYWOOD$MILL1
 66
     1
 10
0.0
 20
0.0
 30
0.0
 70
     1
  0
VERTEX
  5
13B
  8
2D-MILL_14MM_PLYWOOD$MILL1
 10
1102.000000000018
 20
3.999999999999659
 30
0.0
  0
VERTEX
  5
13C
  8
2D-MILL_14MM_PLYWOOD$MILL1
 10
1101.999999999999
 20
485.9999999999992
 30
0.0
  0
VERTEX
  5
13D
  8
2D-MILL_14MM_PLYWOOD$MILL1
 10
1062.000000000002
 20
485.9999999999997
 30
0.0
  0
VERTEX
  5
13E
  8
2D-MILL_14MM_PLYWOOD$MILL1
 10
1062.0
 20
3.999999999999545
 30
0.0
  0
SEQEND
  5
13F
  8
2D-MILL_14MM_PLYWOOD$MILL1
  0
POLYLINE
  5
140
  8
2D-MILL_14MM_PLYWOOD$MILL-
 66
     1
 10
0.0
 20
0.0
 30
0.0
 70
     1
  0
VERTEX
  5
141
  8
2D-MILL_14MM_PLYWOOD$MILL-
 10
964.0000000000001
 20
6.999999999999204
 30
0.0
  0
VERTEX
  5
142
  8
2D-MILL_14MM_PLYWOOD$MILL-
 10
1049.0
 20
6.999999999999204
 30
0.0
  0
VERTEX
  5
143
  8
2D-MILL_14MM_PLYWOOD$MILL-
 10
1049.0
 20
482.9999999999987
 30
0.0
  0
VERTEX
  5
144
  8
2D-MILL_14MM_PLYWOOD$MILL-
 10
964.0000000000001
 20
482.9999999999992
 30
0.0
  0
SEQEND
  5
145
  8
2D-MILL_14MM_PLYWOOD$MILL-
  0
POLYLINE
  5
146
  8
2D-MILL_14MM_PLYWOOD$MILL0
 66
     1
 10
0.0
 20
0.0
 30
0.0
 70
     1
  0
VERTEX
  5
147
  8
2D-MILL_14MM_PLYWOOD$MILL0
 10
1034.0
 20
177.6931818179701
 30
0.0
  0
VERTEX
  5
148
  8
2D-MILL_14MM_PLYWOOD$MILL0
 10
1034.0
 20
155.6401515149397
 30
0.0
 42
-1.00000000000016
  0
VERTEX
  5
149
  8
2D-MILL_14MM_PLYWOOD$MILL0
 10
1029.75
 20
155.6401515149397
 30
0.0
  0
VERTEX
  5
14A
  8
2D-MILL_14MM_PLYWOOD$MILL0
 10
1029.75
 20
158.6666666664549
 30
0.0
  0
VERTEX
  5
14B
  8
2D-MILL_14MM_PLYWOOD$MILL0
 10
1018.25
 20
158.6666666664549
 30
0.0
  0
VERTEX
  5
14C
  8
2D-MILL_14MM_PLYWOOD$MILL0
 10
1018.25
 20
155.6401515149398
 30
0.0
 42
-0.9999999999999999
  0
VERTEX
  5
14D
  8
2D-MILL_14MM_PLYWOOD$MILL0
 10
1014.0
 20
155.6401515149398
 30
0.0
  0
VERTEX
  5
14E
  8
2D-MILL_14MM_PLYWOOD$MILL0
 10
1014.0
 20
177.6931818179702
 30
0.0
 42
-0.9999999999998397
  0
VERTEX
  5
14F
  8
2D-MILL_14MM_PLYWOOD$MILL0
 10
1018.25
 20
177.6931818179702
 30
0.0
  0
VERTEX
  5
150
  8
2D-MILL_14MM_PLYWOOD$MILL0
 10
1018.25
 20
174.6666666664549
 30
0.0
  0
VERTEX
  5
151
  8
2D-MILL_14MM_PLYWOOD$MILL0
 10
1029.75
 20
174.6666666664549
 30
0.0
  0
VERTEX
  5
152
  8
2D-MILL_14MM_PLYWOOD$MILL0
 10
1029.75
 20
177.6931818179701
 30
0.0
 42
-0.9999999999999197
  0
SEQEND
  5
153
  8
2D-MILL_14MM_PLYWOOD$MILL0
  0
POLYLINE
  5
154
  8
2D-MILL_14MM_PLYWOOD$MILL0
 66
     1
 10
0.0
 20
0.0
 30
0.0
 70
     1
  0
VERTEX
  5
155
  8
2D-MILL_14MM_PLYWOOD$MILL0
 10
1034.0
 20
334.3598484848454
 30
0.0
  0
VERTEX
  5
156
  8
2D-MILL_14MM_PLYWOOD$MILL0
 10
1034.0
 20
312.3068181818152
 30
0.0
 42
-0.9999999999999332
  0
VERTEX
  5
157
  8
2D-MILL_14MM_PLYWOOD$MILL0
 10
1029.75
 20
312.3068181818152
 30
0.0
  0
VERTEX
  5
158
  8
2D-MILL_14MM_PLYWOOD$MILL0
 10
1029.75
 20
315.3333333333302
 30
0.0
  0
VERTEX
  5
159
  8
2D-MILL_14MM_PLYWOOD$MILL0
 10
1018.25
 20
315.3333333333302
 30
0.0
  0
VERTEX
  5
15A
  8
2D-MILL_14MM_PLYWOOD$MILL0
 10
1018.25
 20
312.3068181818152
 30
0.0
 42
-0.9999999999999332
  0
VERTEX
  5
15B
  8
2D-MILL_14MM_PLYWOOD$MILL0
 10
1014.0
 20
312.3068181818152
 30
0.0
  0
VERTEX
  5
15C
  8
2D-MILL_14MM_PLYWOOD$MILL0
 10
1014.0
 20
334.3598484848454
 30
0.0
 42
-0.9999999999999465
  0
VERTEX
  5
15D
  8
2D-MILL_14MM_PLYWOOD$MILL0
 10
1018.25
 20
334.3598484848454
 30
0.0
  0
VERTEX
  5
15E
  8
2D-MILL_14MM_PLYWOOD$MILL0
 10
1018.25
 20
331.3333333333302
 30
0.0
  0
VERTEX
  5
15F
  8
2D-MILL_14MM_PLYWOOD$MILL0
 10
1029.75
 20
331.3333333333302
 30
0.0
  0
VERTEX
  5
160
  8
2D-MILL_14MM_PLYWOOD$MILL0
 10
1029.75
 20
334.3598484848454
 30
0.0
 42
-0.9999999999999999
  0
SEQEND
  5
161
  8
2D-MILL_14MM_PLYWOOD$MILL0
  0
POLYLINE
  5
162
  8
2D-MILL_14MM_PLYWOOD$MILL0
 66
     1
 10
0.0
 20
0.0
 30
0.0
 70
     1
  0
VERTEX
  5
163
  8
2D-MILL_14MM_PLYWOOD$MILL0
 10
1044.75
 20
472.9999999999994
 30
0.0
  0
VERTEX
  5
164
  8
2D-MILL_14MM_PLYWOOD$MILL0
 10
1044.75
 20
470.9999999999994
 30
0.0
 42
-1.000000000000067
  0
VERTEX
  5
165
  8
2D-MILL_14MM_PLYWOOD$MILL0
 10
1040.5
 20
470.9999999999994
 30
0.0
  0
VERTEX
  5
166
  8
2D-MILL_14MM_PLYWOOD$MILL0
 10
1040.5
 20
485.9999999999994
 30
0.0
  0
VERTEX
  5
167
  8
2D-MILL_14MM_PLYWOOD$MILL0
 10
1049.0
 20
485.9999999999994
 30
0.0
  0
VERTEX
  5
168
  8
2D-MILL_14MM_PLYWOOD$MILL0
 10
1049.0
 20
472.9999999999994
 30
0.0
  0
SEQEND
  5
169
  8
2D-MILL_14MM_PLYWOOD$MILL0
  0
POLYLINE
  5
16A
  8
2D-MILL_14MM_PLYWOOD$MILL0
 66
     1
 10
0.0
 20
0.0
 30
0.0
 70
     1
  0
VERTEX
  5
16B
  8
2D-MILL_14MM_PLYWOOD$MILL0
 10
1027.75
 20
470.9999999999994
 30
0.0
 42
-1.000000000000214
  0
VERTEX
  5
16C
  8
2D-MILL_14MM_PLYWOOD$MILL0
 10
1023.5
 20
470.9999999999994
 30
0.0
  0
VERTEX
  5
16D
  8
2D-MILL_14MM_PLYWOOD$MILL0
 10
1023.5
 20
485.9999999999994
 30
0.0
  0
VERTEX
  5
16E
  8
2D-MILL_14MM_PLYWOOD$MILL0
 10
1027.75
 20
485.9999999999994
 30
0.0
  0
SEQEND
  5
16F
  8
2D-MILL_14MM_PLYWOOD$MILL0
  0
POLYLINE
  5
170
  8
2D-MILL_14MM_PLYWOOD$MILL0
 66
     1
 10
0.0
 20
0.0
 30
0.0
 70
     1
  0
VERTEX
  5
171
  8
2D-MILL_14MM_PLYWOOD$MILL0
 10
968.2500000000001
 20
9.999999999999659
 30
0.0
  0
VERTEX
  5
172
  8
2D-MILL_14MM_PLYWOOD$MILL0
 10
968.2500000000001
 20
11.99999999999966
 30
0.0
 42
-1.000000000000053
  0
VERTEX
  5
173
  8
2D-MILL_14MM_PLYWOOD$MILL0
 10
972.5000000000001
 20
11.99999999999966
 30
0.0
  0
VERTEX
  5
174
  8
2D-MILL_14MM_PLYWOOD$MILL0
 10
972.5000000000001
 20
3.999999999999659
 30
0.0
  0
VERTEX
  5
175
  8
2D-MILL_14MM_PLYWOOD$MILL0
 10
964.0000000000001
 20
3.999999999999659
 30
0.0
  0
VERTEX
  5
176
  8
2D-MILL_14MM_PLYWOOD$MILL0
 10
964.0000000000001
 20
9.999999999999432
 30
0.0
  0
SEQEND
  5
177
  8
2D-MILL_14MM_PLYWOOD$MILL0
  0
POLYLINE
  5
178
  8
2D-MILL_14MM_PLYWOOD$MILL0
 66
     1
 10
0.0
 20
0.0
 30
0.0
 70
     1
  0
VERTEX
  5
179
  8
2D-MILL_14MM_PLYWOOD$MILL0
 10
1027.75
 20
18.99999999999966
 30
0.0
 42
-1.000000000000053
  0
VERTEX
  5
17A
  8
2D-MILL_14MM_PLYWOOD$MILL0
 10
1032.0
 20
18.99999999999966
 30
0.0
  0
VERTEX
  5
17B
  8
2D-MILL_14MM_PLYWOOD$MILL0
 10
1036.25
 20
18.99999999999966
 30
0.0
 42
-0.9999999999998953
  0
VERTEX
  5
17C
  8
2D-MILL_14MM_PLYWOOD$MILL0
 10
1040.5
 20
18.99999999999966
 30
0.0
  0
VERTEX
  5
17D
  8
2D-MILL_14MM_PLYWOOD$MILL0
 10
1040.5
 20
3.999999999999659
 30
0.0
  0
VERTEX
  5
17E
  8
2D-MILL_14MM_PLYWOOD$MILL0
 10
1027.75
 20
3.999999999999659
 30
0.0
  0
SEQEND
  5
17F
  8
2D-MILL_14MM_PLYWOOD$MILL0
  0
POLYLINE
  5
180
  8
2D-MILL_14MM_PLYWOOD$MILL0
 66
     1
 10
0.0
 20
0.0
 30
0.0
 70
     1
  0
VERTEX
  5
181
  8
2D-MILL_14MM_PLYWOOD$MILL0
 10
1019.25
 20
18.99999999999966
 30
0.0
 42
-1.000000000000053
  0
VERTEX
  5
182
  8
2D-MILL_14MM_PLYWOOD$MILL0
 10
1023.5
 20
18.99999999999966
 30
0.0
  0
VERTEX
  5
183
  8
2D-MILL_14MM_PLYWOOD$MILL0
 10
1023.5
 20
3.999999999999659
 30
0.0
  0
VERTEX
  5
184
  8
2D-MILL_14MM_PLYWOOD$MILL0
 10
1019.25
 20
3.999999999999659
 30
0.0
  0
SEQEND
  5
185
  8
2D-MILL_14MM_PLYWOOD$MILL0
  0
POLYLINE
  5
186
  8
2D-MILL_14MM_PLYWOOD$MILL0
 66
     1
 10
0.0
 20
0.0
 30
0.0
 70
     1
  0
VERTEX
  5
187
  8
2D-MILL_14MM_PLYWOOD$MILL0
 10
1010.75
 20
18.99999999999966
 30
0.0
 42
-1.000000000000053
  0
VERTEX
  5
188
  8
2D-MILL_14MM_PLYWOOD$MILL0
 10
1015.0
 20
18.99999999999966
 30
0.0
  0
VERTEX
  5
189
  8
2D-MILL_14MM_PLYWOOD$MILL0
 10
1015.0
 20
3.999999999999659
 30
0.0
  0
VERTEX
  5
18A
  8
2D-MILL_14MM_PLYWOOD$MILL0
 10
1010.75
 20
3.999999999999659
 30
0.0
  0
SEQEND
  5
18B
  8
2D-MILL_14MM_PLYWOOD$MILL0
  0
POLYLINE
  5
18C
  8
2D-MILL_14MM_PLYWOOD$MILL0
 66
     1
 10
0.0
 20
0.0
 30
0.0
 70
     1
  0
VERTEX
  5
18D
  8
2D-MILL_14MM_PLYWOOD$MILL0
 10
1002.25
 20
18.99999999999966
 30
0.0
 42
-1.000000000000029
  0
VERTEX
  5
18E
  8
2D-MILL_14MM_PLYWOOD$MILL0
 10
1006.5
 20
18.99999999999966
 30
0.0
  0
VERTEX
  5
18F
  8
2D-MILL_14MM_PLYWOOD$MILL0
 10
1006.5
 20
3.999999999999659
 30
0.0
  0
VERTEX
  5
190
  8
2D-MILL_14MM_PLYWOOD$MILL0
 10
1002.25
 20
3.999999999999659
 30
0.0
  0
SEQEND
  5
191
  8
2D-MILL_14MM_PLYWOOD$MILL0
  0
POLYLINE
  5
192
  8
2D-MILL_14MM_PLYWOOD$MILL0
 66
     1
 10
0.0
 20
0.0
 30
0.0
 70
     1
  0
VERTEX
  5
193
  8
2D-MILL_14MM_PLYWOOD$MILL0
 10
993.75
 20
11.99999999999966
 30
0.0
 42
-0.9999999999999195
  0
VERTEX
  5
194
  8
2D-MILL_14MM_PLYWOOD$MILL0
 10
998.0000000000002
 20
11.99999999999966
 30
0.0
  0
VERTEX
  5
195
  8
2D-MILL_14MM_PLYWOOD$MILL0
 10
998.0
 20
3.999999999999659
 30
0.0
  0
VERTEX
  5
196
  8
2D-MILL_14MM_PLYWOOD$MILL0
 10
993.75
 20
3.999999999999659
 30
0.0
  0
SEQEND
  5
197
  8
2D-MILL_14MM_PLYWOOD$MILL0
  0
POLYLINE
  5
198
  8
2D-MILL_14MM_PLYWOOD$MILL0
 66
     1
 10
0.0
 20
0.0
 30
0.0
 70
     1
  0
VERTEX
  5
199
  8
2D-MILL_14MM_PLYWOOD$MILL0
 10
985.25
 20
11.99999999999966
 30
0.0
 42
-1.000000000000027
  0
VERTEX
  5
19A
  8
2D-MILL_14MM_PLYWOOD$MILL0
 10
989.5000000000002
 20
11.99999999999966
 30
0.0
  0
VERTEX
  5
19B
  8
2D-MILL_14MM_PLYWOOD$MILL0
 10
989.5
 20
3.999999999999659
 30
0.0
  0
VERTEX
  5
19C
  8
2D-MILL_14MM_PLYWOOD$MILL0
 10
985.25
 20
3.999999999999659
 30
0.0
  0
SEQEND
  5
19D
  8
2D-MILL_14MM_PLYWOOD$MILL0
  0
POLYLINE
  5
19E
  8
2D-MILL_14MM_PLYWOOD$MILL0
 66
     1
 10
0.0
 20
0.0
 30
0.0
 70
     1
  0
VERTEX
  5
19F
  8
2D-MILL_14MM_PLYWOOD$MILL0
 10
985.25
 20
477.9999999999994
 30
0.0
 42
-0.9999999999999332
  0
VERTEX
  5
1A0
  8
2D-MILL_14MM_PLYWOOD$MILL0
 10
981.0
 20
477.9999999999994
 30
0.0
  0
VERTEX
  5
1A1
  8
2D-MILL_14MM_PLYWOOD$MILL0
 10
976.75
 20
477.9999999999994
 30
0.0
 42
-0.9999999999999734
  0
VERTEX
  5
1A2
  8
2D-MILL_14MM_PLYWOOD$MILL0
 10
972.4999999999998
 20
477.9999999999994
 30
0.0
  0
VERTEX
  5
1A3
  8
2D-MILL_14MM_PLYWOOD$MILL0
 10
972.5
 20
485.9999999999994
 30
0.0
  0
VERTEX
  5
1A4
  8
2D-MILL_14MM_PLYWOOD$MILL0
 10
985.25
 20
485.9999999999994
 30
0.0
  0
SEQEND
  5
1A5
  8
2D-MILL_14MM_PLYWOOD$MILL0
  0
POLYLINE
  5
1A6
  8
2D-MILL_14MM_PLYWOOD$MILL0
 66
     1
 10
0.0
 20
0.0
 30
0.0
 70
     1
  0
VERTEX
  5
1A7
  8
2D-MILL_14MM_PLYWOOD$MILL0
 10
993.75
 20
477.9999999999994
 30
0.0
 42
-0.9999999999999999
  0
VERTEX
  5
1A8
  8
2D-MILL_14MM_PLYWOOD$MILL0
 10
989.5000000000005
 20
477.9999999999994
 30
0.0
  0
VERTEX
  5
1A9
  8
2D-MILL_14MM_PLYWOOD$MILL0
 10
989.5
 20
485.9999999999994
 30
0.0
  0
VERTEX
  5
1AA
  8
2D-MILL_14MM_PLYWOOD$MILL0
 10
993.75
 20
485.9999999999994
 30
0.0
  0
SEQEND
  5
1AB
  8
2D-MILL_14MM_PLYWOOD$MILL0
  0
POLYLINE
  5
1AC
  8
2D-MILL_14MM_PLYWOOD$MILL0
 66
     1
 10
0.0
 20
0.0
 30
0.0
 70
     1
  0
VERTEX
  5
1AD
  8
2D-MILL_14MM_PLYWOOD$MILL0
 10
1002.25
 20
477.9999999999994
 30
0.0
 42
-1.000000000000027
  0
VERTEX
  5
1AE
  8
2D-MILL_14MM_PLYWOOD$MILL0
 10
997.9999999999998
 20
477.9999999999994
 30
0.0
  0
VERTEX
  5
1AF
  8
2D-MILL_14MM_PLYWOOD$MILL0
 10
998.0
 20
485.9999999999994
 30
0.0
  0
VERTEX
  5
1B0
  8
2D-MILL_14MM_PLYWOOD$MILL0
 10
1002.25
 20
485.9999999999994
 30
0.0
  0
SEQEND
  5
1B1
  8
2D-MILL_14MM_PLYWOOD$MILL0
  0
POLYLINE
  5
1B2
  8
2D-MILL_14MM_PLYWOOD$MILL0
 66
     1
 10
0.0
 20
0.0
 30
0.0
 70
     1
  0
VERTEX
  5
1B3
  8
2D-MILL_14MM_PLYWOOD$MILL0
 10
1010.75
 20
470.9999999999994
 30
0.0
 42
-1.000000000000027
  0
VERTEX
  5
1B4
  8
2D-MILL_14MM_PLYWOOD$MILL0
 10
1006.499999999999
 20
470.9999999999994
 30
0.0
  0
VERTEX
  5
1B5
  8
2D-MILL_14MM_PLYWOOD$MILL0
 10
1006.5
 20
485.9999999999994
 30
0.0
  0
VERTEX
  5
1B6
  8
2D-MILL_14MM_PLYWOOD$MILL0
 10
1010.75
 20
485.9999999999994
 30
0.0
  0
SEQEND
  5
1B7
  8
2D-MILL_14MM_PLYWOOD$MILL0
  0
POLYLINE
  5
1B8
  8
2D-MILL_14MM_PLYWOOD$MILL0
 66
     1
 10
0.0
 20
0.0
 30
0.0
 70
     1
  0
VERTEX
  5
1B9
  8
2D-MILL_14MM_PLYWOOD$MILL0
 10
1019.25
 20
470.9999999999994
 30
0.0
 42
-0.9999999999998529
  0
VERTEX
  5
1BA
  8
2D-MILL_14MM_PLYWOOD$MILL0
 10
1015.000000000001
 20
470.9999999999994
 30
0.0
  0
VERTEX
  5
1BB
  8
2D-MILL_14MM_PLYWOOD$MILL0
 10
1015.0
 20
485.9999999999994
 30
0.0
  0
VERTEX
  5
1BC
  8
2D-MILL_14MM_PLYWOOD$MILL0
 10
1019.25
 20
485.9999999999994
 30
0.0
  0
SEQEND
  5
1BD
  8
2D-MILL_14MM_PLYWOOD$MILL0
  0
POLYLINE
  5
1BE
  8
2D-MILL_14MM_PLYWOOD$MILL1
 66
     1
 10
0.0
 20
0.0
 30
0.0
 70
     1
  0
VERTEX
  5
1BF
  8
2D-MILL_14MM_PLYWOOD$MILL1
 10
1004.000000000018
 20
3.999999999999659
 30
0.0
  0
VERTEX
  5
1C0
  8
2D-MILL_14MM_PLYWOOD$MILL1
 10
1003.999999999999
 20
485.9999999999992
 30
0.0
  0
VERTEX
  5
1C1
  8
2D-MILL_14MM_PLYWOOD$MILL1
 10
964.0000000000017
 20
485.9999999999997
 30
0.0
  0
VERTEX
  5
1C2
  8
2D-MILL_14MM_PLYWOOD$MILL1
 10
964.0000000000001
 20
3.999999999999545
 30
0.0
  0
SEQEND
  5
1C3
  8
2D-MILL_14MM_PLYWOOD$MILL1
  0
ENDSEC
  0
EOF
