0
SECTION
2
HEADER
9
$INSUNITS
70
4
9
$ACADVER
1
AC1014
9
$HANDSEED
5
FFFF
0
ENDSEC
0
SECTION
2
TABLES
0
TABLE
2
VPORT
5
8
100
AcDbSymbolTable
0
ENDTAB
0
TABLE
2
LTYPE
5
5
100
AcDbSymbolTable
0
LTYPE
5
14
100
AcDbSymbolTableRecord
100
AcDbLinetypeTableRecord
2
BYBLOCK
70
0
0
LTYPE
5
15
100
AcDbSymbolTableRecord
100
AcDbLinetypeTableRecord
2
BYLAYER
70
0
0
ENDTAB
0
TABLE
2
LAYER
5
2
100
AcDbSymbolTable
70
2
0
LAYER
5
50
100
AcDbSymbolTableRecord
100
AcDbLayerTableRecord
2
0
70
0
6
CONTINUOUS
0
ENDTAB
0
TABLE
2
STYLE
5
3
100
AcDbSymbolTable
70
1
0
STYLE
5
11
100
AcDbSymbolTableRecord
100
AcDbTextStyleTableRecord
2
STANDARD
70
0
0
ENDTAB
0
TABLE
2
VIEW
5
6
100
AcDbSymbolTable
70
0
0
ENDTAB
0
TABLE
2
UCS
5
7
100
AcDbSymbolTable
70
0
0
ENDTAB
0
TABLE
2
APPID
5
9
100
AcDbSymbolTable
70
2
0
APPID
5
12
100
AcDbSymbolTableRecord
100
AcDbRegAppTableRecord
2
ACAD
70
0
0
ENDTAB
0
TABLE
2
DIMSTYLE
5
A
100
AcDbSymbolTable
70
1
0
ENDTAB
0
TABLE
2
BLOCK_RECORD
5
1
100
AcDbSymbolTable
70
1
0
BLOCK_RECORD
5
1F
100
AcDbSymbolTableRecord
100
AcDbBlockTableRecord
2
*MODEL_SPACE
0
BLOCK_RECORD
5
1B
100
AcDbSymbolTableRecord
100
AcDbBlockTableRecord
2
*PAPER_SPACE
0
ENDTAB
0
ENDSEC
0
SECTION
2
BLOCKS
0
BLOCK
5
20
100
AcDbEntity
100
AcDbBlockBegin
2
*MODEL_SPACE
0
ENDBLK
5
21
100
AcDbEntity
100
AcDbBlockEnd
0
BLOCK
5
1C
100
AcDbEntity
100
AcDbBlockBegin
2
*PAPER_SPACE
0
ENDBLK
5
1D
100
AcDbEntity
100
AcDbBlockEnd
0
ENDSEC
0
SECTION
2
ENTITIES
0
LINE
5
100
100
AcDbEntity
8
0
100
AcDbLine
10
35.003381211889945
20
1.974006126794704
30
0
11
35.003381211889938
21
-3.0259938732053064
31
0
0
LINE
5
101
100
AcDbEntity
8
0
100
AcDbLine
10
-34.996618788110055
20
-3.0259938732053149
30
0
11
-34.996618788110062
21
1.9740061267946951
31
0
0
LINE
5
102
100
AcDbEntity
8
0
100
AcDbLine
10
-2.4062909658240326
20
-35
30
0
11
2.1901485463093673
21
-35
31
0
0
LINE
5
103
100
AcDbEntity
8
0
100
AcDbLine
10
2.1901485463093673
20
35
30
0
11
2.2599999999999993
21
35
31
0
0
LINE
5
104
100
AcDbEntity
8
0
100
AcDbLine
10
24.951469157464619
20
25.048530842535381
30
0
11
25.156602052292719
21
24.843397947707281
31
0
0
LINE
5
105
100
AcDbEntity
8
0
100
AcDbLine
10
-24.843397947707274
20
-25.156602052292726
30
0
11
-25.048530842535392
21
-24.951469157464608
31
0
0
LINE
5
106
100
AcDbEntity
8
0
100
AcDbLine
10
-24.843397947707281
20
25.156602052292719
30
0
11
-24.832388423020731
21
25.167611576979269
31
0
0
LINE
5
107
100
AcDbEntity
8
0
100
AcDbLine
10
25.167611576979287
20
-24.832388423020717
30
0
11
25.156602052292712
21
-24.843397947707288
31
0
0
LINE
5
108
100
AcDbEntity
8
0
100
AcDbLine
10
35
20
-1.26
30
0
11
25.000000894069672
21
-1.26
31
0
0
LINE
5
109
100
AcDbEntity
8
0
100
AcDbLine
10
25.000000894069672
20
-1.26
30
0
11
25.000000894069672
21
1.26
31
0
0
LINE
5
110
100
AcDbEntity
8
0
100
AcDbLine
10
25.000000894069672
20
1.26
30
0
11
35
21
1.26
31
0
0
LINE
5
111
100
AcDbEntity
8
0
100
AcDbLine
10
35
20
1.26
30
0
11
35
21
-1.26
31
0
0
LINE
5
112
100
AcDbEntity
8
0
100
AcDbLine
10
35
20
-1.26
30
0
11
25.000000894069672
21
1.26
31
0
0
LINE
5
113
100
AcDbEntity
8
0
100
AcDbLine
10
25.000000894069672
20
-1.26
30
0
11
35
21
1.26
31
0
0
LINE
5
114
100
AcDbEntity
8
0
100
AcDbLine
10
1.2599999999999998
20
35
30
0
11
-1.2599999999999998
21
35
31
0
0
LWPOLYLINE
5
115
100
AcDbEntity
8
0
100
AcDbPolyline
90
4
70
1
43
0.0
10
-1.2599999999999998
20
0.17102967089390075
10
1.2599999999999998
20
0.17102967089390297
10
1.2599999999999998
20
-35.000000521540642
10
-1.2599999999999998
20
-35.000000521540642
0
LINE
5
116
100
AcDbEntity
8
0
100
AcDbLine
10
-27.000000402331352
20
-1.26
30
0
11
-37.000000551342964
21
-1.2600000000000044
31
0
0
LINE
5
117
100
AcDbEntity
8
0
100
AcDbLine
10
-37.000000551342964
20
-1.2600000000000044
30
0
11
-37.000000551342964
21
1.2599999999999956
31
0
0
LINE
5
118
100
AcDbEntity
8
0
100
AcDbLine
10
-37.000000551342964
20
1.2599999999999956
30
0
11
-27.000000402331352
21
1.26
31
0
0
LINE
5
119
100
AcDbEntity
8
0
100
AcDbLine
10
-27.000000402331352
20
1.26
30
0
11
-27.000000402331352
21
-1.26
31
0
0
LINE
5
120
100
AcDbEntity
8
0
100
AcDbLine
10
-27.000000402331352
20
-1.26
30
0
11
-37.000000551342964
21
1.2599999999999956
31
0
0
LINE
5
121
100
AcDbEntity
8
0
100
AcDbLine
10
-37.000000551342964
20
-1.2600000000000044
30
0
11
-27.000000402331352
21
1.26
31
0
0
LINE
5
122
100
AcDbEntity
8
0
100
AcDbLine
10
-15.800815905692751
20
-20.057048470576298
30
0
11
-17.928932188134524
21
-17.928932188134524
31
0
0
LINE
5
123
100
AcDbEntity
8
0
100
AcDbLine
10
-25
20
-25
30
0
11
-26.112254066762162
21
-23.887745933237838
31
0
0
LINE
5
124
100
AcDbEntity
8
0
100
AcDbLine
10
-19.982837920823059
20
-18.200928832232965
30
0
11
-18.200928832232961
21
-19.982837920823059
31
0
0
LINE
5
125
100
AcDbEntity
8
0
100
AcDbLine
10
-27.053905838055655
20
-25.271996749465554
30
0
11
-19.982837920823059
21
-18.200928832232965
31
0
0
LINE
5
126
100
AcDbEntity
8
0
100
AcDbLine
10
-18.200928832232961
20
-19.982837920823059
30
0
11
-25.271996749465554
21
-27.053905838055652
31
0
0
LINE
5
127
100
AcDbEntity
8
0
100
AcDbLine
10
-25.271996749465554
20
-27.053905838055652
30
0
11
-19.982837920823059
21
-18.200928832232965
31
0
0
LINE
5
128
100
AcDbEntity
8
0
100
AcDbLine
10
-22.606645676100733
20
-26.886047251245579
30
0
11
-26.142179582033478
21
-23.35051334531283
31
0
0
LINE
5
129
100
AcDbEntity
8
0
100
AcDbLine
10
-25.271996749465554
20
-27.053905838055652
30
0
11
-27.053905838055655
21
-25.271996749465554
31
0
0
LINE
5
130
100
AcDbEntity
8
0
100
AcDbLine
10
-18.200928832232961
20
-19.982837920823059
30
0
11
-27.053905838055655
21
-25.271996749465554
31
0
0
LINE
5
131
100
AcDbEntity
8
0
100
AcDbLine
10
-1.2600000000000078
20
-35.000000521540642
30
0
11
-1.2600000000000056
21
-25.00000037252903
31
0
0
LINE
5
132
100
AcDbEntity
8
0
100
AcDbLine
10
1.2599999999999945
20
-25.00000037252903
30
0
11
1.2599999999999922
21
-35.000000521540642
31
0
0
LINE
5
133
100
AcDbEntity
8
0
100
AcDbLine
10
9.9999999999999929
20
-35
30
0
11
-10.000000000000009
21
-35
31
0
0
LINE
5
134
100
AcDbEntity
8
0
100
AcDbLine
10
1.2599999999999922
20
-35.000000521540642
30
0
11
-1.2600000000000078
21
-35.000000521540642
31
0
0
LINE
5
135
100
AcDbEntity
8
0
100
AcDbLine
10
18.200928832232965
20
-19.982837920823059
30
0
11
19.982837920823059
21
-18.200928832232965
31
0
0
LINE
5
136
100
AcDbEntity
8
0
100
AcDbLine
10
25.271996749465558
20
-27.053905838055655
30
0
11
18.200928832232965
21
-19.982837920823059
31
0
0
LINE
5
137
100
AcDbEntity
8
0
100
AcDbLine
10
19.982837920823059
20
-18.200928832232965
30
0
11
27.053905838055652
21
-25.271996749465554
31
0
0
LINE
5
138
100
AcDbEntity
8
0
100
AcDbLine
10
27.053905838055652
20
-25.271996749465554
30
0
11
18.200928832232965
21
-19.982837920823059
31
0
0
LINE
5
139
100
AcDbEntity
8
0
100
AcDbLine
10
26.886047251245579
20
-22.606645676100733
30
0
11
23.35051334531283
21
-26.142179582033478
31
0
0
LINE
5
140
100
AcDbEntity
8
0
100
AcDbLine
10
27.053905838055652
20
-25.271996749465554
30
0
11
25.271996749465558
21
-27.053905838055655
31
0
0
LINE
5
141
100
AcDbEntity
8
0
100
AcDbLine
10
19.982837920823059
20
-18.200928832232965
30
0
11
25.271996749465558
21
-27.053905838055655
31
0
0
LINE
5
142
100
AcDbEntity
8
0
100
AcDbLine
10
27.000000402331352
20
-1.2600000000000033
30
0
11
27.000000402331352
21
1.2599999999999969
31
0
0
LINE
5
143
100
AcDbEntity
8
0
100
AcDbLine
10
37.000000551342964
20
-1.2600000000000002
30
0
11
27.000000402331352
21
-1.2600000000000033
31
0
0
LINE
5
144
100
AcDbEntity
8
0
100
AcDbLine
10
27.000000402331352
20
1.2599999999999969
30
0
11
37.000000551342964
21
1.2599999999999998
31
0
0
LINE
5
145
100
AcDbEntity
8
0
100
AcDbLine
10
37.000000551342964
20
1.2599999999999998
30
0
11
27.000000402331352
21
-1.2600000000000033
31
0
0
LINE
5
146
100
AcDbEntity
8
0
100
AcDbLine
10
34.996618788110055
20
3.0259938732053104
30
0
11
34.996618788110062
21
-1.9740061267946996
31
0
0
LINE
5
147
100
AcDbEntity
8
0
100
AcDbLine
10
37.000000551342964
20
1.2599999999999998
30
0
11
37.000000551342964
21
-1.2600000000000002
31
0
0
LINE
5
148
100
AcDbEntity
8
0
100
AcDbLine
10
27.000000402331352
20
1.2599999999999969
30
0
11
37.000000551342964
21
-1.2600000000000002
31
0
0
LINE
5
149
100
AcDbEntity
8
0
100
AcDbLine
10
19.982837920823066
20
18.200928832232957
30
0
11
18.200928832232968
21
19.982837920823059
31
0
0
LINE
5
150
100
AcDbEntity
8
0
100
AcDbLine
10
27.053905838055663
20
25.271996749465558
30
0
11
19.982837920823066
21
18.200928832232957
31
0
0
LINE
5
151
100
AcDbEntity
8
0
100
AcDbLine
10
18.200928832232968
20
19.982837920823059
30
0
11
25.271996749465558
21
27.053905838055652
31
0
0
LINE
5
152
100
AcDbEntity
8
0
100
AcDbLine
10
25.271996749465558
20
27.053905838055652
30
0
11
19.982837920823066
21
18.200928832232957
31
0
0
LINE
5
153
100
AcDbEntity
8
0
100
AcDbLine
10
22.606645676100733
20
26.886047251245579
30
0
11
26.142179582033481
21
23.350513345312827
31
0
0
LINE
5
154
100
AcDbEntity
8
0
100
AcDbLine
10
25.271996749465558
20
27.053905838055652
30
0
11
27.053905838055663
21
25.271996749465558
31
0
0
LINE
5
155
100
AcDbEntity
8
0
100
AcDbLine
10
18.200928832232968
20
19.982837920823059
30
0
11
27.053905838055663
21
25.271996749465558
31
0
0
LINE
5
156
100
AcDbEntity
8
0
100
AcDbLine
10
1.2600000000000051
20
27.000000402331352
30
0
11
-1.2599999999999956
21
27.000000402331352
31
0
0
LINE
5
157
100
AcDbEntity
8
0
100
AcDbLine
10
1.2600000000000025
20
37.000000551342964
30
0
11
1.2600000000000051
21
27.000000402331352
31
0
0
LINE
5
158
100
AcDbEntity
8
0
100
AcDbLine
10
-1.2599999999999956
20
27.000000402331352
30
0
11
-1.259999999999998
21
37.000000551342964
31
0
0
LINE
5
159
100
AcDbEntity
8
0
100
AcDbLine
10
-1.259999999999998
20
37.000000551342964
30
0
11
1.2600000000000051
21
27.000000402331352
31
0
0
LINE
5
160
100
AcDbEntity
8
0
100
AcDbLine
10
-3.0259938732053082
20
34.996618788110055
30
0
11
1.9740061267947024
21
34.996618788110062
31
0
0
LINE
5
161
100
AcDbEntity
8
0
100
AcDbLine
10
-1.259999999999998
20
37.000000551342964
30
0
11
1.2600000000000025
21
37.000000551342964
31
0
0
LINE
5
162
100
AcDbEntity
8
0
100
AcDbLine
10
-1.2599999999999956
20
27.000000402331352
30
0
11
1.2600000000000025
21
37.000000551342964
31
0
0
LINE
5
163
100
AcDbEntity
8
0
100
AcDbLine
10
-18.200928832232957
20
19.982837920823066
30
0
11
-19.982837920823059
21
18.200928832232968
31
0
0
LINE
5
164
100
AcDbEntity
8
0
100
AcDbLine
10
-25.271996749465558
20
27.053905838055663
30
0
11
-18.200928832232957
21
19.982837920823066
31
0
0
LINE
5
165
100
AcDbEntity
8
0
100
AcDbLine
10
-19.982837920823059
20
18.200928832232968
30
0
11
-27.053905838055652
21
25.271996749465558
31
0
0
LINE
5
166
100
AcDbEntity
8
0
100
AcDbLine
10
-27.053905838055652
20
25.271996749465558
30
0
11
-18.200928832232957
21
19.982837920823066
31
0
0
LINE
5
167
100
AcDbEntity
8
0
100
AcDbLine
10
-26.886047251245579
20
22.606645676100733
30
0
11
-23.350513345312827
21
26.142179582033481
31
0
0
LINE
5
168
100
AcDbEntity
8
0
100
AcDbLine
10
-27.053905838055652
20
25.271996749465558
30
0
11
-25.271996749465558
21
27.053905838055663
31
0
0
LINE
5
169
100
AcDbEntity
8
0
100
AcDbLine
10
-19.982837920823059
20
18.200928832232968
30
0
11
-25.271996749465558
21
27.053905838055663
31
0
0
ARC
5
170
100
AcDbEntity
8
0
100
AcDbCircle
10
2.1901485463093673
20
30.000000000000004
30
0
40
4.9999999999999956
100
AcDbArc
50
0
51
90
0
ARC
5
171
100
AcDbEntity
8
0
100
AcDbCircle
10
-2.4062909658240339
20
30.000000000000007
30
0
40
4.9999999999999964
100
AcDbArc
50
90.707630830241726
51
180
0
ARC
5
172
100
AcDbEntity
8
0
100
AcDbCircle
10
21.621068146359981
20
21.307864041774547
30
0
40
4.9999999999999964
100
AcDbArc
50
44.999999999999964
51
134.99999999999997
0
ARC
5
173
100
AcDbEntity
8
0
100
AcDbCircle
10
21.415935251531884
20
21.512996936602647
30
0
40
4.9999999999999947
100
AcDbArc
50
-45
51
45
0
ARC
5
174
100
AcDbEntity
8
0
100
AcDbCircle
10
30.003381211889931
20
1.9740061267946989
30
0
40
5.0000000000000089
100
AcDbArc
50
0
51
89.999999999999929
0
ARC
5
175
100
AcDbEntity
8
0
100
AcDbCircle
10
30.003381211889945
20
-3.02599387320531
30
0
40
4.9999999999999893
100
AcDbArc
50
-90
51
0
0
ARC
5
176
100
AcDbEntity
8
0
100
AcDbCircle
10
21.632077671046552
20
-21.296854517087983
30
0
40
4.9999999999999964
100
AcDbArc
50
-45
51
47.655664052994176
0
ARC
5
177
100
AcDbEntity
8
0
100
AcDbCircle
10
21.621068146359981
20
-21.307864041774547
30
0
40
4.9999999999999947
100
AcDbArc
50
225.00000000000003
51
314.99999999999989
0
ARC
5
178
100
AcDbEntity
8
0
100
AcDbCircle
10
2.1901485463093673
20
-30.000000000000004
30
0
40
4.9999999999999956
100
AcDbArc
50
-90
51
0
0
ARC
5
179
100
AcDbEntity
8
0
100
AcDbCircle
10
-2.4062909658240326
20
-30.000000000000004
30
0
40
4.9999999999999947
100
AcDbArc
50
180
51
270
0
ARC
5
180
100
AcDbEntity
8
0
100
AcDbCircle
10
-21.512996936602651
20
-21.41593525153187
30
0
40
5.0000000000000018
100
AcDbArc
50
224.99999999999997
51
315
0
ARC
5
181
100
AcDbEntity
8
0
100
AcDbCircle
10
-21.307864041774529
20
-21.621068146359981
30
0
40
5.0000000000000089
100
AcDbArc
50
135.00000000000003
51
225
0
ARC
5
182
100
AcDbEntity
8
0
100
AcDbCircle
10
-29.996618788110059
20
-3.0259938732053064
30
0
40
5
100
AcDbArc
50
180
51
270
0
ARC
5
183
100
AcDbEntity
8
0
100
AcDbCircle
10
-29.996618788110069
20
1.974006126794704
30
0
40
4.9999999999999964
100
AcDbArc
50
90
51
180
0
ARC
5
184
100
AcDbEntity
8
0
100
AcDbCircle
10
-21.307864041774547
20
21.621068146359981
30
0
40
4.9999999999999964
100
AcDbArc
50
134.99999999999997
51
225
0
ARC
5
185
100
AcDbEntity
8
0
100
AcDbCircle
10
2.2600000000000042
20
33.999999999999993
30
0
40
1.0000000000000053
100
AcDbArc
50
90.00000000000027
51
180
0
ARC
5
186
100
AcDbEntity
8
0
100
AcDbCircle
10
-21.29685451708799
20
21.632077671046531
30
0
40
5.0000000000000009
100
AcDbArc
50
45
51
135.00000000000003
0
LINE
5
187
100
AcDbEntity
8
0
100
AcDbLine
10
-13.731869834074729
20
6.9740061267947002
30
0
11
-24.843397947707281
21
18.085534240427247
31
0
0
LINE
5
188
100
AcDbEntity
8
0
100
AcDbLine
10
-7.4062909658240255
20
30.000000000000007
30
0
11
-7.406290965824029
21
14.812581931648047
31
0
0
LINE
5
189
100
AcDbEntity
8
0
100
AcDbLine
10
-29.996618788110069
20
6.9740061267947002
30
0
11
-13.731869834074729
21
6.9740061267947002
31
0
0
LINE
5
190
100
AcDbEntity
8
0
100
AcDbLine
10
13.948012253589404
20
6.9740061267946984
30
0
11
30.003381211889938
21
6.9740061267947002
31
0
0
LINE
5
191
100
AcDbEntity
8
0
100
AcDbLine
10
-21.043200980761149
20
28.449491946585162
30
0
11
-7.406290965824029
21
14.812581931648047
31
0
0
LINE
5
192
100
AcDbEntity
8
0
100
AcDbLine
10
15.432284839029325
20
-8.0259938732052998
30
0
11
28.451883193226109
21
-21.045592227402071
31
0
0
LINE
5
193
100
AcDbEntity
8
0
100
AcDbLine
10
18.085534240427251
20
24.843397947707281
30
0
11
7.1901485463093628
21
13.948012253589383
31
0
0
LINE
5
194
100
AcDbEntity
8
0
100
AcDbLine
10
7.1901485463093628
20
-30.000000000000004
30
0
11
7.1901485463093593
21
-13.948012253589388
31
0
0
LINE
5
195
100
AcDbEntity
8
0
100
AcDbLine
10
7.1901485463093628
20
13.948012253589383
30
0
11
7.1901485463093628
21
30.000000000000004
31
0
0
LINE
5
196
100
AcDbEntity
8
0
100
AcDbLine
10
13.948012253589404
20
6.9740061267946984
30
0
11
24.951469157464619
21
17.977463030669913
31
0
0
LINE
5
197
100
AcDbEntity
8
0
100
AcDbLine
10
0.80579411054504613
20
-6.1682120162496528
30
0
11
1.2599999999999998
21
-5.7140061267946995
31
0
0
LINE
5
198
100
AcDbEntity
8
0
100
AcDbLine
10
18.085534240427251
20
-24.843397947707281
30
0
11
7.1901485463093593
21
-13.948012253589388
31
0
0
LINE
5
199
100
AcDbEntity
8
0
100
AcDbLine
10
1.2681301659252719
20
-8.0259938732052998
30
0
11
1.2599999999999998
21
-8.017863707280025
31
0
0
LINE
5
200
100
AcDbEntity
8
0
100
AcDbLine
10
-17.977463030669913
20
-24.951469157464608
30
0
11
-7.4062909658240264
21
-14.380297092618722
31
0
0
LINE
5
201
100
AcDbEntity
8
0
100
AcDbLine
10
-1.2599999999999998
20
-8.2340061267947036
30
0
11
-1.0519877464105982
21
-8.0259938732052998
31
0
0
LINE
5
202
100
AcDbEntity
8
0
100
AcDbLine
10
-0.69804427467130548
20
-7.6720504014660058
30
0
11
-0.67268426832793438
21
-8.0259938732052998
31
0
0
LINE
5
203
100
AcDbEntity
8
0
100
AcDbLine
10
-7.4062909658240264
20
-14.380297092618722
30
0
11
-7.4062909658240272
21
-30.000000000000004
31
0
0
LINE
5
204
100
AcDbEntity
8
0
100
AcDbLine
10
-14.783857580485332
20
-8.0259938732053016
30
0
11
-29.996618788110059
21
-8.0259938732053016
31
0
0
LINE
5
205
100
AcDbEntity
8
0
100
AcDbLine
10
-14.783857580485332
20
-8.0259938732053016
30
0
11
-24.843397947707274
21
-18.08553424042724
31
0
0
LINE
5
206
100
AcDbEntity
8
0
100
AcDbLine
10
30.003381211889945
20
-8.0259938732052998
30
0
11
15.432284839029325
21
-8.0259938732052998
31
0
0
LINE
5
207
100
AcDbEntity
8
0
100
AcDbLine
10
1.2681301659252719
20
-8.0259938732052998
30
0
11
1.2599999999999998
21
-8.0259938732053016
31
0
0
LINE
5
208
100
AcDbEntity
8
0
100
AcDbLine
10
-0.67268426832793438
20
-8.0259938732052998
30
0
11
-1.2599999999999998
21
-8.0259938732052998
31
0
0
ENDSEC
0
SECTION
2
OBJECTS
0
DICTIONARY
5
C
100
AcDbDictionary
3
ACAD_GROUP
350
D
3
ACAD_MLINESTYLE
350
17
0
DICTIONARY
5
D
100
AcDbDictionary
0
DICTIONARY
5
1A
330
C
100
AcDbDictionary
0
DICTIONARY
5
17
100
AcDbDictionary
0
ENDSEC
0
EOF
