0
SECTION
2
HEADER
9
$INSUNITS
70
4
9
$ACADVER
1
AC1014
9
$HANDSEED
5
FFFF
0
ENDSEC
0
SECTION
2
TABLES
0
TABLE
2
VPORT
5
8
100
AcDbSymbolTable
0
ENDTAB
0
TABLE
2
LTYPE
5
5
100
AcDbSymbolTable
0
LTYPE
5
14
100
AcDbSymbolTableRecord
100
AcDbLinetypeTableRecord
2
BYBLOCK
70
0
0
LTYPE
5
15
100
AcDbSymbolTableRecord
100
AcDbLinetypeTableRecord
2
BYLAYER
70
0
0
ENDTAB
0
TABLE
2
LAYER
5
2
100
AcDbSymbolTable
70
2
0
LAYER
5
50
100
AcDbSymbolTableRecord
100
AcDbLayerTableRecord
2
0
70
0
6
CONTINUOUS
0
ENDTAB
0
TABLE
2
STYLE
5
3
100
AcDbSymbolTable
70
1
0
STYLE
5
11
100
AcDbSymbolTableRecord
100
AcDbTextStyleTableRecord
2
STANDARD
70
0
0
ENDTAB
0
TABLE
2
VIEW
5
6
100
AcDbSymbolTable
70
0
0
ENDTAB
0
TABLE
2
UCS
5
7
100
AcDbSymbolTable
70
0
0
ENDTAB
0
TABLE
2
APPID
5
9
100
AcDbSymbolTable
70
2
0
APPID
5
12
100
AcDbSymbolTableRecord
100
AcDbRegAppTableRecord
2
ACAD
70
0
0
ENDTAB
0
TABLE
2
DIMSTYLE
5
A
100
AcDbSymbolTable
70
1
0
ENDTAB
0
TABLE
2
BLOCK_RECORD
5
1
100
AcDbSymbolTable
70
1
0
BLOCK_RECORD
5
1F
100
AcDbSymbolTableRecord
100
AcDbBlockTableRecord
2
*MODEL_SPACE
0
BLOCK_RECORD
5
1B
100
AcDbSymbolTableRecord
100
AcDbBlockTableRecord
2
*PAPER_SPACE
0
ENDTAB
0
ENDSEC
0
SECTION
2
BLOCKS
0
BLOCK
5
20
100
AcDbEntity
100
AcDbBlockBegin
2
*MODEL_SPACE
0
ENDBLK
5
21
100
AcDbEntity
100
AcDbBlockEnd
0
BLOCK
5
1C
100
AcDbEntity
100
AcDbBlockBegin
2
*PAPER_SPACE
0
ENDBLK
5
1D
100
AcDbEntity
100
AcDbBlockEnd
0
ENDSEC
0
SECTION
2
ENTITIES
0
LWPOLYLINE
5
100
100
AcDbEntity
8
0
100
AcDbPolyline
90
4
70
1
43
0.0
10
-194.12057546710375
20
-499.90330916694438
42
-0.99999999999999989
10
-200.12057546710383
20
-499.90330916694455
10
-200.12057546710383
20
-251.2150866189221
42
-0.99999999999999989
10
-194.12057546710389
20
-251.2150866189221
0
LWPOLYLINE
5
101
100
AcDbEntity
8
0
100
AcDbPolyline
90
4
70
1
43
0.0
10
273.87942453289617
20
-499.90330916694455
10
273.87942453289617
20
-251.21508661892216
42
0.99999999999999989
10
267.87942453289605
20
-251.21508661892216
10
267.87942453289605
20
-499.90330916694455
42
0.99999999999999989
0
LWPOLYLINE
5
102
100
AcDbEntity
8
0
100
AcDbPolyline
90
4
70
1
43
0.0
10
219.87942453289608
20
-499.90330916694455
10
219.87942453289608
20
-251.21508661892216
42
0.99999999999999989
10
213.87942453289614
20
-251.21508661892216
10
213.879424532896
20
-499.90330916694455
42
0.99999999999999989
0
LWPOLYLINE
5
103
100
AcDbEntity
8
0
100
AcDbPolyline
90
4
70
1
43
0.0
10
-212.12057546710381
20
-499.90330916694438
42
-0.99999999999999989
10
-218.12057546710389
20
-499.90330916694455
10
-218.12057546710403
20
-251.2150866189221
42
-0.99999999999999989
10
-212.12057546710395
20
-251.2150866189221
0
LWPOLYLINE
5
104
100
AcDbEntity
8
0
100
AcDbPolyline
90
4
70
1
43
0.0
10
255.87942453289611
20
-499.90330916694455
10
255.87942453289611
20
-251.21508661892216
42
0.99999999999999989
10
249.87942453289617
20
-251.21508661892216
10
249.87942453289602
20
-499.90330916694455
42
0.99999999999999989
0
LWPOLYLINE
5
105
100
AcDbEntity
8
0
100
AcDbPolyline
90
4
70
1
43
0.0
10
309.87942453289617
20
-499.90330916694438
42
-0.99999999999999989
10
303.87942453289605
20
-499.90330916694455
10
303.87942453289605
20
-251.21508661892216
42
-0.99999999999999989
10
309.87942453289617
20
-251.21508661892216
0
LWPOLYLINE
5
106
100
AcDbEntity
8
0
100
AcDbPolyline
90
4
70
1
43
0.0
10
-284.12057546710383
20
-499.90330916694438
42
-0.99999999999999989
10
-290.12057546710389
20
-499.90330916694455
10
-290.12057546710406
20
-251.21508661892219
42
-0.99999999999999989
10
-284.12057546710395
20
-251.21508661892219
0
LWPOLYLINE
5
107
100
AcDbEntity
8
0
100
AcDbPolyline
90
4
70
1
43
0.0
10
-230.12057546710378
20
-499.90330916694438
42
-0.99999999999999989
10
-236.12057546710386
20
-499.90330916694455
10
-236.12057546710386
20
-251.2150866189221
42
-0.99999999999999989
10
-230.12057546710392
20
-251.2150866189221
0
LWPOLYLINE
5
108
100
AcDbEntity
8
0
100
AcDbPolyline
90
4
70
1
43
0.0
10
-248.12057546710381
20
-499.90330916694438
42
-0.99999999999999989
10
-254.12057546710389
20
-499.90330916694455
10
-254.12057546710403
20
-251.21508661892216
42
-0.99999999999999989
10
-248.12057546710395
20
-251.21508661892216
0
LWPOLYLINE
5
109
100
AcDbEntity
8
0
100
AcDbPolyline
90
4
70
1
43
0.0
10
-266.12057546710378
20
-499.90330916694438
42
-0.99999999999999989
10
-272.12057546710389
20
-499.90330916694455
10
-272.12057546710389
20
-251.21508661892216
42
-0.99999999999999989
10
-266.12057546710395
20
-251.21508661892216
0
LWPOLYLINE
5
110
100
AcDbEntity
8
0
100
AcDbPolyline
90
4
70
1
43
0.0
10
237.87942453289614
20
-499.90330916694455
10
237.87942453289614
20
-251.21508661892216
42
0.99999999999999989
10
231.87942453289605
20
-251.21508661892216
10
231.87942453289605
20
-499.90330916694455
42
0.99999999999999989
0
LWPOLYLINE
5
111
100
AcDbEntity
8
0
100
AcDbPolyline
90
4
70
1
43
0.0
10
291.87942453289611
20
-499.90330916694455
10
291.87942453289611
20
-251.21508661892216
42
0.99999999999999989
10
285.87942453289617
20
-251.21508661892216
10
285.87942453289605
20
-499.90330916694455
42
0.99999999999999989
0
LWPOLYLINE
5
112
100
AcDbEntity
8
0
100
AcDbPolyline
90
100
70
1
43
0.0
10
-185.12057546710383
20
-225.41403542282126
10
204.87942453289608
20
-225.41403542282129
10
204.87942453289608
20
-350.23487682330733
42
0.99999999999999989
10
210.87942453289611
20
-350.23487682330733
10
210.87942453289617
20
-225.41403542282129
10
222.87942453289614
20
-225.41403542282129
10
222.87942453289611
20
-350.23487682330733
42
0.99999999999999989
10
228.87942453289608
20
-350.23487682330733
10
228.87942453289622
20
-225.41403542282129
10
240.87942453289611
20
-225.41403542282129
10
240.87942453289611
20
-350.23487682330733
42
0.99999999999999989
10
246.87942453289611
20
-350.23487682330733
10
246.87942453289619
20
-225.41403542282129
10
258.87942453289605
20
-225.41403542282129
10
258.87942453289611
20
-350.23487682330733
42
0.99999999999999989
10
264.87942453289617
20
-350.23487682330733
10
264.87942453289617
20
-225.41403542282129
10
276.87942453289611
20
-225.41403542282129
10
276.87942453289611
20
-350.23487682330733
42
0.99999999999999989
10
282.87942453289611
20
-350.23487682330733
10
282.87942453289622
20
-225.41403542282129
10
294.87942453289617
20
-225.41403542282129
10
294.87942453289611
20
-350.23487682330733
42
0.99999999999999989
10
300.87942453289611
20
-350.23487682330733
10
300.87942453289622
20
-225.41403542282129
10
359.87942453289622
20
-225.41403542282126
10
359.87942453289622
20
-525.41403542282114
10
300.87942453289645
20
-525.41403542282114
10
300.87942453289622
20
-400.22081162699305
42
0.99999999999999989
10
294.87942453289656
20
-400.22081162699317
10
294.87942453289571
20
-525.41403542282137
10
282.87942453289639
20
-525.41403542282114
10
282.87942453289622
20
-400.22081162699305
42
0.99999999999999989
10
276.87942453289548
20
-400.22081162699305
10
276.87942453289571
20
-525.41403542282137
10
264.87942453289645
20
-525.41403542282114
10
264.87942453289622
20
-400.22081162699305
42
0.99999999999999989
10
258.87942453289548
20
-400.22081162699305
10
258.87942453289571
20
-525.41403542282137
10
246.87942453289639
20
-525.41403542282114
10
246.87942453289622
20
-400.22081162699305
42
0.99999999999999989
10
240.8794245328954
20
-400.22081162699305
10
240.87942453289568
20
-525.41403542282137
10
228.87942453289642
20
-525.41403542282114
10
228.87942453289622
20
-400.22081162699305
42
0.99999999999999989
10
222.87942453289548
20
-400.22081162699305
10
222.87942453289571
20
-525.41403542282137
10
210.87942453289639
20
-525.41403542282114
10
210.87942453289622
20
-400.22081162699305
42
0.99999999999999989
10
204.87942453289546
20
-400.22081162699305
10
204.87942453289565
20
-525.41403542282137
10
-185.12057546710341
20
-525.41403542282137
10
-185.12057546710429
20
-400.22081162699317
42
0.99999999999999989
10
-191.12057546710281
20
-400.220811626993
10
-191.12057546710415
20
-525.41403542282126
10
-203.12057546710346
20
-525.41403542282137
10
-203.12057546710432
20
-400.22081162699317
42
0.99999999999999989
10
-209.1205754671029
20
-400.220811626993
10
-209.12057546710417
20
-525.41403542282126
10
-221.12057546710344
20
-525.41403542282137
10
-221.12057546710432
20
-400.22081162699317
42
0.99999999999999989
10
-227.12057546710284
20
-400.220811626993
10
-227.12057546710415
20
-525.41403542282126
10
-239.12057546710346
20
-525.41403542282137
10
-239.12057546710432
20
-400.22081162699317
42
0.99999999999999989
10
-245.12057546710292
20
-400.220811626993
10
-245.1205754671042
20
-525.41403542282126
10
-257.12057546710344
20
-525.41403542282137
10
-257.12057546710435
20
-400.22081162699317
42
0.99999999999999989
10
-263.12057546710287
20
-400.220811626993
10
-263.12057546710417
20
-525.41403542282126
10
-275.12057546710349
20
-525.41403542282137
10
-275.12057546710435
20
-400.22081162699317
42
0.99999999999999989
10
-281.120575467104
20
-400.220811626993
10
-281.12057546710423
20
-525.41403542282126
10
-340.12057546710389
20
-525.41403542282114
10
-340.12057546710389
20
-225.41403542282129
10
-281.12057546710395
20
-225.41403542282131
10
-281.12057546710389
20
-350.23487682330733
42
0.99999999999999989
10
-275.12057546710389
20
-350.23487682330733
10
-275.12057546710389
20
-225.41403542282131
10
-263.12057546710395
20
-225.41403542282126
10
-263.12057546710389
20
-350.23487682330733
42
0.99999999999999989
10
-257.12057546710389
20
-350.23487682330733
10
-257.12057546710389
20
-225.41403542282126
10
-245.12057546710395
20
-225.41403542282126
10
-245.12057546710389
20
-350.23487682330733
42
0.99999999999999989
10
-239.12057546710386
20
-350.23487682330733
10
-239.12057546710386
20
-225.41403542282126
10
-227.12057546710395
20
-225.41403542282126
10
-227.12057546710386
20
-350.23487682330733
42
0.99999999999999989
10
-221.12057546710386
20
-350.23487682330733
10
-221.12057546710386
20
-225.41403542282126
10
-209.12057546710395
20
-225.41403542282126
10
-209.12057546710386
20
-350.23487682330733
42
0.99999999999999989
10
-203.12057546710383
20
-350.23487682330733
10
-203.12057546710383
20
-225.41403542282126
10
-191.12057546710392
20
-225.41403542282126
10
-191.12057546710386
20
-350.23487682330733
42
0.99999999999999989
10
-185.12057546710383
20
-350.23487682330733
0
ENDSEC
0
SECTION
2
OBJECTS
0
DICTIONARY
5
C
100
AcDbDictionary
3
ACAD_GROUP
350
D
3
ACAD_MLINESTYLE
350
17
0
DICTIONARY
5
D
100
AcDbDictionary
0
DICTIONARY
5
1A
330
C
100
AcDbDictionary
0
DICTIONARY
5
17
100
AcDbDictionary
0
ENDSEC
0
EOF
