  0
SECTION
  2
HEADER
  9
$ACADVER
  1
AC1009
  9
$DWGCODEPAGE
  3
ansi_1252
  9
$INSBASE
 10
0.0
 20
0.0
 30
0.0
  9
$EXTMIN
 10
1.255709107786774
 20
3.48852297942959
 30
0.0
  9
$EXTMAX
 10
94.93776713323788
 20
44.45083132886469
 30
0.0
  9
$LIMMIN
 10
0.0
 20
0.0
  9
$LIMMAX
 10
12.0
 20
9.0
  9
$ORTHOMODE
 70
     0
  9
$REGENMODE
 70
     1
  9
$FILLMODE
 70
     1
  9
$QTEXTMODE
 70
     0
  9
$MIRRTEXT
 70
     1
  9
$DRAGMODE
 70
     2
  9
$LTSCALE
 40
1.0
  9
$OSMODE
 70
    37
  9
$ATTMODE
 70
     1
  9
$TEXTSIZE
 40
0.2
  9
$TRACEWID
 40
0.05
  9
$TEXTSTYLE
  7
STANDARD
  9
$CLAYER
  8
0
  9
$CELTYPE
  6
BYLAYER
  9
$CECOLOR
 62
   256
  9
$DIMSCALE
 40
1.0
  9
$DIMASZ
 40
0.18
  9
$DIMEXO
 40
0.0625
  9
$DIMDLI
 40
0.38
  9
$DIMRND
 40
0.0
  9
$DIMDLE
 40
0.0
  9
$DIMEXE
 40
0.18
  9
$DIMTP
 40
0.0
  9
$DIMTM
 40
0.0
  9
$DIMTXT
 40
0.18
  9
$DIMCEN
 40
0.09
  9
$DIMTSZ
 40
0.0
  9
$DIMTOL
 70
     0
  9
$DIMLIM
 70
     0
  9
$DIMTIH
 70
     1
  9
$DIMTOH
 70
     1
  9
$DIMSE1
 70
     0
  9
$DIMSE2
 70
     0
  9
$DIMTAD
 70
     0
  9
$DIMZIN
 70
     0
  9
$DIMBLK
  1

  9
$DIMASO
 70
     1
  9
$DIMSHO
 70
     1
  9
$DIMPOST
  1

  9
$DIMAPOST
  1

  9
$DIMALT
 70
     0
  9
$DIMALTD
 70
     2
  9
$DIMALTF
 40
25.4
  9
$DIMLFAC
 40
1.0
  9
$DIMTOFL
 70
     0
  9
$DIMTVP
 40
0.0
  9
$DIMTIX
 70
     0
  9
$DIMSOXD
 70
     0
  9
$DIMSAH
 70
     0
  9
$DIMBLK1
  1

  9
$DIMBLK2
  1

  9
$DIMSTYLE
  2
STANDARD
  9
$DIMCLRD
 70
     0
  9
$DIMCLRE
 70
     0
  9
$DIMCLRT
 70
     0
  9
$DIMTFAC
 40
1.0
  9
$DIMGAP
 40
0.09
  9
$LUNITS
 70
     2
  9
$LUPREC
 70
     4
  9
$SKETCHINC
 40
0.1
  9
$FILLETRAD
 40
0.5
  9
$AUNITS
 70
     0
  9
$AUPREC
 70
     0
  9
$MENU
  1
.
  9
$ELEVATION
 40
0.0
  9
$PELEVATION
 40
0.0
  9
$THICKNESS
 40
0.0
  9
$LIMCHECK
 70
     0
  9
$CHAMFERA
 40
0.5
  9
$CHAMFERB
 40
0.5
  9
$SKPOLY
 70
     0
  9
$TDCREATE
 40
2454910.5
  9
$TDUPDATE
 40
2456231.578686099
  9
$TDINDWG
 40
0.0000000116
  9
$TDUSRTIMER
 40
0.0000000116
  9
$USRTIMER
 70
     1
  9
$ANGBASE
 50
0.0
  9
$ANGDIR
 70
     0
  9
$PDMODE
 70
     0
  9
$PDSIZE
 40
0.0
  9
$PLINEWID
 40
0.0
  9
$COORDS
 70
     1
  9
$SPLFRAME
 70
     0
  9
$SPLINETYPE
 70
     6
  9
$SPLINESEGS
 70
     8
  9
$ATTDIA
 70
     0
  9
$ATTREQ
 70
     1
  9
$HANDLING
 70
     1
  9
$HANDSEED
  5
615
  9
$SURFTAB1
 70
     6
  9
$SURFTAB2
 70
     6
  9
$SURFTYPE
 70
     6
  9
$SURFU
 70
     6
  9
$SURFV
 70
     6
  9
$UCSNAME
  2

  9
$UCSORG
 10
0.0
 20
0.0
 30
0.0
  9
$UCSXDIR
 10
1.0
 20
0.0
 30
0.0
  9
$UCSYDIR
 10
0.0
 20
1.0
 30
0.0
  9
$PUCSNAME
  2

  9
$PUCSORG
 10
0.0
 20
0.0
 30
0.0
  9
$PUCSXDIR
 10
1.0
 20
0.0
 30
0.0
  9
$PUCSYDIR
 10
0.0
 20
1.0
 30
0.0
  9
$USERI1
 70
     0
  9
$USERI2
 70
     0
  9
$USERI3
 70
     0
  9
$USERI4
 70
     0
  9
$USERI5
 70
     0
  9
$USERR1
 40
0.0
  9
$USERR2
 40
0.0
  9
$USERR3
 40
0.0
  9
$USERR4
 40
0.0
  9
$USERR5
 40
0.0
  9
$WORLDVIEW
 70
     1
  9
$SHADEDGE
 70
     3
  9
$SHADEDIF
 70
    70
  9
$TILEMODE
 70
     1
  9
$MAXACTVP
 70
    64
  9
$PLIMCHECK
 70
     0
  9
$PEXTMIN
 10
1.000000000000000E+20
 20
1.000000000000000E+20
 30
1.000000000000000E+20
  9
$PEXTMAX
 10
-1.000000000000000E+20
 20
-1.000000000000000E+20
 30
-1.000000000000000E+20
  9
$PLIMMIN
 10
0.0
 20
0.0
  9
$PLIMMAX
 10
12.0
 20
9.0
  9
$UNITMODE
 70
     0
  9
$VISRETAIN
 70
     1
  9
$PLINEGEN
 70
     0
  9
$PSLTSCALE
 70
     1
  0
ENDSEC
  0
SECTION
  2
TABLES
  0
TABLE
  2
VPORT
 70
     1
  0
VPORT
  2
*ACTIVE
 70
     0
 10
0.0
 20
0.0
 11
1.0
 21
1.0
 12
10.42990654205607
 22
4.5
 13
0.0
 23
0.0
 14
0.5
 24
0.5
 15
0.5
 25
0.5
 16
0.0
 26
0.0
 36
1.0
 17
0.0
 27
0.0
 37
0.0
 40
9.0
 41
1.972972972850329
 42
50.0
 43
0.0
 44
0.0
 50
0.0
 51
0.0
 71
     0
 72
   100
 73
     1
 74
     3
 75
     0
 76
     0
 77
     0
 78
     0
  0
ENDTAB
  0
TABLE
  2
LTYPE
 70
     2
  0
LTYPE
  2
CONTINUOUS
 70
     0
  3
Solid line
 72
    65
 73
     0
 40
0.0
  0
LTYPE
  2
CONTINUOUS2
 70
     0
  3
Solid Line
 72
    65
 73
     0
 40
0.0
  0
ENDTAB
  0
TABLE
  2
LAYER
 70
     1
  0
LAYER
  2
0
 70
     0
 62
     7
  6
CONTINUOUS
  0
ENDTAB
  0
TABLE
  2
STYLE
 70
     1
  0
STYLE
  2
STANDARD
 70
     0
 40
0.0
 41
1.0
 50
0.0
 71
     0
 42
0.2
  3
txt
  4

  0
ENDTAB
  0
TABLE
  2
VIEW
 70
     0
  0
ENDTAB
  0
TABLE
  2
UCS
 70
     0
  0
ENDTAB
  0
TABLE
  2
APPID
 70
     1
  0
APPID
  2
ACAD
 70
     0
  0
ENDTAB
  0
TABLE
  2
DIMSTYLE
 70
     1
  0
DIMSTYLE
  2
STANDARD
 70
     0
  3

  4

  5

  6

  7

 40
1.0
 41
0.18
 42
0.0625
 43
0.38
 44
0.18
 45
0.0
 46
0.0
 47
0.0
 48
0.0
140
0.18
141
0.09
142
0.0
143
25.4
144
1.0
145
0.0
146
1.0
147
0.09
 71
     0
 72
     0
 73
     1
 74
     1
 75
     0
 76
     0
 77
     0
 78
     0
170
     0
171
     2
172
     0
173
     0
174
     0
175
     0
176
     0
177
     0
178
     0
  0
ENDTAB
  0
ENDSEC
  0
SECTION
  2
BLOCKS
  0
BLOCK
  8
0
  2
$MODEL_SPACE
 70
     0
 10
0.0
 20
0.0
 30
0.0
  3
$MODEL_SPACE
  1

  0
ENDBLK
  5
21
  8
0
  0
BLOCK
 67
     1
  8
0
  2
$PAPER_SPACE
 70
     0
 10
0.0
 20
0.0
 30
0.0
  3
$PAPER_SPACE
  1

  0
ENDBLK
  5
1D
 67
     1
  8
0
  0
ENDSEC
  0
SECTION
  2
ENTITIES
  0
POLYLINE
  5
40
  8
0
 66
     1
 10
0.0
 20
0.0
 30
0.0
 70
     1
  0
VERTEX
  5
5D
  8
0
 10
62.99201539501574
 20
42.08862660446469
 30
0.0
  0
VERTEX
  5
5E
  8
0
 10
64.32469256036474
 20
42.08862660446469
 30
0.0
 42
0.414213562373061
  0
VERTEX
  5
5F
  8
0
 10
64.52154295406474
 20
42.28547699816468
 30
0.0
  0
VERTEX
  5
60
  8
0
 10
64.52154295406474
 20
43.01972896666469
 30
0.0
 42
-1.0
  0
VERTEX
  5
61
  8
0
 10
64.52154295406474
 20
43.26972896666469
 30
0.0
  0
VERTEX
  5
62
  8
0
 10
65.00579492256675
 20
43.26972896666469
 30
0.0
 42
-1.0
  0
VERTEX
  5
63
  8
0
 10
65.00579492256675
 20
43.01972896666469
 30
0.0
  0
VERTEX
  5
64
  8
0
 10
65.00579492256675
 20
42.28547699816468
 30
0.0
 42
0.414213562373061
  0
VERTEX
  5
65
  8
0
 10
65.20264531626675
 20
42.08862660446469
 30
0.0
  0
VERTEX
  5
66
  8
0
 10
69.04910200916476
 20
42.08862660446469
 30
0.0
 42
0.414213562373061
  0
VERTEX
  5
67
  8
0
 10
69.24595240286475
 20
42.28547699816468
 30
0.0
  0
VERTEX
  5
68
  8
0
 10
69.24595240286475
 20
43.01972896666469
 30
0.0
 42
-1.0
  0
VERTEX
  5
69
  8
0
 10
69.24595240286475
 20
43.26972896666469
 30
0.0
  0
VERTEX
  5
6A
  8
0
 10
69.73020437136675
 20
43.26972896666469
 30
0.0
 42
-1.0
  0
VERTEX
  5
6B
  8
0
 10
69.73020437136675
 20
43.01972896666469
 30
0.0
  0
VERTEX
  5
6C
  8
0
 10
69.73020437136674
 20
42.28547699816468
 30
0.0
 42
0.4142135623730875
  0
VERTEX
  5
6D
  8
0
 10
69.92705476506674
 20
42.08862660446468
 30
0.0
  0
VERTEX
  5
6E
  8
0
 10
73.77351145796474
 20
42.08862660446469
 30
0.0
 42
0.414213562373061
  0
VERTEX
  5
6F
  8
0
 10
73.97036185166475
 20
42.28547699816468
 30
0.0
  0
VERTEX
  5
70
  8
0
 10
73.97036185166475
 20
43.01972896666469
 30
0.0
 42
-1.0
  0
VERTEX
  5
71
  8
0
 10
73.97036185166475
 20
43.26972896666469
 30
0.0
  0
VERTEX
  5
72
  8
0
 10
74.45461382016674
 20
43.26972896666469
 30
0.0
 42
-1.0
  0
VERTEX
  5
73
  8
0
 10
74.45461382016674
 20
43.01972896666469
 30
0.0
  0
VERTEX
  5
74
  8
0
 10
74.45461382016674
 20
42.28547699816468
 30
0.0
 42
0.414213562373061
  0
VERTEX
  5
75
  8
0
 10
74.65146421386675
 20
42.08862660446469
 30
0.0
  0
VERTEX
  5
76
  8
0
 10
78.49792090676475
 20
42.08862660446468
 30
0.0
 42
0.4142135623730875
  0
VERTEX
  5
77
  8
0
 10
78.69477130046477
 20
42.28547699816468
 30
0.0
  0
VERTEX
  5
78
  8
0
 10
78.69477130046475
 20
43.01972896666469
 30
0.0
 42
-1.0
  0
VERTEX
  5
79
  8
0
 10
78.69477130046475
 20
43.26972896666469
 30
0.0
  0
VERTEX
  5
7A
  8
0
 10
79.17902326896674
 20
43.26972896666469
 30
0.0
 42
-1.0
  0
VERTEX
  5
7B
  8
0
 10
79.17902326896674
 20
43.01972896666469
 30
0.0
  0
VERTEX
  5
7C
  8
0
 10
79.17902326896674
 20
42.28547699816468
 30
0.0
 42
0.414213562373061
  0
VERTEX
  5
7D
  8
0
 10
79.37587366266675
 20
42.08862660446469
 30
0.0
  0
VERTEX
  5
7E
  8
0
 10
83.22233035556475
 20
42.08862660446469
 30
0.0
 42
0.4142135623731065
  0
VERTEX
  5
7F
  8
0
 10
83.41918074926475
 20
42.28547699816468
 30
0.0
  0
VERTEX
  5
80
  8
0
 10
83.41918074926475
 20
43.01972896666469
 30
0.0
 42
-1.0
  0
VERTEX
  5
81
  8
0
 10
83.41918074926475
 20
43.26972896666469
 30
0.0
  0
VERTEX
  5
82
  8
0
 10
83.90343271776673
 20
43.26972896666469
 30
0.0
 42
-1.0
  0
VERTEX
  5
83
  8
0
 10
83.90343271776673
 20
43.01972896666469
 30
0.0
  0
VERTEX
  5
84
  8
0
 10
83.90343271776673
 20
42.28547699816468
 30
0.0
 42
0.4142135623731065
  0
VERTEX
  5
85
  8
0
 10
84.10028311146674
 20
42.08862660446469
 30
0.0
  0
VERTEX
  5
86
  8
0
 10
85.43296027681575
 20
42.08862660446469
 30
0.0
 42
0.4142135623730913
  0
VERTEX
  5
87
  8
0
 10
86.02351145791576
 20
42.67917778556468
 30
0.0
  0
VERTEX
  5
88
  8
0
 10
86.02351145791575
 20
43.86028014776468
 30
0.0
 42
0.4142135623731082
  0
VERTEX
  5
89
  8
0
 10
85.43296027681575
 20
44.45083132886467
 30
0.0
  0
VERTEX
  5
8A
  8
0
 10
62.99201539501574
 20
44.45083132886469
 30
0.0
 42
0.4142135623731003
  0
VERTEX
  5
8B
  8
0
 10
62.40146421391574
 20
43.86028014776468
 30
0.0
  0
VERTEX
  5
8C
  8
0
 10
62.40146421391574
 20
42.67917778556468
 30
0.0
 42
0.4142135623731003
  0
SEQEND
  5
8D
  8
0
  0
POLYLINE
  5
41
  8
0
 66
     1
 10
0.0
 20
0.0
 30
0.0
 70
     1
  0
VERTEX
  5
8E
  8
0
 10
62.97667451103155
 20
38.30250977174312
 30
0.0
  0
VERTEX
  5
8F
  8
0
 10
64.30935167638054
 20
38.30250977174312
 30
0.0
 42
0.414213562373061
  0
VERTEX
  5
90
  8
0
 10
64.50620207008055
 20
38.49936016544312
 30
0.0
  0
VERTEX
  5
91
  8
0
 10
64.50620207008055
 20
39.23361213394312
 30
0.0
 42
-1.0
  0
VERTEX
  5
92
  8
0
 10
64.50620207008055
 20
39.48361213394312
 30
0.0
  0
VERTEX
  5
93
  8
0
 10
64.99045403858256
 20
39.48361213394312
 30
0.0
 42
-1.0
  0
VERTEX
  5
94
  8
0
 10
64.99045403858256
 20
39.23361213394312
 30
0.0
  0
VERTEX
  5
95
  8
0
 10
64.99045403858256
 20
38.49936016544312
 30
0.0
 42
0.414213562373061
  0
VERTEX
  5
96
  8
0
 10
65.18730443228256
 20
38.30250977174312
 30
0.0
  0
VERTEX
  5
97
  8
0
 10
69.03376112518055
 20
38.30250977174312
 30
0.0
 42
0.414213562373061
  0
VERTEX
  5
98
  8
0
 10
69.23061151888055
 20
38.49936016544312
 30
0.0
  0
VERTEX
  5
99
  8
0
 10
69.23061151888055
 20
39.23361213394312
 30
0.0
 42
-1.0
  0
VERTEX
  5
9A
  8
0
 10
69.23061151888055
 20
39.48361213394312
 30
0.0
  0
VERTEX
  5
9B
  8
0
 10
69.71486348738256
 20
39.48361213394312
 30
0.0
 42
-1.0
  0
VERTEX
  5
9C
  8
0
 10
69.71486348738256
 20
39.23361213394312
 30
0.0
  0
VERTEX
  5
9D
  8
0
 10
69.71486348738256
 20
38.49936016544312
 30
0.0
 42
0.4142135623730875
  0
VERTEX
  5
9E
  8
0
 10
69.91171388108256
 20
38.30250977174311
 30
0.0
  0
VERTEX
  5
9F
  8
0
 10
73.75817057398055
 20
38.30250977174311
 30
0.0
 42
0.4142135623730875
  0
VERTEX
  5
A0
  8
0
 10
73.95502096768055
 20
38.49936016544312
 30
0.0
  0
VERTEX
  5
A1
  8
0
 10
73.95502096768055
 20
39.23361213394312
 30
0.0
 42
-1.0
  0
VERTEX
  5
A2
  8
0
 10
73.95502096768055
 20
39.48361213394312
 30
0.0
  0
VERTEX
  5
A3
  8
0
 10
74.43927293618256
 20
39.48361213394312
 30
0.0
 42
-1.0
  0
VERTEX
  5
A4
  8
0
 10
74.43927293618256
 20
39.23361213394312
 30
0.0
  0
VERTEX
  5
A5
  8
0
 10
74.43927293618256
 20
38.49936016544312
 30
0.0
 42
0.414213562373061
  0
VERTEX
  5
A6
  8
0
 10
74.63612332988257
 20
38.30250977174312
 30
0.0
  0
VERTEX
  5
A7
  8
0
 10
78.48258002278055
 20
38.30250977174311
 30
0.0
 42
0.4142135623730875
  0
VERTEX
  5
A8
  8
0
 10
78.67943041648056
 20
38.49936016544312
 30
0.0
  0
VERTEX
  5
A9
  8
0
 10
78.67943041648056
 20
39.23361213394312
 30
0.0
 42
-1.0
  0
VERTEX
  5
AA
  8
0
 10
78.67943041648056
 20
39.48361213394312
 30
0.0
  0
VERTEX
  5
AB
  8
0
 10
79.16368238498256
 20
39.48361213394312
 30
0.0
 42
-1.0
  0
VERTEX
  5
AC
  8
0
 10
79.16368238498256
 20
39.23361213394312
 30
0.0
  0
VERTEX
  5
AD
  8
0
 10
79.16368238498256
 20
38.49936016544312
 30
0.0
 42
0.414213562373061
  0
VERTEX
  5
AE
  8
0
 10
79.36053277868255
 20
38.30250977174312
 30
0.0
  0
VERTEX
  5
AF
  8
0
 10
83.20698947158056
 20
38.30250977174312
 30
0.0
 42
0.4142135623731065
  0
VERTEX
  5
B0
  8
0
 10
83.40383986528056
 20
38.49936016544312
 30
0.0
  0
VERTEX
  5
B1
  8
0
 10
83.40383986528056
 20
39.23361213394312
 30
0.0
 42
-1.0
  0
VERTEX
  5
B2
  8
0
 10
83.40383986528056
 20
39.48361213394312
 30
0.0
  0
VERTEX
  5
B3
  8
0
 10
83.88809183378255
 20
39.48361213394312
 30
0.0
 42
-1.0
  0
VERTEX
  5
B4
  8
0
 10
83.88809183378255
 20
39.23361213394312
 30
0.0
  0
VERTEX
  5
B5
  8
0
 10
83.88809183378255
 20
38.49936016544312
 30
0.0
 42
0.4142135623731065
  0
VERTEX
  5
B6
  8
0
 10
84.08494222748256
 20
38.30250977174312
 30
0.0
  0
VERTEX
  5
B7
  8
0
 10
85.41761939283155
 20
38.30250977174312
 30
0.0
 42
0.4142135623730913
  0
VERTEX
  5
B8
  8
0
 10
86.00817057393155
 20
38.89306095284312
 30
0.0
  0
VERTEX
  5
B9
  8
0
 10
86.00817057393155
 20
40.07416331504312
 30
0.0
 42
0.4142135623730913
  0
VERTEX
  5
BA
  8
0
 10
85.41761939283155
 20
40.66471449614312
 30
0.0
  0
VERTEX
  5
BB
  8
0
 10
62.97667451103155
 20
40.66471449614313
 30
0.0
 42
0.4142135623731003
  0
VERTEX
  5
BC
  8
0
 10
62.38612332993155
 20
40.07416331504312
 30
0.0
  0
VERTEX
  5
BD
  8
0
 10
62.38612332993155
 20
38.89306095284312
 30
0.0
 42
0.4142135623731003
  0
SEQEND
  5
BE
  8
0
  0
POLYLINE
  5
42
  8
0
 66
     1
 10
0.0
 20
0.0
 30
0.0
 70
     1
  0
VERTEX
  5
BF
  8
0
 10
62.99201539501574
 20
30.91091623269384
 30
0.0
  0
VERTEX
  5
C0
  8
0
 10
64.32469256036474
 20
30.91091623269384
 30
0.0
 42
0.4142135623730837
  0
VERTEX
  5
C1
  8
0
 10
64.52154295406474
 20
31.10776662639383
 30
0.0
  0
VERTEX
  5
C2
  8
0
 10
64.52154295406474
 20
31.84201859489384
 30
0.0
 42
-1.0
  0
VERTEX
  5
C3
  8
0
 10
64.52154295406474
 20
32.09201859489384
 30
0.0
  0
VERTEX
  5
C4
  8
0
 10
65.00579492256675
 20
32.09201859489384
 30
0.0
 42
-1.0
  0
VERTEX
  5
C5
  8
0
 10
65.00579492256675
 20
31.84201859489384
 30
0.0
  0
VERTEX
  5
C6
  8
0
 10
65.00579492256675
 20
31.10776662639383
 30
0.0
 42
0.4142135623730837
  0
VERTEX
  5
C7
  8
0
 10
65.20264531626675
 20
30.91091623269384
 30
0.0
  0
VERTEX
  5
C8
  8
0
 10
69.04910200916476
 20
30.91091623269384
 30
0.0
 42
0.4142135623730837
  0
VERTEX
  5
C9
  8
0
 10
69.24595240286475
 20
31.10776662639383
 30
0.0
  0
VERTEX
  5
CA
  8
0
 10
69.24595240286475
 20
31.84201859489384
 30
0.0
 42
-1.0
  0
VERTEX
  5
CB
  8
0
 10
69.24595240286475
 20
32.09201859489384
 30
0.0
  0
VERTEX
  5
CC
  8
0
 10
69.73020437136675
 20
32.09201859489384
 30
0.0
 42
-1.0
  0
VERTEX
  5
CD
  8
0
 10
69.73020437136675
 20
31.84201859489384
 30
0.0
  0
VERTEX
  5
CE
  8
0
 10
69.73020437136674
 20
31.10776662639383
 30
0.0
 42
0.4142135623730875
  0
VERTEX
  5
CF
  8
0
 10
69.92705476506674
 20
30.91091623269383
 30
0.0
  0
VERTEX
  5
D0
  8
0
 10
73.77351145796474
 20
30.91091623269384
 30
0.0
 42
0.4142135623730837
  0
VERTEX
  5
D1
  8
0
 10
73.97036185166475
 20
31.10776662639383
 30
0.0
  0
VERTEX
  5
D2
  8
0
 10
73.97036185166475
 20
31.84201859489384
 30
0.0
 42
-1.0
  0
VERTEX
  5
D3
  8
0
 10
73.97036185166475
 20
32.09201859489384
 30
0.0
  0
VERTEX
  5
D4
  8
0
 10
74.45461382016674
 20
32.09201859489384
 30
0.0
 42
-1.0
  0
VERTEX
  5
D5
  8
0
 10
74.45461382016674
 20
31.84201859489384
 30
0.0
  0
VERTEX
  5
D6
  8
0
 10
74.45461382016674
 20
31.10776662639383
 30
0.0
 42
0.4142135623730837
  0
VERTEX
  5
D7
  8
0
 10
74.65146421386675
 20
30.91091623269384
 30
0.0
  0
VERTEX
  5
D8
  8
0
 10
78.49792090676475
 20
30.91091623269383
 30
0.0
 42
0.4142135623730875
  0
VERTEX
  5
D9
  8
0
 10
78.69477130046477
 20
31.10776662639383
 30
0.0
  0
VERTEX
  5
DA
  8
0
 10
78.69477130046475
 20
31.84201859489384
 30
0.0
 42
-1.0
  0
VERTEX
  5
DB
  8
0
 10
78.69477130046475
 20
32.09201859489384
 30
0.0
  0
VERTEX
  5
DC
  8
0
 10
79.17902326896674
 20
32.09201859489384
 30
0.0
 42
-1.0
  0
VERTEX
  5
DD
  8
0
 10
79.17902326896674
 20
31.84201859489384
 30
0.0
  0
VERTEX
  5
DE
  8
0
 10
79.17902326896674
 20
31.10776662639383
 30
0.0
 42
0.4142135623730837
  0
VERTEX
  5
DF
  8
0
 10
79.37587366266675
 20
30.91091623269384
 30
0.0
  0
VERTEX
  5
E0
  8
0
 10
83.22233035556475
 20
30.91091623269384
 30
0.0
 42
0.4142135623731292
  0
VERTEX
  5
E1
  8
0
 10
83.41918074926475
 20
31.10776662639383
 30
0.0
  0
VERTEX
  5
E2
  8
0
 10
83.41918074926475
 20
31.84201859489384
 30
0.0
 42
-1.0
  0
VERTEX
  5
E3
  8
0
 10
83.41918074926475
 20
32.09201859489384
 30
0.0
  0
VERTEX
  5
E4
  8
0
 10
83.90343271776673
 20
32.09201859489384
 30
0.0
 42
-1.0
  0
VERTEX
  5
E5
  8
0
 10
83.90343271776673
 20
31.84201859489384
 30
0.0
  0
VERTEX
  5
E6
  8
0
 10
83.90343271776673
 20
31.10776662639383
 30
0.0
 42
0.4142135623731292
  0
VERTEX
  5
E7
  8
0
 10
84.10028311146674
 20
30.91091623269384
 30
0.0
  0
VERTEX
  5
E8
  8
0
 10
85.43296027681575
 20
30.91091623269384
 30
0.0
 42
0.4142135623730913
  0
VERTEX
  5
E9
  8
0
 10
86.02351145791576
 20
31.50146741379383
 30
0.0
  0
VERTEX
  5
EA
  8
0
 10
86.02351145791576
 20
32.68256977599383
 30
0.0
 42
0.4142135623730913
  0
VERTEX
  5
EB
  8
0
 10
85.43296027681575
 20
33.27312095709383
 30
0.0
  0
VERTEX
  5
EC
  8
0
 10
62.99201539501574
 20
33.27312095709384
 30
0.0
 42
0.4142135623731003
  0
VERTEX
  5
ED
  8
0
 10
62.40146421391574
 20
32.68256977599383
 30
0.0
  0
VERTEX
  5
EE
  8
0
 10
62.40146421391574
 20
31.50146741379383
 30
0.0
 42
0.4142135623731003
  0
SEQEND
  5
EF
  8
0
  0
POLYLINE
  5
43
  8
0
 66
     1
 10
0.0
 20
0.0
 30
0.0
 70
     1
  0
VERTEX
  5
F0
  8
0
 10
65.57694455089904
 20
23.47954231974924
 30
0.0
  0
VERTEX
  5
F1
  8
0
 10
71.63403116504806
 20
23.47954231974924
 30
0.0
 42
0.4142135623730837
  0
VERTEX
  5
F2
  8
0
 10
71.83088155874806
 20
23.67639271344924
 30
0.0
  0
VERTEX
  5
F3
  8
0
 10
71.83088155874806
 20
24.41064468194924
 30
0.0
 42
-1.0
  0
VERTEX
  5
F4
  8
0
 10
71.83088155874806
 20
24.66064468194924
 30
0.0
  0
VERTEX
  5
F5
  8
0
 10
72.31513352725005
 20
24.66064468194924
 30
0.0
 42
-1.0
  0
VERTEX
  5
F6
  8
0
 10
72.31513352725005
 20
24.41064468194924
 30
0.0
  0
VERTEX
  5
F7
  8
0
 10
72.31513352725005
 20
23.67639271344924
 30
0.0
 42
0.4142135623730837
  0
VERTEX
  5
F8
  8
0
 10
72.51198392095006
 20
23.47954231974924
 30
0.0
  0
VERTEX
  5
F9
  8
0
 10
76.35844061384806
 20
23.47954231974924
 30
0.0
 42
0.4142135623730837
  0
VERTEX
  5
FA
  8
0
 10
76.55529100754805
 20
23.67639271344924
 30
0.0
  0
VERTEX
  5
FB
  8
0
 10
76.55529100754805
 20
24.41064468194924
 30
0.0
 42
-1.0
  0
VERTEX
  5
FC
  8
0
 10
76.55529100754805
 20
24.66064468194924
 30
0.0
  0
VERTEX
  5
FD
  8
0
 10
77.03954297605006
 20
24.66064468194924
 30
0.0
 42
-1.0
  0
VERTEX
  5
FE
  8
0
 10
77.03954297605006
 20
24.41064468194924
 30
0.0
  0
VERTEX
  5
FF
  8
0
 10
77.03954297605006
 20
23.67639271344924
 30
0.0
 42
0.4142135623730875
  0
VERTEX
  5
100
  8
0
 10
77.23639336975005
 20
23.47954231974924
 30
0.0
  0
VERTEX
  5
101
  8
0
 10
81.08285006264805
 20
23.47954231974924
 30
0.0
 42
0.4142135623730837
  0
VERTEX
  5
102
  8
0
 10
81.27970045634805
 20
23.67639271344924
 30
0.0
  0
VERTEX
  5
103
  8
0
 10
81.27970045634805
 20
24.41064468194924
 30
0.0
 42
-1.0
  0
VERTEX
  5
104
  8
0
 10
81.27970045634805
 20
24.66064468194924
 30
0.0
  0
VERTEX
  5
105
  8
0
 10
81.76395242485006
 20
24.66064468194924
 30
0.0
 42
-1.0
  0
VERTEX
  5
106
  8
0
 10
81.76395242485006
 20
24.41064468194924
 30
0.0
  0
VERTEX
  5
107
  8
0
 10
81.76395242485006
 20
23.67639271344924
 30
0.0
 42
0.4142135623730837
  0
VERTEX
  5
108
  8
0
 10
81.96080281855005
 20
23.47954231974924
 30
0.0
  0
VERTEX
  5
109
  8
0
 10
88.01788943269905
 20
23.47954231974924
 30
0.0
 42
0.4142135623730913
  0
VERTEX
  5
10A
  8
0
 10
88.60844061379905
 20
24.07009350084924
 30
0.0
  0
VERTEX
  5
10B
  8
0
 10
88.60844061379905
 20
25.25119586304924
 30
0.0
 42
0.4142135623730913
  0
VERTEX
  5
10C
  8
0
 10
88.01788943269905
 20
25.84174704414924
 30
0.0
  0
VERTEX
  5
10D
  8
0
 10
86.68521226735005
 20
25.84174704414924
 30
0.0
 42
0.4142135623731292
  0
VERTEX
  5
10E
  8
0
 10
86.48836187365005
 20
25.64489665044924
 30
0.0
  0
VERTEX
  5
10F
  8
0
 10
86.48836187365005
 20
24.91064468194924
 30
0.0
 42
-1.0
  0
VERTEX
  5
110
  8
0
 10
86.48836187365005
 20
24.66064468194924
 30
0.0
  0
VERTEX
  5
111
  8
0
 10
86.00410990514804
 20
24.66064468194924
 30
0.0
 42
-1.0
  0
VERTEX
  5
112
  8
0
 10
86.00410990514804
 20
24.91064468194924
 30
0.0
  0
VERTEX
  5
113
  8
0
 10
86.00410990514804
 20
25.64489665044924
 30
0.0
 42
0.4142135623731292
  0
VERTEX
  5
114
  8
0
 10
85.80725951144805
 20
25.84174704414924
 30
0.0
  0
VERTEX
  5
115
  8
0
 10
67.78757447215006
 20
25.84174704414924
 30
0.0
 42
0.4142135623730837
  0
VERTEX
  5
116
  8
0
 10
67.59072407845005
 20
25.64489665044924
 30
0.0
  0
VERTEX
  5
117
  8
0
 10
67.59072407845005
 20
24.91064468194924
 30
0.0
 42
-1.0
  0
VERTEX
  5
118
  8
0
 10
67.59072407845005
 20
24.66064468194924
 30
0.0
  0
VERTEX
  5
119
  8
0
 10
67.10647210994806
 20
24.66064468194924
 30
0.0
 42
-1.0
  0
VERTEX
  5
11A
  8
0
 10
67.10647210994806
 20
24.91064468194924
 30
0.0
  0
VERTEX
  5
11B
  8
0
 10
67.10647210994806
 20
25.64489665044924
 30
0.0
 42
0.4142135623730837
  0
VERTEX
  5
11C
  8
0
 10
66.90962171624805
 20
25.84174704414924
 30
0.0
  0
VERTEX
  5
11D
  8
0
 10
65.57694455089904
 20
25.84174704414924
 30
0.0
 42
0.4142135623731003
  0
VERTEX
  5
11E
  8
0
 10
64.98639336979905
 20
25.25119586304924
 30
0.0
  0
VERTEX
  5
11F
  8
0
 10
64.98639336979905
 20
24.07009350084924
 30
0.0
 42
0.4142135623731003
  0
SEQEND
  5
120
  8
0
  0
POLYLINE
  5
44
  8
0
 66
     1
 10
0.0
 20
0.0
 30
0.0
 70
     1
  0
VERTEX
  5
121
  8
0
 10
71.2290052000925
 20
14.82458393810904
 30
0.0
  0
VERTEX
  5
122
  8
0
 10
72.5616823654415
 20
14.82458393810904
 30
0.0
 42
0.4142135623730837
  0
VERTEX
  5
123
  8
0
 10
72.7585327591415
 20
15.02143433180903
 30
0.0
  0
VERTEX
  5
124
  8
0
 10
72.7585327591415
 20
15.75568630030904
 30
0.0
 42
-1.0
  0
VERTEX
  5
125
  8
0
 10
72.7585327591415
 20
16.00568630030904
 30
0.0
  0
VERTEX
  5
126
  8
0
 10
73.2427847276435
 20
16.00568630030904
 30
0.0
 42
-1.0
  0
VERTEX
  5
127
  8
0
 10
73.2427847276435
 20
15.75568630030904
 30
0.0
  0
VERTEX
  5
128
  8
0
 10
73.2427847276435
 20
15.02143433180903
 30
0.0
 42
0.4142135623730837
  0
VERTEX
  5
129
  8
0
 10
73.4396351213435
 20
14.82458393810904
 30
0.0
  0
VERTEX
  5
12A
  8
0
 10
77.2860918142415
 20
14.82458393810904
 30
0.0
 42
0.4142135623730837
  0
VERTEX
  5
12B
  8
0
 10
77.4829422079415
 20
15.02143433180903
 30
0.0
  0
VERTEX
  5
12C
  8
0
 10
77.4829422079415
 20
15.75568630030904
 30
0.0
 42
-1.0
  0
VERTEX
  5
12D
  8
0
 10
77.4829422079415
 20
16.00568630030904
 30
0.0
  0
VERTEX
  5
12E
  8
0
 10
77.9671941764435
 20
16.00568630030904
 30
0.0
 42
-1.0
  0
VERTEX
  5
12F
  8
0
 10
77.9671941764435
 20
15.75568630030904
 30
0.0
  0
VERTEX
  5
130
  8
0
 10
77.9671941764435
 20
15.02143433180903
 30
0.0
 42
0.4142135623730837
  0
VERTEX
  5
131
  8
0
 10
78.1640445701435
 20
14.82458393810904
 30
0.0
  0
VERTEX
  5
132
  8
0
 10
82.0105012630415
 20
14.82458393810904
 30
0.0
 42
0.4142135623730837
  0
VERTEX
  5
133
  8
0
 10
82.20735165674151
 20
15.02143433180903
 30
0.0
  0
VERTEX
  5
134
  8
0
 10
82.20735165674151
 20
15.75568630030904
 30
0.0
 42
-1.0
  0
VERTEX
  5
135
  8
0
 10
82.20735165674151
 20
16.00568630030904
 30
0.0
  0
VERTEX
  5
136
  8
0
 10
82.6916036252435
 20
16.00568630030904
 30
0.0
 42
-1.0
  0
VERTEX
  5
137
  8
0
 10
82.6916036252435
 20
15.75568630030904
 30
0.0
  0
VERTEX
  5
138
  8
0
 10
82.6916036252435
 20
15.02143433180903
 30
0.0
 42
0.4142135623730837
  0
VERTEX
  5
139
  8
0
 10
82.88845401894349
 20
14.82458393810904
 30
0.0
  0
VERTEX
  5
13A
  8
0
 10
86.73491071184151
 20
14.82458393810904
 30
0.0
 42
0.4142135623730837
  0
VERTEX
  5
13B
  8
0
 10
86.93176110554151
 20
15.02143433180903
 30
0.0
  0
VERTEX
  5
13C
  8
0
 10
86.93176110554151
 20
15.75568630030904
 30
0.0
 42
-1.0
  0
VERTEX
  5
13D
  8
0
 10
86.93176110554151
 20
16.00568630030904
 30
0.0
  0
VERTEX
  5
13E
  8
0
 10
87.41601307404349
 20
16.00568630030904
 30
0.0
 42
-1.0
  0
VERTEX
  5
13F
  8
0
 10
87.41601307404349
 20
15.75568630030904
 30
0.0
  0
VERTEX
  5
140
  8
0
 10
87.41601307404349
 20
15.02143433180903
 30
0.0
 42
0.4142135623730837
  0
VERTEX
  5
141
  8
0
 10
87.6128634677435
 20
14.82458393810904
 30
0.0
  0
VERTEX
  5
142
  8
0
 10
91.45932016064151
 20
14.82458393810904
 30
0.0
 42
0.4142135623730837
  0
VERTEX
  5
143
  8
0
 10
91.6561705543415
 20
15.02143433180903
 30
0.0
  0
VERTEX
  5
144
  8
0
 10
91.6561705543415
 20
15.75568630030904
 30
0.0
 42
-1.0
  0
VERTEX
  5
145
  8
0
 10
91.6561705543415
 20
16.00568630030904
 30
0.0
  0
VERTEX
  5
146
  8
0
 10
92.1404225228435
 20
16.00568630030904
 30
0.0
 42
-1.0
  0
VERTEX
  5
147
  8
0
 10
92.1404225228435
 20
15.75568630030904
 30
0.0
  0
VERTEX
  5
148
  8
0
 10
92.1404225228435
 20
15.02143433180903
 30
0.0
 42
0.4142135623730875
  0
VERTEX
  5
149
  8
0
 10
92.3372729165435
 20
14.82458393810903
 30
0.0
  0
VERTEX
  5
14A
  8
0
 10
93.6699500818925
 20
14.82458393810904
 30
0.0
 42
0.4142135623730913
  0
VERTEX
  5
14B
  8
0
 10
94.2605012629925
 20
15.41513511920903
 30
0.0
  0
VERTEX
  5
14C
  8
0
 10
94.2605012629925
 20
16.59623748140904
 30
0.0
 42
0.4142135623730913
  0
VERTEX
  5
14D
  8
0
 10
93.6699500818925
 20
17.18678866250904
 30
0.0
  0
VERTEX
  5
14E
  8
0
 10
71.2290052000925
 20
17.18678866250904
 30
0.0
 42
0.4142135623730924
  0
VERTEX
  5
14F
  8
0
 10
70.63845401899249
 20
16.59623748140904
 30
0.0
  0
VERTEX
  5
150
  8
0
 10
70.63845401899249
 20
15.41513511920903
 30
0.0
 42
0.4142135623730924
  0
SEQEND
  5
151
  8
0
  0
POLYLINE
  5
45
  8
0
 66
     1
 10
0.0
 20
0.0
 30
0.0
 70
     1
  0
VERTEX
  5
152
  8
0
 10
65.49101368792356
 20
19.54420162747677
 30
0.0
  0
VERTEX
  5
153
  8
0
 10
71.54810030207256
 20
19.54420162747677
 30
0.0
 42
0.4142135623730875
  0
VERTEX
  5
154
  8
0
 10
71.74495069577256
 20
19.74105202117677
 30
0.0
  0
VERTEX
  5
155
  8
0
 10
71.74495069577256
 20
20.47530398967677
 30
0.0
 42
-1.0
  0
VERTEX
  5
156
  8
0
 10
71.74495069577256
 20
20.72530398967677
 30
0.0
  0
VERTEX
  5
157
  8
0
 10
72.22920266427455
 20
20.72530398967677
 30
0.0
 42
-1.0
  0
VERTEX
  5
158
  8
0
 10
72.22920266427455
 20
20.47530398967677
 30
0.0
  0
VERTEX
  5
159
  8
0
 10
72.22920266427455
 20
19.74105202117677
 30
0.0
 42
0.4142135623730837
  0
VERTEX
  5
15A
  8
0
 10
72.42605305797456
 20
19.54420162747677
 30
0.0
  0
VERTEX
  5
15B
  8
0
 10
76.27250975087256
 20
19.54420162747677
 30
0.0
 42
0.4142135623730837
  0
VERTEX
  5
15C
  8
0
 10
76.46936014457256
 20
19.74105202117677
 30
0.0
  0
VERTEX
  5
15D
  8
0
 10
76.46936014457256
 20
20.47530398967677
 30
0.0
 42
-1.0
  0
VERTEX
  5
15E
  8
0
 10
76.46936014457256
 20
20.72530398967677
 30
0.0
  0
VERTEX
  5
15F
  8
0
 10
76.95361211307456
 20
20.72530398967677
 30
0.0
 42
-1.0
  0
VERTEX
  5
160
  8
0
 10
76.95361211307456
 20
20.47530398967677
 30
0.0
  0
VERTEX
  5
161
  8
0
 10
76.95361211307456
 20
19.74105202117677
 30
0.0
 42
0.4142135623730837
  0
VERTEX
  5
162
  8
0
 10
77.15046250677456
 20
19.54420162747677
 30
0.0
  0
VERTEX
  5
163
  8
0
 10
80.99691919967256
 20
19.54420162747677
 30
0.0
 42
0.4142135623730837
  0
VERTEX
  5
164
  8
0
 10
81.19376959337255
 20
19.74105202117677
 30
0.0
  0
VERTEX
  5
165
  8
0
 10
81.19376959337255
 20
20.47530398967677
 30
0.0
 42
-1.0
  0
VERTEX
  5
166
  8
0
 10
81.19376959337255
 20
20.72530398967677
 30
0.0
  0
VERTEX
  5
167
  8
0
 10
81.67802156187456
 20
20.72530398967677
 30
0.0
 42
-1.0
  0
VERTEX
  5
168
  8
0
 10
81.67802156187456
 20
20.47530398967677
 30
0.0
  0
VERTEX
  5
169
  8
0
 10
81.67802156187456
 20
19.74105202117677
 30
0.0
 42
0.4142135623730837
  0
VERTEX
  5
16A
  8
0
 10
81.87487195557455
 20
19.54420162747677
 30
0.0
  0
VERTEX
  5
16B
  8
0
 10
87.93195856972356
 20
19.54420162747677
 30
0.0
 42
0.4142135623730913
  0
VERTEX
  5
16C
  8
0
 10
88.52250975082356
 20
20.13475280857677
 30
0.0
  0
VERTEX
  5
16D
  8
0
 10
88.52250975082356
 20
21.31585517077677
 30
0.0
 42
0.4142135623730913
  0
VERTEX
  5
16E
  8
0
 10
87.93195856972356
 20
21.90640635187678
 30
0.0
  0
VERTEX
  5
16F
  8
0
 10
86.59928140437455
 20
21.90640635187678
 30
0.0
 42
0.4142135623730837
  0
VERTEX
  5
170
  8
0
 10
86.40243101067455
 20
21.70955595817678
 30
0.0
  0
VERTEX
  5
171
  8
0
 10
86.40243101067455
 20
20.97530398967677
 30
0.0
 42
-1.0
  0
VERTEX
  5
172
  8
0
 10
86.40243101067455
 20
20.72530398967677
 30
0.0
  0
VERTEX
  5
173
  8
0
 10
85.91817904217255
 20
20.72530398967677
 30
0.0
 42
-1.0
  0
VERTEX
  5
174
  8
0
 10
85.91817904217255
 20
20.97530398967677
 30
0.0
  0
VERTEX
  5
175
  8
0
 10
85.91817904217255
 20
21.70955595817678
 30
0.0
 42
0.4142135623730837
  0
VERTEX
  5
176
  8
0
 10
85.72132864847255
 20
21.90640635187678
 30
0.0
  0
VERTEX
  5
177
  8
0
 10
67.70164360917455
 20
21.90640635187678
 30
0.0
 42
0.4142135623730837
  0
VERTEX
  5
178
  8
0
 10
67.50479321547455
 20
21.70955595817678
 30
0.0
  0
VERTEX
  5
179
  8
0
 10
67.50479321547455
 20
20.97530398967677
 30
0.0
 42
-1.0
  0
VERTEX
  5
17A
  8
0
 10
67.50479321547455
 20
20.72530398967677
 30
0.0
  0
VERTEX
  5
17B
  8
0
 10
67.02054124697256
 20
20.72530398967677
 30
0.0
 42
-1.0
  0
VERTEX
  5
17C
  8
0
 10
67.02054124697256
 20
20.97530398967677
 30
0.0
  0
VERTEX
  5
17D
  8
0
 10
67.02054124697256
 20
21.70955595817678
 30
0.0
 42
0.4142135623730837
  0
VERTEX
  5
17E
  8
0
 10
66.82369085327255
 20
21.90640635187678
 30
0.0
  0
VERTEX
  5
17F
  8
0
 10
65.49101368792356
 20
21.90640635187678
 30
0.0
 42
0.4142135623731003
  0
VERTEX
  5
180
  8
0
 10
64.90046250682356
 20
21.31585517077677
 30
0.0
  0
VERTEX
  5
181
  8
0
 10
64.90046250682356
 20
20.13475280857677
 30
0.0
 42
0.4142135623731003
  0
SEQEND
  5
182
  8
0
  0
POLYLINE
  5
46
  8
0
 66
     1
 10
0.0
 20
0.0
 30
0.0
 70
     1
  0
VERTEX
  5
183
  8
0
 10
70.99527718020178
 20
7.01735063975368
 30
0.0
  0
VERTEX
  5
184
  8
0
 10
72.32795434555078
 20
7.01735063975368
 30
0.0
 42
0.4142135623731016
  0
VERTEX
  5
185
  8
0
 10
72.52480473925078
 20
7.21420103345368
 30
0.0
  0
VERTEX
  5
186
  8
0
 10
72.52480473925078
 20
7.948453001953681
 30
0.0
 42
-1.0
  0
VERTEX
  5
187
  8
0
 10
72.52480473925078
 20
8.19845300195368
 30
0.0
  0
VERTEX
  5
188
  8
0
 10
73.00905670775278
 20
8.19845300195368
 30
0.0
 42
-1.0
  0
VERTEX
  5
189
  8
0
 10
73.00905670775278
 20
7.948453001953681
 30
0.0
  0
VERTEX
  5
18A
  8
0
 10
73.00905670775278
 20
7.21420103345368
 30
0.0
 42
0.4142135623731016
  0
VERTEX
  5
18B
  8
0
 10
73.20590710145277
 20
7.01735063975368
 30
0.0
  0
VERTEX
  5
18C
  8
0
 10
77.05236379435078
 20
7.01735063975368
 30
0.0
 42
0.4142135623731016
  0
VERTEX
  5
18D
  8
0
 10
77.24921418805077
 20
7.21420103345368
 30
0.0
  0
VERTEX
  5
18E
  8
0
 10
77.24921418805077
 20
7.948453001953681
 30
0.0
 42
-1.0
  0
VERTEX
  5
18F
  8
0
 10
77.24921418805077
 20
8.19845300195368
 30
0.0
  0
VERTEX
  5
190
  8
0
 10
87.18228505415277
 20
8.19845300195368
 30
0.0
 42
-1.0
  0
VERTEX
  5
191
  8
0
 10
87.18228505415277
 20
7.948453001953681
 30
0.0
  0
VERTEX
  5
192
  8
0
 10
87.18228505415277
 20
7.21420103345368
 30
0.0
 42
0.4142135623730904
  0
VERTEX
  5
193
  8
0
 10
87.37913544785278
 20
7.017350639753676
 30
0.0
  0
VERTEX
  5
194
  8
0
 10
91.22559214075076
 20
7.017350639753676
 30
0.0
 42
0.4142135623730904
  0
VERTEX
  5
195
  8
0
 10
91.42244253445077
 20
7.21420103345368
 30
0.0
  0
VERTEX
  5
196
  8
0
 10
91.42244253445077
 20
7.948453001953681
 30
0.0
 42
-1.0
  0
VERTEX
  5
197
  8
0
 10
91.42244253445077
 20
8.19845300195368
 30
0.0
  0
VERTEX
  5
198
  8
0
 10
91.90669450295277
 20
8.19845300195368
 30
0.0
 42
-1.0
  0
VERTEX
  5
199
  8
0
 10
91.90669450295277
 20
7.948453001953681
 30
0.0
  0
VERTEX
  5
19A
  8
0
 10
91.90669450295277
 20
7.21420103345368
 30
0.0
 42
0.4142135623730789
  0
VERTEX
  5
19B
  8
0
 10
92.10354489665278
 20
7.01735063975368
 30
0.0
  0
VERTEX
  5
19C
  8
0
 10
93.43622206200178
 20
7.017350639753676
 30
0.0
 42
0.4142135623730974
  0
VERTEX
  5
19D
  8
0
 10
94.02677324310179
 20
7.60790182085368
 30
0.0
  0
VERTEX
  5
19E
  8
0
 10
94.02677324310179
 20
8.789004183053681
 30
0.0
 42
0.4142135623730983
  0
VERTEX
  5
19F
  8
0
 10
93.43622206200178
 20
9.379555364153685
 30
0.0
  0
VERTEX
  5
1A0
  8
0
 10
70.99527718020178
 20
9.379555364153681
 30
0.0
 42
0.4142135623730957
  0
VERTEX
  5
1A1
  8
0
 10
70.40472599910177
 20
8.789004183053681
 30
0.0
  0
VERTEX
  5
1A2
  8
0
 10
70.40472599910177
 20
7.60790182085368
 30
0.0
 42
0.4142135623730948
  0
SEQEND
  5
1A3
  8
0
  0
POLYLINE
  5
47
  8
0
 66
     1
 10
0.0
 20
0.0
 30
0.0
 70
     1
  0
VERTEX
  5
1A4
  8
0
 10
70.99527718020178
 20
3.515328174897988
 30
0.0
  0
VERTEX
  5
1A5
  8
0
 10
72.32795434555078
 20
3.515328174897988
 30
0.0
 42
0.4142135623731008
  0
VERTEX
  5
1A6
  8
0
 10
72.52480473925078
 20
3.712178568597988
 30
0.0
  0
VERTEX
  5
1A7
  8
0
 10
72.52480473925078
 20
4.446430537097988
 30
0.0
 42
-1.0
  0
VERTEX
  5
1A8
  8
0
 10
72.52480473925078
 20
4.696430537097987
 30
0.0
  0
VERTEX
  5
1A9
  8
0
 10
73.00905670775278
 20
4.696430537097987
 30
0.0
 42
-1.0
  0
VERTEX
  5
1AA
  8
0
 10
73.00905670775278
 20
4.446430537097988
 30
0.0
  0
VERTEX
  5
1AB
  8
0
 10
73.00905670775278
 20
3.712178568597988
 30
0.0
 42
0.4142135623731008
  0
VERTEX
  5
1AC
  8
0
 10
73.20590710145277
 20
3.515328174897988
 30
0.0
  0
VERTEX
  5
1AD
  8
0
 10
77.05236379435078
 20
3.515328174897988
 30
0.0
 42
0.4142135623731011
  0
VERTEX
  5
1AE
  8
0
 10
77.24921418805077
 20
3.712178568597988
 30
0.0
  0
VERTEX
  5
1AF
  8
0
 10
77.24921418805077
 20
4.446430537097988
 30
0.0
 42
-1.0
  0
VERTEX
  5
1B0
  8
0
 10
77.24921418805077
 20
4.696430537097987
 30
0.0
  0
VERTEX
  5
1B1
  8
0
 10
87.18228505415277
 20
4.696430537097987
 30
0.0
 42
-1.0
  0
VERTEX
  5
1B2
  8
0
 10
87.18228505415277
 20
4.446430537097988
 30
0.0
  0
VERTEX
  5
1B3
  8
0
 10
87.18228505415277
 20
3.712178568597988
 30
0.0
 42
0.4142135623730911
  0
VERTEX
  5
1B4
  8
0
 10
87.37913544785278
 20
3.515328174897984
 30
0.0
  0
VERTEX
  5
1B5
  8
0
 10
91.22559214075076
 20
3.515328174897984
 30
0.0
 42
0.4142135623730911
  0
VERTEX
  5
1B6
  8
0
 10
91.42244253445077
 20
3.712178568597988
 30
0.0
  0
VERTEX
  5
1B7
  8
0
 10
91.42244253445077
 20
4.446430537097988
 30
0.0
 42
-1.0
  0
VERTEX
  5
1B8
  8
0
 10
91.42244253445077
 20
4.696430537097987
 30
0.0
  0
VERTEX
  5
1B9
  8
0
 10
91.90669450295277
 20
4.696430537097987
 30
0.0
 42
-1.0
  0
VERTEX
  5
1BA
  8
0
 10
91.90669450295277
 20
4.446430537097988
 30
0.0
  0
VERTEX
  5
1BB
  8
0
 10
91.90669450295277
 20
3.712178568597988
 30
0.0
 42
0.414213562373078
  0
VERTEX
  5
1BC
  8
0
 10
92.10354489665278
 20
3.515328174897988
 30
0.0
  0
VERTEX
  5
1BD
  8
0
 10
93.43622206200178
 20
3.515328174897984
 30
0.0
 42
0.4142135623730976
  0
VERTEX
  5
1BE
  8
0
 10
94.02677324310179
 20
4.105879355997987
 30
0.0
  0
VERTEX
  5
1BF
  8
0
 10
94.02677324310179
 20
5.286981718197986
 30
0.0
 42
0.4142135623730973
  0
VERTEX
  5
1C0
  8
0
 10
93.43622206200178
 20
5.87753289929799
 30
0.0
  0
VERTEX
  5
1C1
  8
0
 10
70.99527718020178
 20
5.877532899297987
 30
0.0
 42
0.4142135623730957
  0
VERTEX
  5
1C2
  8
0
 10
70.40472599910177
 20
5.286981718197986
 30
0.0
  0
VERTEX
  5
1C3
  8
0
 10
70.40472599910177
 20
4.105879355997987
 30
0.0
 42
0.4142135623730955
  0
SEQEND
  5
1C4
  8
0
  0
POLYLINE
  5
48
  8
0
 66
     1
 10
0.0
 20
0.0
 30
0.0
 70
     1
  0
VERTEX
  5
1C5
  8
0
 10
46.69885723064542
 20
10.55090726928642
 30
0.0
  0
VERTEX
  5
1C6
  8
0
 10
48.03153439599441
 20
10.55090726928642
 30
0.0
 42
0.4142135623730955
  0
VERTEX
  5
1C7
  8
0
 10
48.22838478969442
 20
10.74775766298642
 30
0.0
  0
VERTEX
  5
1C8
  8
0
 10
48.22838478969442
 20
11.48200963148642
 30
0.0
 42
-1.0
  0
VERTEX
  5
1C9
  8
0
 10
48.22838478969442
 20
11.73200963148642
 30
0.0
  0
VERTEX
  5
1CA
  8
0
 10
48.71263675819642
 20
11.73200963148642
 30
0.0
 42
-1.0
  0
VERTEX
  5
1CB
  8
0
 10
48.71263675819642
 20
11.48200963148642
 30
0.0
  0
VERTEX
  5
1CC
  8
0
 10
48.71263675819641
 20
10.74775766298642
 30
0.0
 42
0.4142135623730955
  0
VERTEX
  5
1CD
  8
0
 10
48.90948715189641
 20
10.55090726928642
 30
0.0
  0
VERTEX
  5
1CE
  8
0
 10
52.75594384479442
 20
10.55090726928642
 30
0.0
 42
0.4142135623730984
  0
VERTEX
  5
1CF
  8
0
 10
52.95279423849442
 20
10.74775766298642
 30
0.0
  0
VERTEX
  5
1D0
  8
0
 10
52.95279423849442
 20
11.48200963148642
 30
0.0
 42
-1.0
  0
VERTEX
  5
1D1
  8
0
 10
52.95279423849442
 20
11.73200963148642
 30
0.0
  0
VERTEX
  5
1D2
  8
0
 10
62.88586510459642
 20
11.73200963148642
 30
0.0
 42
-1.0
  0
VERTEX
  5
1D3
  8
0
 10
62.88586510459642
 20
11.48200963148642
 30
0.0
  0
VERTEX
  5
1D4
  8
0
 10
62.88586510459642
 20
10.74775766298642
 30
0.0
 42
0.4142135623730944
  0
VERTEX
  5
1D5
  8
0
 10
63.08271549829642
 20
10.55090726928642
 30
0.0
  0
VERTEX
  5
1D6
  8
0
 10
66.92917219119441
 20
10.55090726928642
 30
0.0
 42
0.4142135623730857
  0
VERTEX
  5
1D7
  8
0
 10
67.12602258489441
 20
10.74775766298642
 30
0.0
  0
VERTEX
  5
1D8
  8
0
 10
67.12602258489441
 20
11.48200963148642
 30
0.0
 42
-1.0
  0
VERTEX
  5
1D9
  8
0
 10
67.12602258489441
 20
11.73200963148642
 30
0.0
  0
VERTEX
  5
1DA
  8
0
 10
67.61027455339642
 20
11.73200963148642
 30
0.0
 42
-1.0
  0
VERTEX
  5
1DB
  8
0
 10
67.61027455339642
 20
11.48200963148642
 30
0.0
  0
VERTEX
  5
1DC
  8
0
 10
67.61027455339642
 20
10.74775766298642
 30
0.0
 42
0.4142135623731024
  0
VERTEX
  5
1DD
  8
0
 10
67.80712494709641
 20
10.55090726928642
 30
0.0
  0
VERTEX
  5
1DE
  8
0
 10
69.13980211244541
 20
10.55090726928642
 30
0.0
 42
0.4142135623730957
  0
VERTEX
  5
1DF
  8
0
 10
69.73035329354542
 20
11.14145845038642
 30
0.0
  0
VERTEX
  5
1E0
  8
0
 10
69.73035329354542
 20
12.32256081258641
 30
0.0
 42
0.4142135623730957
  0
VERTEX
  5
1E1
  8
0
 10
69.13980211244541
 20
12.91311199368642
 30
0.0
  0
VERTEX
  5
1E2
  8
0
 10
46.69885723064542
 20
12.91311199368642
 30
0.0
 42
0.4142135623730953
  0
VERTEX
  5
1E3
  8
0
 10
46.10830604954541
 20
12.32256081258641
 30
0.0
  0
VERTEX
  5
1E4
  8
0
 10
46.10830604954541
 20
11.14145845038642
 30
0.0
 42
0.4142135623730953
  0
SEQEND
  5
1E5
  8
0
  0
POLYLINE
  5
49
  8
0
 66
     1
 10
0.0
 20
0.0
 30
0.0
 70
     1
  0
VERTEX
  5
1E6
  8
0
 10
35.81328370836069
 20
19.40495109342957
 30
0.0
 42
-0.5773502691896253
  0
VERTEX
  5
1E7
  8
0
 10
32.40373487457818
 20
25.31046290442958
 30
0.0
  0
VERTEX
  5
1E8
  8
0
 10
36.52724690541622
 20
32.45259524746401
 30
0.0
 42
-0.2679491924311238
  0
VERTEX
  5
1E9
  8
0
 10
37.55011155555058
 20
33.04314642856401
 30
0.0
  0
VERTEX
  5
1EA
  8
0
 10
39.0275827168557
 20
33.04314642856401
 30
0.0
 42
-0.5773502691896321
  0
VERTEX
  5
1EB
  8
0
 10
39.53901504192386
 20
32.15731965691401
 30
0.0
  0
VERTEX
  5
1EC
  8
0
 10
35.24502556939795
 20
24.71991172332959
 30
0.0
 42
0.5773502691896258
  0
VERTEX
  5
1ED
  8
0
 10
36.94979998628921
 20
21.76715581782958
 30
0.0
  0
VERTEX
  5
1EE
  8
0
 10
53.20678446589347
 20
21.76715581782958
 30
0.0
 42
-0.4142135623730951
  0
VERTEX
  5
1EF
  8
0
 10
53.60048525329347
 20
21.37345503042958
 30
0.0
  0
VERTEX
  5
1F0
  8
0
 10
53.60048525329347
 20
19.79865188082958
 30
0.0
 42
-0.4142135623731065
  0
VERTEX
  5
1F1
  8
0
 10
53.20678446589347
 20
19.40495109342958
 30
0.0
  0
VERTEX
  5
1F2
  8
0
 10
53.05520966274447
 20
19.40495109342958
 30
0.0
 42
-0.4142135623730771
  0
VERTEX
  5
1F3
  8
0
 10
52.85835926904447
 20
19.60180148712958
 30
0.0
  0
VERTEX
  5
1F4
  8
0
 10
52.85835926904447
 20
20.33605345562958
 30
0.0
 42
1.0
  0
VERTEX
  5
1F5
  8
0
 10
52.85835926904447
 20
20.58605345562958
 30
0.0
  0
VERTEX
  5
1F6
  8
0
 10
52.37410730054248
 20
20.58605345562958
 30
0.0
 42
1.0
  0
VERTEX
  5
1F7
  8
0
 10
52.37410730054248
 20
20.33605345562958
 30
0.0
  0
VERTEX
  5
1F8
  8
0
 10
52.37410730054248
 20
19.35869125091008
 30
0.0
 42
-0.4142135623731065
  0
VERTEX
  5
1F9
  8
0
 10
52.29536714306247
 20
19.27995109343009
 30
0.0
  0
VERTEX
  5
1FA
  8
0
 10
50.96859548952447
 20
19.27995109343009
 30
0.0
 42
-0.4142135623731065
  0
VERTEX
  5
1FB
  8
0
 10
50.88985533204447
 20
19.35869125091008
 30
0.0
  0
VERTEX
  5
1FC
  8
0
 10
50.88985533204447
 20
20.33605345562958
 30
0.0
 42
1.0
  0
VERTEX
  5
1FD
  8
0
 10
50.88985533204447
 20
20.58605345562958
 30
0.0
  0
VERTEX
  5
1FE
  8
0
 10
50.40560336354248
 20
20.58605345562958
 30
0.0
 42
1.0
  0
VERTEX
  5
1FF
  8
0
 10
50.40560336354248
 20
20.33605345562958
 30
0.0
  0
VERTEX
  5
200
  8
0
 10
50.40560336354248
 20
19.60180148712958
 30
0.0
 42
-0.4142135623730837
  0
VERTEX
  5
201
  8
0
 10
50.20875296984247
 20
19.40495109342958
 30
0.0
  0
VERTEX
  5
202
  8
0
 10
49.11820178874447
 20
19.40495109342958
 30
0.0
 42
-0.4142135623730875
  0
VERTEX
  5
203
  8
0
 10
48.92135139504447
 20
19.60180148712958
 30
0.0
  0
VERTEX
  5
204
  8
0
 10
48.92135139504447
 20
20.33605345562958
 30
0.0
 42
1.0
  0
VERTEX
  5
205
  8
0
 10
48.92135139504447
 20
20.58605345562958
 30
0.0
  0
VERTEX
  5
206
  8
0
 10
48.43709942654247
 20
20.58605345562958
 30
0.0
 42
1.0
  0
VERTEX
  5
207
  8
0
 10
48.43709942654247
 20
20.33605345562958
 30
0.0
  0
VERTEX
  5
208
  8
0
 10
48.43709942654247
 20
19.60180148712958
 30
0.0
 42
-0.4142135623730837
  0
VERTEX
  5
209
  8
0
 10
48.24024903284247
 20
19.40495109342958
 30
0.0
  0
VERTEX
  5
20A
  8
0
 10
47.14969785174447
 20
19.40495109342958
 30
0.0
 42
-0.4142135623730875
  0
VERTEX
  5
20B
  8
0
 10
46.95284745804447
 20
19.60180148712958
 30
0.0
  0
VERTEX
  5
20C
  8
0
 10
46.95284745804447
 20
20.33605345562958
 30
0.0
 42
1.0
  0
VERTEX
  5
20D
  8
0
 10
46.95284745804447
 20
20.58605345562958
 30
0.0
  0
VERTEX
  5
20E
  8
0
 10
46.46859548954247
 20
20.58605345562958
 30
0.0
 42
1.0
  0
VERTEX
  5
20F
  8
0
 10
46.46859548954247
 20
20.33605345562958
 30
0.0
  0
VERTEX
  5
210
  8
0
 10
46.46859548954247
 20
19.60180148712958
 30
0.0
 42
-0.4142135623730837
  0
VERTEX
  5
211
  8
0
 10
46.27174509584248
 20
19.40495109342958
 30
0.0
  0
VERTEX
  5
212
  8
0
 10
45.18119391474447
 20
19.40495109342958
 30
0.0
 42
-0.4142135623730837
  0
VERTEX
  5
213
  8
0
 10
44.98434352104447
 20
19.60180148712958
 30
0.0
  0
VERTEX
  5
214
  8
0
 10
44.98434352104447
 20
20.33605345562958
 30
0.0
 42
1.0
  0
VERTEX
  5
215
  8
0
 10
44.98434352104447
 20
20.58605345562958
 30
0.0
  0
VERTEX
  5
216
  8
0
 10
44.50009155254247
 20
20.58605345562958
 30
0.0
 42
1.0
  0
VERTEX
  5
217
  8
0
 10
44.50009155254247
 20
20.33605345562958
 30
0.0
  0
VERTEX
  5
218
  8
0
 10
44.50009155254248
 20
19.60180148712958
 30
0.0
 42
-0.4142135623730875
  0
VERTEX
  5
219
  8
0
 10
44.30324115884248
 20
19.40495109342958
 30
0.0
  0
VERTEX
  5
21A
  8
0
 10
43.21268997774447
 20
19.40495109342958
 30
0.0
 42
-0.4142135623730837
  0
VERTEX
  5
21B
  8
0
 10
43.01583958404447
 20
19.60180148712958
 30
0.0
  0
VERTEX
  5
21C
  8
0
 10
43.01583958404447
 20
20.33605345562958
 30
0.0
 42
1.0
  0
VERTEX
  5
21D
  8
0
 10
43.01583958404447
 20
20.58605345562958
 30
0.0
  0
VERTEX
  5
21E
  8
0
 10
42.53158761554247
 20
20.58605345562958
 30
0.0
 42
1.0
  0
VERTEX
  5
21F
  8
0
 10
42.53158761554247
 20
20.33605345562958
 30
0.0
  0
VERTEX
  5
220
  8
0
 10
42.53158761554248
 20
19.60180148712958
 30
0.0
 42
-0.4142135623730875
  0
VERTEX
  5
221
  8
0
 10
42.33473722184247
 20
19.40495109342958
 30
0.0
  0
VERTEX
  5
222
  8
0
 10
41.24418604074447
 20
19.40495109342958
 30
0.0
 42
-0.4142135623730837
  0
VERTEX
  5
223
  8
0
 10
41.04733564704447
 20
19.60180148712958
 30
0.0
  0
VERTEX
  5
224
  8
0
 10
41.04733564704447
 20
20.33605345562958
 30
0.0
 42
1.0
  0
VERTEX
  5
225
  8
0
 10
41.04733564704447
 20
20.58605345562958
 30
0.0
  0
VERTEX
  5
226
  8
0
 10
40.56308367854247
 20
20.58605345562958
 30
0.0
 42
1.0
  0
VERTEX
  5
227
  8
0
 10
40.56308367854247
 20
20.33605345562958
 30
0.0
  0
VERTEX
  5
228
  8
0
 10
40.56308367854247
 20
19.35869125091008
 30
0.0
 42
-0.4142135623731065
  0
VERTEX
  5
229
  8
0
 10
40.48434352106247
 20
19.27995109343009
 30
0.0
  0
VERTEX
  5
22A
  8
0
 10
39.15757186752447
 20
19.27995109343009
 30
0.0
 42
-0.4142135623731065
  0
VERTEX
  5
22B
  8
0
 10
39.07883171004447
 20
19.35869125091008
 30
0.0
  0
VERTEX
  5
22C
  8
0
 10
39.07883171004447
 20
20.33605345562958
 30
0.0
 42
1.0
  0
VERTEX
  5
22D
  8
0
 10
39.07883171004447
 20
20.58605345562958
 30
0.0
  0
VERTEX
  5
22E
  8
0
 10
38.59457974154247
 20
20.58605345562958
 30
0.0
 42
1.0
  0
VERTEX
  5
22F
  8
0
 10
38.59457974154247
 20
20.33605345562958
 30
0.0
  0
VERTEX
  5
230
  8
0
 10
38.59457974154247
 20
19.60180148712958
 30
0.0
 42
-0.4142135623731065
  0
VERTEX
  5
231
  8
0
 10
38.39772934784247
 20
19.40495109342958
 30
0.0
  0
SEQEND
  5
232
  8
0
  0
POLYLINE
  5
4A
  8
0
 66
     1
 10
0.0
 20
0.0
 30
0.0
 70
     1
  0
VERTEX
  5
233
  8
0
 10
14.0942332084305
 20
29.44269833505797
 30
0.0
 42
0.2679491924311219
  0
VERTEX
  5
234
  8
0
 10
15.11709785856551
 20
28.85214715395797
 30
0.0
  0
VERTEX
  5
235
  8
0
 10
16.59456901987063
 20
28.85214715395797
 30
0.0
 42
0.5773502691896258
  0
VERTEX
  5
236
  8
0
 10
17.1060013449388
 20
29.73797392560798
 30
0.0
  0
VERTEX
  5
237
  8
0
 10
12.81201187240894
 20
37.1753818591924
 30
0.0
 42
-0.5773502691896263
  0
VERTEX
  5
238
  8
0
 10
14.51678628930019
 20
40.1281377646924
 30
0.0
  0
VERTEX
  5
239
  8
0
 10
47.81815682331267
 20
40.12813776469241
 30
0.0
 42
-0.5773502691896247
  0
VERTEX
  5
23A
  8
0
 10
49.52293124020392
 20
37.17538185919239
 30
0.0
  0
VERTEX
  5
23B
  8
0
 10
45.22894176767802
 20
29.73797392560797
 30
0.0
 42
0.5773502691896257
  0
VERTEX
  5
23C
  8
0
 10
45.74037409274617
 20
28.85214715395798
 30
0.0
  0
VERTEX
  5
23D
  8
0
 10
47.21784525405128
 20
28.85214715395797
 30
0.0
 42
0.26794919243112
  0
VERTEX
  5
23E
  8
0
 10
48.24070990418564
 20
29.44269833505797
 30
0.0
  0
VERTEX
  5
23F
  8
0
 10
52.3642219350237
 20
36.58483067809239
 30
0.0
 42
0.5773502691896252
  0
VERTEX
  5
240
  8
0
 10
48.95467310124118
 20
42.49034248909241
 30
0.0
  0
VERTEX
  5
241
  8
0
 10
46.34659861453903
 20
42.49034248909241
 30
0.0
 42
0.4142135623730875
  0
VERTEX
  5
242
  8
0
 10
46.14974822083902
 20
42.2934920953924
 30
0.0
  0
VERTEX
  5
243
  8
0
 10
46.14974822083902
 20
41.5592401268924
 30
0.0
 42
-1.0
  0
VERTEX
  5
244
  8
0
 10
46.14974822083902
 20
41.3092401268924
 30
0.0
  0
VERTEX
  5
245
  8
0
 10
45.66549625233702
 20
41.3092401268924
 30
0.0
 42
-1.0
  0
VERTEX
  5
246
  8
0
 10
45.66549625233702
 20
41.5592401268924
 30
0.0
  0
VERTEX
  5
247
  8
0
 10
45.66549625233702
 20
42.2934920953924
 30
0.0
 42
0.4142135623730875
  0
VERTEX
  5
248
  8
0
 10
45.46864585863702
 20
42.49034248909241
 30
0.0
  0
VERTEX
  5
249
  8
0
 10
44.37809467753902
 20
42.4903424890924
 30
0.0
 42
0.414213562373061
  0
VERTEX
  5
24A
  8
0
 10
44.18124428383903
 20
42.2934920953924
 30
0.0
  0
VERTEX
  5
24B
  8
0
 10
44.18124428383903
 20
41.5592401268924
 30
0.0
 42
-1.0
  0
VERTEX
  5
24C
  8
0
 10
44.18124428383903
 20
41.3092401268924
 30
0.0
  0
VERTEX
  5
24D
  8
0
 10
43.69699231533702
 20
41.3092401268924
 30
0.0
 42
-1.0
  0
VERTEX
  5
24E
  8
0
 10
43.69699231533702
 20
41.5592401268924
 30
0.0
  0
VERTEX
  5
24F
  8
0
 10
43.69699231533702
 20
42.2934920953924
 30
0.0
 42
0.414213562373061
  0
VERTEX
  5
250
  8
0
 10
43.50014192163702
 20
42.4903424890924
 30
0.0
  0
VERTEX
  5
251
  8
0
 10
42.40959074053902
 20
42.4903424890924
 30
0.0
 42
0.414213562373061
  0
VERTEX
  5
252
  8
0
 10
42.21274034683903
 20
42.2934920953924
 30
0.0
  0
VERTEX
  5
253
  8
0
 10
42.21274034683903
 20
41.5592401268924
 30
0.0
 42
-1.0
  0
VERTEX
  5
254
  8
0
 10
42.21274034683903
 20
41.3092401268924
 30
0.0
  0
VERTEX
  5
255
  8
0
 10
41.72848837833702
 20
41.3092401268924
 30
0.0
 42
-1.0
  0
VERTEX
  5
256
  8
0
 10
41.72848837833702
 20
41.5592401268924
 30
0.0
  0
VERTEX
  5
257
  8
0
 10
41.72848837833702
 20
42.2934920953924
 30
0.0
 42
0.4142135623730875
  0
VERTEX
  5
258
  8
0
 10
41.53163798463702
 20
42.49034248909241
 30
0.0
  0
VERTEX
  5
259
  8
0
 10
40.44108680353902
 20
42.4903424890924
 30
0.0
 42
0.4142135623730837
  0
VERTEX
  5
25A
  8
0
 10
40.24423640983902
 20
42.2934920953924
 30
0.0
  0
VERTEX
  5
25B
  8
0
 10
40.24423640983902
 20
41.5592401268924
 30
0.0
 42
-1.0
  0
VERTEX
  5
25C
  8
0
 10
40.24423640983902
 20
41.3092401268924
 30
0.0
  0
VERTEX
  5
25D
  8
0
 10
39.75998444133702
 20
41.3092401268924
 30
0.0
 42
-1.0
  0
VERTEX
  5
25E
  8
0
 10
39.75998444133702
 20
41.5592401268924
 30
0.0
  0
VERTEX
  5
25F
  8
0
 10
39.75998444133702
 20
42.2934920953924
 30
0.0
 42
0.4142135623730837
  0
VERTEX
  5
260
  8
0
 10
39.56313404763702
 20
42.4903424890924
 30
0.0
  0
VERTEX
  5
261
  8
0
 10
38.47258286653902
 20
42.4903424890924
 30
0.0
 42
0.4142135623730837
  0
VERTEX
  5
262
  8
0
 10
38.27573247283902
 20
42.2934920953924
 30
0.0
  0
VERTEX
  5
263
  8
0
 10
38.27573247283902
 20
41.5592401268924
 30
0.0
 42
-1.0
  0
VERTEX
  5
264
  8
0
 10
38.27573247283902
 20
41.3092401268924
 30
0.0
  0
VERTEX
  5
265
  8
0
 10
37.79148050433702
 20
41.3092401268924
 30
0.0
 42
-1.0
  0
VERTEX
  5
266
  8
0
 10
37.79148050433702
 20
41.5592401268924
 30
0.0
  0
VERTEX
  5
267
  8
0
 10
37.79148050433702
 20
42.2934920953924
 30
0.0
 42
0.4142135623730837
  0
VERTEX
  5
268
  8
0
 10
37.59463011063702
 20
42.4903424890924
 30
0.0
  0
VERTEX
  5
269
  8
0
 10
36.50407892953902
 20
42.4903424890924
 30
0.0
 42
0.4142135623730837
  0
VERTEX
  5
26A
  8
0
 10
36.30722853583902
 20
42.2934920953924
 30
0.0
  0
VERTEX
  5
26B
  8
0
 10
36.30722853583902
 20
41.5592401268924
 30
0.0
 42
-1.0
  0
VERTEX
  5
26C
  8
0
 10
36.30722853583902
 20
41.3092401268924
 30
0.0
  0
VERTEX
  5
26D
  8
0
 10
35.82297656733702
 20
41.3092401268924
 30
0.0
 42
-1.0
  0
VERTEX
  5
26E
  8
0
 10
35.82297656733702
 20
41.5592401268924
 30
0.0
  0
VERTEX
  5
26F
  8
0
 10
35.82297656733702
 20
42.2934920953924
 30
0.0
 42
0.4142135623730837
  0
VERTEX
  5
270
  8
0
 10
35.62612617363702
 20
42.4903424890924
 30
0.0
  0
VERTEX
  5
271
  8
0
 10
34.53557499253902
 20
42.4903424890924
 30
0.0
 42
0.4142135623730837
  0
VERTEX
  5
272
  8
0
 10
34.33872459883902
 20
42.2934920953924
 30
0.0
  0
VERTEX
  5
273
  8
0
 10
34.33872459883902
 20
41.5592401268924
 30
0.0
 42
-1.0
  0
VERTEX
  5
274
  8
0
 10
34.33872459883902
 20
41.3092401268924
 30
0.0
  0
VERTEX
  5
275
  8
0
 10
33.85447263033702
 20
41.3092401268924
 30
0.0
 42
-1.0
  0
VERTEX
  5
276
  8
0
 10
33.85447263033702
 20
41.5592401268924
 30
0.0
  0
VERTEX
  5
277
  8
0
 10
33.85447263033702
 20
42.2934920953924
 30
0.0
 42
0.4142135623730837
  0
VERTEX
  5
278
  8
0
 10
33.65762223663702
 20
42.4903424890924
 30
0.0
  0
VERTEX
  5
279
  8
0
 10
32.56707105553902
 20
42.4903424890924
 30
0.0
 42
0.4142135623730837
  0
VERTEX
  5
27A
  8
0
 10
32.37022066183902
 20
42.2934920953924
 30
0.0
  0
VERTEX
  5
27B
  8
0
 10
32.37022066183902
 20
41.5592401268924
 30
0.0
 42
-1.0
  0
VERTEX
  5
27C
  8
0
 10
32.37022066183902
 20
41.3092401268924
 30
0.0
  0
VERTEX
  5
27D
  8
0
 10
31.88596869333702
 20
41.3092401268924
 30
0.0
 42
-1.0
  0
VERTEX
  5
27E
  8
0
 10
31.88596869333702
 20
41.5592401268924
 30
0.0
  0
VERTEX
  5
27F
  8
0
 10
31.88596869333702
 20
42.2934920953924
 30
0.0
 42
0.4142135623730837
  0
VERTEX
  5
280
  8
0
 10
31.68911829963702
 20
42.4903424890924
 30
0.0
  0
VERTEX
  5
281
  8
0
 10
30.59857275712563
 20
42.4903424890924
 30
0.0
 42
0.4142135623730837
  0
VERTEX
  5
282
  8
0
 10
30.40172236342563
 20
42.2934920953924
 30
0.0
  0
VERTEX
  5
283
  8
0
 10
30.40172236342563
 20
41.5592401268924
 30
0.0
 42
-1.0
  0
VERTEX
  5
284
  8
0
 10
30.40172236342563
 20
41.3092401268924
 30
0.0
  0
VERTEX
  5
285
  8
0
 10
29.91747039492364
 20
41.3092401268924
 30
0.0
 42
-1.0
  0
VERTEX
  5
286
  8
0
 10
29.91747039492364
 20
41.5592401268924
 30
0.0
  0
VERTEX
  5
287
  8
0
 10
29.91747039492364
 20
42.2934920953924
 30
0.0
 42
0.4142135623730837
  0
VERTEX
  5
288
  8
0
 10
29.72062000122364
 20
42.4903424890924
 30
0.0
  0
VERTEX
  5
289
  8
0
 10
28.63006914537367
 20
42.4903424890924
 30
0.0
 42
0.4142135623730837
  0
VERTEX
  5
28A
  8
0
 10
28.43321875167367
 20
42.2934920953924
 30
0.0
  0
VERTEX
  5
28B
  8
0
 10
28.43321875167367
 20
41.5592401268924
 30
0.0
 42
-1.0
  0
VERTEX
  5
28C
  8
0
 10
28.43321875167367
 20
41.3092401268924
 30
0.0
  0
VERTEX
  5
28D
  8
0
 10
27.94896678317167
 20
41.3092401268924
 30
0.0
 42
-1.0
  0
VERTEX
  5
28E
  8
0
 10
27.94896678317167
 20
41.5592401268924
 30
0.0
  0
VERTEX
  5
28F
  8
0
 10
27.94896678317167
 20
42.2934920953924
 30
0.0
 42
0.4142135623731131
  0
VERTEX
  5
290
  8
0
 10
27.75211638947167
 20
42.4903424890924
 30
0.0
  0
VERTEX
  5
291
  8
0
 10
26.6615655336217
 20
42.4903424890924
 30
0.0
 42
0.4142135623731131
  0
VERTEX
  5
292
  8
0
 10
26.46471513992169
 20
42.2934920953924
 30
0.0
  0
VERTEX
  5
293
  8
0
 10
26.4647151399217
 20
41.5592401268924
 30
0.0
 42
-1.0
  0
VERTEX
  5
294
  8
0
 10
26.4647151399217
 20
41.3092401268924
 30
0.0
  0
VERTEX
  5
295
  8
0
 10
25.9804631714197
 20
41.3092401268924
 30
0.0
 42
-1.0
  0
VERTEX
  5
296
  8
0
 10
25.9804631714197
 20
41.5592401268924
 30
0.0
  0
VERTEX
  5
297
  8
0
 10
25.9804631714197
 20
42.2934920953924
 30
0.0
 42
0.4142135623730837
  0
VERTEX
  5
298
  8
0
 10
25.7836127777197
 20
42.4903424890924
 30
0.0
  0
VERTEX
  5
299
  8
0
 10
24.693058470665
 20
42.4903424890924
 30
0.0
 42
0.4142135623730837
  0
VERTEX
  5
29A
  8
0
 10
24.496208076965
 20
42.2934920953924
 30
0.0
  0
VERTEX
  5
29B
  8
0
 10
24.496208076965
 20
41.5592401268924
 30
0.0
 42
-1.0
  0
VERTEX
  5
29C
  8
0
 10
24.496208076965
 20
41.3092401268924
 30
0.0
  0
VERTEX
  5
29D
  8
0
 10
24.01195957225828
 20
41.3092401268924
 30
0.0
 42
-1.0
  0
VERTEX
  5
29E
  8
0
 10
24.01195957225828
 20
41.5592401268924
 30
0.0
  0
VERTEX
  5
29F
  8
0
 10
24.01195957225828
 20
42.2934920953924
 30
0.0
 42
0.4142135623731131
  0
VERTEX
  5
2A0
  8
0
 10
23.81510917855828
 20
42.4903424890924
 30
0.0
  0
VERTEX
  5
2A1
  8
0
 10
22.72455829376343
 20
42.4903424890924
 30
0.0
 42
0.4142135623730837
  0
VERTEX
  5
2A2
  8
0
 10
22.52770790006343
 20
42.2934920953924
 30
0.0
  0
VERTEX
  5
2A3
  8
0
 10
22.52770790006343
 20
41.5592401268924
 30
0.0
 42
-1.0
  0
VERTEX
  5
2A4
  8
0
 10
22.52770790006343
 20
41.3092401268924
 30
0.0
  0
VERTEX
  5
2A5
  8
0
 10
22.04345601464017
 20
41.3092401268924
 30
0.0
 42
-1.0
  0
VERTEX
  5
2A6
  8
0
 10
22.04345601464017
 20
41.5592401268924
 30
0.0
  0
VERTEX
  5
2A7
  8
0
 10
22.04345601464016
 20
42.2934920953924
 30
0.0
 42
0.4142135623730771
  0
VERTEX
  5
2A8
  8
0
 10
21.84660562094017
 20
42.4903424890924
 30
0.0
  0
VERTEX
  5
2A9
  8
0
 10
20.756054403228
 20
42.4903424890924
 30
0.0
 42
0.4142135623730724
  0
VERTEX
  5
2AA
  8
0
 10
20.559204009528
 20
42.2934920953924
 30
0.0
  0
VERTEX
  5
2AB
  8
0
 10
20.559204009528
 20
41.5592401268924
 30
0.0
 42
-1.0
  0
VERTEX
  5
2AC
  8
0
 10
20.559204009528
 20
41.3092401268924
 30
0.0
  0
VERTEX
  5
2AD
  8
0
 10
20.07495204103781
 20
41.3092401268924
 30
0.0
 42
-1.0
  0
VERTEX
  5
2AE
  8
0
 10
20.07495204103781
 20
41.5592401268924
 30
0.0
  0
VERTEX
  5
2AF
  8
0
 10
20.07495204103781
 20
42.2934920953924
 30
0.0
 42
0.4142135623730837
  0
VERTEX
  5
2B0
  8
0
 10
19.87810164733781
 20
42.4903424890924
 30
0.0
  0
VERTEX
  5
2B1
  8
0
 10
18.78755046623981
 20
42.4903424890924
 30
0.0
 42
0.4142135623731212
  0
VERTEX
  5
2B2
  8
0
 10
18.5907000725398
 20
42.2934920953924
 30
0.0
  0
VERTEX
  5
2B3
  8
0
 10
18.59070007253981
 20
41.5592401268924
 30
0.0
 42
-1.0
  0
VERTEX
  5
2B4
  8
0
 10
18.59070007253981
 20
41.3092401268924
 30
0.0
  0
VERTEX
  5
2B5
  8
0
 10
18.10644810403781
 20
41.3092401268924
 30
0.0
 42
-1.0
  0
VERTEX
  5
2B6
  8
0
 10
18.10644810403781
 20
41.5592401268924
 30
0.0
  0
VERTEX
  5
2B7
  8
0
 10
18.10644810403781
 20
42.2934920953924
 30
0.0
 42
0.4142135623730837
  0
VERTEX
  5
2B8
  8
0
 10
17.90959771033781
 20
42.4903424890924
 30
0.0
  0
VERTEX
  5
2B9
  8
0
 10
16.81904652923981
 20
42.4903424890924
 30
0.0
 42
0.4142135623730724
  0
VERTEX
  5
2BA
  8
0
 10
16.62219613553981
 20
42.2934920953924
 30
0.0
  0
VERTEX
  5
2BB
  8
0
 10
16.62219613553981
 20
41.5592401268924
 30
0.0
 42
-1.0
  0
VERTEX
  5
2BC
  8
0
 10
16.62219613553981
 20
41.3092401268924
 30
0.0
  0
VERTEX
  5
2BD
  8
0
 10
16.1379441670378
 20
41.3092401268924
 30
0.0
 42
-1.0
  0
VERTEX
  5
2BE
  8
0
 10
16.1379441670378
 20
41.5592401268924
 30
0.0
  0
VERTEX
  5
2BF
  8
0
 10
16.13794416703781
 20
42.2934920953924
 30
0.0
 42
0.4142135623731212
  0
VERTEX
  5
2C0
  8
0
 10
15.9410937733378
 20
42.4903424890924
 30
0.0
  0
VERTEX
  5
2C1
  8
0
 10
13.38027001137561
 20
42.49034248909241
 30
0.0
 42
0.5773502691896258
  0
VERTEX
  5
2C2
  8
0
 10
9.970721177591127
 20
36.58483067809239
 30
0.0
  0
SEQEND
  5
2C3
  8
0
  0
POLYLINE
  5
4B
  8
0
 66
     1
 10
0.0
 20
0.0
 30
0.0
 70
     1
  0
VERTEX
  5
2C4
  8
0
 10
11.41068976315514
 20
12.01002828953078
 30
0.0
 42
0.4142135623730935
  0
VERTEX
  5
2C5
  8
0
 10
12.00124094425514
 20
11.41947710843078
 30
0.0
  0
VERTEX
  5
2C6
  8
0
 10
13.33391810960414
 20
11.41947710843078
 30
0.0
 42
0.4142135623730951
  0
VERTEX
  5
2C7
  8
0
 10
13.53076850330414
 20
11.61632750213078
 30
0.0
  0
VERTEX
  5
2C8
  8
0
 10
13.53076850330414
 20
12.35057947063078
 30
0.0
 42
-1.0
  0
VERTEX
  5
2C9
  8
0
 10
13.53076850330414
 20
12.60057947063078
 30
0.0
  0
VERTEX
  5
2CA
  8
0
 10
14.01502047180614
 20
12.60057947063078
 30
0.0
 42
-1.0
  0
VERTEX
  5
2CB
  8
0
 10
14.01502047180614
 20
12.35057947063078
 30
0.0
  0
VERTEX
  5
2CC
  8
0
 10
14.01502047180614
 20
11.61632750213078
 30
0.0
 42
0.4142135623730951
  0
VERTEX
  5
2CD
  8
0
 10
14.21187086550614
 20
11.41947710843078
 30
0.0
  0
VERTEX
  5
2CE
  8
0
 10
18.05832755840414
 20
11.41947710843078
 30
0.0
 42
0.4142135623730951
  0
VERTEX
  5
2CF
  8
0
 10
18.25517795210414
 20
11.61632750213078
 30
0.0
  0
VERTEX
  5
2D0
  8
0
 10
18.25517795210414
 20
12.35057947063078
 30
0.0
 42
-1.0
  0
VERTEX
  5
2D1
  8
0
 10
18.25517795210414
 20
12.60057947063078
 30
0.0
  0
VERTEX
  5
2D2
  8
0
 10
18.73942992060614
 20
12.60057947063078
 30
0.0
 42
-1.0
  0
VERTEX
  5
2D3
  8
0
 10
18.73942992060614
 20
12.35057947063078
 30
0.0
  0
VERTEX
  5
2D4
  8
0
 10
18.73942992060614
 20
11.61632750213078
 30
0.0
 42
0.4142135623730951
  0
VERTEX
  5
2D5
  8
0
 10
18.93628031430614
 20
11.41947710843078
 30
0.0
  0
VERTEX
  5
2D6
  8
0
 10
22.78273700720414
 20
11.41947710843078
 30
0.0
 42
0.4142135623731065
  0
VERTEX
  5
2D7
  8
0
 10
22.97958740090414
 20
11.61632750213078
 30
0.0
  0
VERTEX
  5
2D8
  8
0
 10
22.97958740090414
 20
12.35057947063078
 30
0.0
 42
-1.0
  0
VERTEX
  5
2D9
  8
0
 10
22.97958740090414
 20
12.60057947063078
 30
0.0
  0
VERTEX
  5
2DA
  8
0
 10
23.46383936940614
 20
12.60057947063078
 30
0.0
 42
-1.0
  0
VERTEX
  5
2DB
  8
0
 10
23.46383936940614
 20
12.35057947063078
 30
0.0
  0
VERTEX
  5
2DC
  8
0
 10
23.46383936940614
 20
11.61632750213078
 30
0.0
 42
0.4142135623730951
  0
VERTEX
  5
2DD
  8
0
 10
23.66068976310614
 20
11.41947710843078
 30
0.0
  0
VERTEX
  5
2DE
  8
0
 10
27.50714645600414
 20
11.41947710843078
 30
0.0
 42
0.4142135623731065
  0
VERTEX
  5
2DF
  8
0
 10
27.70399684970414
 20
11.61632750213078
 30
0.0
  0
VERTEX
  5
2E0
  8
0
 10
27.70399684970414
 20
12.35057947063078
 30
0.0
 42
-1.0
  0
VERTEX
  5
2E1
  8
0
 10
27.70399684970414
 20
12.60057947063078
 30
0.0
  0
VERTEX
  5
2E2
  8
0
 10
28.18824881820614
 20
12.60057947063078
 30
0.0
 42
-1.0
  0
VERTEX
  5
2E3
  8
0
 10
28.18824881820614
 20
12.35057947063078
 30
0.0
  0
VERTEX
  5
2E4
  8
0
 10
28.18824881820614
 20
11.61632750213078
 30
0.0
 42
0.4142135623730857
  0
VERTEX
  5
2E5
  8
0
 10
28.38509921190614
 20
11.41947710843077
 30
0.0
  0
VERTEX
  5
2E6
  8
0
 10
32.23155590480414
 20
11.41947710843077
 30
0.0
 42
0.4142135623730857
  0
VERTEX
  5
2E7
  8
0
 10
32.42840629850414
 20
11.61632750213078
 30
0.0
  0
VERTEX
  5
2E8
  8
0
 10
32.42840629850414
 20
12.35057947063078
 30
0.0
 42
-1.0
  0
VERTEX
  5
2E9
  8
0
 10
32.42840629850414
 20
12.60057947063078
 30
0.0
  0
VERTEX
  5
2EA
  8
0
 10
32.91265826700614
 20
12.60057947063078
 30
0.0
 42
-1.0
  0
VERTEX
  5
2EB
  8
0
 10
32.91265826700614
 20
12.35057947063078
 30
0.0
  0
VERTEX
  5
2EC
  8
0
 10
32.91265826700614
 20
11.61632750213078
 30
0.0
 42
0.4142135623730857
  0
VERTEX
  5
2ED
  8
0
 10
33.10950866070614
 20
11.41947710843077
 30
0.0
  0
VERTEX
  5
2EE
  8
0
 10
34.44218582605514
 20
11.41947710843077
 30
0.0
 42
0.4142135623730957
  0
VERTEX
  5
2EF
  8
0
 10
35.03273700715514
 20
12.01002828953078
 30
0.0
  0
VERTEX
  5
2F0
  8
0
 10
35.03273700715514
 20
13.19113065173078
 30
0.0
 42
0.4142135623730957
  0
VERTEX
  5
2F1
  8
0
 10
34.44218582605514
 20
13.78168183283078
 30
0.0
  0
VERTEX
  5
2F2
  8
0
 10
12.00124094425514
 20
13.78168183283078
 30
0.0
 42
0.4142135623730951
  0
VERTEX
  5
2F3
  8
0
 10
11.41068976315514
 20
13.19113065173078
 30
0.0
  0
SEQEND
  5
2F4
  8
0
  0
POLYLINE
  5
4C
  8
0
 66
     1
 10
0.0
 20
0.0
 30
0.0
 70
     1
  0
VERTEX
  5
2F5
  8
0
 10
2.311968937475
 20
23.92053736764675
 30
0.0
 42
0.4142135623731007
  0
VERTEX
  5
2F6
  8
0
 10
2.705669724875001
 20
23.52683658024675
 30
0.0
  0
VERTEX
  5
2F7
  8
0
 10
2.857244528024001
 20
23.52683658024674
 30
0.0
 42
0.4142135623730842
  0
VERTEX
  5
2F8
  8
0
 10
3.054094921724004
 20
23.72368697394675
 30
0.0
  0
VERTEX
  5
2F9
  8
0
 10
3.054094921724002
 20
24.45793894244675
 30
0.0
 42
-1.0
  0
VERTEX
  5
2FA
  8
0
 10
3.054094921724001
 20
24.70793894244675
 30
0.0
  0
VERTEX
  5
2FB
  8
0
 10
3.538346890226
 20
24.70793894244675
 30
0.0
 42
-1.0
  0
VERTEX
  5
2FC
  8
0
 10
3.538346890226
 20
24.45793894244675
 30
0.0
  0
VERTEX
  5
2FD
  8
0
 10
3.538346890226
 20
23.48057673772724
 30
0.0
 42
0.4142135623731004
  0
VERTEX
  5
2FE
  8
0
 10
3.617087047706001
 20
23.40183658024725
 30
0.0
  0
VERTEX
  5
2FF
  8
0
 10
4.943858701244001
 20
23.40183658024725
 30
0.0
 42
0.4142135623730994
  0
VERTEX
  5
300
  8
0
 10
5.022598858724001
 20
23.48057673772724
 30
0.0
  0
VERTEX
  5
301
  8
0
 10
5.022598858724001
 20
24.45793894244675
 30
0.0
 42
-1.0
  0
VERTEX
  5
302
  8
0
 10
5.022598858724001
 20
24.70793894244675
 30
0.0
  0
VERTEX
  5
303
  8
0
 10
5.506850827226001
 20
24.70793894244675
 30
0.0
 42
-1.0
  0
VERTEX
  5
304
  8
0
 10
5.506850827226
 20
24.45793894244675
 30
0.0
  0
VERTEX
  5
305
  8
0
 10
5.506850827225998
 20
23.72368697394675
 30
0.0
 42
0.4142135623730857
  0
VERTEX
  5
306
  8
0
 10
5.703701220926001
 20
23.52683658024674
 30
0.0
  0
VERTEX
  5
307
  8
0
 10
6.794252402024001
 20
23.52683658024674
 30
0.0
 42
0.4142135623730857
  0
VERTEX
  5
308
  8
0
 10
6.991102795724004
 20
23.72368697394675
 30
0.0
  0
VERTEX
  5
309
  8
0
 10
6.991102795724002
 20
24.45793894244675
 30
0.0
 42
-1.0
  0
VERTEX
  5
30A
  8
0
 10
6.991102795724001
 20
24.70793894244675
 30
0.0
  0
VERTEX
  5
30B
  8
0
 10
7.475354764226
 20
24.70793894244675
 30
0.0
 42
-1.0
  0
VERTEX
  5
30C
  8
0
 10
7.475354764225999
 20
24.45793894244675
 30
0.0
  0
VERTEX
  5
30D
  8
0
 10
7.475354764225997
 20
23.72368697394675
 30
0.0
 42
0.4142135623730857
  0
VERTEX
  5
30E
  8
0
 10
7.672205157926
 20
23.52683658024674
 30
0.0
  0
VERTEX
  5
30F
  8
0
 10
8.762756339024001
 20
23.52683658024674
 30
0.0
 42
0.4142135623730857
  0
VERTEX
  5
310
  8
0
 10
8.959606732724003
 20
23.72368697394675
 30
0.0
  0
VERTEX
  5
311
  8
0
 10
8.959606732724001
 20
24.45793894244675
 30
0.0
 42
-1.0
  0
VERTEX
  5
312
  8
0
 10
8.959606732724001
 20
24.70793894244675
 30
0.0
  0
VERTEX
  5
313
  8
0
 10
9.443858701226
 20
24.70793894244675
 30
0.0
 42
-1.0
  0
VERTEX
  5
314
  8
0
 10
9.443858701226
 20
24.45793894244675
 30
0.0
  0
VERTEX
  5
315
  8
0
 10
9.443858701225999
 20
23.72368697394675
 30
0.0
 42
0.4142135623730857
  0
VERTEX
  5
316
  8
0
 10
9.640709094926
 20
23.52683658024674
 30
0.0
  0
VERTEX
  5
317
  8
0
 10
10.731260276024
 20
23.52683658024674
 30
0.0
 42
0.4142135623730857
  0
VERTEX
  5
318
  8
0
 10
10.928110669724
 20
23.72368697394675
 30
0.0
  0
VERTEX
  5
319
  8
0
 10
10.928110669724
 20
24.45793894244675
 30
0.0
 42
-1.0
  0
VERTEX
  5
31A
  8
0
 10
10.928110669724
 20
24.70793894244675
 30
0.0
  0
VERTEX
  5
31B
  8
0
 10
11.412362638226
 20
24.70793894244675
 30
0.0
 42
-1.0
  0
VERTEX
  5
31C
  8
0
 10
11.412362638226
 20
24.45793894244675
 30
0.0
  0
VERTEX
  5
31D
  8
0
 10
11.412362638226
 20
23.48057673772724
 30
0.0
 42
0.4142135623731065
  0
VERTEX
  5
31E
  8
0
 10
11.491102795706
 20
23.40183658024725
 30
0.0
  0
VERTEX
  5
31F
  8
0
 10
12.817874449244
 20
23.40183658024725
 30
0.0
 42
0.4142135623731065
  0
VERTEX
  5
320
  8
0
 10
12.896614606724
 20
23.48057673772724
 30
0.0
  0
VERTEX
  5
321
  8
0
 10
12.896614606724
 20
24.45793894244675
 30
0.0
 42
-1.0
  0
VERTEX
  5
322
  8
0
 10
12.896614606724
 20
24.70793894244675
 30
0.0
  0
VERTEX
  5
323
  8
0
 10
13.380866575226
 20
24.70793894244675
 30
0.0
 42
-1.0
  0
VERTEX
  5
324
  8
0
 10
13.380866575226
 20
24.45793894244675
 30
0.0
  0
VERTEX
  5
325
  8
0
 10
13.380866575226
 20
23.72368697394675
 30
0.0
 42
0.4142135623730857
  0
VERTEX
  5
326
  8
0
 10
13.577716968926
 20
23.52683658024674
 30
0.0
  0
VERTEX
  5
327
  8
0
 10
20.09917048240779
 20
23.52683658024674
 30
0.0
 42
0.5773502691896256
  0
VERTEX
  5
328
  8
0
 10
23.5087193161903
 20
29.43234839124675
 30
0.0
  0
VERTEX
  5
329
  8
0
 10
19.38520728535224
 20
36.57448073428117
 30
0.0
 42
0.2679491924311302
  0
VERTEX
  5
32A
  8
0
 10
18.36234263521789
 20
37.16503191538116
 30
0.0
  0
VERTEX
  5
32B
  8
0
 10
16.88487147390883
 20
37.16503191538117
 30
0.0
 42
0.5773502691896258
  0
VERTEX
  5
32C
  8
0
 10
16.37343914884264
 20
36.27920514373118
 30
0.0
  0
VERTEX
  5
32D
  8
0
 10
20.66742862137052
 20
28.84179721014674
 30
0.0
 42
-0.5773502691896251
  0
VERTEX
  5
32E
  8
0
 10
18.96265420447927
 20
25.88904130464675
 30
0.0
  0
VERTEX
  5
32F
  8
0
 10
17.514724842926
 20
25.88904130464675
 30
0.0
 42
0.4142135623730951
  0
VERTEX
  5
330
  8
0
 10
17.317874449226
 20
25.69219091094675
 30
0.0
  0
VERTEX
  5
331
  8
0
 10
17.317874449226
 20
24.95793894244675
 30
0.0
 42
-1.0
  0
VERTEX
  5
332
  8
0
 10
17.317874449226
 20
24.70793894244675
 30
0.0
  0
VERTEX
  5
333
  8
0
 10
16.833622480724
 20
24.70793894244675
 30
0.0
 42
-1.0
  0
VERTEX
  5
334
  8
0
 10
16.833622480724
 20
24.95793894244675
 30
0.0
  0
VERTEX
  5
335
  8
0
 10
16.833622480724
 20
25.69219091094675
 30
0.0
 42
0.4142135623731065
  0
VERTEX
  5
336
  8
0
 10
16.636772087024
 20
25.88904130464675
 30
0.0
  0
VERTEX
  5
337
  8
0
 10
15.546220905926
 20
25.88904130464675
 30
0.0
 42
0.4142135623730951
  0
VERTEX
  5
338
  8
0
 10
15.349370512226
 20
25.69219091094675
 30
0.0
  0
VERTEX
  5
339
  8
0
 10
15.349370512226
 20
24.95793894244675
 30
0.0
 42
-1.0
  0
VERTEX
  5
33A
  8
0
 10
15.349370512226
 20
24.70793894244675
 30
0.0
  0
VERTEX
  5
33B
  8
0
 10
14.865118543724
 20
24.70793894244675
 30
0.0
 42
-1.0
  0
VERTEX
  5
33C
  8
0
 10
14.865118543724
 20
24.95793894244675
 30
0.0
  0
VERTEX
  5
33D
  8
0
 10
14.865118543724
 20
25.69219091094675
 30
0.0
 42
0.4142135623731065
  0
VERTEX
  5
33E
  8
0
 10
14.668268150024
 20
25.88904130464675
 30
0.0
  0
VERTEX
  5
33F
  8
0
 10
2.705669724875001
 20
25.88904130464675
 30
0.0
 42
0.4142135623731008
  0
VERTEX
  5
340
  8
0
 10
2.311968937475001
 20
25.49534051724675
 30
0.0
  0
SEQEND
  5
341
  8
0
  0
POLYLINE
  5
4D
  8
0
 66
     1
 10
0.0
 20
0.0
 30
0.0
 70
     1
  0
VERTEX
  5
342
  8
0
 10
11.90747144225945
 20
4.131118153236273
 30
0.0
  0
VERTEX
  5
343
  8
0
 10
13.24014860760845
 20
4.131118153236273
 30
0.0
 42
0.4142135623730951
  0
VERTEX
  5
344
  8
0
 10
13.43699900130845
 20
4.327968546936273
 30
0.0
  0
VERTEX
  5
345
  8
0
 10
13.43699900130845
 20
5.062220515436275
 30
0.0
 42
-1.0
  0
VERTEX
  5
346
  8
0
 10
13.43699900130845
 20
5.312220515436274
 30
0.0
  0
VERTEX
  5
347
  8
0
 10
13.92125096981045
 20
5.312220515436274
 30
0.0
 42
-1.0
  0
VERTEX
  5
348
  8
0
 10
13.92125096981045
 20
5.062220515436275
 30
0.0
  0
VERTEX
  5
349
  8
0
 10
13.92125096981045
 20
4.327968546936273
 30
0.0
 42
0.4142135623730951
  0
VERTEX
  5
34A
  8
0
 10
14.11810136351045
 20
4.131118153236273
 30
0.0
  0
VERTEX
  5
34B
  8
0
 10
17.96455805640845
 20
4.131118153236273
 30
0.0
 42
0.4142135623730951
  0
VERTEX
  5
34C
  8
0
 10
18.16140845010845
 20
4.327968546936273
 30
0.0
  0
VERTEX
  5
34D
  8
0
 10
18.16140845010845
 20
5.062220515436275
 30
0.0
 42
-1.0
  0
VERTEX
  5
34E
  8
0
 10
18.16140845010845
 20
5.312220515436274
 30
0.0
  0
VERTEX
  5
34F
  8
0
 10
18.64566041861045
 20
5.312220515436274
 30
0.0
 42
-1.0
  0
VERTEX
  5
350
  8
0
 10
18.64566041861045
 20
5.062220515436275
 30
0.0
  0
VERTEX
  5
351
  8
0
 10
18.64566041861045
 20
4.327968546936273
 30
0.0
 42
0.4142135623730951
  0
VERTEX
  5
352
  8
0
 10
18.84251081231045
 20
4.131118153236273
 30
0.0
  0
VERTEX
  5
353
  8
0
 10
22.68896750520846
 20
4.131118153236273
 30
0.0
 42
0.4142135623731065
  0
VERTEX
  5
354
  8
0
 10
22.88581789890846
 20
4.327968546936273
 30
0.0
  0
VERTEX
  5
355
  8
0
 10
22.88581789890846
 20
5.062220515436275
 30
0.0
 42
-1.0
  0
VERTEX
  5
356
  8
0
 10
22.88581789890846
 20
5.312220515436274
 30
0.0
  0
VERTEX
  5
357
  8
0
 10
23.37006986741045
 20
5.312220515436274
 30
0.0
 42
-1.0
  0
VERTEX
  5
358
  8
0
 10
23.37006986741045
 20
5.062220515436275
 30
0.0
  0
VERTEX
  5
359
  8
0
 10
23.37006986741045
 20
4.327968546936273
 30
0.0
 42
0.4142135623730951
  0
VERTEX
  5
35A
  8
0
 10
23.56692026111045
 20
4.131118153236273
 30
0.0
  0
VERTEX
  5
35B
  8
0
 10
27.41337695400846
 20
4.131118153236273
 30
0.0
 42
0.4142135623731065
  0
VERTEX
  5
35C
  8
0
 10
27.61022734770846
 20
4.327968546936273
 30
0.0
  0
VERTEX
  5
35D
  8
0
 10
27.61022734770846
 20
5.062220515436275
 30
0.0
 42
-1.0
  0
VERTEX
  5
35E
  8
0
 10
27.61022734770846
 20
5.312220515436274
 30
0.0
  0
VERTEX
  5
35F
  8
0
 10
28.09447931621045
 20
5.312220515436274
 30
0.0
 42
-1.0
  0
VERTEX
  5
360
  8
0
 10
28.09447931621045
 20
5.062220515436275
 30
0.0
  0
VERTEX
  5
361
  8
0
 10
28.09447931621045
 20
4.327968546936273
 30
0.0
 42
0.4142135623730951
  0
VERTEX
  5
362
  8
0
 10
28.29132970991045
 20
4.131118153236273
 30
0.0
  0
VERTEX
  5
363
  8
0
 10
32.13778640280845
 20
4.131118153236273
 30
0.0
 42
0.4142135623731065
  0
VERTEX
  5
364
  8
0
 10
32.33463679650846
 20
4.327968546936273
 30
0.0
  0
VERTEX
  5
365
  8
0
 10
32.33463679650846
 20
5.062220515436275
 30
0.0
 42
-1.0
  0
VERTEX
  5
366
  8
0
 10
32.33463679650846
 20
5.312220515436274
 30
0.0
  0
VERTEX
  5
367
  8
0
 10
32.81888876501046
 20
5.312220515436274
 30
0.0
 42
-1.0
  0
VERTEX
  5
368
  8
0
 10
32.81888876501046
 20
5.062220515436275
 30
0.0
  0
VERTEX
  5
369
  8
0
 10
32.81888876501046
 20
4.327968546936273
 30
0.0
 42
0.4142135623730857
  0
VERTEX
  5
36A
  8
0
 10
33.01573915871045
 20
4.131118153236272
 30
0.0
  0
VERTEX
  5
36B
  8
0
 10
34.34841632405946
 20
4.131118153236273
 30
0.0
 42
0.4142135623730951
  0
VERTEX
  5
36C
  8
0
 10
34.93896750515945
 20
4.721669334336275
 30
0.0
  0
VERTEX
  5
36D
  8
0
 10
34.93896750515945
 20
5.902771696536274
 30
0.0
 42
0.4142135623730945
  0
VERTEX
  5
36E
  8
0
 10
34.34841632405946
 20
6.493322877636274
 30
0.0
  0
VERTEX
  5
36F
  8
0
 10
11.90747144225945
 20
6.493322877636274
 30
0.0
 42
0.4142135623730935
  0
VERTEX
  5
370
  8
0
 10
11.31692026115945
 20
5.902771696536274
 30
0.0
  0
VERTEX
  5
371
  8
0
 10
11.31692026115945
 20
4.721669334336275
 30
0.0
 42
0.4142135623730951
  0
SEQEND
  5
372
  8
0
  0
POLYLINE
  5
4E
  8
0
 66
     1
 10
0.0
 20
0.0
 30
0.0
 70
     1
  0
VERTEX
  5
373
  8
0
 10
5.906648771986866
 20
4.623559503135124
 30
0.0
 42
0.2679491924311202
  0
VERTEX
  5
374
  8
0
 10
6.929513422121881
 20
4.033008322035125
 30
0.0
  0
VERTEX
  5
375
  8
0
 10
8.406984583426995
 20
4.033008322035118
 30
0.0
 42
0.577350269189625
  0
VERTEX
  5
376
  8
0
 10
8.918416908495166
 20
4.91883509368513
 30
0.0
  0
VERTEX
  5
377
  8
0
 10
4.624427435969253
 20
12.35624302726955
 30
0.0
 42
-0.5773502691896256
  0
VERTEX
  5
378
  8
0
 10
6.329201852860503
 20
15.30899893276955
 30
0.0
  0
VERTEX
  5
379
  8
0
 10
39.63057238686903
 20
15.30899893276957
 30
0.0
 42
-0.5773502691896248
  0
VERTEX
  5
37A
  8
0
 10
41.33534680376226
 20
12.35624302726954
 30
0.0
  0
VERTEX
  5
37B
  8
0
 10
37.04135733123439
 20
4.918835093685123
 30
0.0
 42
0.5773502691896256
  0
VERTEX
  5
37C
  8
0
 10
37.55278965630254
 20
4.033008322035136
 30
0.0
  0
VERTEX
  5
37D
  8
0
 10
39.03026081760765
 20
4.033008322035132
 30
0.0
 42
0.2679491924311223
  0
VERTEX
  5
37E
  8
0
 10
40.05312546774398
 20
4.623559503135129
 30
0.0
  0
VERTEX
  5
37F
  8
0
 10
44.17663749858204
 20
11.76569184616954
 30
0.0
 42
0.5773502691896252
  0
VERTEX
  5
380
  8
0
 10
40.76708866479756
 20
17.67120365716957
 30
0.0
  0
VERTEX
  5
381
  8
0
 10
38.15901417809933
 20
17.67120365716956
 30
0.0
 42
0.4142135623730743
  0
VERTEX
  5
382
  8
0
 10
37.96216378439932
 20
17.47435326346956
 30
0.0
  0
VERTEX
  5
383
  8
0
 10
37.96216378439933
 20
16.74010129496956
 30
0.0
 42
-1.0
  0
VERTEX
  5
384
  8
0
 10
37.96216378439933
 20
16.49010129496956
 30
0.0
  0
VERTEX
  5
385
  8
0
 10
37.47791181589733
 20
16.49010129496956
 30
0.0
 42
-1.0
  0
VERTEX
  5
386
  8
0
 10
37.47791181589733
 20
16.74010129496956
 30
0.0
  0
VERTEX
  5
387
  8
0
 10
37.47791181589733
 20
17.47435326346956
 30
0.0
 42
0.4142135623730743
  0
VERTEX
  5
388
  8
0
 10
37.28106142219733
 20
17.67120365716956
 30
0.0
  0
VERTEX
  5
389
  8
0
 10
36.19051024109933
 20
17.67120365716956
 30
0.0
 42
0.4142135623730743
  0
VERTEX
  5
38A
  8
0
 10
35.99365984739933
 20
17.47435326346956
 30
0.0
  0
VERTEX
  5
38B
  8
0
 10
35.99365984739933
 20
16.74010129496956
 30
0.0
 42
-1.0
  0
VERTEX
  5
38C
  8
0
 10
35.99365984739933
 20
16.49010129496956
 30
0.0
  0
VERTEX
  5
38D
  8
0
 10
35.50940787889733
 20
16.49010129496956
 30
0.0
 42
-1.0
  0
VERTEX
  5
38E
  8
0
 10
35.50940787889733
 20
16.74010129496956
 30
0.0
  0
VERTEX
  5
38F
  8
0
 10
35.50940787889733
 20
17.47435326346956
 30
0.0
 42
0.4142135623730743
  0
VERTEX
  5
390
  8
0
 10
35.31255748519733
 20
17.67120365716956
 30
0.0
  0
VERTEX
  5
391
  8
0
 10
34.22200630409933
 20
17.67120365716956
 30
0.0
 42
0.4142135623730743
  0
VERTEX
  5
392
  8
0
 10
34.02515591039933
 20
17.47435326346956
 30
0.0
  0
VERTEX
  5
393
  8
0
 10
34.02515591039933
 20
16.74010129496956
 30
0.0
 42
-1.0
  0
VERTEX
  5
394
  8
0
 10
34.02515591039933
 20
16.49010129496956
 30
0.0
  0
VERTEX
  5
395
  8
0
 10
33.54090394189733
 20
16.49010129496956
 30
0.0
 42
-1.0
  0
VERTEX
  5
396
  8
0
 10
33.54090394189733
 20
16.74010129496956
 30
0.0
  0
VERTEX
  5
397
  8
0
 10
33.54090394189733
 20
17.47435326346956
 30
0.0
 42
0.4142135623730743
  0
VERTEX
  5
398
  8
0
 10
33.34405354819733
 20
17.67120365716956
 30
0.0
  0
VERTEX
  5
399
  8
0
 10
32.25350236709933
 20
17.67120365716956
 30
0.0
 42
0.4142135623730743
  0
VERTEX
  5
39A
  8
0
 10
32.05665197339933
 20
17.47435326346956
 30
0.0
  0
VERTEX
  5
39B
  8
0
 10
32.05665197339933
 20
16.74010129496956
 30
0.0
 42
-1.0
  0
VERTEX
  5
39C
  8
0
 10
32.05665197339933
 20
16.49010129496956
 30
0.0
  0
VERTEX
  5
39D
  8
0
 10
31.57240000489733
 20
16.49010129496956
 30
0.0
 42
-1.0
  0
VERTEX
  5
39E
  8
0
 10
31.57240000489733
 20
16.74010129496956
 30
0.0
  0
VERTEX
  5
39F
  8
0
 10
31.57240000489733
 20
17.47435326346956
 30
0.0
 42
0.4142135623730743
  0
VERTEX
  5
3A0
  8
0
 10
31.37554961119733
 20
17.67120365716956
 30
0.0
  0
VERTEX
  5
3A1
  8
0
 10
30.28499843009933
 20
17.67120365716956
 30
0.0
 42
0.4142135623730743
  0
VERTEX
  5
3A2
  8
0
 10
30.08814803639932
 20
17.47435326346956
 30
0.0
  0
VERTEX
  5
3A3
  8
0
 10
30.08814803639933
 20
16.74010129496956
 30
0.0
 42
-1.0
  0
VERTEX
  5
3A4
  8
0
 10
30.08814803639933
 20
16.49010129496956
 30
0.0
  0
VERTEX
  5
3A5
  8
0
 10
29.60389606789733
 20
16.49010129496956
 30
0.0
 42
-1.0
  0
VERTEX
  5
3A6
  8
0
 10
29.60389606789733
 20
16.74010129496956
 30
0.0
  0
VERTEX
  5
3A7
  8
0
 10
29.60389606789733
 20
17.47435326346956
 30
0.0
 42
0.4142135623731065
  0
VERTEX
  5
3A8
  8
0
 10
29.40704567419733
 20
17.67120365716956
 30
0.0
  0
VERTEX
  5
3A9
  8
0
 10
28.31649449309933
 20
17.67120365716956
 30
0.0
 42
0.4142135623730743
  0
VERTEX
  5
3AA
  8
0
 10
28.11964409939933
 20
17.47435326346956
 30
0.0
  0
VERTEX
  5
3AB
  8
0
 10
28.11964409939933
 20
16.74010129496956
 30
0.0
 42
-1.0
  0
VERTEX
  5
3AC
  8
0
 10
28.11964409939933
 20
16.49010129496956
 30
0.0
  0
VERTEX
  5
3AD
  8
0
 10
27.63539213089733
 20
16.49010129496956
 30
0.0
 42
-1.0
  0
VERTEX
  5
3AE
  8
0
 10
27.63539213089733
 20
16.74010129496956
 30
0.0
  0
VERTEX
  5
3AF
  8
0
 10
27.63539213089733
 20
17.47435326346956
 30
0.0
 42
0.4142135623731065
  0
VERTEX
  5
3B0
  8
0
 10
27.43854173719733
 20
17.67120365716956
 30
0.0
  0
VERTEX
  5
3B1
  8
0
 10
26.34799055609933
 20
17.67120365716956
 30
0.0
 42
0.4142135623730743
  0
VERTEX
  5
3B2
  8
0
 10
26.15114016239933
 20
17.47435326346956
 30
0.0
  0
VERTEX
  5
3B3
  8
0
 10
26.15114016239933
 20
16.74010129496956
 30
0.0
 42
-1.0
  0
VERTEX
  5
3B4
  8
0
 10
26.15114016239933
 20
16.49010129496956
 30
0.0
  0
VERTEX
  5
3B5
  8
0
 10
25.66688819389733
 20
16.49010129496956
 30
0.0
 42
-1.0
  0
VERTEX
  5
3B6
  8
0
 10
25.66688819389733
 20
16.74010129496956
 30
0.0
  0
VERTEX
  5
3B7
  8
0
 10
25.66688819389733
 20
17.47435326346956
 30
0.0
 42
0.4142135623731065
  0
VERTEX
  5
3B8
  8
0
 10
25.47003780019733
 20
17.67120365716956
 30
0.0
  0
VERTEX
  5
3B9
  8
0
 10
24.37948661909933
 20
17.67120365716956
 30
0.0
 42
0.4142135623731065
  0
VERTEX
  5
3BA
  8
0
 10
24.18263622539933
 20
17.47435326346956
 30
0.0
  0
VERTEX
  5
3BB
  8
0
 10
24.18263622539933
 20
16.74010129496956
 30
0.0
 42
-1.0
  0
VERTEX
  5
3BC
  8
0
 10
24.18263622539933
 20
16.49010129496956
 30
0.0
  0
VERTEX
  5
3BD
  8
0
 10
23.69838425689733
 20
16.49010129496956
 30
0.0
 42
-1.0
  0
VERTEX
  5
3BE
  8
0
 10
23.69838425689733
 20
16.74010129496956
 30
0.0
  0
VERTEX
  5
3BF
  8
0
 10
23.69838425689733
 20
17.47435326346956
 30
0.0
 42
0.4142135623731065
  0
VERTEX
  5
3C0
  8
0
 10
23.50153386319733
 20
17.67120365716956
 30
0.0
  0
VERTEX
  5
3C1
  8
0
 10
22.41098832068594
 20
17.67120365716956
 30
0.0
 42
0.4142135623731065
  0
VERTEX
  5
3C2
  8
0
 10
22.21413792698594
 20
17.47435326346956
 30
0.0
  0
VERTEX
  5
3C3
  8
0
 10
22.21413792698594
 20
16.74010129496956
 30
0.0
 42
-1.0
  0
VERTEX
  5
3C4
  8
0
 10
22.21413792698594
 20
16.49010129496956
 30
0.0
  0
VERTEX
  5
3C5
  8
0
 10
21.72988595848394
 20
16.49010129496956
 30
0.0
 42
-1.0
  0
VERTEX
  5
3C6
  8
0
 10
21.72988595848394
 20
16.74010129496956
 30
0.0
  0
VERTEX
  5
3C7
  8
0
 10
21.72988595848394
 20
17.47435326346956
 30
0.0
 42
0.4142135623731065
  0
VERTEX
  5
3C8
  8
0
 10
21.53303556478394
 20
17.67120365716956
 30
0.0
  0
VERTEX
  5
3C9
  8
0
 10
20.44248470893397
 20
17.67120365716956
 30
0.0
 42
0.4142135623730984
  0
VERTEX
  5
3CA
  8
0
 10
20.24563431523397
 20
17.47435326346956
 30
0.0
  0
VERTEX
  5
3CB
  8
0
 10
20.24563431523397
 20
16.74010129496956
 30
0.0
 42
-1.0
  0
VERTEX
  5
3CC
  8
0
 10
20.24563431523397
 20
16.49010129496956
 30
0.0
  0
VERTEX
  5
3CD
  8
0
 10
19.76138234673197
 20
16.49010129496956
 30
0.0
 42
-1.0
  0
VERTEX
  5
3CE
  8
0
 10
19.76138234673197
 20
16.74010129496956
 30
0.0
  0
VERTEX
  5
3CF
  8
0
 10
19.76138234673197
 20
17.47435326346956
 30
0.0
 42
0.4142135623731065
  0
VERTEX
  5
3D0
  8
0
 10
19.56453195303197
 20
17.67120365716956
 30
0.0
  0
VERTEX
  5
3D1
  8
0
 10
18.47398109717807
 20
17.67120365716956
 30
0.0
 42
0.4142135623730857
  0
VERTEX
  5
3D2
  8
0
 10
18.27713070347806
 20
17.47435326346956
 30
0.0
  0
VERTEX
  5
3D3
  8
0
 10
18.27713070347807
 20
16.74010129496956
 30
0.0
 42
-1.0
  0
VERTEX
  5
3D4
  8
0
 10
18.27713070347807
 20
16.49010129496956
 30
0.0
  0
VERTEX
  5
3D5
  8
0
 10
17.79287873497607
 20
16.49010129496956
 30
0.0
 42
-1.0
  0
VERTEX
  5
3D6
  8
0
 10
17.79287873497607
 20
16.74010129496956
 30
0.0
  0
VERTEX
  5
3D7
  8
0
 10
17.79287873497607
 20
17.47435326346956
 30
0.0
 42
0.4142135623731065
  0
VERTEX
  5
3D8
  8
0
 10
17.59602834127607
 20
17.67120365716956
 30
0.0
  0
VERTEX
  5
3D9
  8
0
 10
16.50547403422138
 20
17.67120365716956
 30
0.0
 42
0.4142135623730951
  0
VERTEX
  5
3DA
  8
0
 10
16.30862364052138
 20
17.47435326346956
 30
0.0
  0
VERTEX
  5
3DB
  8
0
 10
16.30862364052138
 20
16.74010129496956
 30
0.0
 42
-1.0
  0
VERTEX
  5
3DC
  8
0
 10
16.30862364052138
 20
16.49010129496956
 30
0.0
  0
VERTEX
  5
3DD
  8
0
 10
15.82437513581858
 20
16.49010129496956
 30
0.0
 42
-1.0
  0
VERTEX
  5
3DE
  8
0
 10
15.82437513581858
 20
16.74010129496956
 30
0.0
  0
VERTEX
  5
3DF
  8
0
 10
15.82437513581858
 20
17.47435326346956
 30
0.0
 42
0.4142135623730985
  0
VERTEX
  5
3E0
  8
0
 10
15.62752474211858
 20
17.67120365716956
 30
0.0
  0
VERTEX
  5
3E1
  8
0
 10
14.5369738573198
 20
17.67120365716956
 30
0.0
 42
0.4142135623730804
  0
VERTEX
  5
3E2
  8
0
 10
14.3401234636198
 20
17.47435326346956
 30
0.0
  0
VERTEX
  5
3E3
  8
0
 10
14.3401234636198
 20
16.74010129496956
 30
0.0
 42
-1.0
  0
VERTEX
  5
3E4
  8
0
 10
14.3401234636198
 20
16.49010129496956
 30
0.0
  0
VERTEX
  5
3E5
  8
0
 10
13.85587157819654
 20
16.49010129496956
 30
0.0
 42
-1.0
  0
VERTEX
  5
3E6
  8
0
 10
13.85587157819654
 20
16.74010129496956
 30
0.0
  0
VERTEX
  5
3E7
  8
0
 10
13.85587157819654
 20
17.47435326346956
 30
0.0
 42
0.4142135623731065
  0
VERTEX
  5
3E8
  8
0
 10
13.65902118449654
 20
17.67120365716956
 30
0.0
  0
VERTEX
  5
3E9
  8
0
 10
12.56846996678436
 20
17.67120365716956
 30
0.0
 42
0.4142135623730951
  0
VERTEX
  5
3EA
  8
0
 10
12.37161957308436
 20
17.47435326346956
 30
0.0
  0
VERTEX
  5
3EB
  8
0
 10
12.37161957308436
 20
16.74010129496956
 30
0.0
 42
-1.0
  0
VERTEX
  5
3EC
  8
0
 10
12.37161957308436
 20
16.49010129496956
 30
0.0
  0
VERTEX
  5
3ED
  8
0
 10
11.88736760459417
 20
16.49010129496956
 30
0.0
 42
-1.0
  0
VERTEX
  5
3EE
  8
0
 10
11.88736760459417
 20
16.74010129496956
 30
0.0
  0
VERTEX
  5
3EF
  8
0
 10
11.88736760459417
 20
17.47435326346956
 30
0.0
 42
0.4142135623730985
  0
VERTEX
  5
3F0
  8
0
 10
11.69051721089417
 20
17.67120365716956
 30
0.0
  0
VERTEX
  5
3F1
  8
0
 10
10.59996602980011
 20
17.67120365716956
 30
0.0
 42
0.4142135623730984
  0
VERTEX
  5
3F2
  8
0
 10
10.40311563610011
 20
17.47435326346956
 30
0.0
  0
VERTEX
  5
3F3
  8
0
 10
10.40311563610011
 20
16.74010129496956
 30
0.0
 42
-1.0
  0
VERTEX
  5
3F4
  8
0
 10
10.40311563610011
 20
16.49010129496956
 30
0.0
  0
VERTEX
  5
3F5
  8
0
 10
9.918863667598112
 20
16.49010129496956
 30
0.0
 42
-1.0
  0
VERTEX
  5
3F6
  8
0
 10
9.918863667598112
 20
16.74010129496956
 30
0.0
  0
VERTEX
  5
3F7
  8
0
 10
9.918863667598112
 20
17.47435326346956
 30
0.0
 42
0.4142135623731008
  0
VERTEX
  5
3F8
  8
0
 10
9.722013273898114
 20
17.67120365716956
 30
0.0
  0
VERTEX
  5
3F9
  8
0
 10
8.631462092800113
 20
17.67120365716956
 30
0.0
 42
0.4142135623731008
  0
VERTEX
  5
3FA
  8
0
 10
8.434611699100113
 20
17.47435326346956
 30
0.0
  0
VERTEX
  5
3FB
  8
0
 10
8.434611699100113
 20
16.74010129496956
 30
0.0
 42
-1.0
  0
VERTEX
  5
3FC
  8
0
 10
8.434611699100113
 20
16.49010129496956
 30
0.0
  0
VERTEX
  5
3FD
  8
0
 10
7.950359730598112
 20
16.49010129496956
 30
0.0
 42
-1.0
  0
VERTEX
  5
3FE
  8
0
 10
7.950359730598112
 20
16.74010129496956
 30
0.0
  0
VERTEX
  5
3FF
  8
0
 10
7.950359730598112
 20
17.47435326346956
 30
0.0
 42
0.4142135623731008
  0
VERTEX
  5
400
  8
0
 10
7.753509336898112
 20
17.67120365716956
 30
0.0
  0
VERTEX
  5
401
  8
0
 10
5.192685574931978
 20
17.67120365716956
 30
0.0
 42
0.5773502691896261
  0
VERTEX
  5
402
  8
0
 10
1.783136741149469
 20
11.76569184616954
 30
0.0
  0
SEQEND
  5
403
  8
0
  0
POLYLINE
  5
4F
  8
0
 66
     1
 10
0.0
 20
0.0
 30
0.0
 70
     1
  0
VERTEX
  5
404
  8
0
 10
9.26040826784484
 20
19.60426073136185
 30
0.0
 42
0.4142135623731016
  0
VERTEX
  5
405
  8
0
 10
9.654109055244842
 20
19.21055994396186
 30
0.0
  0
VERTEX
  5
406
  8
0
 10
9.805683858393841
 20
19.21055994396185
 30
0.0
 42
0.4142135623730857
  0
VERTEX
  5
407
  8
0
 10
10.00253425209384
 20
19.40741033766186
 30
0.0
  0
VERTEX
  5
408
  8
0
 10
10.00253425209384
 20
20.14166230616186
 30
0.0
 42
-1.0
  0
VERTEX
  5
409
  8
0
 10
10.00253425209384
 20
20.39166230616186
 30
0.0
  0
VERTEX
  5
40A
  8
0
 10
10.48678622059584
 20
20.39166230616186
 30
0.0
 42
-1.0
  0
VERTEX
  5
40B
  8
0
 10
10.48678622059584
 20
20.14166230616186
 30
0.0
  0
VERTEX
  5
40C
  8
0
 10
10.48678622059584
 20
19.16430010144236
 30
0.0
 42
0.4142135623730965
  0
VERTEX
  5
40D
  8
0
 10
10.56552637807584
 20
19.08555994396236
 30
0.0
  0
VERTEX
  5
40E
  8
0
 10
11.89229803161384
 20
19.08555994396236
 30
0.0
 42
0.4142135623731065
  0
VERTEX
  5
40F
  8
0
 10
11.97103818909384
 20
19.16430010144236
 30
0.0
  0
VERTEX
  5
410
  8
0
 10
11.97103818909384
 20
20.14166230616186
 30
0.0
 42
-1.0
  0
VERTEX
  5
411
  8
0
 10
11.97103818909384
 20
20.39166230616186
 30
0.0
  0
VERTEX
  5
412
  8
0
 10
12.45529015759584
 20
20.39166230616186
 30
0.0
 42
-1.0
  0
VERTEX
  5
413
  8
0
 10
12.45529015759584
 20
20.14166230616186
 30
0.0
  0
VERTEX
  5
414
  8
0
 10
12.45529015759584
 20
19.40741033766186
 30
0.0
 42
0.4142135623730857
  0
VERTEX
  5
415
  8
0
 10
12.65214055129584
 20
19.21055994396185
 30
0.0
  0
VERTEX
  5
416
  8
0
 10
13.74269173239384
 20
19.21055994396185
 30
0.0
 42
0.4142135623730857
  0
VERTEX
  5
417
  8
0
 10
13.93954212609384
 20
19.40741033766186
 30
0.0
  0
VERTEX
  5
418
  8
0
 10
13.93954212609384
 20
20.14166230616186
 30
0.0
 42
-1.0
  0
VERTEX
  5
419
  8
0
 10
13.93954212609384
 20
20.39166230616186
 30
0.0
  0
VERTEX
  5
41A
  8
0
 10
14.42379409459584
 20
20.39166230616186
 30
0.0
 42
-1.0
  0
VERTEX
  5
41B
  8
0
 10
14.42379409459584
 20
20.14166230616186
 30
0.0
  0
VERTEX
  5
41C
  8
0
 10
14.42379409459584
 20
19.40741033766186
 30
0.0
 42
0.4142135623730857
  0
VERTEX
  5
41D
  8
0
 10
14.62064448829584
 20
19.21055994396185
 30
0.0
  0
VERTEX
  5
41E
  8
0
 10
15.71119566939384
 20
19.21055994396185
 30
0.0
 42
0.4142135623730857
  0
VERTEX
  5
41F
  8
0
 10
15.90804606309385
 20
19.40741033766186
 30
0.0
  0
VERTEX
  5
420
  8
0
 10
15.90804606309384
 20
20.14166230616186
 30
0.0
 42
-1.0
  0
VERTEX
  5
421
  8
0
 10
15.90804606309384
 20
20.39166230616186
 30
0.0
  0
VERTEX
  5
422
  8
0
 10
16.39229803159584
 20
20.39166230616186
 30
0.0
 42
-1.0
  0
VERTEX
  5
423
  8
0
 10
16.39229803159584
 20
20.14166230616186
 30
0.0
  0
VERTEX
  5
424
  8
0
 10
16.39229803159584
 20
19.40741033766186
 30
0.0
 42
0.4142135623730857
  0
VERTEX
  5
425
  8
0
 10
16.58914842529584
 20
19.21055994396185
 30
0.0
  0
VERTEX
  5
426
  8
0
 10
17.67969960639385
 20
19.21055994396185
 30
0.0
 42
0.4142135623730857
  0
VERTEX
  5
427
  8
0
 10
17.87655000009385
 20
19.40741033766186
 30
0.0
  0
VERTEX
  5
428
  8
0
 10
17.87655000009385
 20
20.14166230616186
 30
0.0
 42
-1.0
  0
VERTEX
  5
429
  8
0
 10
17.87655000009385
 20
20.39166230616186
 30
0.0
  0
VERTEX
  5
42A
  8
0
 10
18.36080196859584
 20
20.39166230616186
 30
0.0
 42
-1.0
  0
VERTEX
  5
42B
  8
0
 10
18.36080196859584
 20
20.14166230616186
 30
0.0
  0
VERTEX
  5
42C
  8
0
 10
18.36080196859584
 20
19.16430010144236
 30
0.0
 42
0.4142135623731065
  0
VERTEX
  5
42D
  8
0
 10
18.43954212607584
 20
19.08555994396236
 30
0.0
  0
VERTEX
  5
42E
  8
0
 10
19.76631377961385
 20
19.08555994396236
 30
0.0
 42
0.4142135623731065
  0
VERTEX
  5
42F
  8
0
 10
19.84505393709384
 20
19.16430010144236
 30
0.0
  0
VERTEX
  5
430
  8
0
 10
19.84505393709384
 20
20.14166230616186
 30
0.0
 42
-1.0
  0
VERTEX
  5
431
  8
0
 10
19.84505393709384
 20
20.39166230616186
 30
0.0
  0
VERTEX
  5
432
  8
0
 10
20.32930590559585
 20
20.39166230616186
 30
0.0
 42
-1.0
  0
VERTEX
  5
433
  8
0
 10
20.32930590559585
 20
20.14166230616186
 30
0.0
  0
VERTEX
  5
434
  8
0
 10
20.32930590559584
 20
19.40741033766186
 30
0.0
 42
0.4142135623730857
  0
VERTEX
  5
435
  8
0
 10
20.52615629929585
 20
19.21055994396185
 30
0.0
  0
VERTEX
  5
436
  8
0
 10
27.04760981277763
 20
19.21055994396185
 30
0.0
 42
0.5773502691896256
  0
VERTEX
  5
437
  8
0
 10
30.45715864656014
 20
25.11607175496186
 30
0.0
  0
VERTEX
  5
438
  8
0
 10
26.33364661572208
 20
32.25820409799628
 30
0.0
 42
0.2679491924311218
  0
VERTEX
  5
439
  8
0
 10
25.31078196558773
 20
32.84875527909627
 30
0.0
  0
VERTEX
  5
43A
  8
0
 10
23.83331080428261
 20
32.84875527909628
 30
0.0
 42
0.5773502691896245
  0
VERTEX
  5
43B
  8
0
 10
23.32187847921445
 20
31.96292850744629
 30
0.0
  0
VERTEX
  5
43C
  8
0
 10
27.61586795174036
 20
24.52552057386186
 30
0.0
 42
-0.5773502691896254
  0
VERTEX
  5
43D
  8
0
 10
25.91109353484911
 20
21.57276466836186
 30
0.0
  0
VERTEX
  5
43E
  8
0
 10
24.46316417329584
 20
21.57276466836186
 30
0.0
 42
0.4142135623731065
  0
VERTEX
  5
43F
  8
0
 10
24.26631377959584
 20
21.37591427466186
 30
0.0
  0
VERTEX
  5
440
  8
0
 10
24.26631377959584
 20
20.64166230616186
 30
0.0
 42
-1.0
  0
VERTEX
  5
441
  8
0
 10
24.26631377959584
 20
20.39166230616186
 30
0.0
  0
VERTEX
  5
442
  8
0
 10
23.78206181109385
 20
20.39166230616186
 30
0.0
 42
-1.0
  0
VERTEX
  5
443
  8
0
 10
23.78206181109385
 20
20.64166230616186
 30
0.0
  0
VERTEX
  5
444
  8
0
 10
23.78206181109385
 20
21.37591427466186
 30
0.0
 42
0.4142135623731065
  0
VERTEX
  5
445
  8
0
 10
23.58521141739385
 20
21.57276466836186
 30
0.0
  0
VERTEX
  5
446
  8
0
 10
22.49466023629584
 20
21.57276466836186
 30
0.0
 42
0.4142135623730932
  0
VERTEX
  5
447
  8
0
 10
22.29780984259585
 20
21.37591427466186
 30
0.0
  0
VERTEX
  5
448
  8
0
 10
22.29780984259584
 20
20.64166230616186
 30
0.0
 42
-1.0
  0
VERTEX
  5
449
  8
0
 10
22.29780984259584
 20
20.39166230616186
 30
0.0
  0
VERTEX
  5
44A
  8
0
 10
21.81355787409385
 20
20.39166230616186
 30
0.0
 42
-1.0
  0
VERTEX
  5
44B
  8
0
 10
21.81355787409385
 20
20.64166230616186
 30
0.0
  0
VERTEX
  5
44C
  8
0
 10
21.81355787409385
 20
21.37591427466186
 30
0.0
 42
0.4142135623730743
  0
VERTEX
  5
44D
  8
0
 10
21.61670748039385
 20
21.57276466836186
 30
0.0
  0
VERTEX
  5
44E
  8
0
 10
9.654109055244842
 20
21.57276466836186
 30
0.0
 42
0.4142135623731016
  0
VERTEX
  5
44F
  8
0
 10
9.260408267844841
 20
21.17906388096186
 30
0.0
  0
SEQEND
  5
450
  8
0
  0
POLYLINE
  5
50
  8
0
 66
     1
 10
0.0
 20
0.0
 30
0.0
 70
     1
  0
VERTEX
  5
451
  8
0
 10
11.3728214492104
 20
8.477951615655517
 30
0.0
 42
0.4142135623730935
  0
VERTEX
  5
452
  8
0
 10
11.96337263031041
 20
7.887400434555516
 30
0.0
  0
VERTEX
  5
453
  8
0
 10
13.29604979565941
 20
7.887400434555516
 30
0.0
 42
0.4142135623730951
  0
VERTEX
  5
454
  8
0
 10
13.49290018935941
 20
8.084250828255517
 30
0.0
  0
VERTEX
  5
455
  8
0
 10
13.49290018935941
 20
8.818502796755517
 30
0.0
 42
-1.0
  0
VERTEX
  5
456
  8
0
 10
13.49290018935941
 20
9.068502796755517
 30
0.0
  0
VERTEX
  5
457
  8
0
 10
13.97715215786141
 20
9.068502796755517
 30
0.0
 42
-1.0
  0
VERTEX
  5
458
  8
0
 10
13.97715215786141
 20
8.818502796755517
 30
0.0
  0
VERTEX
  5
459
  8
0
 10
13.97715215786141
 20
8.084250828255517
 30
0.0
 42
0.4142135623730951
  0
VERTEX
  5
45A
  8
0
 10
14.17400255156141
 20
7.887400434555516
 30
0.0
  0
VERTEX
  5
45B
  8
0
 10
18.02045924445941
 20
7.887400434555516
 30
0.0
 42
0.4142135623730951
  0
VERTEX
  5
45C
  8
0
 10
18.21730963815941
 20
8.084250828255517
 30
0.0
  0
VERTEX
  5
45D
  8
0
 10
18.21730963815941
 20
8.818502796755517
 30
0.0
 42
-1.0
  0
VERTEX
  5
45E
  8
0
 10
18.21730963815941
 20
9.068502796755517
 30
0.0
  0
VERTEX
  5
45F
  8
0
 10
18.70156160666141
 20
9.068502796755517
 30
0.0
 42
-1.0
  0
VERTEX
  5
460
  8
0
 10
18.70156160666141
 20
8.818502796755517
 30
0.0
  0
VERTEX
  5
461
  8
0
 10
18.70156160666141
 20
8.084250828255517
 30
0.0
 42
0.4142135623730904
  0
VERTEX
  5
462
  8
0
 10
18.89841200036141
 20
7.887400434555516
 30
0.0
  0
VERTEX
  5
463
  8
0
 10
22.74486869325941
 20
7.887400434555516
 30
0.0
 42
0.4142135623731065
  0
VERTEX
  5
464
  8
0
 10
22.94171908695941
 20
8.084250828255517
 30
0.0
  0
VERTEX
  5
465
  8
0
 10
22.94171908695941
 20
8.818502796755517
 30
0.0
 42
-1.0
  0
VERTEX
  5
466
  8
0
 10
22.94171908695941
 20
9.068502796755517
 30
0.0
  0
VERTEX
  5
467
  8
0
 10
23.42597105546141
 20
9.068502796755517
 30
0.0
 42
-1.0
  0
VERTEX
  5
468
  8
0
 10
23.42597105546141
 20
8.818502796755517
 30
0.0
  0
VERTEX
  5
469
  8
0
 10
23.42597105546141
 20
8.084250828255517
 30
0.0
 42
0.4142135623730951
  0
VERTEX
  5
46A
  8
0
 10
23.62282144916141
 20
7.887400434555516
 30
0.0
  0
VERTEX
  5
46B
  8
0
 10
27.46927814205941
 20
7.887400434555516
 30
0.0
 42
0.4142135623731065
  0
VERTEX
  5
46C
  8
0
 10
27.66612853575941
 20
8.084250828255517
 30
0.0
  0
VERTEX
  5
46D
  8
0
 10
27.66612853575941
 20
8.818502796755517
 30
0.0
 42
-1.0
  0
VERTEX
  5
46E
  8
0
 10
27.66612853575941
 20
9.068502796755517
 30
0.0
  0
VERTEX
  5
46F
  8
0
 10
28.15038050426141
 20
9.068502796755517
 30
0.0
 42
-1.0
  0
VERTEX
  5
470
  8
0
 10
28.15038050426141
 20
8.818502796755517
 30
0.0
  0
VERTEX
  5
471
  8
0
 10
28.15038050426141
 20
8.084250828255517
 30
0.0
 42
0.4142135623730951
  0
VERTEX
  5
472
  8
0
 10
28.34723089796141
 20
7.887400434555516
 30
0.0
  0
VERTEX
  5
473
  8
0
 10
32.19368759085941
 20
7.887400434555516
 30
0.0
 42
0.4142135623731065
  0
VERTEX
  5
474
  8
0
 10
32.39053798455941
 20
8.084250828255517
 30
0.0
  0
VERTEX
  5
475
  8
0
 10
32.39053798455941
 20
8.818502796755517
 30
0.0
 42
-1.0
  0
VERTEX
  5
476
  8
0
 10
32.39053798455941
 20
9.068502796755517
 30
0.0
  0
VERTEX
  5
477
  8
0
 10
32.87478995306141
 20
9.068502796755517
 30
0.0
 42
-1.0
  0
VERTEX
  5
478
  8
0
 10
32.87478995306141
 20
8.818502796755517
 30
0.0
  0
VERTEX
  5
479
  8
0
 10
32.87478995306141
 20
8.084250828255517
 30
0.0
 42
0.4142135623730857
  0
VERTEX
  5
47A
  8
0
 10
33.07164034676141
 20
7.887400434555516
 30
0.0
  0
VERTEX
  5
47B
  8
0
 10
34.40431751211041
 20
7.887400434555516
 30
0.0
 42
0.4142135623730951
  0
VERTEX
  5
47C
  8
0
 10
34.99486869321041
 20
8.477951615655517
 30
0.0
  0
VERTEX
  5
47D
  8
0
 10
34.99486869321041
 20
9.659053977855518
 30
0.0
 42
0.4142135623730913
  0
VERTEX
  5
47E
  8
0
 10
34.40431751211041
 20
10.24960515895552
 30
0.0
  0
VERTEX
  5
47F
  8
0
 10
11.96337263031041
 20
10.24960515895552
 30
0.0
 42
0.4142135623730935
  0
VERTEX
  5
480
  8
0
 10
11.37282144921041
 20
9.659053977855518
 30
0.0
  0
SEQEND
  5
481
  8
0
  0
POLYLINE
  5
51
  8
0
 66
     1
 10
0.0
 20
0.0
 30
0.0
 70
     1
  0
VERTEX
  5
482
  8
0
 10
42.54929685717627
 20
23.39987979836242
 30
0.0
  0
VERTEX
  5
483
  8
0
 10
45.13374249665806
 20
23.39987979836242
 30
0.0
 42
0.4142135623730837
  0
VERTEX
  5
484
  8
0
 10
45.33059289035806
 20
23.59673019206242
 30
0.0
  0
VERTEX
  5
485
  8
0
 10
45.33059289035806
 20
24.33098216056242
 30
0.0
 42
-1.0
  0
VERTEX
  5
486
  8
0
 10
45.33059289035806
 20
24.58098216056242
 30
0.0
  0
VERTEX
  5
487
  8
0
 10
45.81484485886006
 20
24.58098216056242
 30
0.0
 42
-1.0
  0
VERTEX
  5
488
  8
0
 10
45.81484485886006
 20
24.33098216056242
 30
0.0
  0
VERTEX
  5
489
  8
0
 10
45.81484485886006
 20
23.35361995584292
 30
0.0
 42
0.4142135623731065
  0
VERTEX
  5
48A
  8
0
 10
45.89358501634006
 20
23.27487979836292
 30
0.0
  0
VERTEX
  5
48B
  8
0
 10
47.22035666987806
 20
23.27487979836292
 30
0.0
 42
0.4142135623731065
  0
VERTEX
  5
48C
  8
0
 10
47.29909682735806
 20
23.35361995584292
 30
0.0
  0
VERTEX
  5
48D
  8
0
 10
47.29909682735806
 20
24.33098216056242
 30
0.0
 42
-1.0
  0
VERTEX
  5
48E
  8
0
 10
47.29909682735806
 20
24.58098216056242
 30
0.0
  0
VERTEX
  5
48F
  8
0
 10
47.78334879586006
 20
24.58098216056242
 30
0.0
 42
-1.0
  0
VERTEX
  5
490
  8
0
 10
47.78334879586006
 20
24.33098216056242
 30
0.0
  0
VERTEX
  5
491
  8
0
 10
47.78334879586006
 20
23.59673019206242
 30
0.0
 42
0.4142135623730837
  0
VERTEX
  5
492
  8
0
 10
47.98019918956006
 20
23.39987979836242
 30
0.0
  0
VERTEX
  5
493
  8
0
 10
49.07075037065805
 20
23.39987979836241
 30
0.0
 42
0.4142135623730875
  0
VERTEX
  5
494
  8
0
 10
49.26760076435806
 20
23.59673019206242
 30
0.0
  0
VERTEX
  5
495
  8
0
 10
49.26760076435806
 20
24.33098216056242
 30
0.0
 42
-1.0
  0
VERTEX
  5
496
  8
0
 10
49.26760076435806
 20
24.58098216056242
 30
0.0
  0
VERTEX
  5
497
  8
0
 10
49.75185273286007
 20
24.58098216056242
 30
0.0
 42
-1.0
  0
VERTEX
  5
498
  8
0
 10
49.75185273286007
 20
24.33098216056242
 30
0.0
  0
VERTEX
  5
499
  8
0
 10
49.75185273286007
 20
23.59673019206242
 30
0.0
 42
0.4142135623730837
  0
VERTEX
  5
49A
  8
0
 10
49.94870312656006
 20
23.39987979836242
 30
0.0
  0
VERTEX
  5
49B
  8
0
 10
51.03925430765806
 20
23.39987979836241
 30
0.0
 42
0.4142135623730875
  0
VERTEX
  5
49C
  8
0
 10
51.23610470135807
 20
23.59673019206242
 30
0.0
  0
VERTEX
  5
49D
  8
0
 10
51.23610470135806
 20
24.33098216056242
 30
0.0
 42
-1.0
  0
VERTEX
  5
49E
  8
0
 10
51.23610470135806
 20
24.58098216056242
 30
0.0
  0
VERTEX
  5
49F
  8
0
 10
51.72035666986007
 20
24.58098216056242
 30
0.0
 42
-1.0
  0
VERTEX
  5
4A0
  8
0
 10
51.72035666986007
 20
24.33098216056242
 30
0.0
  0
VERTEX
  5
4A1
  8
0
 10
51.72035666986007
 20
23.59673019206242
 30
0.0
 42
0.4142135623730837
  0
VERTEX
  5
4A2
  8
0
 10
51.91720706356006
 20
23.39987979836242
 30
0.0
  0
VERTEX
  5
4A3
  8
0
 10
53.00775824465806
 20
23.39987979836242
 30
0.0
 42
0.4142135623730837
  0
VERTEX
  5
4A4
  8
0
 10
53.20460863835805
 20
23.59673019206242
 30
0.0
  0
VERTEX
  5
4A5
  8
0
 10
53.20460863835805
 20
24.33098216056242
 30
0.0
 42
-1.0
  0
VERTEX
  5
4A6
  8
0
 10
53.20460863835805
 20
24.58098216056242
 30
0.0
  0
VERTEX
  5
4A7
  8
0
 10
53.68886060686006
 20
24.58098216056242
 30
0.0
 42
-1.0
  0
VERTEX
  5
4A8
  8
0
 10
53.68886060686006
 20
24.33098216056242
 30
0.0
  0
VERTEX
  5
4A9
  8
0
 10
53.68886060686005
 20
23.59673019206242
 30
0.0
 42
0.4142135623730875
  0
VERTEX
  5
4AA
  8
0
 10
53.88571100056006
 20
23.39987979836241
 30
0.0
  0
VERTEX
  5
4AB
  8
0
 10
54.97626218165806
 20
23.39987979836242
 30
0.0
 42
0.4142135623730837
  0
VERTEX
  5
4AC
  8
0
 10
55.17311257535805
 20
23.59673019206242
 30
0.0
  0
VERTEX
  5
4AD
  8
0
 10
55.17311257535805
 20
24.33098216056242
 30
0.0
 42
-1.0
  0
VERTEX
  5
4AE
  8
0
 10
55.17311257535805
 20
24.58098216056242
 30
0.0
  0
VERTEX
  5
4AF
  8
0
 10
55.65736454386006
 20
24.58098216056242
 30
0.0
 42
-1.0
  0
VERTEX
  5
4B0
  8
0
 10
55.65736454386006
 20
24.33098216056242
 30
0.0
  0
VERTEX
  5
4B1
  8
0
 10
55.65736454386006
 20
23.59673019206242
 30
0.0
 42
0.4142135623730875
  0
VERTEX
  5
4B2
  8
0
 10
55.85421493756007
 20
23.39987979836241
 30
0.0
  0
VERTEX
  5
4B3
  8
0
 10
56.94476611865806
 20
23.39987979836241
 30
0.0
 42
0.4142135623730875
  0
VERTEX
  5
4B4
  8
0
 10
57.14161651235806
 20
23.59673019206242
 30
0.0
  0
VERTEX
  5
4B5
  8
0
 10
57.14161651235806
 20
24.33098216056242
 30
0.0
 42
-1.0
  0
VERTEX
  5
4B6
  8
0
 10
57.14161651235806
 20
24.58098216056242
 30
0.0
  0
VERTEX
  5
4B7
  8
0
 10
57.62586848086006
 20
24.58098216056242
 30
0.0
 42
-1.0
  0
VERTEX
  5
4B8
  8
0
 10
57.62586848086006
 20
24.33098216056242
 30
0.0
  0
VERTEX
  5
4B9
  8
0
 10
57.62586848086006
 20
23.35361995584292
 30
0.0
 42
0.4142135623731065
  0
VERTEX
  5
4BA
  8
0
 10
57.70460863834006
 20
23.27487979836292
 30
0.0
  0
VERTEX
  5
4BB
  8
0
 10
59.03138029187806
 20
23.27487979836292
 30
0.0
 42
0.4142135623731065
  0
VERTEX
  5
4BC
  8
0
 10
59.11012044935806
 20
23.35361995584292
 30
0.0
  0
VERTEX
  5
4BD
  8
0
 10
59.11012044935806
 20
24.33098216056242
 30
0.0
 42
-1.0
  0
VERTEX
  5
4BE
  8
0
 10
59.11012044935806
 20
24.58098216056242
 30
0.0
  0
VERTEX
  5
4BF
  8
0
 10
59.59437241786006
 20
24.58098216056242
 30
0.0
 42
-1.0
  0
VERTEX
  5
4C0
  8
0
 10
59.59437241786006
 20
24.33098216056242
 30
0.0
  0
VERTEX
  5
4C1
  8
0
 10
59.59437241786006
 20
23.59673019206242
 30
0.0
 42
0.4142135623730837
  0
VERTEX
  5
4C2
  8
0
 10
59.79122281156006
 20
23.39987979836242
 30
0.0
  0
VERTEX
  5
4C3
  8
0
 10
59.94279761470906
 20
23.39987979836242
 30
0.0
 42
0.4142135623731065
  0
VERTEX
  5
4C4
  8
0
 10
60.33649840210906
 20
23.79358058576242
 30
0.0
  0
VERTEX
  5
4C5
  8
0
 10
60.33649840210906
 20
25.36838373536242
 30
0.0
 42
0.4142135623730951
  0
VERTEX
  5
4C6
  8
0
 10
59.94279761470906
 20
25.76208452276242
 30
0.0
  0
VERTEX
  5
4C7
  8
0
 10
43.68581313510479
 20
25.76208452276241
 30
0.0
 42
-0.5773502691896272
  0
VERTEX
  5
4C8
  8
0
 10
41.98103871821157
 20
28.71484042826243
 30
0.0
  0
VERTEX
  5
4C9
  8
0
 10
46.27502819073944
 20
36.15224836184684
 30
0.0
 42
0.5773502691896307
  0
VERTEX
  5
4CA
  8
0
 10
45.76359586567128
 20
37.03807513349684
 30
0.0
  0
VERTEX
  5
4CB
  8
0
 10
44.28612470436617
 20
37.03807513349685
 30
0.0
 42
0.2679491924311265
  0
VERTEX
  5
4CC
  8
0
 10
43.26326005422985
 20
36.44752395239684
 30
0.0
  0
VERTEX
  5
4CD
  8
0
 10
39.1397480233918
 20
29.30539160936242
 30
0.0
 42
0.5773502691896258
  0
SEQEND
  5
4CE
  8
0
  0
POLYLINE
  5
52
  8
0
 66
     1
 10
0.0
 20
0.0
 30
0.0
 70
     1
  0
VERTEX
  5
4CF
  8
0
 10
55.42638757622318
 20
27.59014455753782
 30
0.0
  0
VERTEX
  5
4D0
  8
0
 10
58.03446206292534
 20
27.59014455753782
 30
0.0
 42
0.4142135623731131
  0
VERTEX
  5
4D1
  8
0
 10
58.23131245662535
 20
27.78699495123782
 30
0.0
  0
VERTEX
  5
4D2
  8
0
 10
58.23131245662535
 20
28.52124691973782
 30
0.0
 42
-1.0
  0
VERTEX
  5
4D3
  8
0
 10
58.23131245662535
 20
28.77124691973782
 30
0.0
  0
VERTEX
  5
4D4
  8
0
 10
58.71556442512734
 20
28.77124691973782
 30
0.0
 42
-1.0
  0
VERTEX
  5
4D5
  8
0
 10
58.71556442512734
 20
28.52124691973782
 30
0.0
  0
VERTEX
  5
4D6
  8
0
 10
58.71556442512734
 20
27.78699495123782
 30
0.0
 42
0.4142135623730809
  0
VERTEX
  5
4D7
  8
0
 10
58.91241481882734
 20
27.59014455753782
 30
0.0
  0
VERTEX
  5
4D8
  8
0
 10
60.00296599992534
 20
27.59014455753782
 30
0.0
 42
0.4142135623730875
  0
VERTEX
  5
4D9
  8
0
 10
60.19981639362535
 20
27.78699495123782
 30
0.0
  0
VERTEX
  5
4DA
  8
0
 10
60.19981639362534
 20
28.52124691973782
 30
0.0
 42
-1.0
  0
VERTEX
  5
4DB
  8
0
 10
60.19981639362534
 20
28.77124691973782
 30
0.0
  0
VERTEX
  5
4DC
  8
0
 10
60.68406836212734
 20
28.77124691973782
 30
0.0
 42
-1.0
  0
VERTEX
  5
4DD
  8
0
 10
60.68406836212734
 20
28.52124691973782
 30
0.0
  0
VERTEX
  5
4DE
  8
0
 10
60.68406836212733
 20
27.78699495123782
 30
0.0
 42
0.4142135623730875
  0
VERTEX
  5
4DF
  8
0
 10
60.88091875582734
 20
27.59014455753782
 30
0.0
  0
VERTEX
  5
4E0
  8
0
 10
61.97146993692535
 20
27.59014455753782
 30
0.0
 42
0.4142135623731131
  0
VERTEX
  5
4E1
  8
0
 10
62.16832033062534
 20
27.78699495123782
 30
0.0
  0
VERTEX
  5
4E2
  8
0
 10
62.16832033062534
 20
28.52124691973782
 30
0.0
 42
-1.0
  0
VERTEX
  5
4E3
  8
0
 10
62.16832033062534
 20
28.77124691973782
 30
0.0
  0
VERTEX
  5
4E4
  8
0
 10
62.65257229912734
 20
28.77124691973782
 30
0.0
 42
-1.0
  0
VERTEX
  5
4E5
  8
0
 10
62.65257229912734
 20
28.52124691973782
 30
0.0
  0
VERTEX
  5
4E6
  8
0
 10
62.65257229912734
 20
27.78699495123782
 30
0.0
 42
0.4142135623730809
  0
VERTEX
  5
4E7
  8
0
 10
62.84942269282734
 20
27.59014455753782
 30
0.0
  0
VERTEX
  5
4E8
  8
0
 10
63.93997387392535
 20
27.59014455753782
 30
0.0
 42
0.4142135623731131
  0
VERTEX
  5
4E9
  8
0
 10
64.13682426762534
 20
27.78699495123782
 30
0.0
  0
VERTEX
  5
4EA
  8
0
 10
64.13682426762534
 20
28.52124691973782
 30
0.0
 42
-1.0
  0
VERTEX
  5
4EB
  8
0
 10
64.13682426762534
 20
28.77124691973782
 30
0.0
  0
VERTEX
  5
4EC
  8
0
 10
64.62107623612734
 20
28.77124691973782
 30
0.0
 42
-1.0
  0
VERTEX
  5
4ED
  8
0
 10
64.62107623612734
 20
28.52124691973782
 30
0.0
  0
VERTEX
  5
4EE
  8
0
 10
64.62107623612732
 20
27.78699495123782
 30
0.0
 42
0.4142135623730875
  0
VERTEX
  5
4EF
  8
0
 10
64.81792662982734
 20
27.59014455753782
 30
0.0
  0
VERTEX
  5
4F0
  8
0
 10
65.90847781092535
 20
27.59014455753782
 30
0.0
 42
0.4142135623731131
  0
VERTEX
  5
4F1
  8
0
 10
66.10532820462534
 20
27.78699495123782
 30
0.0
  0
VERTEX
  5
4F2
  8
0
 10
66.10532820462534
 20
28.52124691973782
 30
0.0
 42
-1.0
  0
VERTEX
  5
4F3
  8
0
 10
66.10532820462534
 20
28.77124691973782
 30
0.0
  0
VERTEX
  5
4F4
  8
0
 10
66.58958017312735
 20
28.77124691973782
 30
0.0
 42
-1.0
  0
VERTEX
  5
4F5
  8
0
 10
66.58958017312735
 20
28.52124691973782
 30
0.0
  0
VERTEX
  5
4F6
  8
0
 10
66.58958017312735
 20
27.78699495123782
 30
0.0
 42
0.4142135623730837
  0
VERTEX
  5
4F7
  8
0
 10
66.78643056682733
 20
27.59014455753782
 30
0.0
  0
VERTEX
  5
4F8
  8
0
 10
67.87698174792534
 20
27.59014455753782
 30
0.0
 42
0.4142135623730875
  0
VERTEX
  5
4F9
  8
0
 10
68.07383214162535
 20
27.78699495123782
 30
0.0
  0
VERTEX
  5
4FA
  8
0
 10
68.07383214162535
 20
28.52124691973782
 30
0.0
 42
-1.0
  0
VERTEX
  5
4FB
  8
0
 10
68.07383214162535
 20
28.77124691973782
 30
0.0
  0
VERTEX
  5
4FC
  8
0
 10
68.55808411012734
 20
28.77124691973782
 30
0.0
 42
-1.0
  0
VERTEX
  5
4FD
  8
0
 10
68.55808411012734
 20
28.52124691973782
 30
0.0
  0
VERTEX
  5
4FE
  8
0
 10
68.55808411012734
 20
27.78699495123782
 30
0.0
 42
0.4142135623730837
  0
VERTEX
  5
4FF
  8
0
 10
68.75493450382734
 20
27.59014455753782
 30
0.0
  0
VERTEX
  5
500
  8
0
 10
69.84548568492535
 20
27.59014455753782
 30
0.0
 42
0.4142135623730837
  0
VERTEX
  5
501
  8
0
 10
70.04233607862534
 20
27.78699495123782
 30
0.0
  0
VERTEX
  5
502
  8
0
 10
70.04233607862534
 20
28.52124691973782
 30
0.0
 42
-1.0
  0
VERTEX
  5
503
  8
0
 10
70.04233607862534
 20
28.77124691973782
 30
0.0
  0
VERTEX
  5
504
  8
0
 10
70.52658804712735
 20
28.77124691973782
 30
0.0
 42
-1.0
  0
VERTEX
  5
505
  8
0
 10
70.52658804712735
 20
28.52124691973782
 30
0.0
  0
VERTEX
  5
506
  8
0
 10
70.52658804712735
 20
27.78699495123782
 30
0.0
 42
0.4142135623730837
  0
VERTEX
  5
507
  8
0
 10
70.72343844082734
 20
27.59014455753782
 30
0.0
  0
VERTEX
  5
508
  8
0
 10
71.81398962192534
 20
27.59014455753782
 30
0.0
 42
0.4142135623730837
  0
VERTEX
  5
509
  8
0
 10
72.01084001562535
 20
27.78699495123782
 30
0.0
  0
VERTEX
  5
50A
  8
0
 10
72.01084001562535
 20
28.52124691973782
 30
0.0
 42
-1.0
  0
VERTEX
  5
50B
  8
0
 10
72.01084001562535
 20
28.77124691973782
 30
0.0
  0
VERTEX
  5
50C
  8
0
 10
72.49509198412734
 20
28.77124691973782
 30
0.0
 42
-1.0
  0
VERTEX
  5
50D
  8
0
 10
72.49509198412734
 20
28.52124691973782
 30
0.0
  0
VERTEX
  5
50E
  8
0
 10
72.49509198412733
 20
27.78699495123782
 30
0.0
 42
0.4142135623730875
  0
VERTEX
  5
50F
  8
0
 10
72.69194237782735
 20
27.59014455753782
 30
0.0
  0
VERTEX
  5
510
  8
0
 10
73.78248792033872
 20
27.59014455753782
 30
0.0
 42
0.4142135623730837
  0
VERTEX
  5
511
  8
0
 10
73.97933831403873
 20
27.78699495123782
 30
0.0
  0
VERTEX
  5
512
  8
0
 10
73.97933831403873
 20
28.52124691973782
 30
0.0
 42
-1.0
  0
VERTEX
  5
513
  8
0
 10
73.97933831403873
 20
28.77124691973782
 30
0.0
  0
VERTEX
  5
514
  8
0
 10
74.46359028254074
 20
28.77124691973782
 30
0.0
 42
-1.0
  0
VERTEX
  5
515
  8
0
 10
74.46359028254074
 20
28.52124691973782
 30
0.0
  0
VERTEX
  5
516
  8
0
 10
74.46359028254074
 20
27.78699495123782
 30
0.0
 42
0.4142135623730875
  0
VERTEX
  5
517
  8
0
 10
74.66044067624073
 20
27.59014455753782
 30
0.0
  0
VERTEX
  5
518
  8
0
 10
75.7509915320907
 20
27.59014455753782
 30
0.0
 42
0.4142135623730837
  0
VERTEX
  5
519
  8
0
 10
75.9478419257907
 20
27.78699495123782
 30
0.0
  0
VERTEX
  5
51A
  8
0
 10
75.9478419257907
 20
28.52124691973782
 30
0.0
 42
-1.0
  0
VERTEX
  5
51B
  8
0
 10
75.9478419257907
 20
28.77124691973782
 30
0.0
  0
VERTEX
  5
51C
  8
0
 10
76.43209389429269
 20
28.77124691973782
 30
0.0
 42
-1.0
  0
VERTEX
  5
51D
  8
0
 10
76.43209389429269
 20
28.52124691973782
 30
0.0
  0
VERTEX
  5
51E
  8
0
 10
76.43209389429269
 20
27.78699495123782
 30
0.0
 42
0.4142135623730875
  0
VERTEX
  5
51F
  8
0
 10
76.6289442879927
 20
27.59014455753782
 30
0.0
  0
VERTEX
  5
520
  8
0
 10
77.71949514384266
 20
27.59014455753782
 30
0.0
 42
0.4142135623730809
  0
VERTEX
  5
521
  8
0
 10
77.91634553754267
 20
27.78699495123782
 30
0.0
  0
VERTEX
  5
522
  8
0
 10
77.91634553754267
 20
28.52124691973782
 30
0.0
 42
-1.0
  0
VERTEX
  5
523
  8
0
 10
77.91634553754267
 20
28.77124691973782
 30
0.0
  0
VERTEX
  5
524
  8
0
 10
78.40059750604466
 20
28.77124691973782
 30
0.0
 42
-1.0
  0
VERTEX
  5
525
  8
0
 10
78.40059750604466
 20
28.52124691973782
 30
0.0
  0
VERTEX
  5
526
  8
0
 10
78.40059750604466
 20
27.78699495123782
 30
0.0
 42
0.4142135623730837
  0
VERTEX
  5
527
  8
0
 10
78.59744789974467
 20
27.59014455753782
 30
0.0
  0
VERTEX
  5
528
  8
0
 10
79.68800220679935
 20
27.59014455753782
 30
0.0
 42
0.4142135623730837
  0
VERTEX
  5
529
  8
0
 10
79.88485260049936
 20
27.78699495123782
 30
0.0
  0
VERTEX
  5
52A
  8
0
 10
79.88485260049936
 20
28.52124691973782
 30
0.0
 42
-1.0
  0
VERTEX
  5
52B
  8
0
 10
79.88485260049936
 20
28.77124691973782
 30
0.0
  0
VERTEX
  5
52C
  8
0
 10
80.36910110520608
 20
28.77124691973782
 30
0.0
 42
-1.0
  0
VERTEX
  5
52D
  8
0
 10
80.36910110520608
 20
28.52124691973782
 30
0.0
  0
VERTEX
  5
52E
  8
0
 10
80.36910110520608
 20
27.78699495123782
 30
0.0
 42
0.4142135623730837
  0
VERTEX
  5
52F
  8
0
 10
80.56595149890609
 20
27.59014455753782
 30
0.0
  0
VERTEX
  5
530
  8
0
 10
81.65650238370486
 20
27.59014455753782
 30
0.0
 42
0.4142135623731292
  0
VERTEX
  5
531
  8
0
 10
81.85335277740487
 20
27.78699495123782
 30
0.0
  0
VERTEX
  5
532
  8
0
 10
81.85335277740487
 20
28.52124691973782
 30
0.0
 42
-1.0
  0
VERTEX
  5
533
  8
0
 10
81.85335277740487
 20
28.77124691973782
 30
0.0
  0
VERTEX
  5
534
  8
0
 10
82.33760466282419
 20
28.77124691973782
 30
0.0
 42
-1.0
  0
VERTEX
  5
535
  8
0
 10
82.33760466282419
 20
28.52124691973782
 30
0.0
  0
VERTEX
  5
536
  8
0
 10
82.33760466282419
 20
27.78699495123782
 30
0.0
 42
0.4142135623731292
  0
VERTEX
  5
537
  8
0
 10
82.5344550565242
 20
27.59014455753782
 30
0.0
  0
VERTEX
  5
538
  8
0
 10
83.62500627423637
 20
27.59014455753782
 30
0.0
 42
0.4142135623731292
  0
VERTEX
  5
539
  8
0
 10
83.82185666793636
 20
27.78699495123782
 30
0.0
  0
VERTEX
  5
53A
  8
0
 10
83.82185666793636
 20
28.52124691973782
 30
0.0
 42
-1.0
  0
VERTEX
  5
53B
  8
0
 10
83.82185666793636
 20
28.77124691973782
 30
0.0
  0
VERTEX
  5
53C
  8
0
 10
84.30610863642656
 20
28.77124691973782
 30
0.0
 42
-1.0
  0
VERTEX
  5
53D
  8
0
 10
84.30610863642656
 20
28.52124691973782
 30
0.0
  0
VERTEX
  5
53E
  8
0
 10
84.30610863642656
 20
27.78699495123782
 30
0.0
 42
0.4142135623731292
  0
VERTEX
  5
53F
  8
0
 10
84.50295903012656
 20
27.59014455753782
 30
0.0
  0
VERTEX
  5
540
  8
0
 10
85.59351021122455
 20
27.59014455753782
 30
0.0
 42
0.4142135623731292
  0
VERTEX
  5
541
  8
0
 10
85.79036060492454
 20
27.78699495123782
 30
0.0
  0
VERTEX
  5
542
  8
0
 10
85.79036060492454
 20
28.52124691973782
 30
0.0
 42
-1.0
  0
VERTEX
  5
543
  8
0
 10
85.79036060492454
 20
28.77124691973782
 30
0.0
  0
VERTEX
  5
544
  8
0
 10
86.27461257342655
 20
28.77124691973782
 30
0.0
 42
-1.0
  0
VERTEX
  5
545
  8
0
 10
86.27461257342655
 20
28.52124691973782
 30
0.0
  0
VERTEX
  5
546
  8
0
 10
86.27461257342654
 20
27.78699495123782
 30
0.0
 42
0.4142135623730688
  0
VERTEX
  5
547
  8
0
 10
86.47146296712656
 20
27.59014455753781
 30
0.0
  0
VERTEX
  5
548
  8
0
 10
87.56201414822455
 20
27.59014455753782
 30
0.0
 42
0.4142135623731292
  0
VERTEX
  5
549
  8
0
 10
87.75886454192455
 20
27.78699495123782
 30
0.0
  0
VERTEX
  5
54A
  8
0
 10
87.75886454192455
 20
28.52124691973782
 30
0.0
 42
-1.0
  0
VERTEX
  5
54B
  8
0
 10
87.75886454192455
 20
28.77124691973782
 30
0.0
  0
VERTEX
  5
54C
  8
0
 10
88.24311651042656
 20
28.77124691973782
 30
0.0
 42
-1.0
  0
VERTEX
  5
54D
  8
0
 10
88.24311651042656
 20
28.52124691973782
 30
0.0
  0
VERTEX
  5
54E
  8
0
 10
88.24311651042656
 20
27.78699495123782
 30
0.0
 42
0.4142135623731226
  0
VERTEX
  5
54F
  8
0
 10
88.43996690412655
 20
27.59014455753783
 30
0.0
  0
VERTEX
  5
550
  8
0
 10
91.0007906660927
 20
27.59014455753781
 30
0.0
 42
0.5773502691896256
  0
VERTEX
  5
551
  8
0
 10
94.41033949987519
 20
33.49565636853783
 30
0.0
  0
VERTEX
  5
552
  8
0
 10
90.28682746903715
 20
40.63778871157224
 30
0.0
 42
0.2679491924311266
  0
VERTEX
  5
553
  8
0
 10
89.2639628189028
 20
41.22833989267225
 30
0.0
  0
VERTEX
  5
554
  8
0
 10
87.78649165759373
 20
41.22833989267226
 30
0.0
 42
0.5773502691896196
  0
VERTEX
  5
555
  8
0
 10
87.27505933252752
 20
40.34251312102224
 30
0.0
  0
VERTEX
  5
556
  8
0
 10
91.56904880505542
 20
32.90510518743783
 30
0.0
 42
-0.5773502691896271
  0
VERTEX
  5
557
  8
0
 10
89.86427438816416
 20
29.95234928193782
 30
0.0
  0
VERTEX
  5
558
  8
0
 10
56.5629038541517
 20
29.95234928193781
 30
0.0
 42
-0.5773502691896262
  0
VERTEX
  5
559
  8
0
 10
54.85812943726044
 20
32.90510518743783
 30
0.0
  0
VERTEX
  5
55A
  8
0
 10
59.15211890978832
 20
40.34251312102224
 30
0.0
 42
0.577350269189622
  0
VERTEX
  5
55B
  8
0
 10
58.64068658472213
 20
41.22833989267225
 30
0.0
  0
VERTEX
  5
55C
  8
0
 10
57.16321542341307
 20
41.22833989267225
 30
0.0
 42
0.2679491924311265
  0
VERTEX
  5
55D
  8
0
 10
56.14035077327872
 20
40.63778871157224
 30
0.0
  0
VERTEX
  5
55E
  8
0
 10
52.01683874244067
 20
33.49565636853783
 30
0.0
 42
0.5773502691896257
  0
SEQEND
  5
55F
  8
0
  0
POLYLINE
  5
53
  8
0
 66
     1
 10
0.0
 20
0.0
 30
0.0
 70
     1
  0
VERTEX
  5
560
  8
0
 10
46.65534888452748
 20
6.990545444285285
 30
0.0
  0
VERTEX
  5
561
  8
0
 10
47.98802604987648
 20
6.990545444285285
 30
0.0
 42
0.4142135623730967
  0
VERTEX
  5
562
  8
0
 10
48.18487644357648
 20
7.187395837985285
 30
0.0
  0
VERTEX
  5
563
  8
0
 10
48.18487644357648
 20
7.921647806485286
 30
0.0
 42
-1.0
  0
VERTEX
  5
564
  8
0
 10
48.18487644357648
 20
8.171647806485286
 30
0.0
  0
VERTEX
  5
565
  8
0
 10
48.66912841207848
 20
8.171647806485286
 30
0.0
 42
-1.0
  0
VERTEX
  5
566
  8
0
 10
48.66912841207848
 20
7.921647806485286
 30
0.0
  0
VERTEX
  5
567
  8
0
 10
48.66912841207848
 20
7.187395837985285
 30
0.0
 42
0.4142135623730967
  0
VERTEX
  5
568
  8
0
 10
48.86597880577848
 20
6.990545444285285
 30
0.0
  0
VERTEX
  5
569
  8
0
 10
52.71243549867648
 20
6.990545444285285
 30
0.0
 42
0.4142135623730919
  0
VERTEX
  5
56A
  8
0
 10
52.90928589237648
 20
7.187395837985285
 30
0.0
  0
VERTEX
  5
56B
  8
0
 10
52.90928589237648
 20
7.921647806485286
 30
0.0
 42
-1.0
  0
VERTEX
  5
56C
  8
0
 10
52.90928589237648
 20
8.171647806485286
 30
0.0
  0
VERTEX
  5
56D
  8
0
 10
62.84235675847847
 20
8.171647806485286
 30
0.0
 42
-1.0
  0
VERTEX
  5
56E
  8
0
 10
62.84235675847847
 20
7.921647806485286
 30
0.0
  0
VERTEX
  5
56F
  8
0
 10
62.84235675847847
 20
7.187395837985285
 30
0.0
 42
0.4142135623731016
  0
VERTEX
  5
570
  8
0
 10
63.03920715217848
 20
6.990545444285285
 30
0.0
  0
VERTEX
  5
571
  8
0
 10
66.88566384507648
 20
6.990545444285285
 30
0.0
 42
0.4142135623731016
  0
VERTEX
  5
572
  8
0
 10
67.08251423877648
 20
7.187395837985285
 30
0.0
  0
VERTEX
  5
573
  8
0
 10
67.08251423877648
 20
7.921647806485286
 30
0.0
 42
-1.0
  0
VERTEX
  5
574
  8
0
 10
67.08251423877648
 20
8.171647806485286
 30
0.0
  0
VERTEX
  5
575
  8
0
 10
67.56676620727848
 20
8.171647806485286
 30
0.0
 42
-1.0
  0
VERTEX
  5
576
  8
0
 10
67.56676620727848
 20
7.921647806485286
 30
0.0
  0
VERTEX
  5
577
  8
0
 10
67.56676620727848
 20
7.187395837985285
 30
0.0
 42
0.4142135623730857
  0
VERTEX
  5
578
  8
0
 10
67.76361660097848
 20
6.990545444285281
 30
0.0
  0
VERTEX
  5
579
  8
0
 10
69.09629376632748
 20
6.990545444285285
 30
0.0
 42
0.4142135623730934
  0
VERTEX
  5
57A
  8
0
 10
69.68684494742749
 20
7.581096625385285
 30
0.0
  0
VERTEX
  5
57B
  8
0
 10
69.68684494742749
 20
8.762198987585286
 30
0.0
 42
0.4142135623730938
  0
VERTEX
  5
57C
  8
0
 10
69.09629376632748
 20
9.352750168685287
 30
0.0
  0
VERTEX
  5
57D
  8
0
 10
46.65534888452748
 20
9.352750168685287
 30
0.0
 42
0.4142135623730958
  0
VERTEX
  5
57E
  8
0
 10
46.06479770342748
 20
8.762198987585286
 30
0.0
  0
VERTEX
  5
57F
  8
0
 10
46.06479770342748
 20
7.581096625385285
 30
0.0
 42
0.4142135623730944
  0
SEQEND
  5
580
  8
0
  0
POLYLINE
  5
54
  8
0
 66
     1
 10
0.0
 20
0.0
 30
0.0
 70
     1
  0
VERTEX
  5
581
  8
0
 10
46.65534888452748
 20
3.488522979429591
 30
0.0
  0
VERTEX
  5
582
  8
0
 10
47.98802604987648
 20
3.488522979429591
 30
0.0
 42
0.414213562373096
  0
VERTEX
  5
583
  8
0
 10
48.18487644357648
 20
3.685373373129591
 30
0.0
  0
VERTEX
  5
584
  8
0
 10
48.18487644357648
 20
4.419625341629591
 30
0.0
 42
-1.0
  0
VERTEX
  5
585
  8
0
 10
48.18487644357648
 20
4.669625341629592
 30
0.0
  0
VERTEX
  5
586
  8
0
 10
48.66912841207848
 20
4.669625341629592
 30
0.0
 42
-1.0
  0
VERTEX
  5
587
  8
0
 10
48.66912841207848
 20
4.419625341629591
 30
0.0
  0
VERTEX
  5
588
  8
0
 10
48.66912841207848
 20
3.685373373129591
 30
0.0
 42
0.414213562373096
  0
VERTEX
  5
589
  8
0
 10
48.86597880577848
 20
3.488522979429591
 30
0.0
  0
VERTEX
  5
58A
  8
0
 10
52.71243549867648
 20
3.488522979429591
 30
0.0
 42
0.4142135623730954
  0
VERTEX
  5
58B
  8
0
 10
52.90928589237648
 20
3.685373373129591
 30
0.0
  0
VERTEX
  5
58C
  8
0
 10
52.90928589237648
 20
4.419625341629591
 30
0.0
 42
-1.0
  0
VERTEX
  5
58D
  8
0
 10
52.90928589237648
 20
4.669625341629592
 30
0.0
  0
VERTEX
  5
58E
  8
0
 10
62.84235675847847
 20
4.669625341629592
 30
0.0
 42
-1.0
  0
VERTEX
  5
58F
  8
0
 10
62.84235675847847
 20
4.419625341629591
 30
0.0
  0
VERTEX
  5
590
  8
0
 10
62.84235675847847
 20
3.685373373129591
 30
0.0
 42
0.4142135623731008
  0
VERTEX
  5
591
  8
0
 10
63.03920715217848
 20
3.488522979429591
 30
0.0
  0
VERTEX
  5
592
  8
0
 10
66.88566384507648
 20
3.488522979429591
 30
0.0
 42
0.4142135623731011
  0
VERTEX
  5
593
  8
0
 10
67.08251423877648
 20
3.685373373129591
 30
0.0
  0
VERTEX
  5
594
  8
0
 10
67.08251423877648
 20
4.419625341629591
 30
0.0
 42
-1.0
  0
VERTEX
  5
595
  8
0
 10
67.08251423877648
 20
4.669625341629592
 30
0.0
  0
VERTEX
  5
596
  8
0
 10
67.56676620727848
 20
4.669625341629592
 30
0.0
 42
-1.0
  0
VERTEX
  5
597
  8
0
 10
67.56676620727848
 20
4.419625341629591
 30
0.0
  0
VERTEX
  5
598
  8
0
 10
67.56676620727848
 20
3.685373373129591
 30
0.0
 42
0.4142135623730849
  0
VERTEX
  5
599
  8
0
 10
67.76361660097848
 20
3.48852297942959
 30
0.0
  0
VERTEX
  5
59A
  8
0
 10
69.09629376632748
 20
3.488522979429591
 30
0.0
 42
0.414213562373093
  0
VERTEX
  5
59B
  8
0
 10
69.68684494742749
 20
4.079074160529591
 30
0.0
  0
VERTEX
  5
59C
  8
0
 10
69.68684494742749
 20
5.260176522729592
 30
0.0
 42
0.414213562373093
  0
VERTEX
  5
59D
  8
0
 10
69.09629376632748
 20
5.850727703829588
 30
0.0
  0
VERTEX
  5
59E
  8
0
 10
46.65534888452748
 20
5.850727703829588
 30
0.0
 42
0.4142135623730944
  0
VERTEX
  5
59F
  8
0
 10
46.06479770342748
 20
5.260176522729592
 30
0.0
  0
VERTEX
  5
5A0
  8
0
 10
46.06479770342748
 20
4.079074160529591
 30
0.0
 42
0.4142135623730951
  0
SEQEND
  5
5A1
  8
0
  0
POLYLINE
  5
55
  8
0
 66
     1
 10
0.0
 20
0.0
 30
0.0
 70
     1
  0
VERTEX
  5
5A2
  8
0
 10
47.11603210840996
 20
14.67467458151618
 30
0.0
  0
VERTEX
  5
5A3
  8
0
 10
48.44870927375896
 20
14.67467458151618
 30
0.0
 42
0.4142135623730837
  0
VERTEX
  5
5A4
  8
0
 10
48.64555966745896
 20
14.87152497521618
 30
0.0
  0
VERTEX
  5
5A5
  8
0
 10
48.64555966745896
 20
15.60577694371618
 30
0.0
 42
-1.0
  0
VERTEX
  5
5A6
  8
0
 10
48.64555966745896
 20
15.85577694371618
 30
0.0
  0
VERTEX
  5
5A7
  8
0
 10
49.12981163596096
 20
15.85577694371618
 30
0.0
 42
-1.0
  0
VERTEX
  5
5A8
  8
0
 10
49.12981163596096
 20
15.60577694371618
 30
0.0
  0
VERTEX
  5
5A9
  8
0
 10
49.12981163596095
 20
14.87152497521618
 30
0.0
 42
0.4142135623730875
  0
VERTEX
  5
5AA
  8
0
 10
49.32666202966096
 20
14.67467458151618
 30
0.0
  0
VERTEX
  5
5AB
  8
0
 10
53.17311872255896
 20
14.67467458151618
 30
0.0
 42
0.4142135623730875
  0
VERTEX
  5
5AC
  8
0
 10
53.36996911625896
 20
14.87152497521618
 30
0.0
  0
VERTEX
  5
5AD
  8
0
 10
53.36996911625896
 20
15.60577694371618
 30
0.0
 42
-1.0
  0
VERTEX
  5
5AE
  8
0
 10
53.36996911625896
 20
15.85577694371618
 30
0.0
  0
VERTEX
  5
5AF
  8
0
 10
63.30303998236096
 20
15.85577694371618
 30
0.0
 42
-1.0
  0
VERTEX
  5
5B0
  8
0
 10
63.30303998236096
 20
15.60577694371618
 30
0.0
  0
VERTEX
  5
5B1
  8
0
 10
63.30303998236096
 20
14.87152497521618
 30
0.0
 42
0.4142135623730837
  0
VERTEX
  5
5B2
  8
0
 10
63.49989037606096
 20
14.67467458151618
 30
0.0
  0
VERTEX
  5
5B3
  8
0
 10
67.34634706895896
 20
14.67467458151618
 30
0.0
 42
0.4142135623730837
  0
VERTEX
  5
5B4
  8
0
 10
67.54319746265897
 20
14.87152497521618
 30
0.0
  0
VERTEX
  5
5B5
  8
0
 10
67.54319746265897
 20
15.60577694371618
 30
0.0
 42
-1.0
  0
VERTEX
  5
5B6
  8
0
 10
67.54319746265897
 20
15.85577694371618
 30
0.0
  0
VERTEX
  5
5B7
  8
0
 10
68.02744943116096
 20
15.85577694371618
 30
0.0
 42
-1.0
  0
VERTEX
  5
5B8
  8
0
 10
68.02744943116096
 20
15.60577694371618
 30
0.0
  0
VERTEX
  5
5B9
  8
0
 10
68.02744943116096
 20
14.87152497521618
 30
0.0
 42
0.4142135623730837
  0
VERTEX
  5
5BA
  8
0
 10
68.22429982486096
 20
14.67467458151618
 30
0.0
  0
VERTEX
  5
5BB
  8
0
 10
69.55697699020996
 20
14.67467458151618
 30
0.0
 42
0.4142135623730913
  0
VERTEX
  5
5BC
  8
0
 10
70.14752817130996
 20
15.26522576261618
 30
0.0
  0
VERTEX
  5
5BD
  8
0
 10
70.14752817130996
 20
16.84002891221619
 30
0.0
 42
0.4142135623730913
  0
VERTEX
  5
5BE
  8
0
 10
69.55697699020996
 20
17.43058009331618
 30
0.0
  0
VERTEX
  5
5BF
  8
0
 10
47.11603210840996
 20
17.43058009331619
 30
0.0
 42
0.4142135623731003
  0
VERTEX
  5
5C0
  8
0
 10
46.52548092730996
 20
16.84002891221619
 30
0.0
  0
VERTEX
  5
5C1
  8
0
 10
46.52548092730996
 20
15.26522576261618
 30
0.0
 42
0.4142135623731003
  0
SEQEND
  5
5C2
  8
0
  0
POLYLINE
  5
56
  8
0
 66
     1
 10
0.0
 20
0.0
 30
0.0
 70
     1
  0
VERTEX
  5
5C3
  8
0
 10
71.03878552631971
 20
10.57771246475481
 30
0.0
  0
VERTEX
  5
5C4
  8
0
 10
72.37146269166871
 20
10.57771246475481
 30
0.0
 42
0.4142135623731024
  0
VERTEX
  5
5C5
  8
0
 10
72.56831308536871
 20
10.77456285845481
 30
0.0
  0
VERTEX
  5
5C6
  8
0
 10
72.56831308536871
 20
11.50881482695481
 30
0.0
 42
-1.0
  0
VERTEX
  5
5C7
  8
0
 10
72.56831308536871
 20
11.75881482695481
 30
0.0
  0
VERTEX
  5
5C8
  8
0
 10
73.05256505387071
 20
11.75881482695481
 30
0.0
 42
-1.0
  0
VERTEX
  5
5C9
  8
0
 10
73.05256505387071
 20
11.50881482695481
 30
0.0
  0
VERTEX
  5
5CA
  8
0
 10
73.05256505387071
 20
10.77456285845481
 30
0.0
 42
0.4142135623731024
  0
VERTEX
  5
5CB
  8
0
 10
73.24941544757071
 20
10.57771246475481
 30
0.0
  0
VERTEX
  5
5CC
  8
0
 10
77.09587214046871
 20
10.57771246475481
 30
0.0
 42
0.4142135623731024
  0
VERTEX
  5
5CD
  8
0
 10
77.29272253416872
 20
10.77456285845481
 30
0.0
  0
VERTEX
  5
5CE
  8
0
 10
77.29272253416872
 20
11.50881482695481
 30
0.0
 42
-1.0
  0
VERTEX
  5
5CF
  8
0
 10
77.29272253416872
 20
11.75881482695481
 30
0.0
  0
VERTEX
  5
5D0
  8
0
 10
87.22579340027072
 20
11.75881482695481
 30
0.0
 42
-1.0
  0
VERTEX
  5
5D1
  8
0
 10
87.22579340027072
 20
11.50881482695481
 30
0.0
  0
VERTEX
  5
5D2
  8
0
 10
87.22579340027072
 20
10.77456285845481
 30
0.0
 42
0.4142135623730797
  0
VERTEX
  5
5D3
  8
0
 10
87.4226437939707
 20
10.57771246475481
 30
0.0
  0
VERTEX
  5
5D4
  8
0
 10
91.26910048686871
 20
10.57771246475481
 30
0.0
 42
0.4142135623730933
  0
VERTEX
  5
5D5
  8
0
 10
91.46595088056871
 20
10.77456285845481
 30
0.0
  0
VERTEX
  5
5D6
  8
0
 10
91.4659508805687
 20
11.50881482695481
 30
0.0
 42
-1.0
  0
VERTEX
  5
5D7
  8
0
 10
91.4659508805687
 20
11.75881482695481
 30
0.0
  0
VERTEX
  5
5D8
  8
0
 10
91.9502028490707
 20
11.75881482695481
 30
0.0
 42
-1.0
  0
VERTEX
  5
5D9
  8
0
 10
91.9502028490707
 20
11.50881482695481
 30
0.0
  0
VERTEX
  5
5DA
  8
0
 10
91.9502028490707
 20
10.77456285845481
 30
0.0
 42
0.4142135623730797
  0
VERTEX
  5
5DB
  8
0
 10
92.14705324277071
 20
10.57771246475481
 30
0.0
  0
VERTEX
  5
5DC
  8
0
 10
93.4797304081197
 20
10.57771246475481
 30
0.0
 42
0.4142135623730983
  0
VERTEX
  5
5DD
  8
0
 10
94.07028158921972
 20
11.16826364585481
 30
0.0
  0
VERTEX
  5
5DE
  8
0
 10
94.07028158921972
 20
12.34936600805481
 30
0.0
 42
0.4142135623730983
  0
VERTEX
  5
5DF
  8
0
 10
93.4797304081197
 20
12.93991718915482
 30
0.0
  0
VERTEX
  5
5E0
  8
0
 10
71.03878552631971
 20
12.93991718915482
 30
0.0
 42
0.4142135623730957
  0
VERTEX
  5
5E1
  8
0
 10
70.4482343452197
 20
12.34936600805481
 30
0.0
  0
VERTEX
  5
5E2
  8
0
 10
70.4482343452197
 20
11.16826364585481
 30
0.0
 42
0.4142135623730957
  0
SEQEND
  5
5E3
  8
0
  0
POLYLINE
  5
57
  8
0
 66
     1
 10
0.0
 20
0.0
 30
0.0
 70
     1
  0
VERTEX
  5
5E4
  8
0
 10
63.02191283934634
 20
34.72272668566246
 30
0.0
  0
VERTEX
  5
5E5
  8
0
 10
64.35459000469534
 20
34.72272668566246
 30
0.0
 42
0.4142135623730837
  0
VERTEX
  5
5E6
  8
0
 10
64.55144039839534
 20
34.91957707936246
 30
0.0
  0
VERTEX
  5
5E7
  8
0
 10
64.55144039839534
 20
35.65382904786246
 30
0.0
 42
-1.0
  0
VERTEX
  5
5E8
  8
0
 10
64.55144039839534
 20
35.90382904786246
 30
0.0
  0
VERTEX
  5
5E9
  8
0
 10
65.03569236689734
 20
35.90382904786246
 30
0.0
 42
-1.0
  0
VERTEX
  5
5EA
  8
0
 10
65.03569236689734
 20
35.65382904786246
 30
0.0
  0
VERTEX
  5
5EB
  8
0
 10
65.03569236689734
 20
34.91957707936246
 30
0.0
 42
0.4142135623730837
  0
VERTEX
  5
5EC
  8
0
 10
65.23254276059734
 20
34.72272668566246
 30
0.0
  0
VERTEX
  5
5ED
  8
0
 10
69.07899945349534
 20
34.72272668566246
 30
0.0
 42
0.4142135623730837
  0
VERTEX
  5
5EE
  8
0
 10
69.27584984719535
 20
34.91957707936246
 30
0.0
  0
VERTEX
  5
5EF
  8
0
 10
69.27584984719535
 20
35.65382904786246
 30
0.0
 42
-1.0
  0
VERTEX
  5
5F0
  8
0
 10
69.27584984719535
 20
35.90382904786246
 30
0.0
  0
VERTEX
  5
5F1
  8
0
 10
69.76010181569734
 20
35.90382904786246
 30
0.0
 42
-1.0
  0
VERTEX
  5
5F2
  8
0
 10
69.76010181569734
 20
35.65382904786246
 30
0.0
  0
VERTEX
  5
5F3
  8
0
 10
69.76010181569734
 20
34.91957707936246
 30
0.0
 42
0.4142135623730837
  0
VERTEX
  5
5F4
  8
0
 10
69.95695220939734
 20
34.72272668566246
 30
0.0
  0
VERTEX
  5
5F5
  8
0
 10
73.80340890229535
 20
34.72272668566246
 30
0.0
 42
0.4142135623730837
  0
VERTEX
  5
5F6
  8
0
 10
74.00025929599533
 20
34.91957707936246
 30
0.0
  0
VERTEX
  5
5F7
  8
0
 10
74.00025929599533
 20
35.65382904786246
 30
0.0
 42
-1.0
  0
VERTEX
  5
5F8
  8
0
 10
74.00025929599533
 20
35.90382904786246
 30
0.0
  0
VERTEX
  5
5F9
  8
0
 10
74.48451126449734
 20
35.90382904786246
 30
0.0
 42
-1.0
  0
VERTEX
  5
5FA
  8
0
 10
74.48451126449734
 20
35.65382904786246
 30
0.0
  0
VERTEX
  5
5FB
  8
0
 10
74.48451126449734
 20
34.91957707936246
 30
0.0
 42
0.4142135623730875
  0
VERTEX
  5
5FC
  8
0
 10
74.68136165819733
 20
34.72272668566246
 30
0.0
  0
VERTEX
  5
5FD
  8
0
 10
78.52781835109533
 20
34.72272668566246
 30
0.0
 42
0.4142135623730875
  0
VERTEX
  5
5FE
  8
0
 10
78.72466874479534
 20
34.91957707936246
 30
0.0
  0
VERTEX
  5
5FF
  8
0
 10
78.72466874479534
 20
35.65382904786246
 30
0.0
 42
-1.0
  0
VERTEX
  5
600
  8
0
 10
78.72466874479534
 20
35.90382904786246
 30
0.0
  0
VERTEX
  5
601
  8
0
 10
79.20892071329733
 20
35.90382904786246
 30
0.0
 42
-1.0
  0
VERTEX
  5
602
  8
0
 10
79.20892071329733
 20
35.65382904786246
 30
0.0
  0
VERTEX
  5
603
  8
0
 10
79.20892071329733
 20
34.91957707936246
 30
0.0
 42
0.4142135623730837
  0
VERTEX
  5
604
  8
0
 10
79.40577110699734
 20
34.72272668566246
 30
0.0
  0
VERTEX
  5
605
  8
0
 10
83.25222779989534
 20
34.72272668566246
 30
0.0
 42
0.4142135623731292
  0
VERTEX
  5
606
  8
0
 10
83.44907819359534
 20
34.91957707936246
 30
0.0
  0
VERTEX
  5
607
  8
0
 10
83.44907819359534
 20
35.65382904786246
 30
0.0
 42
-1.0
  0
VERTEX
  5
608
  8
0
 10
83.44907819359534
 20
35.90382904786246
 30
0.0
  0
VERTEX
  5
609
  8
0
 10
83.93333016209733
 20
35.90382904786246
 30
0.0
 42
-1.0
  0
VERTEX
  5
60A
  8
0
 10
83.93333016209733
 20
35.65382904786246
 30
0.0
  0
VERTEX
  5
60B
  8
0
 10
83.93333016209733
 20
34.91957707936246
 30
0.0
 42
0.4142135623731292
  0
VERTEX
  5
60C
  8
0
 10
84.13018055579732
 20
34.72272668566246
 30
0.0
  0
VERTEX
  5
60D
  8
0
 10
85.46285772114635
 20
34.72272668566246
 30
0.0
 42
0.4142135623730913
  0
VERTEX
  5
60E
  8
0
 10
86.05340890224635
 20
35.31327786676246
 30
0.0
  0
VERTEX
  5
60F
  8
0
 10
86.05340890224635
 20
36.49438022896246
 30
0.0
 42
0.4142135623731042
  0
VERTEX
  5
610
  8
0
 10
85.46285772114635
 20
37.08493141006246
 30
0.0
  0
VERTEX
  5
611
  8
0
 10
63.02191283934634
 20
37.08493141006247
 30
0.0
 42
0.4142135623730873
  0
VERTEX
  5
612
  8
0
 10
62.43136165824633
 20
36.49438022896246
 30
0.0
  0
VERTEX
  5
613
  8
0
 10
62.43136165824633
 20
35.31327786676246
 30
0.0
 42
0.4142135623731003
  0
SEQEND
  5
614
  8
0
  0
ENDSEC
  0
EOF
