0
SECTION
2
HEADER
9
$INSUNITS
70
4
9
$ACADVER
1
AC1014
9
$HANDSEED
5
FFFF
0
ENDSEC
0
SECTION
2
TABLES
0
TABLE
2
VPORT
5
8
100
AcDbSymbolTable
0
ENDTAB
0
TABLE
2
LTYPE
5
5
100
AcDbSymbolTable
0
LTYPE
5
14
100
AcDbSymbolTableRecord
100
AcDbLinetypeTableRecord
2
BYBLOCK
70
0
0
LTYPE
5
15
100
AcDbSymbolTableRecord
100
AcDbLinetypeTableRecord
2
BYLAYER
70
0
0
ENDTAB
0
TABLE
2
LAYER
5
2
100
AcDbSymbolTable
70
2
0
LAYER
5
50
100
AcDbSymbolTableRecord
100
AcDbLayerTableRecord
2
0
70
0
6
CONTINUOUS
0
ENDTAB
0
TABLE
2
STYLE
5
3
100
AcDbSymbolTable
70
1
0
STYLE
5
11
100
AcDbSymbolTableRecord
100
AcDbTextStyleTableRecord
2
STANDARD
70
0
0
ENDTAB
0
TABLE
2
VIEW
5
6
100
AcDbSymbolTable
70
0
0
ENDTAB
0
TABLE
2
UCS
5
7
100
AcDbSymbolTable
70
0
0
ENDTAB
0
TABLE
2
APPID
5
9
100
AcDbSymbolTable
70
2
0
APPID
5
12
100
AcDbSymbolTableRecord
100
AcDbRegAppTableRecord
2
ACAD
70
0
0
ENDTAB
0
TABLE
2
DIMSTYLE
5
A
100
AcDbSymbolTable
70
1
0
ENDTAB
0
TABLE
2
BLOCK_RECORD
5
1
100
AcDbSymbolTable
70
1
0
BLOCK_RECORD
5
1F
100
AcDbSymbolTableRecord
100
AcDbBlockTableRecord
2
*MODEL_SPACE
0
BLOCK_RECORD
5
1B
100
AcDbSymbolTableRecord
100
AcDbBlockTableRecord
2
*PAPER_SPACE
0
ENDTAB
0
ENDSEC
0
SECTION
2
BLOCKS
0
BLOCK
5
20
100
AcDbEntity
100
AcDbBlockBegin
2
*MODEL_SPACE
0
ENDBLK
5
21
100
AcDbEntity
100
AcDbBlockEnd
0
BLOCK
5
1C
100
AcDbEntity
100
AcDbBlockBegin
2
*PAPER_SPACE
0
ENDBLK
5
1D
100
AcDbEntity
100
AcDbBlockEnd
0
ENDSEC
0
SECTION
2
ENTITIES
0
ARC
5
100
100
AcDbEntity
8
0
100
AcDbCircle
10
370.12324888564564
20
223.09809767515452
30
0
40
2.9999999999999876
100
AcDbArc
50
-137.74194878497829
51
42.258051215022121
0
LINE
5
101
100
AcDbEntity
8
0
100
AcDbLine
10
367.90287796848543
20
221.08068522594411
30
0
11
366.85165797427896
21
221.08068522590264
31
0
0
LINE
5
102
100
AcDbEntity
8
0
100
AcDbLine
10
366.85165797427896
20
221.08068522590264
30
0
11
366.84361979412176
21
193.5806852259027
31
0
0
LINE
5
103
100
AcDbEntity
8
0
100
AcDbLine
10
366.84361979412176
20
193.5806852259027
30
0
11
367.83561011283331
21
193.58039526965194
31
0
0
ARC
5
104
100
AcDbEntity
8
0
100
AcDbCircle
10
370.08974229066354
20
191.60077709311622
30
0
40
3.0000000000000115
100
AcDbArc
50
-41.297537454212808
51
138.7098331611146
0
LINE
5
105
100
AcDbEntity
8
0
100
AcDbLine
10
372.34361978350967
20
189.62086896263509
30
0
11
372.34361978350967
21
92.470202734767781
31
0
0
ARC
5
106
100
AcDbEntity
8
0
100
AcDbCircle
10
370.12324886489273
20
90.452790287160667
30
0
40
2.9999999999998801
100
AcDbArc
50
-141.38860452490272
51
42.258051173649505
0
LINE
5
107
100
AcDbEntity
8
0
100
AcDbLine
10
367.77905974154976
20
88.580685227608797
30
0
11
366.91043383958464
21
88.580685227888097
31
0
0
LINE
5
108
100
AcDbEntity
8
0
100
AcDbLine
10
366.91043383958464
20
88.580685227888097
30
0
11
366.91043383427854
21
72.080685227888083
31
0
0
LINE
5
109
100
AcDbEntity
8
0
100
AcDbLine
10
366.91043383427854
20
72.080685227888083
30
0
11
368.22489075204737
21
72.080685227465452
31
0
0
ARC
5
110
100
AcDbEntity
8
0
100
AcDbCircle
10
370.31766229247131
20
69.931195222931379
30
0
40
3.0000000000000551
100
AcDbArc
50
-47.521059997823443
51
134.23400880236278
0
LINE
5
111
100
AcDbEntity
8
0
100
AcDbLine
10
372.34361978350944
20
67.718618389348691
30
0
11
372.34361978350967
21
65.115510122761691
31
0
0
ARC
5
112
100
AcDbEntity
8
0
100
AcDbCircle
10
370.12324888564547
20
63.098097675154563
30
0
40
2.9999999999999756
100
AcDbArc
50
-137.74194878497764
51
42.258051215021517
0
LINE
5
113
100
AcDbEntity
8
0
100
AcDbLine
10
367.90287796848531
20
61.080685225944158
30
0
11
366.85165797427891
21
61.080685225902663
31
0
0
LINE
5
114
100
AcDbEntity
8
0
100
AcDbLine
10
366.85165797427891
20
61.080685225902663
30
0
11
366.84361979412165
21
33.580685225902698
31
0
0
LINE
5
115
100
AcDbEntity
8
0
100
AcDbLine
10
366.84361979412165
20
33.580685225902698
30
0
11
367.83561011283325
21
33.580395269651937
31
0
0
ARC
5
116
100
AcDbEntity
8
0
100
AcDbCircle
10
370.08974229066354
20
31.600777093116271
30
0
40
3.000000000000032
100
AcDbArc
50
-41.29753745421327
51
138.70983316111614
0
LINE
5
117
100
AcDbEntity
8
0
100
AcDbLine
10
372.34361978350967
20
29.620868962635075
30
0
11
372.34361978350904
21
0.58068522759008978
31
0
0
ARC
5
118
100
AcDbEntity
8
0
100
AcDbCircle
10
533.34361978350967
20
578.57635995189082
30
0
40
599.99999999999989
100
AcDbArc
50
254.43488548373602
51
285.56511451626392
0
LINE
5
119
100
AcDbEntity
8
0
100
AcDbLine
10
694.34361978350978
20
0.58068522758986774
30
0
11
694.3436197741712
21
29.620868962635111
31
0
0
ARC
5
120
100
AcDbEntity
8
0
100
AcDbCircle
10
696.59749727635608
20
31.60077709311625
30
0
40
2.9999999999999662
100
AcDbArc
50
41.290166838884986
51
221.2975373365021
0
LINE
5
121
100
AcDbEntity
8
0
100
AcDbLine
10
698.85162945418631
20
33.580395269651945
30
0
11
699.8436197728978
21
33.580685225902684
31
0
0
LINE
5
122
100
AcDbEntity
8
0
100
AcDbLine
10
699.8436197728978
20
33.580685225902684
30
0
11
699.83558159274048
21
61.080685225902684
31
0
0
LINE
5
123
100
AcDbEntity
8
0
100
AcDbLine
10
699.83558159274048
20
61.080685225902684
30
0
11
698.78436159853413
21
61.080685225944194
31
0
0
ARC
5
124
100
AcDbEntity
8
0
100
AcDbCircle
10
696.56399068137387
20
63.098097675154591
30
0
40
2.9999999999999849
100
AcDbArc
50
137.74194882635069
51
317.74194882635061
0
LINE
5
125
100
AcDbEntity
8
0
100
AcDbLine
10
694.34361976275693
20
65.115510122761691
30
0
11
694.34361978350978
21
67.718618389348947
31
0
0
ARC
5
126
100
AcDbEntity
8
0
100
AcDbCircle
10
696.36957727454819
20
69.931195222931379
30
0
40
3.000000000000548
100
AcDbArc
50
45.765991197638655
51
227.52105999781614
0
LINE
5
127
100
AcDbEntity
8
0
100
AcDbLine
10
698.46234881497242
20
72.08068522746585
30
0
11
699.77680573274085
21
72.080685227888097
31
0
0
LINE
5
128
100
AcDbEntity
8
0
100
AcDbLine
10
699.77680573274085
20
72.080685227888097
30
0
11
699.77680572743475
21
88.580685227888097
31
0
0
LINE
5
129
100
AcDbEntity
8
0
100
AcDbLine
10
699.77680572743475
20
88.580685227888097
30
0
11
698.9081798254698
21
88.580685227608754
31
0
0
ARC
5
130
100
AcDbEntity
8
0
100
AcDbCircle
10
696.56399070212672
20
90.452790287160681
30
0
40
3.0000000000000027
100
AcDbArc
50
137.7419488263503
51
321.3886045249032
0
LINE
5
131
100
AcDbEntity
8
0
100
AcDbLine
10
694.34361978350978
20
92.47020273476781
30
0
11
694.3436197741712
21
189.62086896263511
31
0
0
ARC
5
132
100
AcDbEntity
8
0
100
AcDbCircle
10
696.59749727635585
20
191.60077709311625
30
0
40
3.0000000000000786
100
AcDbArc
50
41.290166838883955
51
221.29753733650492
0
LINE
5
133
100
AcDbEntity
8
0
100
AcDbLine
10
698.8516294541862
20
193.58039526965197
30
0
11
699.8436197728978
21
193.5806852259027
31
0
0
LINE
5
134
100
AcDbEntity
8
0
100
AcDbLine
10
699.8436197728978
20
193.5806852259027
30
0
11
699.83558159274048
21
221.08068522590264
31
0
0
LINE
5
135
100
AcDbEntity
8
0
100
AcDbLine
10
699.83558159274048
20
221.08068522590264
30
0
11
698.78436159853413
21
221.08068522594419
31
0
0
ARC
5
136
100
AcDbEntity
8
0
100
AcDbCircle
10
696.56399068137387
20
223.09809767515458
30
0
40
2.9999999999999671
100
AcDbArc
50
137.74194882635129
51
317.74194882635089
0
LINE
5
137
100
AcDbEntity
8
0
100
AcDbLine
10
694.34361976275693
20
225.11551012276163
30
0
11
694.34361978350978
21
227.71861838934896
31
0
0
ARC
5
138
100
AcDbEntity
8
0
100
AcDbCircle
10
696.36957727454819
20
229.93119522293136
30
0
40
3.0000000000005289
100
AcDbArc
50
45.765991197637902
51
227.5210599978158
0
LINE
5
139
100
AcDbEntity
8
0
100
AcDbLine
10
698.46234881497242
20
232.08068522746578
30
0
11
699.77680573274085
21
232.08068522788807
31
0
0
LINE
5
140
100
AcDbEntity
8
0
100
AcDbLine
10
699.77680573274085
20
232.08068522788807
30
0
11
699.77680572743475
21
248.5806852278881
31
0
0
LINE
5
141
100
AcDbEntity
8
0
100
AcDbLine
10
699.77680572743475
20
248.5806852278881
30
0
11
698.90817982546969
21
248.58068522760874
31
0
0
ARC
5
142
100
AcDbEntity
8
0
100
AcDbCircle
10
696.56399070212672
20
250.45279028716067
30
0
40
2.9999999999999671
100
AcDbArc
50
137.74194882635089
51
321.38860452490189
0
LINE
5
143
100
AcDbEntity
8
0
100
AcDbLine
10
694.34361978350978
20
252.47020273476775
30
0
11
694.34361978350978
21
289.57635995189088
31
0
0
LINE
5
144
100
AcDbEntity
8
0
100
AcDbLine
10
694.34361978350978
20
289.57635995189088
30
0
11
372.34361978350978
21
289.57635995189099
31
0
0
LINE
5
145
100
AcDbEntity
8
0
100
AcDbLine
10
372.34361978350978
20
289.57635995189099
30
0
11
372.34361978350967
21
252.47020273476778
31
0
0
ARC
5
146
100
AcDbEntity
8
0
100
AcDbCircle
10
370.12324886489284
20
250.45279028716067
30
0
40
2.9999999999998912
100
AcDbArc
50
-141.38860452490297
51
42.258051173650962
0
LINE
5
147
100
AcDbEntity
8
0
100
AcDbLine
10
367.77905974154982
20
248.58068522760877
30
0
11
366.9104338395847
21
248.5806852278881
31
0
0
LINE
5
148
100
AcDbEntity
8
0
100
AcDbLine
10
366.9104338395847
20
248.5806852278881
30
0
11
366.91043383427859
21
232.08068522788807
31
0
0
LINE
5
149
100
AcDbEntity
8
0
100
AcDbLine
10
366.91043383427859
20
232.08068522788807
30
0
11
368.22489075204743
21
232.08068522746544
31
0
0
ARC
5
150
100
AcDbEntity
8
0
100
AcDbCircle
10
370.31766229247137
20
229.93119522293136
30
0
40
3.0000000000000222
100
AcDbArc
50
-47.521059997822277
51
134.23400880236278
0
LINE
5
151
100
AcDbEntity
8
0
100
AcDbLine
10
372.34361978350955
20
227.71861838934871
30
0
11
372.34361978350967
21
225.11551012276169
31
0
0
ARC
5
152
100
AcDbEntity
8
0
100
AcDbCircle
10
-2.2203709403121055
20
69.482587398575291
30
0
40
2.9999999999999489
100
AcDbArc
50
-42.258051173649505
51
42.258053143375726
0
LINE
5
153
100
AcDbEntity
8
0
100
AcDbLine
10
-2.1695201468663328e-08
20
67.465174950968205
30
0
11
-2.0837789826977371e-08
21
64.798979855331709
31
0
0
ARC
5
154
100
AcDbEntity
8
0
100
AcDbCircle
10
-2.0927715612625546
20
62.649489850798474
30
0
40
3.000000000000024
100
AcDbArc
50
-45.765993220196435
51
45.765991197614767
0
ARC
5
155
100
AcDbEntity
8
0
100
AcDbCircle
10
-2.0927717117600952
20
62.649489850798481
30
0
40
3.0000000000006311
100
AcDbArc
50
225.76599119763847
51
314.23400883922375
0
LINE
5
156
100
AcDbEntity
8
0
100
AcDbLine
10
-4.1855432521843934
20
60.499999846263947
30
0
11
-11.000000169952886
21
60.499999844073002
31
0
0
LINE
5
157
100
AcDbEntity
8
0
100
AcDbLine
10
-11.000000169952886
20
60.499999844073002
30
0
11
-11.000000164646897
21
43.999999844073017
31
0
0
LINE
5
158
100
AcDbEntity
8
0
100
AcDbLine
10
-11.000000164646897
20
43.999999844073017
30
0
11
-4.6313742626816756
21
43.999999846121085
31
0
0
ARC
5
159
100
AcDbEntity
8
0
100
AcDbCircle
10
-2.2871851393386851
20
42.127894786569158
30
0
40
2.9999999999999183
100
AcDbArc
50
40.324207590350859
51
141.38860452490209
0
ARC
5
160
100
AcDbEntity
8
0
100
AcDbCircle
10
-2.2871849888411275
20
42.127894786569158
30
0
40
2.9999999999999147
100
AcDbArc
50
-40.324207553500692
51
40.324209450339296
0
LINE
5
161
100
AcDbEntity
8
0
100
AcDbLine
10
-1.2923014047760972e-08
20
40.1865589356835
30
0
11
0
21
0
31
0
0
LINE
5
162
100
AcDbEntity
8
0
100
AcDbLine
10
0
20
0
30
0
11
311
21
0
31
0
0
LINE
5
163
100
AcDbEntity
8
0
100
AcDbLine
10
311
20
0
30
0
11
311.00000018001469
21
40.186559035691403
31
0
0
ARC
5
164
100
AcDbEntity
8
0
100
AcDbCircle
10
313.28718515468427
20
42.127894888048012
30
0
40
2.9999999999999059
100
AcDbArc
50
139.67579244649892
51
220.32420759034937
0
ARC
5
165
100
AcDbEntity
8
0
100
AcDbCircle
10
313.28718530518182
20
42.127894888048047
30
0
40
2.9999999999998535
100
AcDbArc
50
38.611395511946675
51
139.67579244649943
0
LINE
5
166
100
AcDbEntity
8
0
100
AcDbLine
10
315.63137442732074
20
43.999999949107547
30
0
11
322.00000032928597
21
43.999999951155502
31
0
0
LINE
5
167
100
AcDbEntity
8
0
100
AcDbLine
10
322.00000032928597
20
43.999999951155502
30
0
11
322.0000003239802
21
60.499999951155417
31
0
0
LINE
5
168
100
AcDbEntity
8
0
100
AcDbLine
10
322.0000003239802
20
60.499999951155417
30
0
11
315.18554340621131
21
60.499999948964174
31
0
0
ARC
5
169
100
AcDbEntity
8
0
100
AcDbCircle
10
313.09277186440505
20
62.649489952152379
30
0
40
3.0000000000000302
100
AcDbArc
50
225.76599119762534
51
314.23400883920948
0
ARC
5
170
100
AcDbEntity
8
0
100
AcDbCircle
10
313.09277171390744
20
62.649489952152344
30
0
40
3.000000000000651
100
AcDbArc
50
134.23400883923415
51
225.76599119762577
0
LINE
5
171
100
AcDbEntity
8
0
100
AcDbLine
10
311.00000017209982
20
64.798979955340101
30
0
11
311.00000017124296
21
67.465175050976072
31
0
0
ARC
5
172
100
AcDbEntity
8
0
100
AcDbCircle
10
313.22037108856244
20
69.482587500011235
30
0
40
3.0000000000000377
100
AcDbArc
50
137.7419488263514
51
222.25805121049888
0
ARC
5
173
100
AcDbEntity
8
0
100
AcDbCircle
10
313.22037123905994
20
69.482587500011263
30
0
40
2.9999999999999245
100
AcDbArc
50
42.258051251870256
51
137.74194882635192
0
LINE
5
174
100
AcDbEntity
8
0
100
AcDbLine
10
315.44074215492265
20
71.49999995064961
30
0
11
322.00000032044306
21
71.49999995512708
31
0
0
LINE
5
175
100
AcDbEntity
8
0
100
AcDbLine
10
322.00000032044306
20
71.49999995512708
30
0
11
322.00000031160005
21
98.99999995512708
31
0
0
LINE
5
176
100
AcDbEntity
8
0
100
AcDbLine
10
322.00000031160005
20
98.99999995512708
30
0
11
315.50775531724298
21
98.999999953039506
31
0
0
ARC
5
177
100
AcDbEntity
8
0
100
AcDbCircle
10
313.25387781378487
20
100.97990808207103
30
0
40
2.9999999999999307
100
AcDbArc
50
221.29753733650341
51
318.70246270034625
0
ARC
5
178
100
AcDbEntity
8
0
100
AcDbCircle
10
313.25387766328726
20
100.97990808207108
30
0
40
2.9999999999999805
100
AcDbArc
50
138.70246270034474
51
221.29753733650463
0
LINE
5
179
100
AcDbEntity
8
0
100
AcDbLine
10
311.0000001598292
20
102.95981621110266
30
0
11
311.00000012985106
21
196.18655903569135
31
0
0
ARC
5
180
100
AcDbEntity
8
0
100
AcDbCircle
10
313.28718510452052
20
198.12789488804805
30
0
40
2.999999999999865
100
AcDbArc
50
139.67579244649676
51
220.32420759035213
0
ARC
5
181
100
AcDbEntity
8
0
100
AcDbCircle
10
313.28718520485228
20
198.12789488804805
30
0
40
2.9999999999999143
100
AcDbArc
50
38.611395511946426
51
139.67579244649818
0
LINE
5
182
100
AcDbEntity
8
0
100
AcDbLine
10
315.63137432699125
20
199.99999994910758
30
0
11
322.00000022895654
21
199.99999995115536
31
0
0
LINE
5
183
100
AcDbEntity
8
0
100
AcDbLine
10
322.00000022895654
20
199.99999995115536
30
0
11
322.00000022365077
21
216.49999995115542
31
0
0
LINE
5
184
100
AcDbEntity
8
0
100
AcDbLine
10
322.00000022365077
20
216.49999995115542
30
0
11
315.18554330588177
21
216.4999999489641
31
0
0
ARC
5
185
100
AcDbEntity
8
0
100
AcDbCircle
10
313.09277176407545
20
218.64948995215235
30
0
40
3.0000000000000688
100
AcDbArc
50
225.76599119762648
51
314.23400883920971
0
ARC
5
186
100
AcDbEntity
8
0
100
AcDbCircle
10
313.09277166374369
20
218.64948995215232
30
0
40
3.0000000000005693
100
AcDbArc
50
134.23400883923401
51
225.76599119762633
0
LINE
5
187
100
AcDbEntity
8
0
100
AcDbLine
10
311.00000012193613
20
220.79897995534003
30
0
11
311.00000012107927
21
223.46517505097609
31
0
0
ARC
5
188
100
AcDbEntity
8
0
100
AcDbCircle
10
313.22037103839881
20
225.48258750001128
30
0
40
3.000000000000048
100
AcDbArc
50
137.74194882635351
51
222.25805121049859
0
ARC
5
189
100
AcDbEntity
8
0
100
AcDbCircle
10
313.22037113873046
20
225.48258750001125
30
0
40
2.9999999999999076
100
AcDbArc
50
42.25805125187253
51
137.74194882635211
0
LINE
5
190
100
AcDbEntity
8
0
100
AcDbLine
10
315.44074205459304
20
227.49999995064965
30
0
11
322.00000022011352
21
227.49999995512701
31
0
0
LINE
5
191
100
AcDbEntity
8
0
100
AcDbLine
10
322.00000022011352
20
227.49999995512701
30
0
11
322.0000002112705
21
254.99999995512701
31
0
0
LINE
5
192
100
AcDbEntity
8
0
100
AcDbLine
10
322.0000002112705
20
254.99999995512701
30
0
11
315.50775521691349
21
254.99999995303952
31
0
0
ARC
5
193
100
AcDbEntity
8
0
100
AcDbCircle
10
313.25387771345538
20
256.97990808207095
30
0
40
2.9999999999998832
100
AcDbArc
50
221.29753733650261
51
318.70246270034767
0
ARC
5
194
100
AcDbEntity
8
0
100
AcDbCircle
10
313.25387761312379
20
256.97990808207101
30
0
40
3.0000000000001488
100
AcDbArc
50
138.70246270034698
51
221.29753733650173
0
LINE
5
195
100
AcDbEntity
8
0
100
AcDbLine
10
311.00000010966551
20
258.95981621110263
30
0
11
311.00000007968737
21
352.18655903569135
31
0
0
ARC
5
196
100
AcDbEntity
8
0
100
AcDbCircle
10
313.28718505435705
20
354.12789488804805
30
0
40
3.0000000000000542
100
AcDbArc
50
139.67579244650028
51
220.32420759034932
0
ARC
5
197
100
AcDbEntity
8
0
100
AcDbCircle
10
313.28718510452285
20
354.12789488804805
30
0
40
2.9999999999998868
100
AcDbArc
50
38.611395511947954
51
139.67579244650054
0
LINE
5
198
100
AcDbEntity
8
0
100
AcDbLine
10
315.63137422666176
20
355.99999994910763
30
0
11
322.00000012862699
21
355.99999995115536
31
0
0
LINE
5
199
100
AcDbEntity
8
0
100
AcDbLine
10
322.00000012862699
20
355.99999995115536
30
0
11
322.00000012332117
21
372.49999995115547
31
0
0
LINE
5
200
100
AcDbEntity
8
0
100
AcDbLine
10
322.00000012332117
20
372.49999995115547
30
0
11
315.18554320555228
21
372.49999994896416
31
0
0
ARC
5
201
100
AcDbEntity
8
0
100
AcDbCircle
10
313.09277166374602
20
374.64948995215229
30
0
40
3.0000000000000431
100
AcDbArc
50
225.76599119762497
51
314.23400883921045
0
ARC
5
202
100
AcDbEntity
8
0
100
AcDbCircle
10
313.09277161358017
20
374.64948995215229
30
0
40
3.0000000000006706
100
AcDbArc
50
134.23400883923213
51
225.7659911976256
0
LINE
5
203
100
AcDbEntity
8
0
100
AcDbLine
10
311.0000000717726
20
376.79897995534014
30
0
11
311.00000007091558
21
379.46517505097603
31
0
0
ARC
5
204
100
AcDbEntity
8
0
100
AcDbCircle
10
313.22037098823512
20
381.48258750001116
30
0
40
3.0000000000000648
100
AcDbArc
50
137.74194882634964
51
222.25805121049777
0
ARC
5
205
100
AcDbEntity
8
0
100
AcDbCircle
10
313.22037103840091
20
381.48258750001116
30
0
40
2.9999999999999889
100
AcDbArc
50
42.258051251870327
51
137.74194882634967
0
LINE
5
206
100
AcDbEntity
8
0
100
AcDbLine
10
315.44074195426367
20
383.49999995064957
30
0
11
322.00000011978403
21
383.49999995512701
31
0
0
LINE
5
207
100
AcDbEntity
8
0
100
AcDbLine
10
322.00000011978403
20
383.49999995512701
30
0
11
322.00000011094107
21
410.99999995512701
31
0
0
LINE
5
208
100
AcDbEntity
8
0
100
AcDbLine
10
322.00000011094107
20
410.99999995512701
30
0
11
315.50775511658395
21
410.99999995303949
31
0
0
ARC
5
209
100
AcDbEntity
8
0
100
AcDbCircle
10
313.25387761312584
20
412.97990808207101
30
0
40
2.999999999999984
100
AcDbArc
50
221.29753733650114
51
318.70246270034647
0
ARC
5
210
100
AcDbEntity
8
0
100
AcDbCircle
10
313.25387756296004
20
412.97990808207101
30
0
40
2.9999999999999956
100
AcDbArc
50
138.70246270034485
51
221.29753733650114
0
LINE
5
211
100
AcDbEntity
8
0
100
AcDbLine
10
311.00000005950193
20
414.95981621110263
30
0
11
311.00000002952368
21
508.1865590356914
31
0
0
ARC
5
212
100
AcDbEntity
8
0
100
AcDbCircle
10
313.28718500419325
20
510.12789488804805
30
0
40
2.9999999999999423
100
AcDbArc
50
38.611395511946597
51
220.32420759034989
0
LINE
5
213
100
AcDbEntity
8
0
100
AcDbLine
10
315.63137412633228
20
511.99999994910763
30
0
11
322.00000002829756
21
511.99999995115547
31
0
0
LINE
5
214
100
AcDbEntity
8
0
100
AcDbLine
10
322.00000002829756
20
511.99999995115547
30
0
11
322.00000002299163
21
528.49999995115536
31
0
0
LINE
5
215
100
AcDbEntity
8
0
100
AcDbLine
10
322.00000002299163
20
528.49999995115536
30
0
11
315.18554310522279
21
528.49999994896416
31
0
0
ARC
5
216
100
AcDbEntity
8
0
100
AcDbCircle
10
313.09277156341648
20
530.64948995215229
30
0
40
3.0000000000006182
100
AcDbArc
50
134.23400883923517
51
314.23400883921119
0
LINE
5
217
100
AcDbEntity
8
0
100
AcDbLine
10
311.00000002160886
20
532.79897995533997
30
0
11
311.000000020752
21
535.46517505097609
31
0
0
ARC
5
218
100
AcDbEntity
8
0
100
AcDbCircle
10
313.22037093807137
20
537.48258750001116
30
0
40
2.9999999999999098
100
AcDbArc
50
42.258051251871059
51
222.2580512518702
0
LINE
5
219
100
AcDbEntity
8
0
100
AcDbLine
10
315.44074185393407
20
539.49999995064957
30
0
11
322.00000001945455
21
539.49999995512712
31
0
0
LINE
5
220
100
AcDbEntity
8
0
100
AcDbLine
10
322.00000001945455
20
539.49999995512712
30
0
11
322.00000001061153
21
566.99999995512712
31
0
0
LINE
5
221
100
AcDbEntity
8
0
100
AcDbLine
10
322.00000001061153
20
566.99999995512712
30
0
11
315.50775501625446
21
566.99999995303949
31
0
0
ARC
5
222
100
AcDbEntity
8
0
100
AcDbCircle
10
313.25387751279635
20
568.97990808207101
30
0
40
3.0000000000000626
100
AcDbArc
50
138.70246270034323
51
318.70246270034647
0
LINE
5
223
100
AcDbEntity
8
0
100
AcDbLine
10
311.00000000933824
20
570.95981621110275
30
0
11
311
21
600
31
0
0
LINE
5
224
100
AcDbEntity
8
0
100
AcDbLine
10
311
20
600
30
0
11
-1.929455351046272e-07
21
599.99999984613999
31
0
0
LINE
5
225
100
AcDbEntity
8
0
100
AcDbLine
10
-1.929455351046272e-07
20
599.99999984613999
30
0
11
-1.8360691134144957e-07
21
570.95981611109471
31
0
0
ARC
5
226
100
AcDbEntity
8
0
100
AcDbCircle
10
-2.2538776857916707
20
568.97990798061358
30
0
40
3.00000000000002
100
AcDbArc
50
-138.70246266349685
51
41.297537336503581
0
LINE
5
227
100
AcDbEntity
8
0
100
AcDbLine
10
-4.5077551879764632
20
566.99999985013244
30
0
11
-11.00000018233353
21
566.99999984804458
31
0
0
LINE
5
228
100
AcDbEntity
8
0
100
AcDbLine
10
-11.00000018233353
20
566.99999984804458
30
0
11
-11.000000173490212
21
539.49999984804458
31
0
0
LINE
5
229
100
AcDbEntity
8
0
100
AcDbLine
10
-11.000000173490212
20
539.49999984804458
30
0
11
-4.4407420079697975
21
539.4999998477856
31
0
0
ARC
5
230
100
AcDbEntity
8
0
100
AcDbCircle
10
-2.220371090809615
20
537.48258739857533
30
0
40
2.9999999999999947
100
AcDbArc
50
-42.258051173651076
51
137.7419488263489
0
LINE
5
231
100
AcDbEntity
8
0
100
AcDbLine
10
-1.7219273840130001e-07
20
535.46517495096816
30
0
11
-1.7133530705315536e-07
21
532.79897985533171
31
0
0
ARC
5
232
100
AcDbEntity
8
0
100
AcDbCircle
10
-2.0927717117600668
20
530.64948985079843
30
0
40
3.0000000000006208
100
AcDbArc
50
-134.23400880236181
51
45.765991197615413
0
LINE
5
233
100
AcDbEntity
8
0
100
AcDbLine
10
-4.1855432521843783
20
528.4999998462639
30
0
11
-11.000000169952859
21
528.49999984407293
31
0
0
LINE
5
234
100
AcDbEntity
8
0
100
AcDbLine
10
-11.000000169952859
20
528.49999984407293
30
0
11
-11.00000016464687
21
511.99999984407299
31
0
0
LINE
5
235
100
AcDbEntity
8
0
100
AcDbLine
10
-11.00000016464687
20
511.99999984407299
30
0
11
-4.6313742626816463
21
511.99999984612106
31
0
0
ARC
5
236
100
AcDbEntity
8
0
100
AcDbCircle
10
-2.2871851393386651
20
510.12789478656913
30
0
40
2.9999999999999321
100
AcDbArc
50
-40.32420755350023
51
141.38860452490198
0
LINE
5
237
100
AcDbEntity
8
0
100
AcDbLine
10
-1.6342052128193174e-07
20
508.18655893568348
30
0
11
-1.334410723585755e-07
21
414.95981611109471
31
0
0
ARC
5
238
100
AcDbEntity
8
0
100
AcDbCircle
10
-2.253877635625833
20
412.97990798061358
30
0
40
2.9999999999999654
100
AcDbArc
50
-41.297537931968456
51
41.297537336503567
0
ARC
5
239
100
AcDbEntity
8
0
100
AcDbCircle
10
-2.2538776857916827
20
412.97990798061346
30
0
40
2.9999999999999676
100
AcDbArc
50
221.29753733650159
51
318.70246270034698
0
LINE
5
240
100
AcDbEntity
8
0
100
AcDbLine
10
-4.5077551879764677
20
410.99999985013244
30
0
11
-11.000000182333538
21
410.99999984804464
31
0
0
LINE
5
241
100
AcDbEntity
8
0
100
AcDbLine
10
-11.000000182333538
20
410.99999984804464
30
0
11
-11.000000173490221
21
383.49999984804464
31
0
0
LINE
5
242
100
AcDbEntity
8
0
100
AcDbLine
10
-11.000000173490221
20
383.49999984804464
30
0
11
-4.4407420079698063
21
383.4999998477856
31
0
0
ARC
5
243
100
AcDbEntity
8
0
100
AcDbCircle
10
-2.220371090809647
20
381.48258739857533
30
0
40
2.9999999999999121
100
AcDbArc
50
42.258051210497442
51
137.74194878497966
0
ARC
5
244
100
AcDbEntity
8
0
100
AcDbCircle
10
-2.2203710406437898
20
381.48258739857522
30
0
40
2.9999999999999543
100
AcDbArc
50
-42.258051173649349
51
42.258051854790772
0
LINE
5
245
100
AcDbEntity
8
0
100
AcDbLine
10
-1.2202690302665076e-07
20
379.46517495096816
30
0
11
-1.2116946807028128e-07
21
376.79897985533165
31
0
0
ARC
5
246
100
AcDbEntity
8
0
100
AcDbCircle
10
-2.0927716615943543
20
374.64948985079843
30
0
40
3.0000000000001306
100
AcDbArc
50
-45.765991847248117
51
45.765991197612934
0
ARC
5
247
100
AcDbEntity
8
0
100
AcDbCircle
10
-2.0927717117600668
20
374.64948985079849
30
0
40
3.0000000000006759
100
AcDbArc
50
225.76599119763887
51
314.23400883922272
0
LINE
5
248
100
AcDbEntity
8
0
100
AcDbLine
10
-4.1855432521843836
20
372.4999998462639
30
0
11
-11.000000169952868
21
372.49999984407293
31
0
0
LINE
5
249
100
AcDbEntity
8
0
100
AcDbLine
10
-11.000000169952868
20
372.49999984407293
30
0
11
-11.000000164646879
21
355.99999984407299
31
0
0
LINE
5
250
100
AcDbEntity
8
0
100
AcDbLine
10
-11.000000164646879
20
355.99999984407299
30
0
11
-4.631374262681657
21
355.99999984612106
31
0
0
ARC
5
251
100
AcDbEntity
8
0
100
AcDbCircle
10
-2.287185139338674
20
354.12789478656924
30
0
40
2.9999999999998344
100
AcDbArc
50
40.324207590348664
51
141.38860452490371
0
ARC
5
252
100
AcDbEntity
8
0
100
AcDbCircle
10
-2.2871850891728878
20
354.12789478656913
30
0
40
2.9999999999999716
100
AcDbArc
50
-40.324207553499569
51
40.324208210345539
0
LINE
5
253
100
AcDbEntity
8
0
100
AcDbLine
10
-1.1325469229106488e-07
20
352.18655893568348
30
0
11
-8.3275233375701418e-08
21
258.95981611109471
31
0
0
ARC
5
254
100
AcDbEntity
8
0
100
AcDbCircle
10
-2.2538775854599979
20
256.97990798061358
30
0
40
3.0000000000000067
100
AcDbArc
50
-41.297538564283698
51
41.297537336503488
0
ARC
5
255
100
AcDbEntity
8
0
100
AcDbCircle
10
-2.2538776857917124
20
256.97990798061358
30
0
40
3.0000000000000115
100
AcDbArc
50
221.29753733650449
51
318.7024627003471
0
LINE
5
256
100
AcDbEntity
8
0
100
AcDbLine
10
-4.5077551879764624
20
254.99999985013238
30
0
11
-11.000000182333547
21
254.99999984804464
31
0
0
LINE
5
257
100
AcDbEntity
8
0
100
AcDbLine
10
-11.000000182333547
20
254.99999984804464
30
0
11
-11.00000017349023
21
227.49999984804464
31
0
0
LINE
5
258
100
AcDbEntity
8
0
100
AcDbLine
10
-11.00000017349023
20
227.49999984804464
30
0
11
-4.4407420079698152
21
227.49999984778566
31
0
0
ARC
5
259
100
AcDbEntity
8
0
100
AcDbCircle
10
-2.2203710908096568
20
225.48258739857519
30
0
40
3.0000000000000071
100
AcDbArc
50
42.258051210499467
51
137.74194878497684
0
ARC
5
260
100
AcDbEntity
8
0
100
AcDbCircle
10
-2.2203709904779121
20
225.48258739857528
30
0
40
2.9999999999999183
100
AcDbArc
50
-42.25805117364996
51
42.258052499083384
0
LINE
5
261
100
AcDbEntity
8
0
100
AcDbLine
10
-7.1861041284204674e-08
20
223.46517495096819
30
0
11
-7.1003629087407205e-08
21
220.79897985533168
31
0
0
ARC
5
262
100
AcDbEntity
8
0
100
AcDbCircle
10
-2.0927716114283808
20
218.64948985079846
30
0
40
3.0000000000000062
100
AcDbArc
50
-45.765992533723214
51
45.765991197614767
0
ARC
5
263
100
AcDbEntity
8
0
100
AcDbCircle
10
-2.0927717117600868
20
218.64948985079849
30
0
40
3.0000000000006528
100
AcDbArc
50
225.76599119763932
51
314.23400883922352
0
LINE
5
264
100
AcDbEntity
8
0
100
AcDbLine
10
-4.1855432521843703
20
216.4999998462639
30
0
11
-11.000000169952877
21
216.49999984407299
31
0
0
LINE
5
265
100
AcDbEntity
8
0
100
AcDbLine
10
-11.000000169952877
20
216.49999984407299
30
0
11
-11.000000164646888
21
199.99999984407299
31
0
0
LINE
5
266
100
AcDbEntity
8
0
100
AcDbLine
10
-11.000000164646888
20
199.99999984407299
30
0
11
-4.6313742626816667
21
199.99999984612106
31
0
0
ARC
5
267
100
AcDbEntity
8
0
100
AcDbCircle
10
-2.2871851393386819
20
198.12789478656913
30
0
40
2.9999999999999254
100
AcDbArc
50
40.324207590351158
51
141.38860452490204
0
ARC
5
268
100
AcDbEntity
8
0
100
AcDbCircle
10
-2.2871850390069564
20
198.12789478656913
30
0
40
2.9999999999999085
100
AcDbArc
50
-40.324207553500585
51
40.324208830343736
0
LINE
5
269
100
AcDbEntity
8
0
100
AcDbLine
10
-6.3088844148850853e-08
20
196.18655893568348
30
0
11
-3.3109394115271584e-08
21
102.95981611109475
31
0
0
ARC
5
270
100
AcDbEntity
8
0
100
AcDbCircle
10
-2.253877535294198
20
100.97990798061359
30
0
40
3.0000000000000253
100
AcDbArc
50
-41.297539196597711
51
41.29753733650341
0
ARC
5
271
100
AcDbEntity
8
0
100
AcDbCircle
10
-2.2538776857917089
20
100.9799079806136
30
0
40
3.000000000000008
100
AcDbArc
50
221.29753733650355
51
318.70246270034619
0
LINE
5
272
100
AcDbEntity
8
0
100
AcDbLine
10
-4.5077551879764863
20
98.999999850132454
30
0
11
-11.000000182333556
21
98.999999848044666
31
0
0
LINE
5
273
100
AcDbEntity
8
0
100
AcDbLine
10
-11.000000182333556
20
98.999999848044666
30
0
11
-11.000000173490239
21
71.499999848044666
31
0
0
LINE
5
274
100
AcDbEntity
8
0
100
AcDbLine
10
-11.000000173490239
20
71.499999848044666
30
0
11
-4.4407420079698259
21
71.499999847785674
31
0
0
ARC
5
275
100
AcDbEntity
8
0
100
AcDbCircle
10
-2.2203710908096577
20
69.482587398575291
30
0
40
2.9999999999999538
100
AcDbArc
50
42.258051210498543
51
137.74194878497815
0
LWPOLYLINE
5
276
100
AcDbEntity
8
0
100
AcDbPolyline
90
4
70
1
43
0.0
10
103.66666664999821
20
51.83333332050951
42
-0.99999999999999989
10
103.66666663332998
20
103.66666665384294
10
207.33333344262439
20
103.66666668691423
42
-0.99999999999999989
10
207.33333345961057
20
51.833333353556796
0
LWPOLYLINE
5
277
100
AcDbEntity
8
0
100
AcDbPolyline
90
4
70
1
43
0.0
10
103.66666650705794
20
496.33333321280963
42
-0.99999999999999989
10
103.66666649038946
20
548.16666654614369
10
207.33333330010908
20
548.16666657922622
42
-0.99999999999999989
10
207.33333331655325
20
496.33333324640046
0
LINE
5
278
100
AcDbEntity
8
0
100
AcDbLine
10
-91.88543686425092
20
388.30695767645955
30
0
11
-91.885436864250948
21
407.32167630222079
31
0
0
ARC
5
279
100
AcDbEntity
8
0
100
AcDbCircle
10
-89.764116520691374
20
409.44299664578045
30
0
40
3.0000000000000568
100
AcDbArc
50
45.000000000003844
51
225.00000000000117
0
LINE
5
280
100
AcDbEntity
8
0
100
AcDbLine
10
-87.642796177131828
20
411.56431698934028
30
0
11
-85.128077551370254
21
411.56431698934023
31
0
0
ARC
5
281
100
AcDbEntity
8
0
100
AcDbCircle
10
-83.00675720781058
20
409.44299664578068
30
0
40
3.0000000000000444
100
AcDbArc
50
-44.999999999999794
51
135.00000000000173
0
LINE
5
282
100
AcDbEntity
8
0
100
AcDbLine
10
-80.885436864250906
20
407.32167630222102
30
0
11
-80.885436864250948
21
388.30695767645921
31
0
0
ARC
5
283
100
AcDbEntity
8
0
100
AcDbCircle
10
-83.006757207810736
20
386.18563733289977
30
0
40
2.9999999999999565
100
AcDbArc
50
-135.00000000000367
51
44.999999999995204
0
LINE
5
284
100
AcDbEntity
8
0
100
AcDbLine
10
-85.128077551370495
20
384.06431698934028
30
0
11
-87.642796177131785
21
384.06431698934023
31
0
0
ARC
5
285
100
AcDbEntity
8
0
100
AcDbCircle
10
-89.764116520691331
20
386.18563733289989
30
0
40
2.9999999999999813
100
AcDbArc
50
134.99999999999906
51
314.99999879258002
0
LINE
5
286
100
AcDbEntity
8
0
100
AcDbLine
10
-91.885436864250892
20
544.30695767645955
30
0
11
-91.88543686425092
21
563.32167630222079
31
0
0
ARC
5
287
100
AcDbEntity
8
0
100
AcDbCircle
10
-89.764116520691331
20
565.44299664578057
30
0
40
3.0000000000000067
100
AcDbArc
50
45.00000000000307
51
224.99999879258479
0
LINE
5
288
100
AcDbEntity
8
0
100
AcDbLine
10
-87.642796177131785
20
567.56431698934034
30
0
11
-85.128077551370211
21
567.56431698934023
31
0
0
ARC
5
289
100
AcDbEntity
8
0
100
AcDbCircle
10
-83.006757207810551
20
565.44299664578057
30
0
40
2.9999999999999938
100
AcDbArc
50
-44.999999999998067
51
135
0
LINE
5
290
100
AcDbEntity
8
0
100
AcDbLine
10
-80.885436864250863
20
563.32167630222102
30
0
11
-80.885436864250906
21
544.30695767645921
31
0
0
ARC
5
291
100
AcDbEntity
8
0
100
AcDbCircle
10
-83.006757207810665
20
542.18563733289966
30
0
40
2.9999999999999312
100
AcDbArc
50
-135.00000000000654
51
44.999999999997115
0
LINE
5
292
100
AcDbEntity
8
0
100
AcDbLine
10
-85.128077551370467
20
540.06431698934034
30
0
11
-87.642796177131743
21
540.06431698934023
31
0
0
ARC
5
293
100
AcDbEntity
8
0
100
AcDbCircle
10
-89.764116520691303
20
542.18563733289989
30
0
40
2.9999999999999813
100
AcDbArc
50
134.99999999999906
51
314.99999879258075
0
LINE
5
294
100
AcDbEntity
8
0
100
AcDbLine
10
-85.128077551370538
20
228.06431698934023
30
0
11
-87.642796177131828
21
228.06431698934017
31
0
0
ARC
5
295
100
AcDbEntity
8
0
100
AcDbCircle
10
-89.764116520691388
20
230.1856373328998
30
0
40
2.9999999999999938
100
AcDbArc
50
134.9999999999979
51
314.99999999999903
0
LINE
5
296
100
AcDbEntity
8
0
100
AcDbLine
10
-91.885436864250948
20
232.30695767645952
30
0
11
-91.885436864250991
21
251.32167630222074
31
0
0
ARC
5
297
100
AcDbEntity
8
0
100
AcDbCircle
10
-89.764116520691431
20
253.44299664578045
30
0
40
3.0000000000000444
100
AcDbArc
50
45.000000000002686
51
225.0000000000021
0
LINE
5
298
100
AcDbEntity
8
0
100
AcDbLine
10
-87.642796177131856
20
255.56431698934023
30
0
11
-85.128077551370296
21
255.56431698934017
31
0
0
ARC
5
299
100
AcDbEntity
8
0
100
AcDbCircle
10
-83.006757207810608
20
253.44299664578057
30
0
40
2.9999999999999938
100
AcDbArc
50
-44.999999999999233
51
135.00000000000117
0
LINE
5
300
100
AcDbEntity
8
0
100
AcDbLine
10
-80.885436864250948
20
251.32167630222096
30
0
11
-80.885436864250977
21
232.30695767645915
31
0
0
ARC
5
301
100
AcDbEntity
8
0
100
AcDbCircle
10
-83.00675720781075
20
230.18563733289966
30
0
40
2.999999999999944
100
AcDbArc
50
-135.0000000000048
51
45.000001207413668
0
LINE
5
302
100
AcDbEntity
8
0
100
AcDbLine
10
-87.642796177131714
20
529.06431698536858
30
0
11
-85.128077551370183
21
529.06431698536858
31
0
0
ARC
5
303
100
AcDbEntity
8
0
100
AcDbCircle
10
-83.006757207810566
20
526.94299664180892
30
0
40
3.000000000000032
100
AcDbArc
50
-45
51
134.99999999999943
0
LINE
5
304
100
AcDbEntity
8
0
100
AcDbLine
10
-80.885436864250906
20
524.82167629824926
30
0
11
-80.885436864250906
21
516.8069576724879
31
0
0
ARC
5
305
100
AcDbEntity
8
0
100
AcDbCircle
10
-83.00675720781058
20
514.68563732892812
30
0
40
2.999999999999944
100
AcDbArc
50
-135.0000000000033
51
45.00000000000135
0
LINE
5
306
100
AcDbEntity
8
0
100
AcDbLine
10
-85.128077551370254
20
512.56431698536869
30
0
11
-87.642796177131572
21
512.56431698536858
31
0
0
ARC
5
307
100
AcDbEntity
8
0
100
AcDbCircle
10
-89.764116520691246
20
514.68563732892812
30
0
40
2.9999999999999938
100
AcDbArc
50
135.0000000000002
51
315.00000000000171
0
LINE
5
308
100
AcDbEntity
8
0
100
AcDbLine
10
-91.88543686425092
20
516.80695767248778
30
0
11
-91.88543686425092
21
524.82167629824926
31
0
0
ARC
5
309
100
AcDbEntity
8
0
100
AcDbCircle
10
-89.764116520691317
20
526.94299664180892
30
0
40
3.0000000000000444
100
AcDbArc
50
45.000000000000767
51
225.00000000000077
0
LINE
5
310
100
AcDbEntity
8
0
100
AcDbLine
10
-87.642796177131743
20
373.06431698536863
30
0
11
-85.128077551370211
21
373.06431698536858
31
0
0
ARC
5
311
100
AcDbEntity
8
0
100
AcDbCircle
10
-83.006757207810566
20
370.94299664180886
30
0
40
3.0000000000000067
100
AcDbArc
50
-45.000000000000561
51
135.00000120741768
0
LINE
5
312
100
AcDbEntity
8
0
100
AcDbLine
10
-80.885436864250948
20
368.8216762982492
30
0
11
-80.885436864250948
21
360.80695767248784
31
0
0
ARC
5
313
100
AcDbEntity
8
0
100
AcDbCircle
10
-83.006757207810608
20
358.68563732892824
30
0
40
2.9999999999999938
100
AcDbArc
50
-135.00000000000117
51
44.999999999999233
0
LINE
5
314
100
AcDbEntity
8
0
100
AcDbLine
10
-85.128077551370296
20
356.56431698536863
30
0
11
-87.642796177131601
21
356.56431698536858
31
0
0
ARC
5
315
100
AcDbEntity
8
0
100
AcDbCircle
10
-89.764116520691289
20
358.68563732892812
30
0
40
3.0000000000000444
100
AcDbArc
50
135
51
315.00000000000193
0
LINE
5
316
100
AcDbEntity
8
0
100
AcDbLine
10
-91.885436864250948
20
360.80695767248778
30
0
11
-91.885436864250948
21
368.82167629824926
31
0
0
ARC
5
317
100
AcDbEntity
8
0
100
AcDbCircle
10
-89.764116520691346
20
370.94299664180892
30
0
40
2.9999999999999938
100
AcDbArc
50
45.000000000001542
51
225.00000000000077
0
LWPOLYLINE
5
318
100
AcDbEntity
8
0
100
AcDbPolyline
90
8
70
1
43
0.0
10
-85.128077551370254
20
217.06431698536849
10
-87.642796177131785
20
217.06431698536858
42
0.99999999999999989
10
-91.885436864250991
20
212.82167629824923
10
-91.885436864250991
20
204.80695767248773
42
0.99999999999999989
10
-87.642796177131643
20
200.56431698536852
10
-85.128077551370325
20
200.56431698536858
42
0.99999999999999989
10
-80.885436864250977
20
204.80695767248778
10
-80.885436864250977
20
212.82167629824914
42
0.99999999999999989
0
LINE
5
319
100
AcDbEntity
8
0
100
AcDbLine
10
-85.128077551370581
20
72.064316989340213
30
0
11
-87.642796177131856
21
72.064316989340142
31
0
0
ARC
5
320
100
AcDbEntity
8
0
100
AcDbCircle
10
-89.764116520691431
20
74.185637332899816
30
0
40
2.9999999999999689
100
AcDbArc
50
134.99999999999847
51
314.99999999999864
0
LINE
5
321
100
AcDbEntity
8
0
100
AcDbLine
10
-91.885436864250991
20
76.30695767645949
30
0
11
-91.885436864251034
21
95.321676302220737
31
0
0
ARC
5
322
100
AcDbEntity
8
0
100
AcDbCircle
10
-89.764116520691459
20
97.442996645780482
30
0
40
3.0000000000000195
100
AcDbArc
50
45.000000000002302
51
225.00000000000227
0
LINE
5
323
100
AcDbEntity
8
0
100
AcDbLine
10
-87.642796177131885
20
99.564316989340227
30
0
11
-85.128077551370325
21
99.564316989340142
31
0
0
ARC
5
324
100
AcDbEntity
8
0
100
AcDbCircle
10
-83.006757207810651
20
97.442996645780539
30
0
40
2.9999999999999938
100
AcDbArc
50
-44.999999999999034
51
135.00000000000097
0
LINE
5
325
100
AcDbEntity
8
0
100
AcDbLine
10
-80.885436864250977
20
95.321676302220936
30
0
11
-80.885436864251005
21
76.306957676459135
31
0
0
ARC
5
326
100
AcDbEntity
8
0
100
AcDbCircle
10
-83.006757207810793
20
74.185637332899674
30
0
40
2.9999999999999689
100
AcDbArc
50
-135.00000000000443
51
44.99999999999558
0
LWPOLYLINE
5
327
100
AcDbEntity
8
0
100
AcDbPolyline
90
8
70
1
43
0.0
10
-87.642796177131686
20
44.564316985368492
10
-85.128077551370353
20
44.564316985368563
42
0.99999999999999989
10
-80.885436864251005
20
48.806957672487769
10
-80.885436864251005
20
56.82167629824913
42
0.99999999999999989
10
-85.128077551370296
20
61.064316985368478
10
-87.642796177131828
20
61.064316985368549
42
0.99999999999999989
10
-91.885436864251034
20
56.821676298249201
10
-91.885436864251034
20
48.806957672487698
42
0.99999999999999989
0
LWPOLYLINE
5
328
100
AcDbEntity
8
0
100
AcDbPolyline
90
8
70
1
43
0.0
10
-305.88543686425101
20
400.56431713775822
42
-0.4142135623730942
10
-330.88543686425101
20
425.56431713775817
10
-330.88543686425112
20
525.56431713775828
42
-0.41421356237309548
10
-305.88543686425089
20
550.56431713775839
10
-144.88543686425086
20
550.56431713775817
42
-0.41421356237309209
10
-119.88543686425089
20
525.56431713775828
10
-119.88543686425092
20
425.56431713775822
42
-0.41421356237309465
10
-144.88543686425083
20
400.56431713775822
0
LWPOLYLINE
5
329
100
AcDbEntity
8
0
100
AcDbPolyline
90
8
70
1
43
0.0
10
-330.88543686425089
20
175.56431713775825
42
-0.4142135623730942
10
-305.88543686425101
20
200.5643171377582
10
-144.88543686425086
20
200.5643171377582
42
-0.41421356237309503
10
-119.88543686425092
20
175.56431713775825
10
-119.88543686425092
20
75.564317137758223
42
-0.4142135623730957
10
-144.88543686425089
20
50.564317137758266
10
-305.88543686425089
20
50.564317137758259
42
-0.41421356237309709
10
-330.88543686425101
20
75.564317137758223
0
LWPOLYLINE
5
330
100
AcDbEntity
8
0
100
AcDbPolyline
90
41
70
1
43
0.0
10
-134.07538407250888
20
295.06431713775822
42
-0.41421356237308032
10
-138.31802475962817
20
295.06431713775822
10
-149.38111159023933
20
295.06431713775822
42
-0.41421356237308032
10
-153.62375227735862
20
295.06431713775822
10
-172.63847090311998
20
295.06431713775822
42
-0.41421356237309503
10
-176.88111159023924
20
295.06431713775822
10
-281.88111158825399
20
295.06431713775822
42
-0.41421356237307544
10
-286.12375227537319
20
295.06431713775822
10
-294.07538407250888
20
295.06431713775822
42
-0.41421356237307544
10
-298.3180247596282
20
295.06431713775822
10
-309.38111159023936
20
295.06431713775822
42
-0.41421356237307544
10
-313.62375227735862
20
295.06431713775822
10
-332.63847090311998
20
295.06431713775822
42
-0.41421356237308032
10
-336.88111159023936
20
295.06431713775822
10
-380.88543686425089
20
295.06431713775822
10
-380.88543686425089
20
0.56431713775822345
42
0.08704341921491722
10
-69.885436864251204
20
0.56431713775808134
10
-69.885436864250892
20
600.56431713775828
10
-305.88543686425089
20
600.56431713775828
42
0.41421356237309503
10
-380.88543686425089
20
525.56431713775828
10
-380.88543686425089
20
306.06431713775822
10
-336.88111159023924
20
306.06431713775822
42
-0.41421356673754539
10
-332.63847087150992
20
306.06431710614811
10
-313.62375227735856
20
306.06431713775822
42
-0.41421356237309015
10
-309.38111159023936
20
306.06431713775822
10
-298.31802475962814
20
306.06431713775822
42
-0.41421356237310486
10
-294.07538407250888
20
306.06431713775822
10
-286.12375227537319
20
306.06431713775822
42
-0.41421356237309015
10
-281.88111158825399
20
306.06431713775822
10
-176.88111159023933
20
306.06431713775822
42
-0.4142135667375576
10
-172.6384708715099
20
306.06431710614811
10
-153.62375227735853
20
306.06431713775822
42
-0.41421356237309015
10
-149.38111159023933
20
306.06431713775822
10
-138.31802475962812
20
306.06431713775817
42
-0.41421355800865206
10
-134.075384104119
20
306.06431716936834
10
-126.12375227537316
20
306.06431713775822
42
-0.41421356237309015
10
-121.88111158825396
20
306.06431713775822
10
-91.88543686425092
20
306.06431713775817
10
-91.88543686425092
20
295.06431713775817
10
-121.88111158825396
20
295.06431713775822
42
-0.41421356237308526
10
-126.12375227537325
20
295.06431713775828
0
LINE
5
331
100
AcDbEntity
8
0
100
AcDbLine
10
-469.48712912183629
20
380.18735033020027
30
0
11
-469.48712912183629
21
399.20206895596152
31
0
0
ARC
5
332
100
AcDbEntity
8
0
100
AcDbCircle
10
-467.3658087782768
20
401.32338929952118
30
0
40
3.0000000000000444
100
AcDbArc
50
45.000000000003844
51
225.00000000000227
0
LINE
5
333
100
AcDbEntity
8
0
100
AcDbLine
10
-465.24448843471725
20
403.44470964308101
30
0
11
-462.72976980895567
21
403.44470964308096
31
0
0
ARC
5
334
100
AcDbEntity
8
0
100
AcDbCircle
10
-460.60844946539601
20
401.32338929952141
30
0
40
3.000000000000095
100
AcDbArc
50
-44.999999999999233
51
135.00000000000156
0
LINE
5
335
100
AcDbEntity
8
0
100
AcDbLine
10
-458.48712912183629
20
399.20206895596175
30
0
11
-458.48712912183635
21
380.18735033019993
31
0
0
ARC
5
336
100
AcDbEntity
8
0
100
AcDbCircle
10
-460.60844946539618
20
378.06602998664056
30
0
40
2.9999999999999938
100
AcDbArc
50
-135.0000000000023
51
44.999999999993861
0
LINE
5
337
100
AcDbEntity
8
0
100
AcDbLine
10
-462.72976980895589
20
375.94470964308101
30
0
11
-465.24448843471714
21
375.94470964308096
31
0
0
ARC
5
338
100
AcDbEntity
8
0
100
AcDbCircle
10
-467.36580877827669
20
378.06602998664061
30
0
40
2.9999999999999938
100
AcDbArc
50
134.99999999999923
51
314.99999999999847
0
LWPOLYLINE
5
339
100
AcDbEntity
8
0
100
AcDbPolyline
90
8
70
1
43
0.0
10
-469.48712912183629
20
555.20206895596152
10
-469.48712912183629
20
536.18735033020027
42
0.99999999999999989
10
-465.24448843471708
20
531.94470964308096
10
-462.72976980895589
20
531.94470964308107
42
0.99999999999999989
10
-458.48712912183629
20
536.18735033019993
10
-458.48712912183629
20
555.20206895596175
42
0.99999999999999989
10
-462.72976980895555
20
559.44470964308096
10
-465.24448843471714
20
559.44470964308107
42
0.99999999999999989
0
LINE
5
340
100
AcDbEntity
8
0
100
AcDbLine
10
-462.72976980895589
20
219.94470964308096
30
0
11
-465.24448843471725
21
219.9447096430809
31
0
0
ARC
5
341
100
AcDbEntity
8
0
100
AcDbCircle
10
-467.3658087782768
20
222.06602998664061
30
0
40
2.999999999999944
100
AcDbArc
50
134.99999999999923
51
314.99999999999773
0
LINE
5
342
100
AcDbEntity
8
0
100
AcDbLine
10
-469.48712912183635
20
224.18735033020022
30
0
11
-469.48712912183635
21
243.20206895596147
31
0
0
ARC
5
343
100
AcDbEntity
8
0
100
AcDbCircle
10
-467.36580877827686
20
245.32338929952121
30
0
40
2.9999999999999938
100
AcDbArc
50
45.000000000002686
51
225.00000000000347
0
LINE
5
344
100
AcDbEntity
8
0
100
AcDbLine
10
-465.24448843471731
20
247.44470964308096
30
0
11
-462.72976980895572
21
247.4447096430809
31
0
0
ARC
5
345
100
AcDbEntity
8
0
100
AcDbCircle
10
-460.60844946539601
20
245.3233892995213
30
0
40
3.0000000000000444
100
AcDbArc
50
-44.999999999998472
51
135.00000000000153
0
LINE
5
346
100
AcDbEntity
8
0
100
AcDbLine
10
-458.48712912183629
20
243.20206895596169
30
0
11
-458.48712912183635
21
224.18735033019988
31
0
0
ARC
5
347
100
AcDbEntity
8
0
100
AcDbCircle
10
-460.60844946539618
20
222.06602998664042
30
0
40
2.999999999999944
100
AcDbArc
50
-135.00000000000347
51
44.999999999995019
0
LINE
5
348
100
AcDbEntity
8
0
100
AcDbLine
10
-465.24448843471708
20
520.94470963910931
30
0
11
-462.72976980895555
21
520.94470963910931
31
0
0
ARC
5
349
100
AcDbEntity
8
0
100
AcDbCircle
10
-460.60844946539595
20
518.82338929554965
30
0
40
3.0000000000000444
100
AcDbArc
50
-45
51
134.99999999999923
0
LINE
5
350
100
AcDbEntity
8
0
100
AcDbLine
10
-458.48712912183629
20
516.70206895198999
30
0
11
-458.48712912183629
21
508.68735032622857
31
0
0
ARC
5
351
100
AcDbEntity
8
0
100
AcDbCircle
10
-460.60844946539595
20
506.56602998266897
30
0
40
2.9999999999999938
100
AcDbArc
50
-135.00000000000153
51
44.999999999999233
0
LINE
5
352
100
AcDbEntity
8
0
100
AcDbLine
10
-462.72976980895567
20
504.44470963910936
30
0
11
-465.24448843471697
21
504.44470963910931
31
0
0
ARC
5
353
100
AcDbEntity
8
0
100
AcDbCircle
10
-467.36580877827663
20
506.56602998266891
30
0
40
2.9999999999999938
100
AcDbArc
50
135.00000000000077
51
315.0000000000008
0
LINE
5
354
100
AcDbEntity
8
0
100
AcDbLine
10
-469.48712912183629
20
508.68735032622851
30
0
11
-469.48712912183629
21
516.70206895198999
31
0
0
ARC
5
355
100
AcDbEntity
8
0
100
AcDbCircle
10
-467.3658087782768
20
518.82338929554965
30
0
40
3.000000000000095
100
AcDbArc
50
44.999999999999233
51
225.00000000000227
0
LINE
5
356
100
AcDbEntity
8
0
100
AcDbLine
10
-465.24448843471708
20
364.94470963910936
30
0
11
-462.72976980895555
21
364.94470963910931
31
0
0
ARC
5
357
100
AcDbEntity
8
0
100
AcDbCircle
10
-460.60844946539595
20
362.82338929554959
30
0
40
3.0000000000000444
100
AcDbArc
50
-45
51
134.99999999999847
0
LINE
5
358
100
AcDbEntity
8
0
100
AcDbLine
10
-458.48712912183629
20
360.70206895198993
30
0
11
-458.48712912183635
21
352.68735032622857
31
0
0
ARC
5
359
100
AcDbEntity
8
0
100
AcDbCircle
10
-460.60844946539595
20
350.56602998266902
30
0
40
3.0000000000000444
100
AcDbArc
50
-135.00000000000077
51
44.999999999999233
0
LINE
5
360
100
AcDbEntity
8
0
100
AcDbLine
10
-462.72976980895567
20
348.44470963910936
30
0
11
-465.24448843471697
21
348.44470963910931
31
0
0
ARC
5
361
100
AcDbEntity
8
0
100
AcDbCircle
10
-467.36580877827663
20
350.56602998266885
30
0
40
3.000000000000095
100
AcDbArc
50
135.00000000000077
51
315.00000000000153
0
LINE
5
362
100
AcDbEntity
8
0
100
AcDbLine
10
-469.48712912183635
20
352.68735032622851
30
0
11
-469.48712912183629
21
360.70206895198999
31
0
0
ARC
5
363
100
AcDbEntity
8
0
100
AcDbCircle
10
-467.3658087782768
20
362.82338929554965
30
0
40
3.0000000000000444
100
AcDbArc
50
45
51
225.00000000000227
0
LINE
5
364
100
AcDbEntity
8
0
100
AcDbLine
10
-465.24448843471714
20
208.94470963910931
30
0
11
-462.72976980895567
21
208.94470963910922
31
0
0
ARC
5
365
100
AcDbEntity
8
0
100
AcDbCircle
10
-460.60844946539595
20
206.82338929554959
30
0
40
3.0000000000000444
100
AcDbArc
50
-45
51
135.00000000000117
0
LINE
5
366
100
AcDbEntity
8
0
100
AcDbLine
10
-458.48712912183629
20
204.70206895198993
30
0
11
-458.48712912183635
21
196.68735032622851
31
0
0
ARC
5
367
100
AcDbEntity
8
0
100
AcDbCircle
10
-460.60844946539595
20
194.56602998266891
30
0
40
3.0000000000000444
100
AcDbArc
50
-135.0000000000023
51
45
0
LINE
5
368
100
AcDbEntity
8
0
100
AcDbLine
10
-462.72976980895572
20
192.44470963910931
30
0
11
-465.24448843471703
21
192.44470963910925
31
0
0
ARC
5
369
100
AcDbEntity
8
0
100
AcDbCircle
10
-467.36580877827663
20
194.56602998266885
30
0
40
3.0000000000000444
100
AcDbArc
50
135.00000000000153
51
315
0
LINE
5
370
100
AcDbEntity
8
0
100
AcDbLine
10
-469.48712912183635
20
196.68735032622845
30
0
11
-469.48712912183635
21
204.70206895198996
31
0
0
ARC
5
371
100
AcDbEntity
8
0
100
AcDbCircle
10
-467.3658087782768
20
206.82338929554962
30
0
40
2.9999999999999938
100
AcDbArc
50
45.000000000000384
51
225.00000000000151
0
LINE
5
372
100
AcDbEntity
8
0
100
AcDbLine
10
-462.72976980895601
20
63.944709643080941
30
0
11
-465.24448843471725
21
63.94470964308087
31
0
0
ARC
5
373
100
AcDbEntity
8
0
100
AcDbCircle
10
-467.36580877827686
20
66.066029986640558
30
0
40
2.9999999999999498
100
AcDbArc
50
134.99999999999753
51
314.99999999999881
0
LINE
5
374
100
AcDbEntity
8
0
100
AcDbLine
10
-469.48712912183635
20
68.187350330200232
30
0
11
-469.48712912183646
21
87.202068955961465
31
0
0
ARC
5
375
100
AcDbEntity
8
0
100
AcDbCircle
10
-467.3658087782768
20
89.32338929952121
30
0
40
2.9999999999999565
100
AcDbArc
50
45.000000000003645
51
225.00000000000117
0
LINE
5
376
100
AcDbEntity
8
0
100
AcDbLine
10
-465.24448843471731
20
91.444709643080969
30
0
11
-462.72976980895572
21
91.44470964308087
31
0
0
ARC
5
377
100
AcDbEntity
8
0
100
AcDbCircle
10
-460.60844946539601
20
89.323389299521267
30
0
40
2.9999999999999938
100
AcDbArc
50
-44.999999999999233
51
135.00000000000153
0
LINE
5
378
100
AcDbEntity
8
0
100
AcDbLine
10
-458.48712912183635
20
87.202068955961664
30
0
11
-458.48712912183635
21
68.187350330199862
31
0
0
ARC
5
379
100
AcDbEntity
8
0
100
AcDbCircle
10
-460.60844946539618
20
66.066029986640416
30
0
40
3.0000000000000004
100
AcDbArc
50
-135.0000000000048
51
44.99999999999482
0
LINE
5
380
100
AcDbEntity
8
0
100
AcDbLine
10
-462.72976980895572
20
36.444709639109291
30
0
11
-465.24448843471708
21
36.44470963910922
31
0
0
ARC
5
381
100
AcDbEntity
8
0
100
AcDbCircle
10
-467.36580877827663
20
38.566029982668823
30
0
40
3.0000000000000444
100
AcDbArc
50
135.00000000000153
51
314.9999999999992
0
LINE
5
382
100
AcDbEntity
8
0
100
AcDbLine
10
-469.48712912183635
20
40.687350326228426
30
0
11
-469.48712912183646
21
48.702068951989929
31
0
0
ARC
5
383
100
AcDbEntity
8
0
100
AcDbCircle
10
-467.36580877827691
20
50.823389295549603
30
0
40
3.0000000000000444
100
AcDbArc
50
45.000000000000185
51
225.00000000000173
0
LINE
5
384
100
AcDbEntity
8
0
100
AcDbLine
10
-465.24448843471725
20
52.944709639109277
30
0
11
-462.72976980895572
21
52.944709639109206
31
0
0
ARC
5
385
100
AcDbEntity
8
0
100
AcDbCircle
10
-460.60844946539601
20
50.823389295549539
30
0
40
3.0000000000000382
100
AcDbArc
50
-45.000000000000099
51
135.00000000000065
0
LINE
5
386
100
AcDbEntity
8
0
100
AcDbLine
10
-458.48712912183635
20
48.702068951989872
30
0
11
-458.48712912183635
21
40.687350326228497
31
0
0
ARC
5
387
100
AcDbEntity
8
0
100
AcDbCircle
10
-460.60844946539612
20
38.566029982668894
30
0
40
2.999999999999944
100
AcDbArc
50
-135
51
44.999999999997691
0
LWPOLYLINE
5
388
100
AcDbEntity
8
0
100
AcDbPolyline
90
8
70
1
43
0.0
10
-683.48712912183623
20
392.44470979149895
42
-0.41421356237309759
10
-708.48712912183623
20
417.44470979149889
10
-708.48712912183657
20
517.44470979149901
42
-0.4142135623730917
10
-683.48712912183623
20
542.44470979149912
10
-522.48712912183623
20
542.44470979149889
42
-0.41421356237309342
10
-497.48712912183635
20
517.44470979149901
10
-497.48712912183629
20
417.44470979149889
42
-0.41421356237309342
10
-522.48712912183623
20
392.44470979149895
0
LWPOLYLINE
5
389
100
AcDbEntity
8
0
100
AcDbPolyline
90
8
70
1
43
0.0
10
-708.48712912183623
20
167.44470979149898
42
-0.41421356237309004
10
-683.48712912183623
20
192.44470979149892
10
-522.48712912183635
20
192.44470979149889
42
-0.41421356237309465
10
-497.48712912183635
20
167.44470979149898
10
-497.48712912183635
20
67.444709791498951
42
-0.4142135623730952
10
-522.48712912183623
20
42.444709791498994
10
-683.48712912183623
20
42.444709791498987
42
-0.41421356237309515
10
-708.48712912183623
20
67.44470979149898
0
LWPOLYLINE
5
390
100
AcDbEntity
8
0
100
AcDbPolyline
90
41
70
1
43
0.0
10
-511.67707633009428
20
286.94470979149901
42
-0.41421356237309015
10
-515.91971701721354
20
286.94470979149889
10
-526.9828038478247
20
286.94470979149895
42
-0.41421356237308282
10
-531.2254445349439
20
286.94470979149889
10
-550.24016316070526
20
286.94470979149889
42
-0.41421356237308771
10
-554.4828038478247
20
286.94470979149889
10
-659.48280384583938
20
286.94470979149895
42
-0.41421356237307544
10
-663.72544453295859
20
286.94470979149895
10
-671.67707633009422
20
286.94470979149895
42
-0.41421356237309254
10
-675.91971701721354
20
286.94470979149901
10
-686.9828038478247
20
286.94470979149895
42
-0.41421356237309254
10
-691.22544453494379
20
286.94470979149901
10
-710.24016316070538
20
286.94470979149901
42
-0.41421356237311219
10
-714.4828038478247
20
286.94470979149901
10
-758.48712912183623
20
286.94470979149895
10
-758.48712912183623
20
-7.5552902085010487
42
0.08704341921491722
10
-447.48712912183657
20
-7.5552902085011908
10
-447.48712912183629
20
592.44470979149901
10
-683.48712912183623
20
592.44470979149901
42
0.41421356237309392
10
-758.48712912183623
20
517.44470979149901
10
-758.48712912183623
20
297.94470979149895
10
-714.4828038478247
20
297.94470979149901
42
-0.41421356673754789
10
-710.24016312909521
20
297.94470975988884
10
-691.22544453494379
20
297.94470979149889
42
-0.41421356237306561
10
-686.98280384782447
20
297.94470979149895
10
-675.91971701721354
20
297.94470979149889
42
-0.41421356237311219
10
-671.67707633009422
20
297.94470979149889
10
-663.72544453295859
20
297.94470979149889
42
-0.41421356237306561
10
-659.48280384583927
20
297.94470979149895
10
-554.4828038478247
20
297.94470979149895
42
-0.41421356673756993
10
-550.24016312909532
20
297.94470975988884
10
-531.22544453494402
20
297.94470979149895
42
-0.41421356237309015
10
-526.9828038478247
20
297.94470979149895
10
-515.91971701721354
20
297.94470979149895
42
-0.41421355800864962
10
-511.67707636170439
20
297.94470982310912
10
-503.72544453295859
20
297.94470979149895
42
-0.41421356237309015
10
-499.48280384583933
20
297.94470979149895
10
-469.48712912183629
20
297.94470979149889
10
-469.48712912183629
20
286.94470979149889
10
-499.48280384583927
20
286.94470979149895
42
-0.41421356237309015
10
-503.72544453295859
20
286.94470979149901
0
ENDSEC
0
SECTION
2
OBJECTS
0
DICTIONARY
5
C
100
AcDbDictionary
3
ACAD_GROUP
350
D
3
ACAD_MLINESTYLE
350
17
0
DICTIONARY
5
D
100
AcDbDictionary
0
DICTIONARY
5
1A
330
C
100
AcDbDictionary
0
DICTIONARY
5
17
100
AcDbDictionary
0
ENDSEC
0
EOF
