0
SECTION
2
HEADER
9
$INSUNITS
70
4
9
$ACADVER
1
AC1014
9
$HANDSEED
5
FFFF
0
ENDSEC
0
SECTION
2
TABLES
0
TABLE
2
VPORT
5
8
100
AcDbSymbolTable
0
ENDTAB
0
TABLE
2
LTYPE
5
5
100
AcDbSymbolTable
0
LTYPE
5
14
100
AcDbSymbolTableRecord
100
AcDbLinetypeTableRecord
2
BYBLOCK
70
0
0
LTYPE
5
15
100
AcDbSymbolTableRecord
100
AcDbLinetypeTableRecord
2
BYLAYER
70
0
0
ENDTAB
0
TABLE
2
LAYER
5
2
100
AcDbSymbolTable
70
2
0
LAYER
5
50
100
AcDbSymbolTableRecord
100
AcDbLayerTableRecord
2
0
70
0
6
CONTINUOUS
0
ENDTAB
0
TABLE
2
STYLE
5
3
100
AcDbSymbolTable
70
1
0
STYLE
5
11
100
AcDbSymbolTableRecord
100
AcDbTextStyleTableRecord
2
STANDARD
70
0
0
ENDTAB
0
TABLE
2
VIEW
5
6
100
AcDbSymbolTable
70
0
0
ENDTAB
0
TABLE
2
UCS
5
7
100
AcDbSymbolTable
70
0
0
ENDTAB
0
TABLE
2
APPID
5
9
100
AcDbSymbolTable
70
2
0
APPID
5
12
100
AcDbSymbolTableRecord
100
AcDbRegAppTableRecord
2
ACAD
70
0
0
ENDTAB
0
TABLE
2
DIMSTYLE
5
A
100
AcDbSymbolTable
70
1
0
ENDTAB
0
TABLE
2
BLOCK_RECORD
5
1
100
AcDbSymbolTable
70
1
0
BLOCK_RECORD
5
1F
100
AcDbSymbolTableRecord
100
AcDbBlockTableRecord
2
*MODEL_SPACE
0
BLOCK_RECORD
5
1B
100
AcDbSymbolTableRecord
100
AcDbBlockTableRecord
2
*PAPER_SPACE
0
ENDTAB
0
ENDSEC
0
SECTION
2
BLOCKS
0
BLOCK
5
20
100
AcDbEntity
100
AcDbBlockBegin
2
*MODEL_SPACE
0
ENDBLK
5
21
100
AcDbEntity
100
AcDbBlockEnd
0
BLOCK
5
1C
100
AcDbEntity
100
AcDbBlockBegin
2
*PAPER_SPACE
0
ENDBLK
5
1D
100
AcDbEntity
100
AcDbBlockEnd
0
ENDSEC
0
SECTION
2
ENTITIES
0
LINE
5
100
100
AcDbEntity
8
0
100
AcDbLine
10
-21.398983273422765
20
0
30
0
11
27.601017456734137
21
0
31
0
0
LINE
5
101
100
AcDbEntity
8
0
100
AcDbLine
10
-40.383989100244015
20
4.6200000000000072
30
0
11
-40.383989100244023
21
8.9397154144689743
31
0
0
LINE
5
102
100
AcDbEntity
8
0
100
AcDbLine
10
-40.383989100244023
20
8.9397154144689743
30
0
11
-41.573989100244013
21
9.0000000000000089
31
0
0
LINE
5
103
100
AcDbEntity
8
0
100
AcDbLine
10
-41.573989100244013
20
9.0000000000000089
30
0
11
-41.573989100244013
21
12.620000000000008
31
0
0
LINE
5
104
100
AcDbEntity
8
0
100
AcDbLine
10
-47.573989100244027
20
1.8100000000000016
30
0
11
-43.193989100244004
21
1.8100000000000001
31
0
0
LINE
5
105
100
AcDbEntity
8
0
100
AcDbLine
10
-47.573989100244006
20
3.0000000000000004
30
0
11
-47.573989100244027
21
1.8100000000000016
31
0
0
LINE
5
106
100
AcDbEntity
8
0
100
AcDbLine
10
-51.193989100244011
20
3.000000000000024
30
0
11
-47.573989100244006
21
3.0000000000000004
31
0
0
LINE
5
107
100
AcDbEntity
8
0
100
AcDbLine
10
-51.193989100244011
20
9.0000000000000284
30
0
11
-51.193989100244011
21
3.000000000000024
31
0
0
LINE
5
108
100
AcDbEntity
8
0
100
AcDbLine
10
-47.573989100244006
20
9.0000000000000249
30
0
11
-51.193989100244011
21
9.0000000000000284
31
0
0
LINE
5
109
100
AcDbEntity
8
0
100
AcDbLine
10
-47.573989100244027
20
12.620000000000024
30
0
11
-47.573989100244006
21
9.0000000000000249
31
0
0
LINE
5
110
100
AcDbEntity
8
0
100
AcDbLine
10
-41.573989100244013
20
12.620000000000008
30
0
11
-47.573989100244027
21
12.620000000000024
31
0
0
LINE
5
111
100
AcDbEntity
8
0
100
AcDbLine
10
-38.573989100244013
20
4.6200000000000072
30
0
11
-40.383989100244015
21
4.6200000000000072
31
0
0
LINE
5
112
100
AcDbEntity
8
0
100
AcDbLine
10
-43.193989100244004
20
1.8100000000000001
30
0
11
-43.193989100244011
21
0
31
0
0
LINE
5
113
100
AcDbEntity
8
0
100
AcDbLine
10
-47.573989100244027
20
-1.8100000000000016
30
0
11
-43.193989100244004
21
-1.8100000000000001
31
0
0
LINE
5
114
100
AcDbEntity
8
0
100
AcDbLine
10
-47.573989100244006
20
-3.0000000000000004
30
0
11
-47.573989100244027
21
-1.8100000000000016
31
0
0
LINE
5
115
100
AcDbEntity
8
0
100
AcDbLine
10
-51.193989100244011
20
-3.000000000000024
30
0
11
-47.573989100244006
21
-3.0000000000000004
31
0
0
LINE
5
116
100
AcDbEntity
8
0
100
AcDbLine
10
-51.193989100244011
20
-9.0000000000000284
30
0
11
-51.193989100244011
21
-3.000000000000024
31
0
0
LINE
5
117
100
AcDbEntity
8
0
100
AcDbLine
10
-43.193989100244004
20
-1.8100000000000001
30
0
11
-43.193989100244004
21
0
31
0
0
LINE
5
118
100
AcDbEntity
8
0
100
AcDbLine
10
-40.383989100244015
20
-4.6200000000000072
30
0
11
-40.383989100244023
21
-8.9397154144689743
31
0
0
LINE
5
119
100
AcDbEntity
8
0
100
AcDbLine
10
-40.383989100244023
20
-8.9397154144689743
30
0
11
-41.573989100244013
21
-9.0000000000000089
31
0
0
LINE
5
120
100
AcDbEntity
8
0
100
AcDbLine
10
-41.573989100244013
20
-9.0000000000000089
30
0
11
-41.573989100244013
21
-12.620000000000008
31
0
0
LINE
5
121
100
AcDbEntity
8
0
100
AcDbLine
10
-47.573989100244006
20
-9.0000000000000249
30
0
11
-51.193989100244011
21
-9.0000000000000284
31
0
0
LINE
5
122
100
AcDbEntity
8
0
100
AcDbLine
10
-47.573989100244006
20
-12.620000000000024
30
0
11
-47.573989100244006
21
-9.0000000000000249
31
0
0
LINE
5
123
100
AcDbEntity
8
0
100
AcDbLine
10
-41.573989100244013
20
-12.620000000000008
30
0
11
-47.573989100244006
21
-12.620000000000024
31
0
0
LINE
5
124
100
AcDbEntity
8
0
100
AcDbLine
10
-38.573989100244013
20
-4.6200000000000072
30
0
11
-40.383989100244015
21
-4.6200000000000072
31
0
0
LINE
5
125
100
AcDbEntity
8
0
100
AcDbLine
10
-38.573989100244013
20
4.6200000000000072
30
0
11
-38.573989100244013
21
-4.6200000000000072
31
0
0
LINE
5
126
100
AcDbEntity
8
0
100
AcDbLine
10
-36.763989100244004
20
-4.6200000000000108
30
0
11
-36.763989100243997
21
-8.9397154144689726
31
0
0
LINE
5
127
100
AcDbEntity
8
0
100
AcDbLine
10
-33.953989100244016
20
-1.8099999999999992
30
0
11
-33.953989100244009
21
5.6578682120607765e-16
31
0
0
LINE
5
128
100
AcDbEntity
8
0
100
AcDbLine
10
-35.573989100244006
20
12.620000000000008
30
0
11
-29.573989100244013
21
12.620000000000024
31
0
0
LINE
5
129
100
AcDbEntity
8
0
100
AcDbLine
10
-29.573989100244013
20
12.620000000000024
30
0
11
-29.573989100244013
21
9.0000000000000249
31
0
0
LINE
5
130
100
AcDbEntity
8
0
100
AcDbLine
10
-29.573989100244013
20
9.0000000000000249
30
0
11
-25.953989100244009
21
9.0000000000000284
31
0
0
LINE
5
131
100
AcDbEntity
8
0
100
AcDbLine
10
-25.953989100244009
20
9.0000000000000284
30
0
11
-25.953989100244009
21
3.0000000000000142
31
0
0
LINE
5
132
100
AcDbEntity
8
0
100
AcDbLine
10
-35.573989100244006
20
9.0000000000000089
30
0
11
-35.573989100244006
21
12.620000000000008
31
0
0
LINE
5
133
100
AcDbEntity
8
0
100
AcDbLine
10
-36.763989100243997
20
8.9397154144689726
30
0
11
-35.573989100244006
21
9.0000000000000089
31
0
0
LINE
5
134
100
AcDbEntity
8
0
100
AcDbLine
10
-36.763989100244004
20
4.6200000000000072
30
0
11
-36.763989100243997
21
8.9397154144689726
31
0
0
LINE
5
135
100
AcDbEntity
8
0
100
AcDbLine
10
-29.573989100243992
20
1.8100000000000016
30
0
11
-33.953989100244016
21
1.8100000000000001
31
0
0
LINE
5
136
100
AcDbEntity
8
0
100
AcDbLine
10
-29.573989100244013
20
3.0000000000000004
30
0
11
-29.573989100243992
21
1.8100000000000016
31
0
0
LINE
5
137
100
AcDbEntity
8
0
100
AcDbLine
10
-25.953989100244009
20
3.0000000000000142
30
0
11
-29.573989100244013
21
3.0000000000000004
31
0
0
LINE
5
138
100
AcDbEntity
8
0
100
AcDbLine
10
-35.573989100244006
20
-12.620000000000008
30
0
11
-29.573989100244013
21
-12.620000000000024
31
0
0
LINE
5
139
100
AcDbEntity
8
0
100
AcDbLine
10
-33.953989100244016
20
1.8100000000000001
30
0
11
-33.953989100244009
21
0
31
0
0
LINE
5
140
100
AcDbEntity
8
0
100
AcDbLine
10
-29.573989100244013
20
-12.620000000000024
30
0
11
-29.573989100244013
21
-9.0000000000000231
31
0
0
LINE
5
141
100
AcDbEntity
8
0
100
AcDbLine
10
-29.573989100243992
20
-1.8100000000000007
30
0
11
-33.953989100244016
21
-1.8099999999999992
31
0
0
LINE
5
142
100
AcDbEntity
8
0
100
AcDbLine
10
-29.573989100244013
20
-9.0000000000000231
30
0
11
-25.953989100244009
21
-9.0000000000000249
31
0
0
LINE
5
143
100
AcDbEntity
8
0
100
AcDbLine
10
-29.573989100244013
20
-2.9999999999999991
30
0
11
-29.573989100243992
21
-1.8100000000000007
31
0
0
LINE
5
144
100
AcDbEntity
8
0
100
AcDbLine
10
-35.573989100244006
20
-9.0000000000000089
30
0
11
-35.573989100244006
21
-12.620000000000008
31
0
0
LINE
5
145
100
AcDbEntity
8
0
100
AcDbLine
10
-25.953989100244009
20
-3.0000000000000142
30
0
11
-29.573989100244013
21
-2.9999999999999991
31
0
0
LINE
5
146
100
AcDbEntity
8
0
100
AcDbLine
10
-25.953989100244009
20
-9.0000000000000249
30
0
11
-25.953989100244009
21
-3.0000000000000142
31
0
0
LINE
5
147
100
AcDbEntity
8
0
100
AcDbLine
10
-36.763989100243997
20
-8.9397154144689726
30
0
11
-35.573989100244006
21
-9.0000000000000089
31
0
0
LINE
5
148
100
AcDbEntity
8
0
100
AcDbLine
10
-38.573989100244013
20
-4.6200000000000072
30
0
11
-36.763989100244004
21
-4.6200000000000108
31
0
0
LINE
5
149
100
AcDbEntity
8
0
100
AcDbLine
10
-38.573989100244013
20
4.6200000000000072
30
0
11
-36.763989100244004
21
4.6200000000000072
31
0
0
ENDSEC
0
SECTION
2
OBJECTS
0
DICTIONARY
5
C
100
AcDbDictionary
3
ACAD_GROUP
350
D
3
ACAD_MLINESTYLE
350
17
0
DICTIONARY
5
D
100
AcDbDictionary
0
DICTIONARY
5
1A
330
C
100
AcDbDictionary
0
DICTIONARY
5
17
100
AcDbDictionary
0
ENDSEC
0
EOF
