  0
SECTION
  2
HEADER
  9
$ACADVER
  1
AC1012
  9
$DWGCODEPAGE
  3
ansi_932
  9
$INSBASE
 10
0.0
 20
0.0
 30
0.0
  9
$EXTMIN
 10
1.000000000000000E+20
 20
1.000000000000000E+20
 30
1.000000000000000E+20
  9
$EXTMAX
 10
-1.000000000000000E+20
 20
-1.000000000000000E+20
 30
-1.000000000000000E+20
  9
$LIMMIN
 10
0.0
 20
0.0
  9
$LIMMAX
 10
12.0
 20
9.0
  9
$ORTHOMODE
 70
     0
  9
$REGENMODE
 70
     1
  9
$FILLMODE
 70
     1
  9
$QTEXTMODE
 70
     0
  9
$MIRRTEXT
 70
     1
  9
$DRAGMODE
 70
     2
  9
$LTSCALE
 40
1.0
  9
$OSMODE
 70
    37
  9
$ATTMODE
 70
     1
  9
$TEXTSIZE
 40
0.2
  9
$TRACEWID
 40
0.05
  9
$TEXTSTYLE
  7
STANDARD
  9
$CLAYER
  8
0
  9
$CELTYPE
  6
BYLAYER
  9
$CECOLOR
 62
   256
  9
$CELTSCALE
 40
1.0
  9
$DELOBJ
 70
     1
  9
$DISPSILH
 70
     0
  9
$DIMSCALE
 40
1.0
  9
$DIMASZ
 40
0.18
  9
$DIMEXO
 40
0.0625
  9
$DIMDLI
 40
0.38
  9
$DIMRND
 40
0.0
  9
$DIMDLE
 40
0.0
  9
$DIMEXE
 40
0.18
  9
$DIMTP
 40
0.0
  9
$DIMTM
 40
0.0
  9
$DIMTXT
 40
0.18
  9
$DIMCEN
 40
0.09
  9
$DIMTSZ
 40
0.0
  9
$DIMTOL
 70
     0
  9
$DIMLIM
 70
     0
  9
$DIMTIH
 70
     1
  9
$DIMTOH
 70
     1
  9
$DIMSE1
 70
     0
  9
$DIMSE2
 70
     0
  9
$DIMTAD
 70
     0
  9
$DIMZIN
 70
     0
  9
$DIMBLK
  1

  9
$DIMASO
 70
     1
  9
$DIMSHO
 70
     1
  9
$DIMPOST
  1

  9
$DIMAPOST
  1

  9
$DIMALT
 70
     0
  9
$DIMALTD
 70
     2
  9
$DIMALTF
 40
25.4
  9
$DIMLFAC
 40
1.0
  9
$DIMTOFL
 70
     0
  9
$DIMTVP
 40
0.0
  9
$DIMTIX
 70
     0
  9
$DIMSOXD
 70
     0
  9
$DIMSAH
 70
     0
  9
$DIMBLK1
  1

  9
$DIMBLK2
  1

  9
$DIMSTYLE
  2
STANDARD
  9
$DIMCLRD
 70
     0
  9
$DIMCLRE
 70
     0
  9
$DIMCLRT
 70
     0
  9
$DIMTFAC
 40
1.0
  9
$DIMGAP
 40
0.09
  9
$DIMJUST
 70
     0
  9
$DIMSD1
 70
     0
  9
$DIMSD2
 70
     0
  9
$DIMTOLJ
 70
     1
  9
$DIMTZIN
 70
     0
  9
$DIMALTZ
 70
     0
  9
$DIMALTTZ
 70
     0
  9
$DIMFIT
 70
     3
  9
$DIMUPT
 70
     0
  9
$DIMUNIT
 70
     2
  9
$DIMDEC
 70
     4
  9
$DIMTDEC
 70
     4
  9
$DIMALTU
 70
     2
  9
$DIMALTTD
 70
     2
  9
$DIMTXSTY
  7
STANDARD
  9
$DIMAUNIT
 70
     0
  9
$LUNITS
 70
     2
  9
$LUPREC
 70
     4
  9
$SKETCHINC
 40
0.1
  9
$FILLETRAD
 40
0.5
  9
$AUNITS
 70
     0
  9
$AUPREC
 70
     0
  9
$MENU
  1
.
  9
$ELEVATION
 40
0.0
  9
$PELEVATION
 40
0.0
  9
$THICKNESS
 40
0.0
  9
$LIMCHECK
 70
     0
  9
$CHAMFERA
 40
0.5
  9
$CHAMFERB
 40
0.5
  9
$CHAMFERC
 40
1.0
  9
$CHAMFERD
 40
0.0
  9
$SKPOLY
 70
     0
  9
$TDCREATE
 40
2457925.523981481
  9
$TDUPDATE
 40
2457925.523981493
  9
$TDINDWG
 40
0.0000000116
  9
$TDUSRTIMER
 40
0.0000000116
  9
$USRTIMER
 70
     1
  9
$ANGBASE
 50
0.0
  9
$ANGDIR
 70
     0
  9
$PDMODE
 70
     0
  9
$PDSIZE
 40
0.0
  9
$PLINEWID
 40
0.0
  9
$COORDS
 70
     1
  9
$SPLFRAME
 70
     0
  9
$SPLINETYPE
 70
     6
  9
$SPLINESEGS
 70
     8
  9
$ATTDIA
 70
     0
  9
$ATTREQ
 70
     1
  9
$HANDLING
 70
     1
  9
$HANDSEED
  5
4D5
  9
$SURFTAB1
 70
     6
  9
$SURFTAB2
 70
     6
  9
$SURFTYPE
 70
     6
  9
$SURFU
 70
     6
  9
$SURFV
 70
     6
  9
$UCSNAME
  2

  9
$UCSORG
 10
0.0
 20
0.0
 30
0.0
  9
$UCSXDIR
 10
1.0
 20
0.0
 30
0.0
  9
$UCSYDIR
 10
0.0
 20
1.0
 30
0.0
  9
$PUCSNAME
  2

  9
$PUCSORG
 10
0.0
 20
0.0
 30
0.0
  9
$PUCSXDIR
 10
1.0
 20
0.0
 30
0.0
  9
$PUCSYDIR
 10
0.0
 20
1.0
 30
0.0
  9
$USERI1
 70
     0
  9
$USERI2
 70
     0
  9
$USERI3
 70
     0
  9
$USERI4
 70
     0
  9
$USERI5
 70
     0
  9
$USERR1
 40
0.0
  9
$USERR2
 40
0.0
  9
$USERR3
 40
0.0
  9
$USERR4
 40
0.0
  9
$USERR5
 40
0.0
  9
$WORLDVIEW
 70
     1
  9
$SHADEDGE
 70
     3
  9
$SHADEDIF
 70
    70
  9
$TILEMODE
 70
     1
  9
$MAXACTVP
 70
    64
  9
$PINSBASE
 10
0.0
 20
0.0
 30
0.0
  9
$PLIMCHECK
 70
     0
  9
$PEXTMIN
 10
1.000000000000000E+20
 20
1.000000000000000E+20
 30
1.000000000000000E+20
  9
$PEXTMAX
 10
-1.000000000000000E+20
 20
-1.000000000000000E+20
 30
-1.000000000000000E+20
  9
$PLIMMIN
 10
0.0
 20
0.0
  9
$PLIMMAX
 10
12.0
 20
9.0
  9
$UNITMODE
 70
     0
  9
$VISRETAIN
 70
     1
  9
$PLINEGEN
 70
     0
  9
$PSLTSCALE
 70
     1
  9
$TREEDEPTH
 70
  3020
  9
$PICKSTYLE
 70
     1
  9
$CMLSTYLE
  2
STANDARD
  9
$CMLJUST
 70
     0
  9
$CMLSCALE
 40
1.0
  9
$SAVEIMAGES
 70
     1
  0
ENDSEC
  0
SECTION
  2
CLASSES
  0
CLASS
  1
ACDBDICTIONARYWDFLT
  2
AcDbDictionaryWithDefault
  3
ObjectDBX Classes
 90
    32768
280
     0
281
     0
  0
CLASS
  1
VISUALSTYLE
  2
AcDbVisualStyle
  3
ObjectDBX Classes
 90
     4095
280
     0
281
     0
  0
CLASS
  1
XRECORD
  2
AcDbXrecord
  3
AutoCAD 2000
 90
    32768
280
     0
281
     0
  0
CLASS
  1
LWPOLYLINE
  2
AcDbPolyline
  3
AutoCAD 2000
 90
    32768
280
     0
281
     1
  0
CLASS
  1
HATCH
  2
AcDbHatch
  3
AutoCAD 2000
 90
    32768
280
     0
281
     1
  0
CLASS
  1
ACDBPLACEHOLDER
  2
AcDbPlaceHolder
  3
ObjectDBX Classes
 90
        0
280
     0
281
     0
  0
CLASS
  1
LAYOUT
  2
AcDbLayout
  3
ObjectDBX Classes
 90
        0
280
     0
281
     0
  0
ENDSEC
  0
SECTION
  2
TABLES
  0
TABLE
  2
VPORT
  5
8
330
0
100
AcDbSymbolTable
 70
     1
  0
VPORT
  5
29
330
8
100
AcDbSymbolTableRecord
100
AcDbViewportTableRecord
  2
*ACTIVE
 70
     0
 10
0.0
 20
0.0
 11
1.0
 21
1.0
 12
0.0
 22
0.0
 13
0.0
 23
0.0
 14
0.5
 24
0.5
 15
0.5
 25
0.5
 16
0.0
 26
0.0
 36
1.0
 17
500.0008326657984
 27
-355.000208787118
 37
0.0
 40
710.000417574236
 41
1.408452221405967
 42
50.0
 43
0.0
 44
0.0
 50
0.0
 51
0.0
 71
     0
 72
   100
 73
     1
 74
     3
 75
     0
 76
     0
 77
     0
 78
     0
  0
ENDTAB
  0
TABLE
  2
LTYPE
  5
5
330
0
100
AcDbSymbolTable
 70
     1
  0
LTYPE
  5
14
330
5
100
AcDbSymbolTableRecord
100
AcDbLinetypeTableRecord
  2
BYBLOCK
 70
     0
  3

 72
    65
 73
     0
 40
0.0
  0
LTYPE
  5
15
330
5
100
AcDbSymbolTableRecord
100
AcDbLinetypeTableRecord
  2
BYLAYER
 70
     0
  3

 72
    65
 73
     0
 40
0.0
  0
LTYPE
  5
16
330
5
100
AcDbSymbolTableRecord
100
AcDbLinetypeTableRecord
  2
CONTINUOUS
 70
     0
  3
Solid line
 72
    65
 73
     0
 40
0.0
  0
ENDTAB
  0
TABLE
  2
LAYER
  5
2
330
0
100
AcDbSymbolTable
 70
     2
  0
LAYER
  5
10
330
2
100
AcDbSymbolTableRecord
100
AcDbLayerTableRecord
  2
0
 70
     0
 62
     7
  6
CONTINUOUS
  0
LAYER
  5
3B
330
2
100
AcDbSymbolTableRecord
100
AcDbLayerTableRecord
  2
LAYER_1
 70
     0
 62
     7
  6
CONTINUOUS
  0
ENDTAB
  0
TABLE
  2
STYLE
  5
3
330
0
100
AcDbSymbolTable
 70
     1
  0
STYLE
  5
11
330
3
100
AcDbSymbolTableRecord
100
AcDbTextStyleTableRecord
  2
STANDARD
 70
     0
 40
0.0
 41
1.0
 50
0.0
 71
     0
 42
0.2
  3
txt
  4

  0
ENDTAB
  0
TABLE
  2
VIEW
  5
6
330
0
100
AcDbSymbolTable
 70
     0
  0
ENDTAB
  0
TABLE
  2
UCS
  5
7
330
0
100
AcDbSymbolTable
 70
     0
  0
ENDTAB
  0
TABLE
  2
APPID
  5
9
330
0
100
AcDbSymbolTable
 70
     1
  0
APPID
  5
12
330
9
100
AcDbSymbolTableRecord
100
AcDbRegAppTableRecord
  2
ACAD
 70
     0
  0
ENDTAB
  0
TABLE
  2
DIMSTYLE
  5
A
330
0
100
AcDbSymbolTable
 70
     1
  0
DIMSTYLE
105
27
330
A
100
AcDbSymbolTableRecord
100
AcDbDimStyleTableRecord
  2
STANDARD
 70
     0
  3

  4

  5

  6

  7

 40
1.0
 41
0.18
 42
0.0625
 43
0.38
 44
0.18
 45
0.0
 46
0.0
 47
0.0
 48
0.0
140
0.18
141
0.09
142
0.0
143
25.4
144
1.0
145
0.0
146
1.0
147
0.09
 71
     0
 72
     0
 73
     1
 74
     1
 75
     0
 76
     0
 77
     0
 78
     0
170
     0
171
     2
172
     0
173
     0
174
     0
175
     0
176
     0
177
     0
178
     0
270
     2
271
     4
272
     4
273
     2
274
     2
340
11
275
     0
280
     0
281
     0
282
     0
283
     1
284
     0
285
     0
286
     0
287
     3
288
     0
  0
ENDTAB
  0
TABLE
  2
BLOCK_RECORD
  5
1
330
0
100
AcDbSymbolTable
 70
   157
  0
BLOCK_RECORD
  5
1F
330
1
100
AcDbSymbolTableRecord
100
AcDbBlockTableRecord
  2
*MODEL_SPACE
  0
BLOCK_RECORD
  5
1B
330
1
100
AcDbSymbolTableRecord
100
AcDbBlockTableRecord
  2
*PAPER_SPACE
  0
BLOCK_RECORD
  5
3C
330
1
100
AcDbSymbolTableRecord
100
AcDbBlockTableRecord
  2
BLOCK_2
  0
BLOCK_RECORD
  5
45
330
1
100
AcDbSymbolTableRecord
100
AcDbBlockTableRecord
  2
BLOCK_3
  0
BLOCK_RECORD
  5
4D
330
1
100
AcDbSymbolTableRecord
100
AcDbBlockTableRecord
  2
BLOCK_4
  0
BLOCK_RECORD
  5
55
330
1
100
AcDbSymbolTableRecord
100
AcDbBlockTableRecord
  2
BLOCK_5
  0
BLOCK_RECORD
  5
5D
330
1
100
AcDbSymbolTableRecord
100
AcDbBlockTableRecord
  2
BLOCK_6
  0
BLOCK_RECORD
  5
66
330
1
100
AcDbSymbolTableRecord
100
AcDbBlockTableRecord
  2
BLOCK_7
  0
BLOCK_RECORD
  5
6E
330
1
100
AcDbSymbolTableRecord
100
AcDbBlockTableRecord
  2
BLOCK_8
  0
BLOCK_RECORD
  5
77
330
1
100
AcDbSymbolTableRecord
100
AcDbBlockTableRecord
  2
BLOCK_9
  0
BLOCK_RECORD
  5
7F
330
1
100
AcDbSymbolTableRecord
100
AcDbBlockTableRecord
  2
BLOCK_10
  0
BLOCK_RECORD
  5
87
330
1
100
AcDbSymbolTableRecord
100
AcDbBlockTableRecord
  2
BLOCK_11
  0
BLOCK_RECORD
  5
8F
330
1
100
AcDbSymbolTableRecord
100
AcDbBlockTableRecord
  2
BLOCK_12
  0
BLOCK_RECORD
  5
98
330
1
100
AcDbSymbolTableRecord
100
AcDbBlockTableRecord
  2
BLOCK_13
  0
BLOCK_RECORD
  5
A0
330
1
100
AcDbSymbolTableRecord
100
AcDbBlockTableRecord
  2
BLOCK_14
  0
BLOCK_RECORD
  5
A8
330
1
100
AcDbSymbolTableRecord
100
AcDbBlockTableRecord
  2
BLOCK_15
  0
BLOCK_RECORD
  5
B0
330
1
100
AcDbSymbolTableRecord
100
AcDbBlockTableRecord
  2
BLOCK_16
  0
BLOCK_RECORD
  5
B9
330
1
100
AcDbSymbolTableRecord
100
AcDbBlockTableRecord
  2
BLOCK_17
  0
BLOCK_RECORD
  5
C1
330
1
100
AcDbSymbolTableRecord
100
AcDbBlockTableRecord
  2
BLOCK_18
  0
BLOCK_RECORD
  5
CA
330
1
100
AcDbSymbolTableRecord
100
AcDbBlockTableRecord
  2
BLOCK_19
  0
BLOCK_RECORD
  5
D2
330
1
100
AcDbSymbolTableRecord
100
AcDbBlockTableRecord
  2
BLOCK_20
  0
BLOCK_RECORD
  5
DA
330
1
100
AcDbSymbolTableRecord
100
AcDbBlockTableRecord
  2
BLOCK_21
  0
BLOCK_RECORD
  5
E2
330
1
100
AcDbSymbolTableRecord
100
AcDbBlockTableRecord
  2
BLOCK_22
  0
BLOCK_RECORD
  5
EB
330
1
100
AcDbSymbolTableRecord
100
AcDbBlockTableRecord
  2
BLOCK_23
  0
BLOCK_RECORD
  5
F3
330
1
100
AcDbSymbolTableRecord
100
AcDbBlockTableRecord
  2
BLOCK_24
  0
BLOCK_RECORD
  5
FB
330
1
100
AcDbSymbolTableRecord
100
AcDbBlockTableRecord
  2
BLOCK_25
  0
BLOCK_RECORD
  5
103
330
1
100
AcDbSymbolTableRecord
100
AcDbBlockTableRecord
  2
BLOCK_26
  0
BLOCK_RECORD
  5
10B
330
1
100
AcDbSymbolTableRecord
100
AcDbBlockTableRecord
  2
BLOCK_27
  0
BLOCK_RECORD
  5
114
330
1
100
AcDbSymbolTableRecord
100
AcDbBlockTableRecord
  2
BLOCK_28
  0
BLOCK_RECORD
  5
11C
330
1
100
AcDbSymbolTableRecord
100
AcDbBlockTableRecord
  2
BLOCK_29
  0
BLOCK_RECORD
  5
125
330
1
100
AcDbSymbolTableRecord
100
AcDbBlockTableRecord
  2
BLOCK_30
  0
BLOCK_RECORD
  5
12D
330
1
100
AcDbSymbolTableRecord
100
AcDbBlockTableRecord
  2
BLOCK_31
  0
BLOCK_RECORD
  5
135
330
1
100
AcDbSymbolTableRecord
100
AcDbBlockTableRecord
  2
BLOCK_32
  0
BLOCK_RECORD
  5
13E
330
1
100
AcDbSymbolTableRecord
100
AcDbBlockTableRecord
  2
BLOCK_33
  0
BLOCK_RECORD
  5
146
330
1
100
AcDbSymbolTableRecord
100
AcDbBlockTableRecord
  2
BLOCK_34
  0
BLOCK_RECORD
  5
14E
330
1
100
AcDbSymbolTableRecord
100
AcDbBlockTableRecord
  2
BLOCK_35
  0
BLOCK_RECORD
  5
156
330
1
100
AcDbSymbolTableRecord
100
AcDbBlockTableRecord
  2
BLOCK_36
  0
BLOCK_RECORD
  5
15E
330
1
100
AcDbSymbolTableRecord
100
AcDbBlockTableRecord
  2
BLOCK_37
  0
BLOCK_RECORD
  5
167
330
1
100
AcDbSymbolTableRecord
100
AcDbBlockTableRecord
  2
BLOCK_38
  0
BLOCK_RECORD
  5
16F
330
1
100
AcDbSymbolTableRecord
100
AcDbBlockTableRecord
  2
BLOCK_39
  0
BLOCK_RECORD
  5
178
330
1
100
AcDbSymbolTableRecord
100
AcDbBlockTableRecord
  2
BLOCK_40
  0
BLOCK_RECORD
  5
180
330
1
100
AcDbSymbolTableRecord
100
AcDbBlockTableRecord
  2
BLOCK_41
  0
BLOCK_RECORD
  5
188
330
1
100
AcDbSymbolTableRecord
100
AcDbBlockTableRecord
  2
BLOCK_42
  0
BLOCK_RECORD
  5
191
330
1
100
AcDbSymbolTableRecord
100
AcDbBlockTableRecord
  2
BLOCK_43
  0
BLOCK_RECORD
  5
199
330
1
100
AcDbSymbolTableRecord
100
AcDbBlockTableRecord
  2
BLOCK_44
  0
BLOCK_RECORD
  5
1A1
330
1
100
AcDbSymbolTableRecord
100
AcDbBlockTableRecord
  2
BLOCK_45
  0
BLOCK_RECORD
  5
1A9
330
1
100
AcDbSymbolTableRecord
100
AcDbBlockTableRecord
  2
BLOCK_46
  0
BLOCK_RECORD
  5
1B1
330
1
100
AcDbSymbolTableRecord
100
AcDbBlockTableRecord
  2
BLOCK_47
  0
BLOCK_RECORD
  5
1BA
330
1
100
AcDbSymbolTableRecord
100
AcDbBlockTableRecord
  2
BLOCK_48
  0
BLOCK_RECORD
  5
1C2
330
1
100
AcDbSymbolTableRecord
100
AcDbBlockTableRecord
  2
BLOCK_49
  0
BLOCK_RECORD
  5
1CB
330
1
100
AcDbSymbolTableRecord
100
AcDbBlockTableRecord
  2
BLOCK_50
  0
BLOCK_RECORD
  5
1D3
330
1
100
AcDbSymbolTableRecord
100
AcDbBlockTableRecord
  2
BLOCK_51
  0
BLOCK_RECORD
  5
1DB
330
1
100
AcDbSymbolTableRecord
100
AcDbBlockTableRecord
  2
BLOCK_52
  0
BLOCK_RECORD
  5
1E4
330
1
100
AcDbSymbolTableRecord
100
AcDbBlockTableRecord
  2
BLOCK_53
  0
BLOCK_RECORD
  5
1EC
330
1
100
AcDbSymbolTableRecord
100
AcDbBlockTableRecord
  2
BLOCK_54
  0
BLOCK_RECORD
  5
1F4
330
1
100
AcDbSymbolTableRecord
100
AcDbBlockTableRecord
  2
BLOCK_55
  0
BLOCK_RECORD
  5
1FC
330
1
100
AcDbSymbolTableRecord
100
AcDbBlockTableRecord
  2
BLOCK_56
  0
BLOCK_RECORD
  5
204
330
1
100
AcDbSymbolTableRecord
100
AcDbBlockTableRecord
  2
BLOCK_57
  0
BLOCK_RECORD
  5
20C
330
1
100
AcDbSymbolTableRecord
100
AcDbBlockTableRecord
  2
BLOCK_58
  0
BLOCK_RECORD
  5
214
330
1
100
AcDbSymbolTableRecord
100
AcDbBlockTableRecord
  2
BLOCK_59
  0
BLOCK_RECORD
  5
21C
330
1
100
AcDbSymbolTableRecord
100
AcDbBlockTableRecord
  2
BLOCK_60
  0
BLOCK_RECORD
  5
224
330
1
100
AcDbSymbolTableRecord
100
AcDbBlockTableRecord
  2
BLOCK_61
  0
BLOCK_RECORD
  5
22C
330
1
100
AcDbSymbolTableRecord
100
AcDbBlockTableRecord
  2
BLOCK_62
  0
BLOCK_RECORD
  5
234
330
1
100
AcDbSymbolTableRecord
100
AcDbBlockTableRecord
  2
BLOCK_63
  0
BLOCK_RECORD
  5
23C
330
1
100
AcDbSymbolTableRecord
100
AcDbBlockTableRecord
  2
BLOCK_64
  0
BLOCK_RECORD
  5
244
330
1
100
AcDbSymbolTableRecord
100
AcDbBlockTableRecord
  2
BLOCK_65
  0
BLOCK_RECORD
  5
24C
330
1
100
AcDbSymbolTableRecord
100
AcDbBlockTableRecord
  2
BLOCK_66
  0
BLOCK_RECORD
  5
254
330
1
100
AcDbSymbolTableRecord
100
AcDbBlockTableRecord
  2
BLOCK_67
  0
BLOCK_RECORD
  5
25C
330
1
100
AcDbSymbolTableRecord
100
AcDbBlockTableRecord
  2
BLOCK_68
  0
BLOCK_RECORD
  5
264
330
1
100
AcDbSymbolTableRecord
100
AcDbBlockTableRecord
  2
BLOCK_69
  0
BLOCK_RECORD
  5
26C
330
1
100
AcDbSymbolTableRecord
100
AcDbBlockTableRecord
  2
BLOCK_70
  0
BLOCK_RECORD
  5
274
330
1
100
AcDbSymbolTableRecord
100
AcDbBlockTableRecord
  2
BLOCK_71
  0
BLOCK_RECORD
  5
27C
330
1
100
AcDbSymbolTableRecord
100
AcDbBlockTableRecord
  2
BLOCK_72
  0
BLOCK_RECORD
  5
284
330
1
100
AcDbSymbolTableRecord
100
AcDbBlockTableRecord
  2
BLOCK_73
  0
BLOCK_RECORD
  5
28C
330
1
100
AcDbSymbolTableRecord
100
AcDbBlockTableRecord
  2
BLOCK_74
  0
BLOCK_RECORD
  5
294
330
1
100
AcDbSymbolTableRecord
100
AcDbBlockTableRecord
  2
BLOCK_75
  0
BLOCK_RECORD
  5
29C
330
1
100
AcDbSymbolTableRecord
100
AcDbBlockTableRecord
  2
BLOCK_76
  0
BLOCK_RECORD
  5
2A4
330
1
100
AcDbSymbolTableRecord
100
AcDbBlockTableRecord
  2
BLOCK_77
  0
BLOCK_RECORD
  5
2AC
330
1
100
AcDbSymbolTableRecord
100
AcDbBlockTableRecord
  2
BLOCK_78
  0
BLOCK_RECORD
  5
2B5
330
1
100
AcDbSymbolTableRecord
100
AcDbBlockTableRecord
  2
BLOCK_79
  0
BLOCK_RECORD
  5
2BD
330
1
100
AcDbSymbolTableRecord
100
AcDbBlockTableRecord
  2
BLOCK_80
  0
BLOCK_RECORD
  5
2C5
330
1
100
AcDbSymbolTableRecord
100
AcDbBlockTableRecord
  2
BLOCK_81
  0
BLOCK_RECORD
  5
2CD
330
1
100
AcDbSymbolTableRecord
100
AcDbBlockTableRecord
  2
BLOCK_82
  0
BLOCK_RECORD
  5
2D5
330
1
100
AcDbSymbolTableRecord
100
AcDbBlockTableRecord
  2
BLOCK_83
  0
BLOCK_RECORD
  5
2DD
330
1
100
AcDbSymbolTableRecord
100
AcDbBlockTableRecord
  2
BLOCK_84
  0
BLOCK_RECORD
  5
2E5
330
1
100
AcDbSymbolTableRecord
100
AcDbBlockTableRecord
  2
BLOCK_85
  0
BLOCK_RECORD
  5
2ED
330
1
100
AcDbSymbolTableRecord
100
AcDbBlockTableRecord
  2
BLOCK_86
  0
BLOCK_RECORD
  5
2F5
330
1
100
AcDbSymbolTableRecord
100
AcDbBlockTableRecord
  2
BLOCK_87
  0
BLOCK_RECORD
  5
2FD
330
1
100
AcDbSymbolTableRecord
100
AcDbBlockTableRecord
  2
BLOCK_88
  0
BLOCK_RECORD
  5
305
330
1
100
AcDbSymbolTableRecord
100
AcDbBlockTableRecord
  2
BLOCK_89
  0
BLOCK_RECORD
  5
30D
330
1
100
AcDbSymbolTableRecord
100
AcDbBlockTableRecord
  2
BLOCK_90
  0
BLOCK_RECORD
  5
315
330
1
100
AcDbSymbolTableRecord
100
AcDbBlockTableRecord
  2
BLOCK_91
  0
BLOCK_RECORD
  5
31D
330
1
100
AcDbSymbolTableRecord
100
AcDbBlockTableRecord
  2
BLOCK_92
  0
BLOCK_RECORD
  5
325
330
1
100
AcDbSymbolTableRecord
100
AcDbBlockTableRecord
  2
BLOCK_93
  0
BLOCK_RECORD
  5
32D
330
1
100
AcDbSymbolTableRecord
100
AcDbBlockTableRecord
  2
BLOCK_94
  0
BLOCK_RECORD
  5
335
330
1
100
AcDbSymbolTableRecord
100
AcDbBlockTableRecord
  2
BLOCK_95
  0
BLOCK_RECORD
  5
33D
330
1
100
AcDbSymbolTableRecord
100
AcDbBlockTableRecord
  2
BLOCK_96
  0
BLOCK_RECORD
  5
345
330
1
100
AcDbSymbolTableRecord
100
AcDbBlockTableRecord
  2
BLOCK_97
  0
BLOCK_RECORD
  5
34D
330
1
100
AcDbSymbolTableRecord
100
AcDbBlockTableRecord
  2
BLOCK_98
  0
BLOCK_RECORD
  5
355
330
1
100
AcDbSymbolTableRecord
100
AcDbBlockTableRecord
  2
BLOCK_99
  0
BLOCK_RECORD
  5
35D
330
1
100
AcDbSymbolTableRecord
100
AcDbBlockTableRecord
  2
BLOCK_100
  0
BLOCK_RECORD
  5
365
330
1
100
AcDbSymbolTableRecord
100
AcDbBlockTableRecord
  2
BLOCK_101
  0
BLOCK_RECORD
  5
36D
330
1
100
AcDbSymbolTableRecord
100
AcDbBlockTableRecord
  2
BLOCK_102
  0
BLOCK_RECORD
  5
375
330
1
100
AcDbSymbolTableRecord
100
AcDbBlockTableRecord
  2
BLOCK_103
  0
BLOCK_RECORD
  5
37D
330
1
100
AcDbSymbolTableRecord
100
AcDbBlockTableRecord
  2
BLOCK_104
  0
BLOCK_RECORD
  5
385
330
1
100
AcDbSymbolTableRecord
100
AcDbBlockTableRecord
  2
BLOCK_105
  0
BLOCK_RECORD
  5
38E
330
1
100
AcDbSymbolTableRecord
100
AcDbBlockTableRecord
  2
BLOCK_106
  0
BLOCK_RECORD
  5
396
330
1
100
AcDbSymbolTableRecord
100
AcDbBlockTableRecord
  2
BLOCK_107
  0
BLOCK_RECORD
  5
39E
330
1
100
AcDbSymbolTableRecord
100
AcDbBlockTableRecord
  2
BLOCK_108
  0
BLOCK_RECORD
  5
3A6
330
1
100
AcDbSymbolTableRecord
100
AcDbBlockTableRecord
  2
BLOCK_109
  0
BLOCK_RECORD
  5
3AE
330
1
100
AcDbSymbolTableRecord
100
AcDbBlockTableRecord
  2
BLOCK_110
  0
BLOCK_RECORD
  5
3B6
330
1
100
AcDbSymbolTableRecord
100
AcDbBlockTableRecord
  2
BLOCK_111
  0
BLOCK_RECORD
  5
3BE
330
1
100
AcDbSymbolTableRecord
100
AcDbBlockTableRecord
  2
BLOCK_112
  0
BLOCK_RECORD
  5
3C3
330
1
100
AcDbSymbolTableRecord
100
AcDbBlockTableRecord
  2
BLOCK_113
  0
BLOCK_RECORD
  5
3C8
330
1
100
AcDbSymbolTableRecord
100
AcDbBlockTableRecord
  2
BLOCK_114
  0
BLOCK_RECORD
  5
3CD
330
1
100
AcDbSymbolTableRecord
100
AcDbBlockTableRecord
  2
BLOCK_115
  0
BLOCK_RECORD
  5
3D2
330
1
100
AcDbSymbolTableRecord
100
AcDbBlockTableRecord
  2
BLOCK_116
  0
BLOCK_RECORD
  5
3D7
330
1
100
AcDbSymbolTableRecord
100
AcDbBlockTableRecord
  2
BLOCK_117
  0
BLOCK_RECORD
  5
3DC
330
1
100
AcDbSymbolTableRecord
100
AcDbBlockTableRecord
  2
BLOCK_118
  0
BLOCK_RECORD
  5
3E1
330
1
100
AcDbSymbolTableRecord
100
AcDbBlockTableRecord
  2
BLOCK_119
  0
BLOCK_RECORD
  5
3E6
330
1
100
AcDbSymbolTableRecord
100
AcDbBlockTableRecord
  2
BLOCK_120
  0
BLOCK_RECORD
  5
3EB
330
1
100
AcDbSymbolTableRecord
100
AcDbBlockTableRecord
  2
BLOCK_121
  0
BLOCK_RECORD
  5
3F0
330
1
100
AcDbSymbolTableRecord
100
AcDbBlockTableRecord
  2
BLOCK_122
  0
BLOCK_RECORD
  5
3F5
330
1
100
AcDbSymbolTableRecord
100
AcDbBlockTableRecord
  2
BLOCK_123
  0
BLOCK_RECORD
  5
3FA
330
1
100
AcDbSymbolTableRecord
100
AcDbBlockTableRecord
  2
BLOCK_124
  0
BLOCK_RECORD
  5
3FF
330
1
100
AcDbSymbolTableRecord
100
AcDbBlockTableRecord
  2
BLOCK_125
  0
BLOCK_RECORD
  5
404
330
1
100
AcDbSymbolTableRecord
100
AcDbBlockTableRecord
  2
BLOCK_126
  0
BLOCK_RECORD
  5
409
330
1
100
AcDbSymbolTableRecord
100
AcDbBlockTableRecord
  2
BLOCK_127
  0
BLOCK_RECORD
  5
40E
330
1
100
AcDbSymbolTableRecord
100
AcDbBlockTableRecord
  2
BLOCK_128
  0
BLOCK_RECORD
  5
413
330
1
100
AcDbSymbolTableRecord
100
AcDbBlockTableRecord
  2
BLOCK_129
  0
BLOCK_RECORD
  5
418
330
1
100
AcDbSymbolTableRecord
100
AcDbBlockTableRecord
  2
BLOCK_130
  0
BLOCK_RECORD
  5
41D
330
1
100
AcDbSymbolTableRecord
100
AcDbBlockTableRecord
  2
BLOCK_131
  0
BLOCK_RECORD
  5
422
330
1
100
AcDbSymbolTableRecord
100
AcDbBlockTableRecord
  2
BLOCK_132
  0
BLOCK_RECORD
  5
427
330
1
100
AcDbSymbolTableRecord
100
AcDbBlockTableRecord
  2
BLOCK_133
  0
BLOCK_RECORD
  5
42C
330
1
100
AcDbSymbolTableRecord
100
AcDbBlockTableRecord
  2
BLOCK_134
  0
BLOCK_RECORD
  5
431
330
1
100
AcDbSymbolTableRecord
100
AcDbBlockTableRecord
  2
BLOCK_135
  0
BLOCK_RECORD
  5
436
330
1
100
AcDbSymbolTableRecord
100
AcDbBlockTableRecord
  2
BLOCK_136
  0
BLOCK_RECORD
  5
43B
330
1
100
AcDbSymbolTableRecord
100
AcDbBlockTableRecord
  2
BLOCK_137
  0
BLOCK_RECORD
  5
440
330
1
100
AcDbSymbolTableRecord
100
AcDbBlockTableRecord
  2
BLOCK_138
  0
BLOCK_RECORD
  5
445
330
1
100
AcDbSymbolTableRecord
100
AcDbBlockTableRecord
  2
BLOCK_139
  0
BLOCK_RECORD
  5
44A
330
1
100
AcDbSymbolTableRecord
100
AcDbBlockTableRecord
  2
BLOCK_140
  0
BLOCK_RECORD
  5
44F
330
1
100
AcDbSymbolTableRecord
100
AcDbBlockTableRecord
  2
BLOCK_141
  0
BLOCK_RECORD
  5
454
330
1
100
AcDbSymbolTableRecord
100
AcDbBlockTableRecord
  2
BLOCK_142
  0
BLOCK_RECORD
  5
45C
330
1
100
AcDbSymbolTableRecord
100
AcDbBlockTableRecord
  2
BLOCK_143
  0
BLOCK_RECORD
  5
464
330
1
100
AcDbSymbolTableRecord
100
AcDbBlockTableRecord
  2
BLOCK_144
  0
BLOCK_RECORD
  5
46C
330
1
100
AcDbSymbolTableRecord
100
AcDbBlockTableRecord
  2
BLOCK_145
  0
BLOCK_RECORD
  5
474
330
1
100
AcDbSymbolTableRecord
100
AcDbBlockTableRecord
  2
BLOCK_146
  0
BLOCK_RECORD
  5
47C
330
1
100
AcDbSymbolTableRecord
100
AcDbBlockTableRecord
  2
BLOCK_147
  0
BLOCK_RECORD
  5
484
330
1
100
AcDbSymbolTableRecord
100
AcDbBlockTableRecord
  2
BLOCK_148
  0
BLOCK_RECORD
  5
48C
330
1
100
AcDbSymbolTableRecord
100
AcDbBlockTableRecord
  2
BLOCK_149
  0
BLOCK_RECORD
  5
494
330
1
100
AcDbSymbolTableRecord
100
AcDbBlockTableRecord
  2
BLOCK_150
  0
BLOCK_RECORD
  5
49C
330
1
100
AcDbSymbolTableRecord
100
AcDbBlockTableRecord
  2
BLOCK_151
  0
BLOCK_RECORD
  5
4A4
330
1
100
AcDbSymbolTableRecord
100
AcDbBlockTableRecord
  2
BLOCK_152
  0
BLOCK_RECORD
  5
4AC
330
1
100
AcDbSymbolTableRecord
100
AcDbBlockTableRecord
  2
BLOCK_153
  0
BLOCK_RECORD
  5
4B4
330
1
100
AcDbSymbolTableRecord
100
AcDbBlockTableRecord
  2
BLOCK_154
  0
BLOCK_RECORD
  5
4BC
330
1
100
AcDbSymbolTableRecord
100
AcDbBlockTableRecord
  2
BLOCK_155
  0
BLOCK_RECORD
  5
4C4
330
1
100
AcDbSymbolTableRecord
100
AcDbBlockTableRecord
  2
BLOCK_156
  0
BLOCK_RECORD
  5
4CC
330
1
100
AcDbSymbolTableRecord
100
AcDbBlockTableRecord
  2
BLOCK_157
  0
ENDTAB
  0
ENDSEC
  0
SECTION
  2
BLOCKS
  0
BLOCK
  5
20
330
1F
100
AcDbEntity
  8
0
100
AcDbBlockBegin
  2
*MODEL_SPACE
 70
     0
 71
     0
 10
0.0
 20
0.0
 30
0.0
  3
*MODEL_SPACE
  1

  0
ENDBLK
  5
21
330
1F
100
AcDbEntity
  8
0
100
AcDbBlockEnd
  0
BLOCK
  5
1C
330
1B
100
AcDbEntity
 67
     1
  8
0
100
AcDbBlockBegin
  2
*PAPER_SPACE
 70
     0
 71
     0
 10
0.0
 20
0.0
 30
0.0
  3
*PAPER_SPACE
  1

  0
ENDBLK
  5
1D
330
1B
100
AcDbEntity
 67
     1
  8
0
100
AcDbBlockEnd
  0
BLOCK
  5
3E
330
3C
100
AcDbEntity
  8
0
100
AcDbBlockBegin
  2
BLOCK_2
 70
     0
 71
     0
 10
0.0
 20
0.0
 30
0.0
  3
BLOCK_2
  1

  0
POLYLINE
  5
40
330
3C
100
AcDbEntity
  8
LAYER_1
 62
     5
100
AcDb2dPolyline
 66
     1
 10
0.0
 20
0.0
 30
0.0
  0
VERTEX
  5
41
330
40
100
AcDbEntity
  8
LAYER_1
 62
     5
100
AcDbVertex
100
AcDb2dVertex
 10
350.0485730461684
 20
-9.033212617099336
 30
0.0
  0
VERTEX
  5
42
330
40
100
AcDbEntity
  8
LAYER_1
 62
     5
100
AcDbVertex
100
AcDb2dVertex
 10
563.02747653025
 20
-9.033212617099336
 30
0.0
  0
VERTEX
  5
43
330
40
100
AcDbEntity
  8
LAYER_1
 62
     5
100
AcDbVertex
100
AcDb2dVertex
 10
563.02747653025
 20
-72.53321260122434
 30
0.0
  0
SEQEND
  5
44
330
40
100
AcDbEntity
  8
LAYER_1
  0
ENDBLK
  5
3F
330
3C
100
AcDbEntity
  8
0
100
AcDbBlockEnd
  0
BLOCK
  5
47
330
45
100
AcDbEntity
  8
0
100
AcDbBlockBegin
  2
BLOCK_3
 70
     0
 71
     0
 10
0.0
 20
0.0
 30
0.0
  3
BLOCK_3
  1

  0
POLYLINE
  5
49
330
45
100
AcDbEntity
  8
LAYER_1
 62
     5
100
AcDb2dPolyline
 66
     1
 10
0.0
 20
0.0
 30
0.0
  0
VERTEX
  5
4A
330
49
100
AcDbEntity
  8
LAYER_1
 62
     5
100
AcDbVertex
100
AcDb2dVertex
 10
563.02747653025
 20
-72.53321260122434
 30
0.0
  0
VERTEX
  5
4B
330
49
100
AcDbEntity
  8
LAYER_1
 62
     5
100
AcDbVertex
100
AcDb2dVertex
 10
350.0485730461684
 20
-72.53321260122434
 30
0.0
  0
SEQEND
  5
4C
330
49
100
AcDbEntity
  8
LAYER_1
  0
ENDBLK
  5
48
330
45
100
AcDbEntity
  8
0
100
AcDbBlockEnd
  0
BLOCK
  5
4F
330
4D
100
AcDbEntity
  8
0
100
AcDbBlockBegin
  2
BLOCK_4
 70
     0
 71
     0
 10
0.0
 20
0.0
 30
0.0
  3
BLOCK_4
  1

  0
POLYLINE
  5
51
330
4D
100
AcDbEntity
  8
LAYER_1
 62
     5
100
AcDb2dPolyline
 66
     1
 10
0.0
 20
0.0
 30
0.0
  0
VERTEX
  5
52
330
51
100
AcDbEntity
  8
LAYER_1
 62
     5
100
AcDbVertex
100
AcDb2dVertex
 10
350.0485730461684
 20
-72.53321260122434
 30
0.0
  0
VERTEX
  5
53
330
51
100
AcDbEntity
  8
LAYER_1
 62
     5
100
AcDbVertex
100
AcDb2dVertex
 10
222.0326144193182
 20
-72.53321260122434
 30
0.0
  0
SEQEND
  5
54
330
51
100
AcDbEntity
  8
LAYER_1
  0
ENDBLK
  5
50
330
4D
100
AcDbEntity
  8
0
100
AcDbBlockEnd
  0
BLOCK
  5
57
330
55
100
AcDbEntity
  8
0
100
AcDbBlockBegin
  2
BLOCK_5
 70
     0
 71
     0
 10
0.0
 20
0.0
 30
0.0
  3
BLOCK_5
  1

  0
POLYLINE
  5
59
330
55
100
AcDbEntity
  8
LAYER_1
 62
     5
100
AcDb2dPolyline
 66
     1
 10
0.0
 20
0.0
 30
0.0
  0
VERTEX
  5
5A
330
59
100
AcDbEntity
  8
LAYER_1
 62
     5
100
AcDbVertex
100
AcDb2dVertex
 10
222.0326144193182
 20
-72.53321260122434
 30
0.0
  0
VERTEX
  5
5B
330
59
100
AcDbEntity
  8
LAYER_1
 62
     5
100
AcDbVertex
100
AcDb2dVertex
 10
9.053366425688047
 20
-72.53321260122434
 30
0.0
  0
SEQEND
  5
5C
330
59
100
AcDbEntity
  8
LAYER_1
  0
ENDBLK
  5
58
330
55
100
AcDbEntity
  8
0
100
AcDbBlockEnd
  0
BLOCK
  5
5F
330
5D
100
AcDbEntity
  8
0
100
AcDbBlockBegin
  2
BLOCK_6
 70
     0
 71
     0
 10
0.0
 20
0.0
 30
0.0
  3
BLOCK_6
  1

  0
POLYLINE
  5
61
330
5D
100
AcDbEntity
  8
LAYER_1
 62
     5
100
AcDb2dPolyline
 66
     1
 10
0.0
 20
0.0
 30
0.0
  0
VERTEX
  5
62
330
61
100
AcDbEntity
  8
LAYER_1
 62
     5
100
AcDbVertex
100
AcDb2dVertex
 10
9.053366425688047
 20
-72.53321260122434
 30
0.0
  0
VERTEX
  5
63
330
61
100
AcDbEntity
  8
LAYER_1
 62
     5
100
AcDbVertex
100
AcDb2dVertex
 10
9.053366425688047
 20
-9.033212617099336
 30
0.0
  0
VERTEX
  5
64
330
61
100
AcDbEntity
  8
LAYER_1
 62
     5
100
AcDbVertex
100
AcDb2dVertex
 10
222.0326144193182
 20
-9.033212617099336
 30
0.0
  0
SEQEND
  5
65
330
61
100
AcDbEntity
  8
LAYER_1
  0
ENDBLK
  5
60
330
5D
100
AcDbEntity
  8
0
100
AcDbBlockEnd
  0
BLOCK
  5
68
330
66
100
AcDbEntity
  8
0
100
AcDbBlockBegin
  2
BLOCK_7
 70
     0
 71
     0
 10
0.0
 20
0.0
 30
0.0
  3
BLOCK_7
  1

  0
POLYLINE
  5
6A
330
66
100
AcDbEntity
  8
LAYER_1
 62
     5
100
AcDb2dPolyline
 66
     1
 10
0.0
 20
0.0
 30
0.0
  0
VERTEX
  5
6B
330
6A
100
AcDbEntity
  8
LAYER_1
 62
     5
100
AcDbVertex
100
AcDb2dVertex
 10
222.0326144193182
 20
-9.033212617099336
 30
0.0
  0
VERTEX
  5
6C
330
6A
100
AcDbEntity
  8
LAYER_1
 62
     5
100
AcDbVertex
100
AcDb2dVertex
 10
350.0485730461684
 20
-9.033212617099336
 30
0.0
  0
SEQEND
  5
6D
330
6A
100
AcDbEntity
  8
LAYER_1
  0
ENDBLK
  5
69
330
66
100
AcDbEntity
  8
0
100
AcDbBlockEnd
  0
BLOCK
  5
70
330
6E
100
AcDbEntity
  8
0
100
AcDbBlockBegin
  2
BLOCK_8
 70
     0
 71
     0
 10
0.0
 20
0.0
 30
0.0
  3
BLOCK_8
  1

  0
POLYLINE
  5
72
330
6E
100
AcDbEntity
  8
LAYER_1
 62
     5
100
AcDb2dPolyline
 66
     1
 10
0.0
 20
0.0
 30
0.0
  0
VERTEX
  5
73
330
72
100
AcDbEntity
  8
LAYER_1
 62
     5
100
AcDbVertex
100
AcDb2dVertex
 10
348.3590982202019
 20
-79.62718096967654
 30
0.0
  0
VERTEX
  5
74
330
72
100
AcDbEntity
  8
LAYER_1
 62
     5
100
AcDbVertex
100
AcDb2dVertex
 10
561.3380017042836
 20
-79.62718096967654
 30
0.0
  0
VERTEX
  5
75
330
72
100
AcDbEntity
  8
LAYER_1
 62
     5
100
AcDbVertex
100
AcDb2dVertex
 10
561.3380017042836
 20
-143.1271809538015
 30
0.0
  0
SEQEND
  5
76
330
72
100
AcDbEntity
  8
LAYER_1
  0
ENDBLK
  5
71
330
6E
100
AcDbEntity
  8
0
100
AcDbBlockEnd
  0
BLOCK
  5
79
330
77
100
AcDbEntity
  8
0
100
AcDbBlockBegin
  2
BLOCK_9
 70
     0
 71
     0
 10
0.0
 20
0.0
 30
0.0
  3
BLOCK_9
  1

  0
POLYLINE
  5
7B
330
77
100
AcDbEntity
  8
LAYER_1
 62
     5
100
AcDb2dPolyline
 66
     1
 10
0.0
 20
0.0
 30
0.0
  0
VERTEX
  5
7C
330
7B
100
AcDbEntity
  8
LAYER_1
 62
     5
100
AcDbVertex
100
AcDb2dVertex
 10
561.3380017042836
 20
-143.1271809538015
 30
0.0
  0
VERTEX
  5
7D
330
7B
100
AcDbEntity
  8
LAYER_1
 62
     5
100
AcDbVertex
100
AcDb2dVertex
 10
348.3590982202019
 20
-143.1271809538015
 30
0.0
  0
SEQEND
  5
7E
330
7B
100
AcDbEntity
  8
LAYER_1
  0
ENDBLK
  5
7A
330
77
100
AcDbEntity
  8
0
100
AcDbBlockEnd
  0
BLOCK
  5
81
330
7F
100
AcDbEntity
  8
0
100
AcDbBlockBegin
  2
BLOCK_10
 70
     0
 71
     0
 10
0.0
 20
0.0
 30
0.0
  3
BLOCK_10
  1

  0
POLYLINE
  5
83
330
7F
100
AcDbEntity
  8
LAYER_1
 62
     5
100
AcDb2dPolyline
 66
     1
 10
0.0
 20
0.0
 30
0.0
  0
VERTEX
  5
84
330
83
100
AcDbEntity
  8
LAYER_1
 62
     5
100
AcDbVertex
100
AcDb2dVertex
 10
348.3590982202019
 20
-143.1271809538015
 30
0.0
  0
VERTEX
  5
85
330
83
100
AcDbEntity
  8
LAYER_1
 62
     5
100
AcDbVertex
100
AcDb2dVertex
 10
220.3431395933517
 20
-143.1271809538015
 30
0.0
  0
SEQEND
  5
86
330
83
100
AcDbEntity
  8
LAYER_1
  0
ENDBLK
  5
82
330
7F
100
AcDbEntity
  8
0
100
AcDbBlockEnd
  0
BLOCK
  5
89
330
87
100
AcDbEntity
  8
0
100
AcDbBlockBegin
  2
BLOCK_11
 70
     0
 71
     0
 10
0.0
 20
0.0
 30
0.0
  3
BLOCK_11
  1

  0
POLYLINE
  5
8B
330
87
100
AcDbEntity
  8
LAYER_1
 62
     5
100
AcDb2dPolyline
 66
     1
 10
0.0
 20
0.0
 30
0.0
  0
VERTEX
  5
8C
330
8B
100
AcDbEntity
  8
LAYER_1
 62
     5
100
AcDbVertex
100
AcDb2dVertex
 10
220.3431395933517
 20
-143.1271809538015
 30
0.0
  0
VERTEX
  5
8D
330
8B
100
AcDbEntity
  8
LAYER_1
 62
     5
100
AcDbVertex
100
AcDb2dVertex
 10
7.364236109270053
 20
-143.1271809538015
 30
0.0
  0
SEQEND
  5
8E
330
8B
100
AcDbEntity
  8
LAYER_1
  0
ENDBLK
  5
8A
330
87
100
AcDbEntity
  8
0
100
AcDbBlockEnd
  0
BLOCK
  5
91
330
8F
100
AcDbEntity
  8
0
100
AcDbBlockBegin
  2
BLOCK_12
 70
     0
 71
     0
 10
0.0
 20
0.0
 30
0.0
  3
BLOCK_12
  1

  0
POLYLINE
  5
93
330
8F
100
AcDbEntity
  8
LAYER_1
 62
     5
100
AcDb2dPolyline
 66
     1
 10
0.0
 20
0.0
 30
0.0
  0
VERTEX
  5
94
330
93
100
AcDbEntity
  8
LAYER_1
 62
     5
100
AcDbVertex
100
AcDb2dVertex
 10
7.364236109270053
 20
-143.1271809538015
 30
0.0
  0
VERTEX
  5
95
330
93
100
AcDbEntity
  8
LAYER_1
 62
     5
100
AcDbVertex
100
AcDb2dVertex
 10
7.364236109270053
 20
-79.62718096967654
 30
0.0
  0
VERTEX
  5
96
330
93
100
AcDbEntity
  8
LAYER_1
 62
     5
100
AcDbVertex
100
AcDb2dVertex
 10
220.3431395933517
 20
-79.62718096967654
 30
0.0
  0
SEQEND
  5
97
330
93
100
AcDbEntity
  8
LAYER_1
  0
ENDBLK
  5
92
330
8F
100
AcDbEntity
  8
0
100
AcDbBlockEnd
  0
BLOCK
  5
9A
330
98
100
AcDbEntity
  8
0
100
AcDbBlockBegin
  2
BLOCK_13
 70
     0
 71
     0
 10
0.0
 20
0.0
 30
0.0
  3
BLOCK_13
  1

  0
POLYLINE
  5
9C
330
98
100
AcDbEntity
  8
LAYER_1
 62
     5
100
AcDb2dPolyline
 66
     1
 10
0.0
 20
0.0
 30
0.0
  0
VERTEX
  5
9D
330
9C
100
AcDbEntity
  8
LAYER_1
 62
     5
100
AcDbVertex
100
AcDb2dVertex
 10
220.3431395933517
 20
-79.62718096967654
 30
0.0
  0
VERTEX
  5
9E
330
9C
100
AcDbEntity
  8
LAYER_1
 62
     5
100
AcDbVertex
100
AcDb2dVertex
 10
348.3590982202019
 20
-79.62718096967654
 30
0.0
  0
SEQEND
  5
9F
330
9C
100
AcDbEntity
  8
LAYER_1
  0
ENDBLK
  5
9B
330
98
100
AcDbEntity
  8
0
100
AcDbBlockEnd
  0
BLOCK
  5
A2
330
A0
100
AcDbEntity
  8
0
100
AcDbBlockBegin
  2
BLOCK_14
 70
     0
 71
     0
 10
0.0
 20
0.0
 30
0.0
  3
BLOCK_14
  1

  0
POLYLINE
  5
A4
330
A0
100
AcDbEntity
  8
LAYER_1
 62
     5
100
AcDb2dPolyline
 66
     1
 10
0.0
 20
0.0
 30
0.0
  0
VERTEX
  5
A5
330
A4
100
AcDbEntity
  8
LAYER_1
 62
     5
100
AcDbVertex
100
AcDb2dVertex
 10
72.52339407909137
 20
-216.1277207576
 30
0.0
  0
VERTEX
  5
A6
330
A4
100
AcDbEntity
  8
LAYER_1
 62
     5
100
AcDbVertex
100
AcDb2dVertex
 10
33.91558701409055
 20
-216.1277207576
 30
0.0
  0
SEQEND
  5
A7
330
A4
100
AcDbEntity
  8
LAYER_1
  0
ENDBLK
  5
A3
330
A0
100
AcDbEntity
  8
0
100
AcDbBlockEnd
  0
BLOCK
  5
AA
330
A8
100
AcDbEntity
  8
0
100
AcDbBlockBegin
  2
BLOCK_15
 70
     0
 71
     0
 10
0.0
 20
0.0
 30
0.0
  3
BLOCK_15
  1

  0
POLYLINE
  5
AC
330
A8
100
AcDbEntity
  8
LAYER_1
 62
     5
100
AcDb2dPolyline
 66
     1
 10
0.0
 20
0.0
 30
0.0
  0
VERTEX
  5
AD
330
AC
100
AcDbEntity
  8
LAYER_1
 62
     5
100
AcDbVertex
100
AcDb2dVertex
 10
33.91558701409055
 20
-216.1277207576
 30
0.0
  0
VERTEX
  5
AE
330
AC
100
AcDbEntity
  8
LAYER_1
 62
     5
100
AcDbVertex
100
AcDb2dVertex
 10
8.007435436366197
 20
-216.1277207576
 30
0.0
  0
SEQEND
  5
AF
330
AC
100
AcDbEntity
  8
LAYER_1
  0
ENDBLK
  5
AB
330
A8
100
AcDbEntity
  8
0
100
AcDbBlockEnd
  0
BLOCK
  5
B2
330
B0
100
AcDbEntity
  8
0
100
AcDbBlockBegin
  2
BLOCK_16
 70
     0
 71
     0
 10
0.0
 20
0.0
 30
0.0
  3
BLOCK_16
  1

  0
POLYLINE
  5
B4
330
B0
100
AcDbEntity
  8
LAYER_1
 62
     5
100
AcDb2dPolyline
 66
     1
 10
0.0
 20
0.0
 30
0.0
  0
VERTEX
  5
B5
330
B4
100
AcDbEntity
  8
LAYER_1
 62
     5
100
AcDbVertex
100
AcDb2dVertex
 10
8.007435436366197
 20
-216.1277207576
 30
0.0
  0
VERTEX
  5
B6
330
B4
100
AcDbEntity
  8
LAYER_1
 62
     5
100
AcDbVertex
100
AcDb2dVertex
 10
8.007435436366197
 20
-152.627720773475
 30
0.0
  0
VERTEX
  5
B7
330
B4
100
AcDbEntity
  8
LAYER_1
 62
     5
100
AcDbVertex
100
AcDb2dVertex
 10
33.91558701409055
 20
-152.627720773475
 30
0.0
  0
SEQEND
  5
B8
330
B4
100
AcDbEntity
  8
LAYER_1
  0
ENDBLK
  5
B3
330
B0
100
AcDbEntity
  8
0
100
AcDbBlockEnd
  0
BLOCK
  5
BB
330
B9
100
AcDbEntity
  8
0
100
AcDbBlockBegin
  2
BLOCK_17
 70
     0
 71
     0
 10
0.0
 20
0.0
 30
0.0
  3
BLOCK_17
  1

  0
POLYLINE
  5
BD
330
B9
100
AcDbEntity
  8
LAYER_1
 62
     5
100
AcDb2dPolyline
 66
     1
 10
0.0
 20
0.0
 30
0.0
  0
VERTEX
  5
BE
330
BD
100
AcDbEntity
  8
LAYER_1
 62
     5
100
AcDbVertex
100
AcDb2dVertex
 10
33.91558701409055
 20
-152.627720773475
 30
0.0
  0
VERTEX
  5
BF
330
BD
100
AcDbEntity
  8
LAYER_1
 62
     5
100
AcDbVertex
100
AcDb2dVertex
 10
161.9315456409407
 20
-152.627720773475
 30
0.0
  0
SEQEND
  5
C0
330
BD
100
AcDbEntity
  8
LAYER_1
  0
ENDBLK
  5
BC
330
B9
100
AcDbEntity
  8
0
100
AcDbBlockEnd
  0
BLOCK
  5
C3
330
C1
100
AcDbEntity
  8
0
100
AcDbBlockBegin
  2
BLOCK_18
 70
     0
 71
     0
 10
0.0
 20
0.0
 30
0.0
  3
BLOCK_18
  1

  0
POLYLINE
  5
C5
330
C1
100
AcDbEntity
  8
LAYER_1
 62
     5
100
AcDb2dPolyline
 66
     1
 10
0.0
 20
0.0
 30
0.0
  0
VERTEX
  5
C6
330
C5
100
AcDbEntity
  8
LAYER_1
 62
     5
100
AcDbVertex
100
AcDb2dVertex
 10
161.9315456409407
 20
-152.627720773475
 30
0.0
  0
VERTEX
  5
C7
330
C5
100
AcDbEntity
  8
LAYER_1
 62
     5
100
AcDbVertex
100
AcDb2dVertex
 10
187.8396972186651
 20
-152.627720773475
 30
0.0
  0
VERTEX
  5
C8
330
C5
100
AcDbEntity
  8
LAYER_1
 62
     5
100
AcDbVertex
100
AcDb2dVertex
 10
187.8396972186651
 20
-216.1277207576
 30
0.0
  0
SEQEND
  5
C9
330
C5
100
AcDbEntity
  8
LAYER_1
  0
ENDBLK
  5
C4
330
C1
100
AcDbEntity
  8
0
100
AcDbBlockEnd
  0
BLOCK
  5
CC
330
CA
100
AcDbEntity
  8
0
100
AcDbBlockBegin
  2
BLOCK_19
 70
     0
 71
     0
 10
0.0
 20
0.0
 30
0.0
  3
BLOCK_19
  1

  0
POLYLINE
  5
CE
330
CA
100
AcDbEntity
  8
LAYER_1
 62
     5
100
AcDb2dPolyline
 66
     1
 10
0.0
 20
0.0
 30
0.0
  0
VERTEX
  5
CF
330
CE
100
AcDbEntity
  8
LAYER_1
 62
     5
100
AcDbVertex
100
AcDb2dVertex
 10
187.8396972186651
 20
-216.1277207576
 30
0.0
  0
VERTEX
  5
D0
330
CE
100
AcDbEntity
  8
LAYER_1
 62
     5
100
AcDbVertex
100
AcDb2dVertex
 10
161.9315456409407
 20
-216.1277207576
 30
0.0
  0
SEQEND
  5
D1
330
CE
100
AcDbEntity
  8
LAYER_1
  0
ENDBLK
  5
CD
330
CA
100
AcDbEntity
  8
0
100
AcDbBlockEnd
  0
BLOCK
  5
D4
330
D2
100
AcDbEntity
  8
0
100
AcDbBlockBegin
  2
BLOCK_20
 70
     0
 71
     0
 10
0.0
 20
0.0
 30
0.0
  3
BLOCK_20
  1

  0
POLYLINE
  5
D6
330
D2
100
AcDbEntity
  8
LAYER_1
 62
     5
100
AcDb2dPolyline
 66
     1
 10
0.0
 20
0.0
 30
0.0
  0
VERTEX
  5
D7
330
D6
100
AcDbEntity
  8
LAYER_1
 62
     5
100
AcDbVertex
100
AcDb2dVertex
 10
161.9315456409407
 20
-216.1277207576
 30
0.0
  0
VERTEX
  5
D8
330
D6
100
AcDbEntity
  8
LAYER_1
 62
     5
100
AcDbVertex
100
AcDb2dVertex
 10
123.3233940663914
 20
-216.1277207576
 30
0.0
  0
SEQEND
  5
D9
330
D6
100
AcDbEntity
  8
LAYER_1
  0
ENDBLK
  5
D5
330
D2
100
AcDbEntity
  8
0
100
AcDbBlockEnd
  0
BLOCK
  5
DC
330
DA
100
AcDbEntity
  8
0
100
AcDbBlockBegin
  2
BLOCK_21
 70
     0
 71
     0
 10
0.0
 20
0.0
 30
0.0
  3
BLOCK_21
  1

  0
POLYLINE
  5
DE
330
DA
100
AcDbEntity
  8
LAYER_1
 62
     5
100
AcDb2dPolyline
 66
     1
 10
0.0
 20
0.0
 30
0.0
  0
VERTEX
  5
DF
330
DE
100
AcDbEntity
  8
LAYER_1
 62
     5
100
AcDbVertex
100
AcDb2dVertex
 10
123.3233940663914
 20
-216.1277207576
 30
0.0
  0
VERTEX
  5
E0
330
DE
100
AcDbEntity
  8
LAYER_1
 62
     5
100
AcDbVertex
100
AcDb2dVertex
 10
123.3233940663914
 20
-213.2066242956567
 30
0.0
  0
SEQEND
  5
E1
330
DE
100
AcDbEntity
  8
LAYER_1
  0
ENDBLK
  5
DD
330
DA
100
AcDbEntity
  8
0
100
AcDbBlockEnd
  0
BLOCK
  5
E4
330
E2
100
AcDbEntity
  8
0
100
AcDbBlockBegin
  2
BLOCK_22
 70
     0
 71
     0
 10
0.0
 20
0.0
 30
0.0
  3
BLOCK_22
  1

  0
POLYLINE
  5
E6
330
E2
100
AcDbEntity
  8
LAYER_1
 62
     5
100
AcDb2dPolyline
 66
     1
 10
0.0
 20
0.0
 30
0.0
  0
VERTEX
  5
E7
330
E6
100
AcDbEntity
  8
LAYER_1
 62
     5
100
AcDbVertex
100
AcDb2dVertex
 10
123.3233940663914
 20
-216.1277207576
 30
0.0
  0
VERTEX
  5
E8
330
E6
100
AcDbEntity
  8
LAYER_1
 62
     5
100
AcDbVertex
100
AcDb2dVertex
 10
123.3233940663914
 20
-242.0358723353244
 30
0.0
  0
VERTEX
  5
E9
330
E6
100
AcDbEntity
  8
LAYER_1
 62
     5
100
AcDbVertex
100
AcDb2dVertex
 10
72.52339407909137
 20
-242.0358723353244
 30
0.0
  0
SEQEND
  5
EA
330
E6
100
AcDbEntity
  8
LAYER_1
  0
ENDBLK
  5
E5
330
E2
100
AcDbEntity
  8
0
100
AcDbBlockEnd
  0
BLOCK
  5
ED
330
EB
100
AcDbEntity
  8
0
100
AcDbBlockBegin
  2
BLOCK_23
 70
     0
 71
     0
 10
0.0
 20
0.0
 30
0.0
  3
BLOCK_23
  1

  0
POLYLINE
  5
EF
330
EB
100
AcDbEntity
  8
LAYER_1
 62
     5
100
AcDb2dPolyline
 66
     1
 10
0.0
 20
0.0
 30
0.0
  0
VERTEX
  5
F0
330
EF
100
AcDbEntity
  8
LAYER_1
 62
     5
100
AcDbVertex
100
AcDb2dVertex
 10
72.52339407909137
 20
-242.0358723353244
 30
0.0
  0
VERTEX
  5
F1
330
EF
100
AcDbEntity
  8
LAYER_1
 62
     5
100
AcDbVertex
100
AcDb2dVertex
 10
72.52339407909137
 20
-216.1277207576
 30
0.0
  0
SEQEND
  5
F2
330
EF
100
AcDbEntity
  8
LAYER_1
  0
ENDBLK
  5
EE
330
EB
100
AcDbEntity
  8
0
100
AcDbBlockEnd
  0
BLOCK
  5
F5
330
F3
100
AcDbEntity
  8
0
100
AcDbBlockBegin
  2
BLOCK_24
 70
     0
 71
     0
 10
0.0
 20
0.0
 30
0.0
  3
BLOCK_24
  1

  0
POLYLINE
  5
F7
330
F3
100
AcDbEntity
  8
LAYER_1
 62
     5
100
AcDb2dPolyline
 66
     1
 10
0.0
 20
0.0
 30
0.0
  0
VERTEX
  5
F8
330
F7
100
AcDbEntity
  8
LAYER_1
 62
     5
100
AcDbVertex
100
AcDb2dVertex
 10
72.52339407909137
 20
-216.1277207576
 30
0.0
  0
VERTEX
  5
F9
330
F7
100
AcDbEntity
  8
LAYER_1
 62
     5
100
AcDbVertex
100
AcDb2dVertex
 10
72.52339407909137
 20
-213.2066242956567
 30
0.0
  0
SEQEND
  5
FA
330
F7
100
AcDbEntity
  8
LAYER_1
  0
ENDBLK
  5
F6
330
F3
100
AcDbEntity
  8
0
100
AcDbBlockEnd
  0
BLOCK
  5
FD
330
FB
100
AcDbEntity
  8
0
100
AcDbBlockBegin
  2
BLOCK_25
 70
     0
 71
     0
 10
0.0
 20
0.0
 30
0.0
  3
BLOCK_25
  1

  0
POLYLINE
  5
FF
330
FB
100
AcDbEntity
  8
LAYER_1
 62
     5
100
AcDb2dPolyline
 66
     1
 10
0.0
 20
0.0
 30
0.0
  0
VERTEX
  5
100
330
FF
100
AcDbEntity
  8
LAYER_1
 62
     5
100
AcDbVertex
100
AcDb2dVertex
 10
251.0120686221428
 20
-222.7908799356217
 30
0.0
  0
VERTEX
  5
101
330
FF
100
AcDbEntity
  8
LAYER_1
 62
     5
100
AcDbVertex
100
AcDb2dVertex
 10
289.6202201966922
 20
-222.7908799356217
 30
0.0
  0
SEQEND
  5
102
330
FF
100
AcDbEntity
  8
LAYER_1
  0
ENDBLK
  5
FE
330
FB
100
AcDbEntity
  8
0
100
AcDbBlockEnd
  0
BLOCK
  5
105
330
103
100
AcDbEntity
  8
0
100
AcDbBlockBegin
  2
BLOCK_26
 70
     0
 71
     0
 10
0.0
 20
0.0
 30
0.0
  3
BLOCK_26
  1

  0
POLYLINE
  5
107
330
103
100
AcDbEntity
  8
LAYER_1
 62
     5
100
AcDb2dPolyline
 66
     1
 10
0.0
 20
0.0
 30
0.0
  0
VERTEX
  5
108
330
107
100
AcDbEntity
  8
LAYER_1
 62
     5
100
AcDbVertex
100
AcDb2dVertex
 10
289.6202201966922
 20
-222.7908799356217
 30
0.0
  0
VERTEX
  5
109
330
107
100
AcDbEntity
  8
LAYER_1
 62
     5
100
AcDbVertex
100
AcDb2dVertex
 10
315.528027264868
 20
-222.7908799356217
 30
0.0
  0
SEQEND
  5
10A
330
107
100
AcDbEntity
  8
LAYER_1
  0
ENDBLK
  5
106
330
103
100
AcDbEntity
  8
0
100
AcDbBlockEnd
  0
BLOCK
  5
10D
330
10B
100
AcDbEntity
  8
0
100
AcDbBlockBegin
  2
BLOCK_27
 70
     0
 71
     0
 10
0.0
 20
0.0
 30
0.0
  3
BLOCK_27
  1

  0
POLYLINE
  5
10F
330
10B
100
AcDbEntity
  8
LAYER_1
 62
     5
100
AcDb2dPolyline
 66
     1
 10
0.0
 20
0.0
 30
0.0
  0
VERTEX
  5
110
330
10F
100
AcDbEntity
  8
LAYER_1
 62
     5
100
AcDbVertex
100
AcDb2dVertex
 10
315.528027264868
 20
-222.7908799356217
 30
0.0
  0
VERTEX
  5
111
330
10F
100
AcDbEntity
  8
LAYER_1
 62
     5
100
AcDbVertex
100
AcDb2dVertex
 10
315.528027264868
 20
-286.2908799197467
 30
0.0
  0
VERTEX
  5
112
330
10F
100
AcDbEntity
  8
LAYER_1
 62
     5
100
AcDbVertex
100
AcDb2dVertex
 10
289.6202201966922
 20
-286.2908799197467
 30
0.0
  0
SEQEND
  5
113
330
10F
100
AcDbEntity
  8
LAYER_1
  0
ENDBLK
  5
10E
330
10B
100
AcDbEntity
  8
0
100
AcDbBlockEnd
  0
BLOCK
  5
116
330
114
100
AcDbEntity
  8
0
100
AcDbBlockBegin
  2
BLOCK_28
 70
     0
 71
     0
 10
0.0
 20
0.0
 30
0.0
  3
BLOCK_28
  1

  0
POLYLINE
  5
118
330
114
100
AcDbEntity
  8
LAYER_1
 62
     5
100
AcDb2dPolyline
 66
     1
 10
0.0
 20
0.0
 30
0.0
  0
VERTEX
  5
119
330
118
100
AcDbEntity
  8
LAYER_1
 62
     5
100
AcDbVertex
100
AcDb2dVertex
 10
289.6202201966922
 20
-286.2908799197467
 30
0.0
  0
VERTEX
  5
11A
330
118
100
AcDbEntity
  8
LAYER_1
 62
     5
100
AcDbVertex
100
AcDb2dVertex
 10
161.604261569842
 20
-286.2908799197467
 30
0.0
  0
SEQEND
  5
11B
330
118
100
AcDbEntity
  8
LAYER_1
  0
ENDBLK
  5
117
330
114
100
AcDbEntity
  8
0
100
AcDbBlockEnd
  0
BLOCK
  5
11E
330
11C
100
AcDbEntity
  8
0
100
AcDbBlockBegin
  2
BLOCK_29
 70
     0
 71
     0
 10
0.0
 20
0.0
 30
0.0
  3
BLOCK_29
  1

  0
POLYLINE
  5
120
330
11C
100
AcDbEntity
  8
LAYER_1
 62
     5
100
AcDb2dPolyline
 66
     1
 10
0.0
 20
0.0
 30
0.0
  0
VERTEX
  5
121
330
120
100
AcDbEntity
  8
LAYER_1
 62
     5
100
AcDbVertex
100
AcDb2dVertex
 10
161.604261569842
 20
-286.2908799197467
 30
0.0
  0
VERTEX
  5
122
330
120
100
AcDbEntity
  8
LAYER_1
 62
     5
100
AcDbVertex
100
AcDb2dVertex
 10
135.6961099921176
 20
-286.2908799197467
 30
0.0
  0
VERTEX
  5
123
330
120
100
AcDbEntity
  8
LAYER_1
 62
     5
100
AcDbVertex
100
AcDb2dVertex
 10
135.6961099921176
 20
-222.7908799356217
 30
0.0
  0
SEQEND
  5
124
330
120
100
AcDbEntity
  8
LAYER_1
  0
ENDBLK
  5
11F
330
11C
100
AcDbEntity
  8
0
100
AcDbBlockEnd
  0
BLOCK
  5
127
330
125
100
AcDbEntity
  8
0
100
AcDbBlockBegin
  2
BLOCK_30
 70
     0
 71
     0
 10
0.0
 20
0.0
 30
0.0
  3
BLOCK_30
  1

  0
POLYLINE
  5
129
330
125
100
AcDbEntity
  8
LAYER_1
 62
     5
100
AcDb2dPolyline
 66
     1
 10
0.0
 20
0.0
 30
0.0
  0
VERTEX
  5
12A
330
129
100
AcDbEntity
  8
LAYER_1
 62
     5
100
AcDbVertex
100
AcDb2dVertex
 10
135.6961099921176
 20
-222.7908799356217
 30
0.0
  0
VERTEX
  5
12B
330
129
100
AcDbEntity
  8
LAYER_1
 62
     5
100
AcDbVertex
100
AcDb2dVertex
 10
161.604261569842
 20
-222.7908799356217
 30
0.0
  0
SEQEND
  5
12C
330
129
100
AcDbEntity
  8
LAYER_1
  0
ENDBLK
  5
128
330
125
100
AcDbEntity
  8
0
100
AcDbBlockEnd
  0
BLOCK
  5
12F
330
12D
100
AcDbEntity
  8
0
100
AcDbBlockBegin
  2
BLOCK_31
 70
     0
 71
     0
 10
0.0
 20
0.0
 30
0.0
  3
BLOCK_31
  1

  0
POLYLINE
  5
131
330
12D
100
AcDbEntity
  8
LAYER_1
 62
     5
100
AcDb2dPolyline
 66
     1
 10
0.0
 20
0.0
 30
0.0
  0
VERTEX
  5
132
330
131
100
AcDbEntity
  8
LAYER_1
 62
     5
100
AcDbVertex
100
AcDb2dVertex
 10
161.604261569842
 20
-222.7908799356217
 30
0.0
  0
VERTEX
  5
133
330
131
100
AcDbEntity
  8
LAYER_1
 62
     5
100
AcDbVertex
100
AcDb2dVertex
 10
200.2120686348428
 20
-222.7908799356217
 30
0.0
  0
SEQEND
  5
134
330
131
100
AcDbEntity
  8
LAYER_1
  0
ENDBLK
  5
130
330
12D
100
AcDbEntity
  8
0
100
AcDbBlockEnd
  0
BLOCK
  5
137
330
135
100
AcDbEntity
  8
0
100
AcDbBlockBegin
  2
BLOCK_32
 70
     0
 71
     0
 10
0.0
 20
0.0
 30
0.0
  3
BLOCK_32
  1

  0
POLYLINE
  5
139
330
135
100
AcDbEntity
  8
LAYER_1
 62
     5
100
AcDb2dPolyline
 66
     1
 10
0.0
 20
0.0
 30
0.0
  0
VERTEX
  5
13A
330
139
100
AcDbEntity
  8
LAYER_1
 62
     5
100
AcDbVertex
100
AcDb2dVertex
 10
200.2120686348428
 20
-222.7908799356217
 30
0.0
  0
VERTEX
  5
13B
330
139
100
AcDbEntity
  8
LAYER_1
 62
     5
100
AcDbVertex
100
AcDb2dVertex
 10
200.2120686348428
 20
-196.8830728674459
 30
0.0
  0
VERTEX
  5
13C
330
139
100
AcDbEntity
  8
LAYER_1
 62
     5
100
AcDbVertex
100
AcDb2dVertex
 10
251.0120686221428
 20
-196.8830728674459
 30
0.0
  0
SEQEND
  5
13D
330
139
100
AcDbEntity
  8
LAYER_1
  0
ENDBLK
  5
138
330
135
100
AcDbEntity
  8
0
100
AcDbBlockEnd
  0
BLOCK
  5
140
330
13E
100
AcDbEntity
  8
0
100
AcDbBlockBegin
  2
BLOCK_33
 70
     0
 71
     0
 10
0.0
 20
0.0
 30
0.0
  3
BLOCK_33
  1

  0
POLYLINE
  5
142
330
13E
100
AcDbEntity
  8
LAYER_1
 62
     5
100
AcDb2dPolyline
 66
     1
 10
0.0
 20
0.0
 30
0.0
  0
VERTEX
  5
143
330
142
100
AcDbEntity
  8
LAYER_1
 62
     5
100
AcDbVertex
100
AcDb2dVertex
 10
251.0120686221428
 20
-196.8830728674459
 30
0.0
  0
VERTEX
  5
144
330
142
100
AcDbEntity
  8
LAYER_1
 62
     5
100
AcDbVertex
100
AcDb2dVertex
 10
251.0120686221428
 20
-222.7908799356217
 30
0.0
  0
SEQEND
  5
145
330
142
100
AcDbEntity
  8
LAYER_1
  0
ENDBLK
  5
141
330
13E
100
AcDbEntity
  8
0
100
AcDbBlockEnd
  0
BLOCK
  5
148
330
146
100
AcDbEntity
  8
0
100
AcDbBlockBegin
  2
BLOCK_34
 70
     0
 71
     0
 10
0.0
 20
0.0
 30
0.0
  3
BLOCK_34
  1

  0
POLYLINE
  5
14A
330
146
100
AcDbEntity
  8
LAYER_1
 62
     5
100
AcDb2dPolyline
 66
     1
 10
0.0
 20
0.0
 30
0.0
  0
VERTEX
  5
14B
330
14A
100
AcDbEntity
  8
LAYER_1
 62
     5
100
AcDbVertex
100
AcDb2dVertex
 10
251.0120686221428
 20
-222.7908799356217
 30
0.0
  0
VERTEX
  5
14C
330
14A
100
AcDbEntity
  8
LAYER_1
 62
     5
100
AcDbVertex
100
AcDb2dVertex
 10
251.0120686221428
 20
-225.7116318880165
 30
0.0
  0
SEQEND
  5
14D
330
14A
100
AcDbEntity
  8
LAYER_1
  0
ENDBLK
  5
149
330
146
100
AcDbEntity
  8
0
100
AcDbBlockEnd
  0
BLOCK
  5
150
330
14E
100
AcDbEntity
  8
0
100
AcDbBlockBegin
  2
BLOCK_35
 70
     0
 71
     0
 10
0.0
 20
0.0
 30
0.0
  3
BLOCK_35
  1

  0
POLYLINE
  5
152
330
14E
100
AcDbEntity
  8
LAYER_1
 62
     5
100
AcDb2dPolyline
 66
     1
 10
0.0
 20
0.0
 30
0.0
  0
VERTEX
  5
153
330
152
100
AcDbEntity
  8
LAYER_1
 62
     5
100
AcDbVertex
100
AcDb2dVertex
 10
326.7469807125841
 20
-214.1812418084339
 30
0.0
  0
VERTEX
  5
154
330
152
100
AcDbEntity
  8
LAYER_1
 62
     5
100
AcDbVertex
100
AcDb2dVertex
 10
288.1391736475833
 20
-214.1812418084339
 30
0.0
  0
SEQEND
  5
155
330
152
100
AcDbEntity
  8
LAYER_1
  0
ENDBLK
  5
151
330
14E
100
AcDbEntity
  8
0
100
AcDbBlockEnd
  0
BLOCK
  5
158
330
156
100
AcDbEntity
  8
0
100
AcDbBlockBegin
  2
BLOCK_36
 70
     0
 71
     0
 10
0.0
 20
0.0
 30
0.0
  3
BLOCK_36
  1

  0
POLYLINE
  5
15A
330
156
100
AcDbEntity
  8
LAYER_1
 62
     5
100
AcDb2dPolyline
 66
     1
 10
0.0
 20
0.0
 30
0.0
  0
VERTEX
  5
15B
330
15A
100
AcDbEntity
  8
LAYER_1
 62
     5
100
AcDbVertex
100
AcDb2dVertex
 10
288.1391736475833
 20
-214.1812418084339
 30
0.0
  0
VERTEX
  5
15C
330
15A
100
AcDbEntity
  8
LAYER_1
 62
     5
100
AcDbVertex
100
AcDb2dVertex
 10
262.2310220698589
 20
-214.1812418084339
 30
0.0
  0
SEQEND
  5
15D
330
15A
100
AcDbEntity
  8
LAYER_1
  0
ENDBLK
  5
159
330
156
100
AcDbEntity
  8
0
100
AcDbBlockEnd
  0
BLOCK
  5
160
330
15E
100
AcDbEntity
  8
0
100
AcDbBlockBegin
  2
BLOCK_37
 70
     0
 71
     0
 10
0.0
 20
0.0
 30
0.0
  3
BLOCK_37
  1

  0
POLYLINE
  5
162
330
15E
100
AcDbEntity
  8
LAYER_1
 62
     5
100
AcDb2dPolyline
 66
     1
 10
0.0
 20
0.0
 30
0.0
  0
VERTEX
  5
163
330
162
100
AcDbEntity
  8
LAYER_1
 62
     5
100
AcDbVertex
100
AcDb2dVertex
 10
262.2310220698589
 20
-214.1812418084339
 30
0.0
  0
VERTEX
  5
164
330
162
100
AcDbEntity
  8
LAYER_1
 62
     5
100
AcDbVertex
100
AcDb2dVertex
 10
262.2310220698589
 20
-150.6812418243089
 30
0.0
  0
VERTEX
  5
165
330
162
100
AcDbEntity
  8
LAYER_1
 62
     5
100
AcDbVertex
100
AcDb2dVertex
 10
288.1391736475833
 20
-150.6812418243089
 30
0.0
  0
SEQEND
  5
166
330
162
100
AcDbEntity
  8
LAYER_1
  0
ENDBLK
  5
161
330
15E
100
AcDbEntity
  8
0
100
AcDbBlockEnd
  0
BLOCK
  5
169
330
167
100
AcDbEntity
  8
0
100
AcDbBlockBegin
  2
BLOCK_38
 70
     0
 71
     0
 10
0.0
 20
0.0
 30
0.0
  3
BLOCK_38
  1

  0
POLYLINE
  5
16B
330
167
100
AcDbEntity
  8
LAYER_1
 62
     5
100
AcDb2dPolyline
 66
     1
 10
0.0
 20
0.0
 30
0.0
  0
VERTEX
  5
16C
330
16B
100
AcDbEntity
  8
LAYER_1
 62
     5
100
AcDbVertex
100
AcDb2dVertex
 10
288.1391736475833
 20
-150.6812418243089
 30
0.0
  0
VERTEX
  5
16D
330
16B
100
AcDbEntity
  8
LAYER_1
 62
     5
100
AcDbVertex
100
AcDb2dVertex
 10
416.1551322744335
 20
-150.6812418243089
 30
0.0
  0
SEQEND
  5
16E
330
16B
100
AcDbEntity
  8
LAYER_1
  0
ENDBLK
  5
16A
330
167
100
AcDbEntity
  8
0
100
AcDbBlockEnd
  0
BLOCK
  5
171
330
16F
100
AcDbEntity
  8
0
100
AcDbBlockBegin
  2
BLOCK_39
 70
     0
 71
     0
 10
0.0
 20
0.0
 30
0.0
  3
BLOCK_39
  1

  0
POLYLINE
  5
173
330
16F
100
AcDbEntity
  8
LAYER_1
 62
     5
100
AcDb2dPolyline
 66
     1
 10
0.0
 20
0.0
 30
0.0
  0
VERTEX
  5
174
330
173
100
AcDbEntity
  8
LAYER_1
 62
     5
100
AcDbVertex
100
AcDb2dVertex
 10
416.1551322744335
 20
-150.6812418243089
 30
0.0
  0
VERTEX
  5
175
330
173
100
AcDbEntity
  8
LAYER_1
 62
     5
100
AcDbVertex
100
AcDb2dVertex
 10
442.0629393426093
 20
-150.6812418243089
 30
0.0
  0
VERTEX
  5
176
330
173
100
AcDbEntity
  8
LAYER_1
 62
     5
100
AcDbVertex
100
AcDb2dVertex
 10
442.0629393426093
 20
-214.1812418084339
 30
0.0
  0
SEQEND
  5
177
330
173
100
AcDbEntity
  8
LAYER_1
  0
ENDBLK
  5
172
330
16F
100
AcDbEntity
  8
0
100
AcDbBlockEnd
  0
BLOCK
  5
17A
330
178
100
AcDbEntity
  8
0
100
AcDbBlockBegin
  2
BLOCK_40
 70
     0
 71
     0
 10
0.0
 20
0.0
 30
0.0
  3
BLOCK_40
  1

  0
POLYLINE
  5
17C
330
178
100
AcDbEntity
  8
LAYER_1
 62
     5
100
AcDb2dPolyline
 66
     1
 10
0.0
 20
0.0
 30
0.0
  0
VERTEX
  5
17D
330
17C
100
AcDbEntity
  8
LAYER_1
 62
     5
100
AcDbVertex
100
AcDb2dVertex
 10
442.0629393426093
 20
-214.1812418084339
 30
0.0
  0
VERTEX
  5
17E
330
17C
100
AcDbEntity
  8
LAYER_1
 62
     5
100
AcDbVertex
100
AcDb2dVertex
 10
416.1551322744335
 20
-214.1812418084339
 30
0.0
  0
SEQEND
  5
17F
330
17C
100
AcDbEntity
  8
LAYER_1
  0
ENDBLK
  5
17B
330
178
100
AcDbEntity
  8
0
100
AcDbBlockEnd
  0
BLOCK
  5
182
330
180
100
AcDbEntity
  8
0
100
AcDbBlockBegin
  2
BLOCK_41
 70
     0
 71
     0
 10
0.0
 20
0.0
 30
0.0
  3
BLOCK_41
  1

  0
POLYLINE
  5
184
330
180
100
AcDbEntity
  8
LAYER_1
 62
     5
100
AcDb2dPolyline
 66
     1
 10
0.0
 20
0.0
 30
0.0
  0
VERTEX
  5
185
330
184
100
AcDbEntity
  8
LAYER_1
 62
     5
100
AcDbVertex
100
AcDb2dVertex
 10
416.1551322744335
 20
-214.1812418084339
 30
0.0
  0
VERTEX
  5
186
330
184
100
AcDbEntity
  8
LAYER_1
 62
     5
100
AcDbVertex
100
AcDb2dVertex
 10
377.5469806998841
 20
-214.1812418084339
 30
0.0
  0
SEQEND
  5
187
330
184
100
AcDbEntity
  8
LAYER_1
  0
ENDBLK
  5
183
330
180
100
AcDbEntity
  8
0
100
AcDbBlockEnd
  0
BLOCK
  5
18A
330
188
100
AcDbEntity
  8
0
100
AcDbBlockBegin
  2
BLOCK_42
 70
     0
 71
     0
 10
0.0
 20
0.0
 30
0.0
  3
BLOCK_42
  1

  0
POLYLINE
  5
18C
330
188
100
AcDbEntity
  8
LAYER_1
 62
     5
100
AcDb2dPolyline
 66
     1
 10
0.0
 20
0.0
 30
0.0
  0
VERTEX
  5
18D
330
18C
100
AcDbEntity
  8
LAYER_1
 62
     5
100
AcDbVertex
100
AcDb2dVertex
 10
377.5469806998841
 20
-214.1812418084339
 30
0.0
  0
VERTEX
  5
18E
330
18C
100
AcDbEntity
  8
LAYER_1
 62
     5
100
AcDbVertex
100
AcDb2dVertex
 10
377.5469806998841
 20
-240.0893933861582
 30
0.0
  0
VERTEX
  5
18F
330
18C
100
AcDbEntity
  8
LAYER_1
 62
     5
100
AcDbVertex
100
AcDb2dVertex
 10
326.7469807125841
 20
-240.0893933861582
 30
0.0
  0
SEQEND
  5
190
330
18C
100
AcDbEntity
  8
LAYER_1
  0
ENDBLK
  5
18B
330
188
100
AcDbEntity
  8
0
100
AcDbBlockEnd
  0
BLOCK
  5
193
330
191
100
AcDbEntity
  8
0
100
AcDbBlockBegin
  2
BLOCK_43
 70
     0
 71
     0
 10
0.0
 20
0.0
 30
0.0
  3
BLOCK_43
  1

  0
POLYLINE
  5
195
330
191
100
AcDbEntity
  8
LAYER_1
 62
     5
100
AcDb2dPolyline
 66
     1
 10
0.0
 20
0.0
 30
0.0
  0
VERTEX
  5
196
330
195
100
AcDbEntity
  8
LAYER_1
 62
     5
100
AcDbVertex
100
AcDb2dVertex
 10
326.7469807125841
 20
-240.0893933861582
 30
0.0
  0
VERTEX
  5
197
330
195
100
AcDbEntity
  8
LAYER_1
 62
     5
100
AcDbVertex
100
AcDb2dVertex
 10
326.7469807125841
 20
-214.1812418084339
 30
0.0
  0
SEQEND
  5
198
330
195
100
AcDbEntity
  8
LAYER_1
  0
ENDBLK
  5
194
330
191
100
AcDbEntity
  8
0
100
AcDbBlockEnd
  0
BLOCK
  5
19B
330
199
100
AcDbEntity
  8
0
100
AcDbBlockBegin
  2
BLOCK_44
 70
     0
 71
     0
 10
0.0
 20
0.0
 30
0.0
  3
BLOCK_44
  1

  0
POLYLINE
  5
19D
330
199
100
AcDbEntity
  8
LAYER_1
 62
     5
100
AcDb2dPolyline
 66
     1
 10
0.0
 20
0.0
 30
0.0
  0
VERTEX
  5
19E
330
19D
100
AcDbEntity
  8
LAYER_1
 62
     5
100
AcDbVertex
100
AcDb2dVertex
 10
326.7469807125841
 20
-214.1812418084339
 30
0.0
  0
VERTEX
  5
19F
330
19D
100
AcDbEntity
  8
LAYER_1
 62
     5
100
AcDbVertex
100
AcDb2dVertex
 10
326.7469807125841
 20
-211.2601453464905
 30
0.0
  0
SEQEND
  5
1A0
330
19D
100
AcDbEntity
  8
LAYER_1
  0
ENDBLK
  5
19C
330
199
100
AcDbEntity
  8
0
100
AcDbBlockEnd
  0
BLOCK
  5
1A3
330
1A1
100
AcDbEntity
  8
0
100
AcDbBlockBegin
  2
BLOCK_45
 70
     0
 71
     0
 10
0.0
 20
0.0
 30
0.0
  3
BLOCK_45
  1

  0
POLYLINE
  5
1A5
330
1A1
100
AcDbEntity
  8
LAYER_1
 62
     5
100
AcDb2dPolyline
 66
     1
 10
0.0
 20
0.0
 30
0.0
  0
VERTEX
  5
1A6
330
1A5
100
AcDbEntity
  8
LAYER_1
 62
     5
100
AcDbVertex
100
AcDb2dVertex
 10
503.2936549306002
 20
-222.7908799356217
 30
0.0
  0
VERTEX
  5
1A7
330
1A5
100
AcDbEntity
  8
LAYER_1
 62
     5
100
AcDbVertex
100
AcDb2dVertex
 10
541.901461995601
 20
-222.7908799356217
 30
0.0
  0
SEQEND
  5
1A8
330
1A5
100
AcDbEntity
  8
LAYER_1
  0
ENDBLK
  5
1A4
330
1A1
100
AcDbEntity
  8
0
100
AcDbBlockEnd
  0
BLOCK
  5
1AB
330
1A9
100
AcDbEntity
  8
0
100
AcDbBlockBegin
  2
BLOCK_46
 70
     0
 71
     0
 10
0.0
 20
0.0
 30
0.0
  3
BLOCK_46
  1

  0
POLYLINE
  5
1AD
330
1A9
100
AcDbEntity
  8
LAYER_1
 62
     5
100
AcDb2dPolyline
 66
     1
 10
0.0
 20
0.0
 30
0.0
  0
VERTEX
  5
1AE
330
1AD
100
AcDbEntity
  8
LAYER_1
 62
     5
100
AcDbVertex
100
AcDb2dVertex
 10
541.901461995601
 20
-222.7908799356217
 30
0.0
  0
VERTEX
  5
1AF
330
1AD
100
AcDbEntity
  8
LAYER_1
 62
     5
100
AcDbVertex
100
AcDb2dVertex
 10
567.8096135733254
 20
-222.7908799356217
 30
0.0
  0
SEQEND
  5
1B0
330
1AD
100
AcDbEntity
  8
LAYER_1
  0
ENDBLK
  5
1AC
330
1A9
100
AcDbEntity
  8
0
100
AcDbBlockEnd
  0
BLOCK
  5
1B3
330
1B1
100
AcDbEntity
  8
0
100
AcDbBlockBegin
  2
BLOCK_47
 70
     0
 71
     0
 10
0.0
 20
0.0
 30
0.0
  3
BLOCK_47
  1

  0
POLYLINE
  5
1B5
330
1B1
100
AcDbEntity
  8
LAYER_1
 62
     5
100
AcDb2dPolyline
 66
     1
 10
0.0
 20
0.0
 30
0.0
  0
VERTEX
  5
1B6
330
1B5
100
AcDbEntity
  8
LAYER_1
 62
     5
100
AcDbVertex
100
AcDb2dVertex
 10
567.8096135733254
 20
-222.7908799356217
 30
0.0
  0
VERTEX
  5
1B7
330
1B5
100
AcDbEntity
  8
LAYER_1
 62
     5
100
AcDbVertex
100
AcDb2dVertex
 10
567.8096135733254
 20
-286.2908799197467
 30
0.0
  0
VERTEX
  5
1B8
330
1B5
100
AcDbEntity
  8
LAYER_1
 62
     5
100
AcDbVertex
100
AcDb2dVertex
 10
541.901461995601
 20
-286.2908799197467
 30
0.0
  0
SEQEND
  5
1B9
330
1B5
100
AcDbEntity
  8
LAYER_1
  0
ENDBLK
  5
1B4
330
1B1
100
AcDbEntity
  8
0
100
AcDbBlockEnd
  0
BLOCK
  5
1BC
330
1BA
100
AcDbEntity
  8
0
100
AcDbBlockBegin
  2
BLOCK_48
 70
     0
 71
     0
 10
0.0
 20
0.0
 30
0.0
  3
BLOCK_48
  1

  0
POLYLINE
  5
1BE
330
1BA
100
AcDbEntity
  8
LAYER_1
 62
     5
100
AcDb2dPolyline
 66
     1
 10
0.0
 20
0.0
 30
0.0
  0
VERTEX
  5
1BF
330
1BE
100
AcDbEntity
  8
LAYER_1
 62
     5
100
AcDbVertex
100
AcDb2dVertex
 10
541.901461995601
 20
-286.2908799197467
 30
0.0
  0
VERTEX
  5
1C0
330
1BE
100
AcDbEntity
  8
LAYER_1
 62
     5
100
AcDbVertex
100
AcDb2dVertex
 10
413.8855033687508
 20
-286.2908799197467
 30
0.0
  0
SEQEND
  5
1C1
330
1BE
100
AcDbEntity
  8
LAYER_1
  0
ENDBLK
  5
1BD
330
1BA
100
AcDbEntity
  8
0
100
AcDbBlockEnd
  0
BLOCK
  5
1C4
330
1C2
100
AcDbEntity
  8
0
100
AcDbBlockBegin
  2
BLOCK_49
 70
     0
 71
     0
 10
0.0
 20
0.0
 30
0.0
  3
BLOCK_49
  1

  0
POLYLINE
  5
1C6
330
1C2
100
AcDbEntity
  8
LAYER_1
 62
     5
100
AcDb2dPolyline
 66
     1
 10
0.0
 20
0.0
 30
0.0
  0
VERTEX
  5
1C7
330
1C6
100
AcDbEntity
  8
LAYER_1
 62
     5
100
AcDbVertex
100
AcDb2dVertex
 10
413.8855033687508
 20
-286.2908799197467
 30
0.0
  0
VERTEX
  5
1C8
330
1C6
100
AcDbEntity
  8
LAYER_1
 62
     5
100
AcDbVertex
100
AcDb2dVertex
 10
387.977696300575
 20
-286.2908799197467
 30
0.0
  0
VERTEX
  5
1C9
330
1C6
100
AcDbEntity
  8
LAYER_1
 62
     5
100
AcDbVertex
100
AcDb2dVertex
 10
387.977696300575
 20
-222.7908799356217
 30
0.0
  0
SEQEND
  5
1CA
330
1C6
100
AcDbEntity
  8
LAYER_1
  0
ENDBLK
  5
1C5
330
1C2
100
AcDbEntity
  8
0
100
AcDbBlockEnd
  0
BLOCK
  5
1CD
330
1CB
100
AcDbEntity
  8
0
100
AcDbBlockBegin
  2
BLOCK_50
 70
     0
 71
     0
 10
0.0
 20
0.0
 30
0.0
  3
BLOCK_50
  1

  0
POLYLINE
  5
1CF
330
1CB
100
AcDbEntity
  8
LAYER_1
 62
     5
100
AcDb2dPolyline
 66
     1
 10
0.0
 20
0.0
 30
0.0
  0
VERTEX
  5
1D0
330
1CF
100
AcDbEntity
  8
LAYER_1
 62
     5
100
AcDbVertex
100
AcDb2dVertex
 10
387.977696300575
 20
-222.7908799356217
 30
0.0
  0
VERTEX
  5
1D1
330
1CF
100
AcDbEntity
  8
LAYER_1
 62
     5
100
AcDbVertex
100
AcDb2dVertex
 10
413.8855033687508
 20
-222.7908799356217
 30
0.0
  0
SEQEND
  5
1D2
330
1CF
100
AcDbEntity
  8
LAYER_1
  0
ENDBLK
  5
1CE
330
1CB
100
AcDbEntity
  8
0
100
AcDbBlockEnd
  0
BLOCK
  5
1D5
330
1D3
100
AcDbEntity
  8
0
100
AcDbBlockBegin
  2
BLOCK_51
 70
     0
 71
     0
 10
0.0
 20
0.0
 30
0.0
  3
BLOCK_51
  1

  0
POLYLINE
  5
1D7
330
1D3
100
AcDbEntity
  8
LAYER_1
 62
     5
100
AcDb2dPolyline
 66
     1
 10
0.0
 20
0.0
 30
0.0
  0
VERTEX
  5
1D8
330
1D7
100
AcDbEntity
  8
LAYER_1
 62
     5
100
AcDbVertex
100
AcDb2dVertex
 10
413.8855033687508
 20
-222.7908799356217
 30
0.0
  0
VERTEX
  5
1D9
330
1D7
100
AcDbEntity
  8
LAYER_1
 62
     5
100
AcDbVertex
100
AcDb2dVertex
 10
452.4936549433002
 20
-222.7908799356217
 30
0.0
  0
SEQEND
  5
1DA
330
1D7
100
AcDbEntity
  8
LAYER_1
  0
ENDBLK
  5
1D6
330
1D3
100
AcDbEntity
  8
0
100
AcDbBlockEnd
  0
BLOCK
  5
1DD
330
1DB
100
AcDbEntity
  8
0
100
AcDbBlockBegin
  2
BLOCK_52
 70
     0
 71
     0
 10
0.0
 20
0.0
 30
0.0
  3
BLOCK_52
  1

  0
POLYLINE
  5
1DF
330
1DB
100
AcDbEntity
  8
LAYER_1
 62
     5
100
AcDb2dPolyline
 66
     1
 10
0.0
 20
0.0
 30
0.0
  0
VERTEX
  5
1E0
330
1DF
100
AcDbEntity
  8
LAYER_1
 62
     5
100
AcDbVertex
100
AcDb2dVertex
 10
452.4936549433002
 20
-222.7908799356217
 30
0.0
  0
VERTEX
  5
1E1
330
1DF
100
AcDbEntity
  8
LAYER_1
 62
     5
100
AcDbVertex
100
AcDb2dVertex
 10
452.4936549433002
 20
-196.8830728674459
 30
0.0
  0
VERTEX
  5
1E2
330
1DF
100
AcDbEntity
  8
LAYER_1
 62
     5
100
AcDbVertex
100
AcDb2dVertex
 10
503.2936549306002
 20
-196.8830728674459
 30
0.0
  0
SEQEND
  5
1E3
330
1DF
100
AcDbEntity
  8
LAYER_1
  0
ENDBLK
  5
1DE
330
1DB
100
AcDbEntity
  8
0
100
AcDbBlockEnd
  0
BLOCK
  5
1E6
330
1E4
100
AcDbEntity
  8
0
100
AcDbBlockBegin
  2
BLOCK_53
 70
     0
 71
     0
 10
0.0
 20
0.0
 30
0.0
  3
BLOCK_53
  1

  0
POLYLINE
  5
1E8
330
1E4
100
AcDbEntity
  8
LAYER_1
 62
     5
100
AcDb2dPolyline
 66
     1
 10
0.0
 20
0.0
 30
0.0
  0
VERTEX
  5
1E9
330
1E8
100
AcDbEntity
  8
LAYER_1
 62
     5
100
AcDbVertex
100
AcDb2dVertex
 10
503.2936549306002
 20
-196.8830728674459
 30
0.0
  0
VERTEX
  5
1EA
330
1E8
100
AcDbEntity
  8
LAYER_1
 62
     5
100
AcDbVertex
100
AcDb2dVertex
 10
503.2936549306002
 20
-222.7908799356217
 30
0.0
  0
SEQEND
  5
1EB
330
1E8
100
AcDbEntity
  8
LAYER_1
  0
ENDBLK
  5
1E7
330
1E4
100
AcDbEntity
  8
0
100
AcDbBlockEnd
  0
BLOCK
  5
1EE
330
1EC
100
AcDbEntity
  8
0
100
AcDbBlockBegin
  2
BLOCK_54
 70
     0
 71
     0
 10
0.0
 20
0.0
 30
0.0
  3
BLOCK_54
  1

  0
POLYLINE
  5
1F0
330
1EC
100
AcDbEntity
  8
LAYER_1
 62
     5
100
AcDb2dPolyline
 66
     1
 10
0.0
 20
0.0
 30
0.0
  0
VERTEX
  5
1F1
330
1F0
100
AcDbEntity
  8
LAYER_1
 62
     5
100
AcDbVertex
100
AcDb2dVertex
 10
503.2936549306002
 20
-222.7908799356217
 30
0.0
  0
VERTEX
  5
1F2
330
1F0
100
AcDbEntity
  8
LAYER_1
 62
     5
100
AcDbVertex
100
AcDb2dVertex
 10
503.2936549306002
 20
-225.7116318880165
 30
0.0
  0
SEQEND
  5
1F3
330
1F0
100
AcDbEntity
  8
LAYER_1
  0
ENDBLK
  5
1EF
330
1EC
100
AcDbEntity
  8
0
100
AcDbBlockEnd
  0
BLOCK
  5
1F6
330
1F4
100
AcDbEntity
  8
0
100
AcDbBlockBegin
  2
BLOCK_55
 70
     0
 71
     0
 10
0.0
 20
0.0
 30
0.0
  3
BLOCK_55
  1

  0
POLYLINE
  5
1F8
330
1F4
100
AcDbEntity
  8
LAYER_1
 62
     5
100
AcDb2dPolyline
 66
     1
 10
0.0
 20
0.0
 30
0.0
  0
VERTEX
  5
1F9
330
1F8
100
AcDbEntity
  8
LAYER_1
 62
     5
100
AcDbVertex
100
AcDb2dVertex
 10
452.4936549433002
 20
-222.7908799356217
 30
0.0
  0
VERTEX
  5
1FA
330
1F8
100
AcDbEntity
  8
LAYER_1
 62
     5
100
AcDbVertex
100
AcDb2dVertex
 10
452.4936549433002
 20
-225.7116318880165
 30
0.0
  0
SEQEND
  5
1FB
330
1F8
100
AcDbEntity
  8
LAYER_1
  0
ENDBLK
  5
1F7
330
1F4
100
AcDbEntity
  8
0
100
AcDbBlockEnd
  0
BLOCK
  5
1FE
330
1FC
100
AcDbEntity
  8
0
100
AcDbBlockBegin
  2
BLOCK_56
 70
     0
 71
     0
 10
0.0
 20
0.0
 30
0.0
  3
BLOCK_56
  1

  0
POLYLINE
  5
200
330
1FC
100
AcDbEntity
  8
LAYER_1
 62
     5
100
AcDb2dPolyline
 66
     1
 10
0.0
 20
0.0
 30
0.0
  0
VERTEX
  5
201
330
200
100
AcDbEntity
  8
LAYER_1
 62
     5
100
AcDbVertex
100
AcDb2dVertex
 10
377.5469806998841
 20
-214.1812418084339
 30
0.0
  0
VERTEX
  5
202
330
200
100
AcDbEntity
  8
LAYER_1
 62
     5
100
AcDbVertex
100
AcDb2dVertex
 10
377.5469806998841
 20
-211.2601453464905
 30
0.0
  0
SEQEND
  5
203
330
200
100
AcDbEntity
  8
LAYER_1
  0
ENDBLK
  5
1FF
330
1FC
100
AcDbEntity
  8
0
100
AcDbBlockEnd
  0
BLOCK
  5
206
330
204
100
AcDbEntity
  8
0
100
AcDbBlockBegin
  2
BLOCK_57
 70
     0
 71
     0
 10
0.0
 20
0.0
 30
0.0
  3
BLOCK_57
  1

  0
POLYLINE
  5
208
330
204
100
AcDbEntity
  8
LAYER_1
 62
     5
100
AcDb2dPolyline
 66
     1
 10
0.0
 20
0.0
 30
0.0
  0
VERTEX
  5
209
330
208
100
AcDbEntity
  8
LAYER_1
 62
     5
100
AcDbVertex
100
AcDb2dVertex
 10
200.2120686348428
 20
-222.7908799356217
 30
0.0
  0
VERTEX
  5
20A
330
208
100
AcDbEntity
  8
LAYER_1
 62
     5
100
AcDbVertex
100
AcDb2dVertex
 10
200.2120686348428
 20
-225.7116318880165
 30
0.0
  0
SEQEND
  5
20B
330
208
100
AcDbEntity
  8
LAYER_1
  0
ENDBLK
  5
207
330
204
100
AcDbEntity
  8
0
100
AcDbBlockEnd
  0
BLOCK
  5
20E
330
20C
100
AcDbEntity
  8
0
100
AcDbBlockBegin
  2
BLOCK_58
 70
     0
 71
     0
 10
0.0
 20
0.0
 30
0.0
  3
BLOCK_58
  1

  0
POLYLINE
  5
210
330
20C
100
AcDbEntity
  8
LAYER_1
 62
     5
100
AcDb2dPolyline
 66
     1
 10
0.0
 20
0.0
 30
0.0
  0
VERTEX
  5
211
330
210
100
AcDbEntity
  8
LAYER_1
 62
     5
100
AcDbVertex
100
AcDb2dVertex
 10
726.2998533340501
 20
-47.87649195851699
 30
0.0
  0
VERTEX
  5
212
330
210
100
AcDbEntity
  8
LAYER_1
 62
     5
100
AcDbVertex
100
AcDb2dVertex
 10
729.2209497959934
 20
-47.87649195851699
 30
0.0
  0
SEQEND
  5
213
330
210
100
AcDbEntity
  8
LAYER_1
  0
ENDBLK
  5
20F
330
20C
100
AcDbEntity
  8
0
100
AcDbBlockEnd
  0
BLOCK
  5
216
330
214
100
AcDbEntity
  8
0
100
AcDbBlockBegin
  2
BLOCK_59
 70
     0
 71
     0
 10
0.0
 20
0.0
 30
0.0
  3
BLOCK_59
  1

  0
POLYLINE
  5
218
330
214
100
AcDbEntity
  8
LAYER_1
 62
     5
100
AcDb2dPolyline
 66
     1
 10
0.0
 20
0.0
 30
0.0
  0
VERTEX
  5
219
330
218
100
AcDbEntity
  8
LAYER_1
 62
     5
100
AcDbVertex
100
AcDb2dVertex
 10
729.2209497959934
 20
-47.87649195851699
 30
0.0
  0
VERTEX
  5
21A
330
218
100
AcDbEntity
  8
LAYER_1
 62
     5
100
AcDbVertex
100
AcDb2dVertex
 10
729.2209497959934
 20
-79.62649195057949
 30
0.0
  0
SEQEND
  5
21B
330
218
100
AcDbEntity
  8
LAYER_1
  0
ENDBLK
  5
217
330
214
100
AcDbEntity
  8
0
100
AcDbBlockEnd
  0
BLOCK
  5
21E
330
21C
100
AcDbEntity
  8
0
100
AcDbBlockBegin
  2
BLOCK_60
 70
     0
 71
     0
 10
0.0
 20
0.0
 30
0.0
  3
BLOCK_60
  1

  0
POLYLINE
  5
220
330
21C
100
AcDbEntity
  8
LAYER_1
 62
     5
100
AcDb2dPolyline
 66
     1
 10
0.0
 20
0.0
 30
0.0
  0
VERTEX
  5
221
330
220
100
AcDbEntity
  8
LAYER_1
 62
     5
100
AcDbVertex
100
AcDb2dVertex
 10
729.2209497959934
 20
-79.62649195057949
 30
0.0
  0
VERTEX
  5
222
330
220
100
AcDbEntity
  8
LAYER_1
 62
     5
100
AcDbVertex
100
AcDb2dVertex
 10
748.7791013753052
 20
-79.62649195057949
 30
0.0
  0
SEQEND
  5
223
330
220
100
AcDbEntity
  8
LAYER_1
  0
ENDBLK
  5
21F
330
21C
100
AcDbEntity
  8
0
100
AcDbBlockEnd
  0
BLOCK
  5
226
330
224
100
AcDbEntity
  8
0
100
AcDbBlockBegin
  2
BLOCK_61
 70
     0
 71
     0
 10
0.0
 20
0.0
 30
0.0
  3
BLOCK_61
  1

  0
POLYLINE
  5
228
330
224
100
AcDbEntity
  8
LAYER_1
 62
     5
100
AcDb2dPolyline
 66
     1
 10
0.0
 20
0.0
 30
0.0
  0
VERTEX
  5
229
330
228
100
AcDbEntity
  8
LAYER_1
 62
     5
100
AcDbVertex
100
AcDb2dVertex
 10
748.7791013753052
 20
-79.62649195057949
 30
0.0
  0
VERTEX
  5
22A
330
228
100
AcDbEntity
  8
LAYER_1
 62
     5
100
AcDbVertex
100
AcDb2dVertex
 10
748.7791013753052
 20
-47.87649195851699
 30
0.0
  0
SEQEND
  5
22B
330
228
100
AcDbEntity
  8
LAYER_1
  0
ENDBLK
  5
227
330
224
100
AcDbEntity
  8
0
100
AcDbBlockEnd
  0
BLOCK
  5
22E
330
22C
100
AcDbEntity
  8
0
100
AcDbBlockBegin
  2
BLOCK_62
 70
     0
 71
     0
 10
0.0
 20
0.0
 30
0.0
  3
BLOCK_62
  1

  0
POLYLINE
  5
230
330
22C
100
AcDbEntity
  8
LAYER_1
 62
     5
100
AcDb2dPolyline
 66
     1
 10
0.0
 20
0.0
 30
0.0
  0
VERTEX
  5
231
330
230
100
AcDbEntity
  8
LAYER_1
 62
     5
100
AcDbVertex
100
AcDb2dVertex
 10
748.7791013753052
 20
-47.87649195851699
 30
0.0
  0
VERTEX
  5
232
330
230
100
AcDbEntity
  8
LAYER_1
 62
     5
100
AcDbVertex
100
AcDb2dVertex
 10
751.6998533277001
 20
-47.87649195851699
 30
0.0
  0
SEQEND
  5
233
330
230
100
AcDbEntity
  8
LAYER_1
  0
ENDBLK
  5
22F
330
22C
100
AcDbEntity
  8
0
100
AcDbBlockEnd
  0
BLOCK
  5
236
330
234
100
AcDbEntity
  8
0
100
AcDbBlockBegin
  2
BLOCK_63
 70
     0
 71
     0
 10
0.0
 20
0.0
 30
0.0
  3
BLOCK_63
  1

  0
POLYLINE
  5
238
330
234
100
AcDbEntity
  8
LAYER_1
 62
     5
100
AcDb2dPolyline
 66
     1
 10
0.0
 20
0.0
 30
0.0
  0
VERTEX
  5
239
330
238
100
AcDbEntity
  8
LAYER_1
 62
     5
100
AcDbVertex
100
AcDb2dVertex
 10
751.6998533277001
 20
-47.87649195851699
 30
0.0
  0
VERTEX
  5
23A
330
238
100
AcDbEntity
  8
LAYER_1
 62
     5
100
AcDbVertex
100
AcDb2dVertex
 10
751.6998533277001
 20
-79.62649195057949
 30
0.0
  0
SEQEND
  5
23B
330
238
100
AcDbEntity
  8
LAYER_1
  0
ENDBLK
  5
237
330
234
100
AcDbEntity
  8
0
100
AcDbBlockEnd
  0
BLOCK
  5
23E
330
23C
100
AcDbEntity
  8
0
100
AcDbBlockBegin
  2
BLOCK_64
 70
     0
 71
     0
 10
0.0
 20
0.0
 30
0.0
  3
BLOCK_64
  1

  0
POLYLINE
  5
240
330
23C
100
AcDbEntity
  8
LAYER_1
 62
     5
100
AcDb2dPolyline
 66
     1
 10
0.0
 20
0.0
 30
0.0
  0
VERTEX
  5
241
330
240
100
AcDbEntity
  8
LAYER_1
 62
     5
100
AcDbVertex
100
AcDb2dVertex
 10
751.6998533277001
 20
-79.62649195057949
 30
0.0
  0
VERTEX
  5
242
330
240
100
AcDbEntity
  8
LAYER_1
 62
     5
100
AcDbVertex
100
AcDb2dVertex
 10
751.6998533277001
 20
-82.54758841252283
 30
0.0
  0
SEQEND
  5
243
330
240
100
AcDbEntity
  8
LAYER_1
  0
ENDBLK
  5
23F
330
23C
100
AcDbEntity
  8
0
100
AcDbBlockEnd
  0
BLOCK
  5
246
330
244
100
AcDbEntity
  8
0
100
AcDbBlockBegin
  2
BLOCK_65
 70
     0
 71
     0
 10
0.0
 20
0.0
 30
0.0
  3
BLOCK_65
  1

  0
POLYLINE
  5
248
330
244
100
AcDbEntity
  8
LAYER_1
 62
     5
100
AcDb2dPolyline
 66
     1
 10
0.0
 20
0.0
 30
0.0
  0
VERTEX
  5
249
330
248
100
AcDbEntity
  8
LAYER_1
 62
     5
100
AcDbVertex
100
AcDb2dVertex
 10
751.6998533277001
 20
-82.54758841252283
 30
0.0
  0
VERTEX
  5
24A
330
248
100
AcDbEntity
  8
LAYER_1
 62
     5
100
AcDbVertex
100
AcDb2dVertex
 10
777.0998533213501
 20
-82.54758841252283
 30
0.0
  0
SEQEND
  5
24B
330
248
100
AcDbEntity
  8
LAYER_1
  0
ENDBLK
  5
247
330
244
100
AcDbEntity
  8
0
100
AcDbBlockEnd
  0
BLOCK
  5
24E
330
24C
100
AcDbEntity
  8
0
100
AcDbBlockBegin
  2
BLOCK_66
 70
     0
 71
     0
 10
0.0
 20
0.0
 30
0.0
  3
BLOCK_66
  1

  0
POLYLINE
  5
250
330
24C
100
AcDbEntity
  8
LAYER_1
 62
     5
100
AcDb2dPolyline
 66
     1
 10
0.0
 20
0.0
 30
0.0
  0
VERTEX
  5
251
330
250
100
AcDbEntity
  8
LAYER_1
 62
     5
100
AcDbVertex
100
AcDb2dVertex
 10
777.0998533213501
 20
-82.54758841252283
 30
0.0
  0
VERTEX
  5
252
330
250
100
AcDbEntity
  8
LAYER_1
 62
     5
100
AcDbVertex
100
AcDb2dVertex
 10
777.0998533213501
 20
-79.62649195057949
 30
0.0
  0
SEQEND
  5
253
330
250
100
AcDbEntity
  8
LAYER_1
  0
ENDBLK
  5
24F
330
24C
100
AcDbEntity
  8
0
100
AcDbBlockEnd
  0
BLOCK
  5
256
330
254
100
AcDbEntity
  8
0
100
AcDbBlockBegin
  2
BLOCK_67
 70
     0
 71
     0
 10
0.0
 20
0.0
 30
0.0
  3
BLOCK_67
  1

  0
POLYLINE
  5
258
330
254
100
AcDbEntity
  8
LAYER_1
 62
     5
100
AcDb2dPolyline
 66
     1
 10
0.0
 20
0.0
 30
0.0
  0
VERTEX
  5
259
330
258
100
AcDbEntity
  8
LAYER_1
 62
     5
100
AcDbVertex
100
AcDb2dVertex
 10
777.0998533213501
 20
-79.62649195057949
 30
0.0
  0
VERTEX
  5
25A
330
258
100
AcDbEntity
  8
LAYER_1
 62
     5
100
AcDbVertex
100
AcDb2dVertex
 10
789.7998533181751
 20
-79.62649195057949
 30
0.0
  0
SEQEND
  5
25B
330
258
100
AcDbEntity
  8
LAYER_1
  0
ENDBLK
  5
257
330
254
100
AcDbEntity
  8
0
100
AcDbBlockEnd
  0
BLOCK
  5
25E
330
25C
100
AcDbEntity
  8
0
100
AcDbBlockBegin
  2
BLOCK_68
 70
     0
 71
     0
 10
0.0
 20
0.0
 30
0.0
  3
BLOCK_68
  1

  0
POLYLINE
  5
260
330
25C
100
AcDbEntity
  8
LAYER_1
 62
     5
100
AcDb2dPolyline
 66
     1
 10
0.0
 20
0.0
 30
0.0
  0
VERTEX
  5
261
330
260
100
AcDbEntity
  8
LAYER_1
 62
     5
100
AcDbVertex
100
AcDb2dVertex
 10
789.7998533181751
 20
-79.62649195057949
 30
0.0
  0
VERTEX
  5
262
330
260
100
AcDbEntity
  8
LAYER_1
 62
     5
100
AcDbVertex
100
AcDb2dVertex
 10
789.7998533181751
 20
-16.12649196645449
 30
0.0
  0
SEQEND
  5
263
330
260
100
AcDbEntity
  8
LAYER_1
  0
ENDBLK
  5
25F
330
25C
100
AcDbEntity
  8
0
100
AcDbBlockEnd
  0
BLOCK
  5
266
330
264
100
AcDbEntity
  8
0
100
AcDbBlockBegin
  2
BLOCK_69
 70
     0
 71
     0
 10
0.0
 20
0.0
 30
0.0
  3
BLOCK_69
  1

  0
POLYLINE
  5
268
330
264
100
AcDbEntity
  8
LAYER_1
 62
     5
100
AcDb2dPolyline
 66
     1
 10
0.0
 20
0.0
 30
0.0
  0
VERTEX
  5
269
330
268
100
AcDbEntity
  8
LAYER_1
 62
     5
100
AcDbVertex
100
AcDb2dVertex
 10
789.7998533181751
 20
-16.12649196645449
 30
0.0
  0
VERTEX
  5
26A
330
268
100
AcDbEntity
  8
LAYER_1
 62
     5
100
AcDbVertex
100
AcDb2dVertex
 10
777.0998533213501
 20
-16.12649196645449
 30
0.0
  0
SEQEND
  5
26B
330
268
100
AcDbEntity
  8
LAYER_1
  0
ENDBLK
  5
267
330
264
100
AcDbEntity
  8
0
100
AcDbBlockEnd
  0
BLOCK
  5
26E
330
26C
100
AcDbEntity
  8
0
100
AcDbBlockBegin
  2
BLOCK_70
 70
     0
 71
     0
 10
0.0
 20
0.0
 30
0.0
  3
BLOCK_70
  1

  0
POLYLINE
  5
270
330
26C
100
AcDbEntity
  8
LAYER_1
 62
     5
100
AcDb2dPolyline
 66
     1
 10
0.0
 20
0.0
 30
0.0
  0
VERTEX
  5
271
330
270
100
AcDbEntity
  8
LAYER_1
 62
     5
100
AcDbVertex
100
AcDb2dVertex
 10
777.0998533213501
 20
-16.12649196645449
 30
0.0
  0
VERTEX
  5
272
330
270
100
AcDbEntity
  8
LAYER_1
 62
     5
100
AcDbVertex
100
AcDb2dVertex
 10
777.0998533213501
 20
-13.20556775928541
 30
0.0
  0
SEQEND
  5
273
330
270
100
AcDbEntity
  8
LAYER_1
  0
ENDBLK
  5
26F
330
26C
100
AcDbEntity
  8
0
100
AcDbBlockEnd
  0
BLOCK
  5
276
330
274
100
AcDbEntity
  8
0
100
AcDbBlockBegin
  2
BLOCK_71
 70
     0
 71
     0
 10
0.0
 20
0.0
 30
0.0
  3
BLOCK_71
  1

  0
POLYLINE
  5
278
330
274
100
AcDbEntity
  8
LAYER_1
 62
     5
100
AcDb2dPolyline
 66
     1
 10
0.0
 20
0.0
 30
0.0
  0
VERTEX
  5
279
330
278
100
AcDbEntity
  8
LAYER_1
 62
     5
100
AcDbVertex
100
AcDb2dVertex
 10
777.0998533213501
 20
-13.20556775928541
 30
0.0
  0
VERTEX
  5
27A
330
278
100
AcDbEntity
  8
LAYER_1
 62
     5
100
AcDbVertex
100
AcDb2dVertex
 10
751.6998533277001
 20
-13.20556775928541
 30
0.0
  0
SEQEND
  5
27B
330
278
100
AcDbEntity
  8
LAYER_1
  0
ENDBLK
  5
277
330
274
100
AcDbEntity
  8
0
100
AcDbBlockEnd
  0
BLOCK
  5
27E
330
27C
100
AcDbEntity
  8
0
100
AcDbBlockBegin
  2
BLOCK_72
 70
     0
 71
     0
 10
0.0
 20
0.0
 30
0.0
  3
BLOCK_72
  1

  0
POLYLINE
  5
280
330
27C
100
AcDbEntity
  8
LAYER_1
 62
     5
100
AcDb2dPolyline
 66
     1
 10
0.0
 20
0.0
 30
0.0
  0
VERTEX
  5
281
330
280
100
AcDbEntity
  8
LAYER_1
 62
     5
100
AcDbVertex
100
AcDb2dVertex
 10
751.6998533277001
 20
-13.20556775928541
 30
0.0
  0
VERTEX
  5
282
330
280
100
AcDbEntity
  8
LAYER_1
 62
     5
100
AcDbVertex
100
AcDb2dVertex
 10
751.6998533277001
 20
-16.12649196645449
 30
0.0
  0
SEQEND
  5
283
330
280
100
AcDbEntity
  8
LAYER_1
  0
ENDBLK
  5
27F
330
27C
100
AcDbEntity
  8
0
100
AcDbBlockEnd
  0
BLOCK
  5
286
330
284
100
AcDbEntity
  8
0
100
AcDbBlockBegin
  2
BLOCK_73
 70
     0
 71
     0
 10
0.0
 20
0.0
 30
0.0
  3
BLOCK_73
  1

  0
POLYLINE
  5
288
330
284
100
AcDbEntity
  8
LAYER_1
 62
     5
100
AcDb2dPolyline
 66
     1
 10
0.0
 20
0.0
 30
0.0
  0
VERTEX
  5
289
330
288
100
AcDbEntity
  8
LAYER_1
 62
     5
100
AcDbVertex
100
AcDb2dVertex
 10
751.6998533277001
 20
-16.12649196645449
 30
0.0
  0
VERTEX
  5
28A
330
288
100
AcDbEntity
  8
LAYER_1
 62
     5
100
AcDbVertex
100
AcDb2dVertex
 10
726.2998533340501
 20
-16.12649196645449
 30
0.0
  0
SEQEND
  5
28B
330
288
100
AcDbEntity
  8
LAYER_1
  0
ENDBLK
  5
287
330
284
100
AcDbEntity
  8
0
100
AcDbBlockEnd
  0
BLOCK
  5
28E
330
28C
100
AcDbEntity
  8
0
100
AcDbBlockBegin
  2
BLOCK_74
 70
     0
 71
     0
 10
0.0
 20
0.0
 30
0.0
  3
BLOCK_74
  1

  0
POLYLINE
  5
290
330
28C
100
AcDbEntity
  8
LAYER_1
 62
     5
100
AcDb2dPolyline
 66
     1
 10
0.0
 20
0.0
 30
0.0
  0
VERTEX
  5
291
330
290
100
AcDbEntity
  8
LAYER_1
 62
     5
100
AcDbVertex
100
AcDb2dVertex
 10
726.2998533340501
 20
-16.12649196645449
 30
0.0
  0
VERTEX
  5
292
330
290
100
AcDbEntity
  8
LAYER_1
 62
     5
100
AcDbVertex
100
AcDb2dVertex
 10
726.2998533340501
 20
-13.20556775928541
 30
0.0
  0
SEQEND
  5
293
330
290
100
AcDbEntity
  8
LAYER_1
  0
ENDBLK
  5
28F
330
28C
100
AcDbEntity
  8
0
100
AcDbBlockEnd
  0
BLOCK
  5
296
330
294
100
AcDbEntity
  8
0
100
AcDbBlockBegin
  2
BLOCK_75
 70
     0
 71
     0
 10
0.0
 20
0.0
 30
0.0
  3
BLOCK_75
  1

  0
POLYLINE
  5
298
330
294
100
AcDbEntity
  8
LAYER_1
 62
     5
100
AcDb2dPolyline
 66
     1
 10
0.0
 20
0.0
 30
0.0
  0
VERTEX
  5
299
330
298
100
AcDbEntity
  8
LAYER_1
 62
     5
100
AcDbVertex
100
AcDb2dVertex
 10
726.2998533340501
 20
-13.20556775928541
 30
0.0
  0
VERTEX
  5
29A
330
298
100
AcDbEntity
  8
LAYER_1
 62
     5
100
AcDbVertex
100
AcDb2dVertex
 10
700.8998533404001
 20
-13.20556775928541
 30
0.0
  0
SEQEND
  5
29B
330
298
100
AcDbEntity
  8
LAYER_1
  0
ENDBLK
  5
297
330
294
100
AcDbEntity
  8
0
100
AcDbBlockEnd
  0
BLOCK
  5
29E
330
29C
100
AcDbEntity
  8
0
100
AcDbBlockBegin
  2
BLOCK_76
 70
     0
 71
     0
 10
0.0
 20
0.0
 30
0.0
  3
BLOCK_76
  1

  0
POLYLINE
  5
2A0
330
29C
100
AcDbEntity
  8
LAYER_1
 62
     5
100
AcDb2dPolyline
 66
     1
 10
0.0
 20
0.0
 30
0.0
  0
VERTEX
  5
2A1
330
2A0
100
AcDbEntity
  8
LAYER_1
 62
     5
100
AcDbVertex
100
AcDb2dVertex
 10
700.8998533404001
 20
-13.20556775928541
 30
0.0
  0
VERTEX
  5
2A2
330
2A0
100
AcDbEntity
  8
LAYER_1
 62
     5
100
AcDbVertex
100
AcDb2dVertex
 10
700.8998533404001
 20
-16.12649196645449
 30
0.0
  0
SEQEND
  5
2A3
330
2A0
100
AcDbEntity
  8
LAYER_1
  0
ENDBLK
  5
29F
330
29C
100
AcDbEntity
  8
0
100
AcDbBlockEnd
  0
BLOCK
  5
2A6
330
2A4
100
AcDbEntity
  8
0
100
AcDbBlockBegin
  2
BLOCK_77
 70
     0
 71
     0
 10
0.0
 20
0.0
 30
0.0
  3
BLOCK_77
  1

  0
POLYLINE
  5
2A8
330
2A4
100
AcDbEntity
  8
LAYER_1
 62
     5
100
AcDb2dPolyline
 66
     1
 10
0.0
 20
0.0
 30
0.0
  0
VERTEX
  5
2A9
330
2A8
100
AcDbEntity
  8
LAYER_1
 62
     5
100
AcDbVertex
100
AcDb2dVertex
 10
700.8998533404001
 20
-16.12649196645449
 30
0.0
  0
VERTEX
  5
2AA
330
2A8
100
AcDbEntity
  8
LAYER_1
 62
     5
100
AcDbVertex
100
AcDb2dVertex
 10
694.5498533419876
 20
-16.12649196645449
 30
0.0
  0
SEQEND
  5
2AB
330
2A8
100
AcDbEntity
  8
LAYER_1
  0
ENDBLK
  5
2A7
330
2A4
100
AcDbEntity
  8
0
100
AcDbBlockEnd
  0
BLOCK
  5
2AE
330
2AC
100
AcDbEntity
  8
0
100
AcDbBlockBegin
  2
BLOCK_78
 70
     0
 71
     0
 10
0.0
 20
0.0
 30
0.0
  3
BLOCK_78
  1

  0
POLYLINE
  5
2B0
330
2AC
100
AcDbEntity
  8
LAYER_1
 62
     5
100
AcDb2dPolyline
 66
     1
 10
0.0
 20
0.0
 30
0.0
  0
VERTEX
  5
2B1
330
2B0
100
AcDbEntity
  8
LAYER_1
 62
     5
100
AcDbVertex
100
AcDb2dVertex
 10
694.5498533419876
 20
-16.12649196645449
 30
0.0
  0
VERTEX
  5
2B2
330
2B0
100
AcDbEntity
  8
LAYER_1
 62
     5
100
AcDbVertex
100
AcDb2dVertex
 10
694.5498533419876
 20
-52.92579615647342
 30
0.0
  0
VERTEX
  5
2B3
330
2B0
100
AcDbEntity
  8
LAYER_1
 62
     5
100
AcDbVertex
100
AcDb2dVertex
 10
688.1998533435751
 20
-52.92579615647342
 30
0.0
  0
SEQEND
  5
2B4
330
2B0
100
AcDbEntity
  8
LAYER_1
  0
ENDBLK
  5
2AF
330
2AC
100
AcDbEntity
  8
0
100
AcDbBlockEnd
  0
BLOCK
  5
2B7
330
2B5
100
AcDbEntity
  8
0
100
AcDbBlockBegin
  2
BLOCK_79
 70
     0
 71
     0
 10
0.0
 20
0.0
 30
0.0
  3
BLOCK_79
  1

  0
POLYLINE
  5
2B9
330
2B5
100
AcDbEntity
  8
LAYER_1
 62
     5
100
AcDb2dPolyline
 66
     1
 10
0.0
 20
0.0
 30
0.0
  0
VERTEX
  5
2BA
330
2B9
100
AcDbEntity
  8
LAYER_1
 62
     5
100
AcDbVertex
100
AcDb2dVertex
 10
688.1998533435751
 20
-52.92579615647342
 30
0.0
  0
VERTEX
  5
2BB
330
2B9
100
AcDbEntity
  8
LAYER_1
 62
     5
100
AcDbVertex
100
AcDb2dVertex
 10
688.1998533435751
 20
-79.62649195057949
 30
0.0
  0
SEQEND
  5
2BC
330
2B9
100
AcDbEntity
  8
LAYER_1
  0
ENDBLK
  5
2B8
330
2B5
100
AcDbEntity
  8
0
100
AcDbBlockEnd
  0
BLOCK
  5
2BF
330
2BD
100
AcDbEntity
  8
0
100
AcDbBlockBegin
  2
BLOCK_80
 70
     0
 71
     0
 10
0.0
 20
0.0
 30
0.0
  3
BLOCK_80
  1

  0
POLYLINE
  5
2C1
330
2BD
100
AcDbEntity
  8
LAYER_1
 62
     5
100
AcDb2dPolyline
 66
     1
 10
0.0
 20
0.0
 30
0.0
  0
VERTEX
  5
2C2
330
2C1
100
AcDbEntity
  8
LAYER_1
 62
     5
100
AcDbVertex
100
AcDb2dVertex
 10
688.1998533435751
 20
-79.62649195057949
 30
0.0
  0
VERTEX
  5
2C3
330
2C1
100
AcDbEntity
  8
LAYER_1
 62
     5
100
AcDbVertex
100
AcDb2dVertex
 10
700.8998533404001
 20
-79.62649195057949
 30
0.0
  0
SEQEND
  5
2C4
330
2C1
100
AcDbEntity
  8
LAYER_1
  0
ENDBLK
  5
2C0
330
2BD
100
AcDbEntity
  8
0
100
AcDbBlockEnd
  0
BLOCK
  5
2C7
330
2C5
100
AcDbEntity
  8
0
100
AcDbBlockBegin
  2
BLOCK_81
 70
     0
 71
     0
 10
0.0
 20
0.0
 30
0.0
  3
BLOCK_81
  1

  0
POLYLINE
  5
2C9
330
2C5
100
AcDbEntity
  8
LAYER_1
 62
     5
100
AcDb2dPolyline
 66
     1
 10
0.0
 20
0.0
 30
0.0
  0
VERTEX
  5
2CA
330
2C9
100
AcDbEntity
  8
LAYER_1
 62
     5
100
AcDbVertex
100
AcDb2dVertex
 10
700.8998533404001
 20
-79.62649195057949
 30
0.0
  0
VERTEX
  5
2CB
330
2C9
100
AcDbEntity
  8
LAYER_1
 62
     5
100
AcDbVertex
100
AcDb2dVertex
 10
700.8998533404001
 20
-82.54758841252283
 30
0.0
  0
SEQEND
  5
2CC
330
2C9
100
AcDbEntity
  8
LAYER_1
  0
ENDBLK
  5
2C8
330
2C5
100
AcDbEntity
  8
0
100
AcDbBlockEnd
  0
BLOCK
  5
2CF
330
2CD
100
AcDbEntity
  8
0
100
AcDbBlockBegin
  2
BLOCK_82
 70
     0
 71
     0
 10
0.0
 20
0.0
 30
0.0
  3
BLOCK_82
  1

  0
POLYLINE
  5
2D1
330
2CD
100
AcDbEntity
  8
LAYER_1
 62
     5
100
AcDb2dPolyline
 66
     1
 10
0.0
 20
0.0
 30
0.0
  0
VERTEX
  5
2D2
330
2D1
100
AcDbEntity
  8
LAYER_1
 62
     5
100
AcDbVertex
100
AcDb2dVertex
 10
700.8998533404001
 20
-82.54758841252283
 30
0.0
  0
VERTEX
  5
2D3
330
2D1
100
AcDbEntity
  8
LAYER_1
 62
     5
100
AcDbVertex
100
AcDb2dVertex
 10
726.2998533340501
 20
-82.54758841252283
 30
0.0
  0
SEQEND
  5
2D4
330
2D1
100
AcDbEntity
  8
LAYER_1
  0
ENDBLK
  5
2D0
330
2CD
100
AcDbEntity
  8
0
100
AcDbBlockEnd
  0
BLOCK
  5
2D7
330
2D5
100
AcDbEntity
  8
0
100
AcDbBlockBegin
  2
BLOCK_83
 70
     0
 71
     0
 10
0.0
 20
0.0
 30
0.0
  3
BLOCK_83
  1

  0
POLYLINE
  5
2D9
330
2D5
100
AcDbEntity
  8
LAYER_1
 62
     5
100
AcDb2dPolyline
 66
     1
 10
0.0
 20
0.0
 30
0.0
  0
VERTEX
  5
2DA
330
2D9
100
AcDbEntity
  8
LAYER_1
 62
     5
100
AcDbVertex
100
AcDb2dVertex
 10
726.2998533340501
 20
-82.54758841252283
 30
0.0
  0
VERTEX
  5
2DB
330
2D9
100
AcDbEntity
  8
LAYER_1
 62
     5
100
AcDbVertex
100
AcDb2dVertex
 10
726.2998533340501
 20
-79.62649195057949
 30
0.0
  0
SEQEND
  5
2DC
330
2D9
100
AcDbEntity
  8
LAYER_1
  0
ENDBLK
  5
2D8
330
2D5
100
AcDbEntity
  8
0
100
AcDbBlockEnd
  0
BLOCK
  5
2DF
330
2DD
100
AcDbEntity
  8
0
100
AcDbBlockBegin
  2
BLOCK_84
 70
     0
 71
     0
 10
0.0
 20
0.0
 30
0.0
  3
BLOCK_84
  1

  0
POLYLINE
  5
2E1
330
2DD
100
AcDbEntity
  8
LAYER_1
 62
     5
100
AcDb2dPolyline
 66
     1
 10
0.0
 20
0.0
 30
0.0
  0
VERTEX
  5
2E2
330
2E1
100
AcDbEntity
  8
LAYER_1
 62
     5
100
AcDbVertex
100
AcDb2dVertex
 10
726.2998533340501
 20
-79.62649195057949
 30
0.0
  0
VERTEX
  5
2E3
330
2E1
100
AcDbEntity
  8
LAYER_1
 62
     5
100
AcDbVertex
100
AcDb2dVertex
 10
726.2998533340501
 20
-47.87649195851699
 30
0.0
  0
SEQEND
  5
2E4
330
2E1
100
AcDbEntity
  8
LAYER_1
  0
ENDBLK
  5
2E0
330
2DD
100
AcDbEntity
  8
0
100
AcDbBlockEnd
  0
BLOCK
  5
2E7
330
2E5
100
AcDbEntity
  8
0
100
AcDbBlockBegin
  2
BLOCK_85
 70
     0
 71
     0
 10
0.0
 20
0.0
 30
0.0
  3
BLOCK_85
  1

  0
POLYLINE
  5
2E9
330
2E5
100
AcDbEntity
  8
LAYER_1
 62
     5
100
AcDb2dPolyline
 66
     1
 10
0.0
 20
0.0
 30
0.0
  0
VERTEX
  5
2EA
330
2E9
100
AcDbEntity
  8
LAYER_1
 62
     5
100
AcDbVertex
100
AcDb2dVertex
 10
612.4859563355939
 20
-47.87649195851699
 30
0.0
  0
VERTEX
  5
2EB
330
2E9
100
AcDbEntity
  8
LAYER_1
 62
     5
100
AcDbVertex
100
AcDb2dVertex
 10
615.4070527975372
 20
-47.87649195851699
 30
0.0
  0
SEQEND
  5
2EC
330
2E9
100
AcDbEntity
  8
LAYER_1
  0
ENDBLK
  5
2E8
330
2E5
100
AcDbEntity
  8
0
100
AcDbBlockEnd
  0
BLOCK
  5
2EF
330
2ED
100
AcDbEntity
  8
0
100
AcDbBlockBegin
  2
BLOCK_86
 70
     0
 71
     0
 10
0.0
 20
0.0
 30
0.0
  3
BLOCK_86
  1

  0
POLYLINE
  5
2F1
330
2ED
100
AcDbEntity
  8
LAYER_1
 62
     5
100
AcDb2dPolyline
 66
     1
 10
0.0
 20
0.0
 30
0.0
  0
VERTEX
  5
2F2
330
2F1
100
AcDbEntity
  8
LAYER_1
 62
     5
100
AcDbVertex
100
AcDb2dVertex
 10
615.4070527975372
 20
-47.87649195851699
 30
0.0
  0
VERTEX
  5
2F3
330
2F1
100
AcDbEntity
  8
LAYER_1
 62
     5
100
AcDbVertex
100
AcDb2dVertex
 10
615.4070527975372
 20
-79.62649195057949
 30
0.0
  0
SEQEND
  5
2F4
330
2F1
100
AcDbEntity
  8
LAYER_1
  0
ENDBLK
  5
2F0
330
2ED
100
AcDbEntity
  8
0
100
AcDbBlockEnd
  0
BLOCK
  5
2F7
330
2F5
100
AcDbEntity
  8
0
100
AcDbBlockBegin
  2
BLOCK_87
 70
     0
 71
     0
 10
0.0
 20
0.0
 30
0.0
  3
BLOCK_87
  1

  0
POLYLINE
  5
2F9
330
2F5
100
AcDbEntity
  8
LAYER_1
 62
     5
100
AcDb2dPolyline
 66
     1
 10
0.0
 20
0.0
 30
0.0
  0
VERTEX
  5
2FA
330
2F9
100
AcDbEntity
  8
LAYER_1
 62
     5
100
AcDbVertex
100
AcDb2dVertex
 10
615.4070527975372
 20
-79.62649195057949
 30
0.0
  0
VERTEX
  5
2FB
330
2F9
100
AcDbEntity
  8
LAYER_1
 62
     5
100
AcDbVertex
100
AcDb2dVertex
 10
634.965204376849
 20
-79.62649195057949
 30
0.0
  0
SEQEND
  5
2FC
330
2F9
100
AcDbEntity
  8
LAYER_1
  0
ENDBLK
  5
2F8
330
2F5
100
AcDbEntity
  8
0
100
AcDbBlockEnd
  0
BLOCK
  5
2FF
330
2FD
100
AcDbEntity
  8
0
100
AcDbBlockBegin
  2
BLOCK_88
 70
     0
 71
     0
 10
0.0
 20
0.0
 30
0.0
  3
BLOCK_88
  1

  0
POLYLINE
  5
301
330
2FD
100
AcDbEntity
  8
LAYER_1
 62
     5
100
AcDb2dPolyline
 66
     1
 10
0.0
 20
0.0
 30
0.0
  0
VERTEX
  5
302
330
301
100
AcDbEntity
  8
LAYER_1
 62
     5
100
AcDbVertex
100
AcDb2dVertex
 10
634.965204376849
 20
-79.62649195057949
 30
0.0
  0
VERTEX
  5
303
330
301
100
AcDbEntity
  8
LAYER_1
 62
     5
100
AcDbVertex
100
AcDb2dVertex
 10
634.965204376849
 20
-47.87649195851699
 30
0.0
  0
SEQEND
  5
304
330
301
100
AcDbEntity
  8
LAYER_1
  0
ENDBLK
  5
300
330
2FD
100
AcDbEntity
  8
0
100
AcDbBlockEnd
  0
BLOCK
  5
307
330
305
100
AcDbEntity
  8
0
100
AcDbBlockBegin
  2
BLOCK_89
 70
     0
 71
     0
 10
0.0
 20
0.0
 30
0.0
  3
BLOCK_89
  1

  0
POLYLINE
  5
309
330
305
100
AcDbEntity
  8
LAYER_1
 62
     5
100
AcDb2dPolyline
 66
     1
 10
0.0
 20
0.0
 30
0.0
  0
VERTEX
  5
30A
330
309
100
AcDbEntity
  8
LAYER_1
 62
     5
100
AcDbVertex
100
AcDb2dVertex
 10
634.965204376849
 20
-47.87649195851699
 30
0.0
  0
VERTEX
  5
30B
330
309
100
AcDbEntity
  8
LAYER_1
 62
     5
100
AcDbVertex
100
AcDb2dVertex
 10
637.8859563292439
 20
-47.87649195851699
 30
0.0
  0
SEQEND
  5
30C
330
309
100
AcDbEntity
  8
LAYER_1
  0
ENDBLK
  5
308
330
305
100
AcDbEntity
  8
0
100
AcDbBlockEnd
  0
BLOCK
  5
30F
330
30D
100
AcDbEntity
  8
0
100
AcDbBlockBegin
  2
BLOCK_90
 70
     0
 71
     0
 10
0.0
 20
0.0
 30
0.0
  3
BLOCK_90
  1

  0
POLYLINE
  5
311
330
30D
100
AcDbEntity
  8
LAYER_1
 62
     5
100
AcDb2dPolyline
 66
     1
 10
0.0
 20
0.0
 30
0.0
  0
VERTEX
  5
312
330
311
100
AcDbEntity
  8
LAYER_1
 62
     5
100
AcDbVertex
100
AcDb2dVertex
 10
637.8859563292439
 20
-47.87649195851699
 30
0.0
  0
VERTEX
  5
313
330
311
100
AcDbEntity
  8
LAYER_1
 62
     5
100
AcDbVertex
100
AcDb2dVertex
 10
637.8859563292439
 20
-79.62649195057949
 30
0.0
  0
SEQEND
  5
314
330
311
100
AcDbEntity
  8
LAYER_1
  0
ENDBLK
  5
310
330
30D
100
AcDbEntity
  8
0
100
AcDbBlockEnd
  0
BLOCK
  5
317
330
315
100
AcDbEntity
  8
0
100
AcDbBlockBegin
  2
BLOCK_91
 70
     0
 71
     0
 10
0.0
 20
0.0
 30
0.0
  3
BLOCK_91
  1

  0
POLYLINE
  5
319
330
315
100
AcDbEntity
  8
LAYER_1
 62
     5
100
AcDb2dPolyline
 66
     1
 10
0.0
 20
0.0
 30
0.0
  0
VERTEX
  5
31A
330
319
100
AcDbEntity
  8
LAYER_1
 62
     5
100
AcDbVertex
100
AcDb2dVertex
 10
637.8859563292439
 20
-79.62649195057949
 30
0.0
  0
VERTEX
  5
31B
330
319
100
AcDbEntity
  8
LAYER_1
 62
     5
100
AcDbVertex
100
AcDb2dVertex
 10
637.8859563292439
 20
-82.54758841252283
 30
0.0
  0
SEQEND
  5
31C
330
319
100
AcDbEntity
  8
LAYER_1
  0
ENDBLK
  5
318
330
315
100
AcDbEntity
  8
0
100
AcDbBlockEnd
  0
BLOCK
  5
31F
330
31D
100
AcDbEntity
  8
0
100
AcDbBlockBegin
  2
BLOCK_92
 70
     0
 71
     0
 10
0.0
 20
0.0
 30
0.0
  3
BLOCK_92
  1

  0
POLYLINE
  5
321
330
31D
100
AcDbEntity
  8
LAYER_1
 62
     5
100
AcDb2dPolyline
 66
     1
 10
0.0
 20
0.0
 30
0.0
  0
VERTEX
  5
322
330
321
100
AcDbEntity
  8
LAYER_1
 62
     5
100
AcDbVertex
100
AcDb2dVertex
 10
637.8859563292439
 20
-82.54758841252283
 30
0.0
  0
VERTEX
  5
323
330
321
100
AcDbEntity
  8
LAYER_1
 62
     5
100
AcDbVertex
100
AcDb2dVertex
 10
663.2859563228939
 20
-82.54758841252283
 30
0.0
  0
SEQEND
  5
324
330
321
100
AcDbEntity
  8
LAYER_1
  0
ENDBLK
  5
320
330
31D
100
AcDbEntity
  8
0
100
AcDbBlockEnd
  0
BLOCK
  5
327
330
325
100
AcDbEntity
  8
0
100
AcDbBlockBegin
  2
BLOCK_93
 70
     0
 71
     0
 10
0.0
 20
0.0
 30
0.0
  3
BLOCK_93
  1

  0
POLYLINE
  5
329
330
325
100
AcDbEntity
  8
LAYER_1
 62
     5
100
AcDb2dPolyline
 66
     1
 10
0.0
 20
0.0
 30
0.0
  0
VERTEX
  5
32A
330
329
100
AcDbEntity
  8
LAYER_1
 62
     5
100
AcDbVertex
100
AcDb2dVertex
 10
663.2859563228939
 20
-82.54758841252283
 30
0.0
  0
VERTEX
  5
32B
330
329
100
AcDbEntity
  8
LAYER_1
 62
     5
100
AcDbVertex
100
AcDb2dVertex
 10
663.2859563228939
 20
-79.62649195057949
 30
0.0
  0
SEQEND
  5
32C
330
329
100
AcDbEntity
  8
LAYER_1
  0
ENDBLK
  5
328
330
325
100
AcDbEntity
  8
0
100
AcDbBlockEnd
  0
BLOCK
  5
32F
330
32D
100
AcDbEntity
  8
0
100
AcDbBlockBegin
  2
BLOCK_94
 70
     0
 71
     0
 10
0.0
 20
0.0
 30
0.0
  3
BLOCK_94
  1

  0
POLYLINE
  5
331
330
32D
100
AcDbEntity
  8
LAYER_1
 62
     5
100
AcDb2dPolyline
 66
     1
 10
0.0
 20
0.0
 30
0.0
  0
VERTEX
  5
332
330
331
100
AcDbEntity
  8
LAYER_1
 62
     5
100
AcDbVertex
100
AcDb2dVertex
 10
663.2859563228939
 20
-79.62649195057949
 30
0.0
  0
VERTEX
  5
333
330
331
100
AcDbEntity
  8
LAYER_1
 62
     5
100
AcDbVertex
100
AcDb2dVertex
 10
675.9859563197189
 20
-79.62649195057949
 30
0.0
  0
SEQEND
  5
334
330
331
100
AcDbEntity
  8
LAYER_1
  0
ENDBLK
  5
330
330
32D
100
AcDbEntity
  8
0
100
AcDbBlockEnd
  0
BLOCK
  5
337
330
335
100
AcDbEntity
  8
0
100
AcDbBlockBegin
  2
BLOCK_95
 70
     0
 71
     0
 10
0.0
 20
0.0
 30
0.0
  3
BLOCK_95
  1

  0
POLYLINE
  5
339
330
335
100
AcDbEntity
  8
LAYER_1
 62
     5
100
AcDb2dPolyline
 66
     1
 10
0.0
 20
0.0
 30
0.0
  0
VERTEX
  5
33A
330
339
100
AcDbEntity
  8
LAYER_1
 62
     5
100
AcDbVertex
100
AcDb2dVertex
 10
675.9859563197189
 20
-79.62649195057949
 30
0.0
  0
VERTEX
  5
33B
330
339
100
AcDbEntity
  8
LAYER_1
 62
     5
100
AcDbVertex
100
AcDb2dVertex
 10
675.9859563197189
 20
-16.12649196645449
 30
0.0
  0
SEQEND
  5
33C
330
339
100
AcDbEntity
  8
LAYER_1
  0
ENDBLK
  5
338
330
335
100
AcDbEntity
  8
0
100
AcDbBlockEnd
  0
BLOCK
  5
33F
330
33D
100
AcDbEntity
  8
0
100
AcDbBlockBegin
  2
BLOCK_96
 70
     0
 71
     0
 10
0.0
 20
0.0
 30
0.0
  3
BLOCK_96
  1

  0
POLYLINE
  5
341
330
33D
100
AcDbEntity
  8
LAYER_1
 62
     5
100
AcDb2dPolyline
 66
     1
 10
0.0
 20
0.0
 30
0.0
  0
VERTEX
  5
342
330
341
100
AcDbEntity
  8
LAYER_1
 62
     5
100
AcDbVertex
100
AcDb2dVertex
 10
675.9859563197189
 20
-16.12649196645449
 30
0.0
  0
VERTEX
  5
343
330
341
100
AcDbEntity
  8
LAYER_1
 62
     5
100
AcDbVertex
100
AcDb2dVertex
 10
663.2859563228939
 20
-16.12649196645449
 30
0.0
  0
SEQEND
  5
344
330
341
100
AcDbEntity
  8
LAYER_1
  0
ENDBLK
  5
340
330
33D
100
AcDbEntity
  8
0
100
AcDbBlockEnd
  0
BLOCK
  5
347
330
345
100
AcDbEntity
  8
0
100
AcDbBlockBegin
  2
BLOCK_97
 70
     0
 71
     0
 10
0.0
 20
0.0
 30
0.0
  3
BLOCK_97
  1

  0
POLYLINE
  5
349
330
345
100
AcDbEntity
  8
LAYER_1
 62
     5
100
AcDb2dPolyline
 66
     1
 10
0.0
 20
0.0
 30
0.0
  0
VERTEX
  5
34A
330
349
100
AcDbEntity
  8
LAYER_1
 62
     5
100
AcDbVertex
100
AcDb2dVertex
 10
663.2859563228939
 20
-16.12649196645449
 30
0.0
  0
VERTEX
  5
34B
330
349
100
AcDbEntity
  8
LAYER_1
 62
     5
100
AcDbVertex
100
AcDb2dVertex
 10
663.2859563228939
 20
-13.20556775928541
 30
0.0
  0
SEQEND
  5
34C
330
349
100
AcDbEntity
  8
LAYER_1
  0
ENDBLK
  5
348
330
345
100
AcDbEntity
  8
0
100
AcDbBlockEnd
  0
BLOCK
  5
34F
330
34D
100
AcDbEntity
  8
0
100
AcDbBlockBegin
  2
BLOCK_98
 70
     0
 71
     0
 10
0.0
 20
0.0
 30
0.0
  3
BLOCK_98
  1

  0
POLYLINE
  5
351
330
34D
100
AcDbEntity
  8
LAYER_1
 62
     5
100
AcDb2dPolyline
 66
     1
 10
0.0
 20
0.0
 30
0.0
  0
VERTEX
  5
352
330
351
100
AcDbEntity
  8
LAYER_1
 62
     5
100
AcDbVertex
100
AcDb2dVertex
 10
663.2859563228939
 20
-13.20556775928541
 30
0.0
  0
VERTEX
  5
353
330
351
100
AcDbEntity
  8
LAYER_1
 62
     5
100
AcDbVertex
100
AcDb2dVertex
 10
637.8859563292439
 20
-13.20556775928541
 30
0.0
  0
SEQEND
  5
354
330
351
100
AcDbEntity
  8
LAYER_1
  0
ENDBLK
  5
350
330
34D
100
AcDbEntity
  8
0
100
AcDbBlockEnd
  0
BLOCK
  5
357
330
355
100
AcDbEntity
  8
0
100
AcDbBlockBegin
  2
BLOCK_99
 70
     0
 71
     0
 10
0.0
 20
0.0
 30
0.0
  3
BLOCK_99
  1

  0
POLYLINE
  5
359
330
355
100
AcDbEntity
  8
LAYER_1
 62
     5
100
AcDb2dPolyline
 66
     1
 10
0.0
 20
0.0
 30
0.0
  0
VERTEX
  5
35A
330
359
100
AcDbEntity
  8
LAYER_1
 62
     5
100
AcDbVertex
100
AcDb2dVertex
 10
637.8859563292439
 20
-13.20556775928541
 30
0.0
  0
VERTEX
  5
35B
330
359
100
AcDbEntity
  8
LAYER_1
 62
     5
100
AcDbVertex
100
AcDb2dVertex
 10
637.8859563292439
 20
-16.12649196645449
 30
0.0
  0
SEQEND
  5
35C
330
359
100
AcDbEntity
  8
LAYER_1
  0
ENDBLK
  5
358
330
355
100
AcDbEntity
  8
0
100
AcDbBlockEnd
  0
BLOCK
  5
35F
330
35D
100
AcDbEntity
  8
0
100
AcDbBlockBegin
  2
BLOCK_100
 70
     0
 71
     0
 10
0.0
 20
0.0
 30
0.0
  3
BLOCK_100
  1

  0
POLYLINE
  5
361
330
35D
100
AcDbEntity
  8
LAYER_1
 62
     5
100
AcDb2dPolyline
 66
     1
 10
0.0
 20
0.0
 30
0.0
  0
VERTEX
  5
362
330
361
100
AcDbEntity
  8
LAYER_1
 62
     5
100
AcDbVertex
100
AcDb2dVertex
 10
637.8859563292439
 20
-16.12649196645449
 30
0.0
  0
VERTEX
  5
363
330
361
100
AcDbEntity
  8
LAYER_1
 62
     5
100
AcDbVertex
100
AcDb2dVertex
 10
612.4859563355939
 20
-16.12649196645449
 30
0.0
  0
SEQEND
  5
364
330
361
100
AcDbEntity
  8
LAYER_1
  0
ENDBLK
  5
360
330
35D
100
AcDbEntity
  8
0
100
AcDbBlockEnd
  0
BLOCK
  5
367
330
365
100
AcDbEntity
  8
0
100
AcDbBlockBegin
  2
BLOCK_101
 70
     0
 71
     0
 10
0.0
 20
0.0
 30
0.0
  3
BLOCK_101
  1

  0
POLYLINE
  5
369
330
365
100
AcDbEntity
  8
LAYER_1
 62
     5
100
AcDb2dPolyline
 66
     1
 10
0.0
 20
0.0
 30
0.0
  0
VERTEX
  5
36A
330
369
100
AcDbEntity
  8
LAYER_1
 62
     5
100
AcDbVertex
100
AcDb2dVertex
 10
612.4859563355939
 20
-16.12649196645449
 30
0.0
  0
VERTEX
  5
36B
330
369
100
AcDbEntity
  8
LAYER_1
 62
     5
100
AcDbVertex
100
AcDb2dVertex
 10
612.4859563355939
 20
-13.20556775928541
 30
0.0
  0
SEQEND
  5
36C
330
369
100
AcDbEntity
  8
LAYER_1
  0
ENDBLK
  5
368
330
365
100
AcDbEntity
  8
0
100
AcDbBlockEnd
  0
BLOCK
  5
36F
330
36D
100
AcDbEntity
  8
0
100
AcDbBlockBegin
  2
BLOCK_102
 70
     0
 71
     0
 10
0.0
 20
0.0
 30
0.0
  3
BLOCK_102
  1

  0
POLYLINE
  5
371
330
36D
100
AcDbEntity
  8
LAYER_1
 62
     5
100
AcDb2dPolyline
 66
     1
 10
0.0
 20
0.0
 30
0.0
  0
VERTEX
  5
372
330
371
100
AcDbEntity
  8
LAYER_1
 62
     5
100
AcDbVertex
100
AcDb2dVertex
 10
612.4859563355939
 20
-13.20556775928541
 30
0.0
  0
VERTEX
  5
373
330
371
100
AcDbEntity
  8
LAYER_1
 62
     5
100
AcDbVertex
100
AcDb2dVertex
 10
587.0859563419439
 20
-13.20556775928541
 30
0.0
  0
SEQEND
  5
374
330
371
100
AcDbEntity
  8
LAYER_1
  0
ENDBLK
  5
370
330
36D
100
AcDbEntity
  8
0
100
AcDbBlockEnd
  0
BLOCK
  5
377
330
375
100
AcDbEntity
  8
0
100
AcDbBlockBegin
  2
BLOCK_103
 70
     0
 71
     0
 10
0.0
 20
0.0
 30
0.0
  3
BLOCK_103
  1

  0
POLYLINE
  5
379
330
375
100
AcDbEntity
  8
LAYER_1
 62
     5
100
AcDb2dPolyline
 66
     1
 10
0.0
 20
0.0
 30
0.0
  0
VERTEX
  5
37A
330
379
100
AcDbEntity
  8
LAYER_1
 62
     5
100
AcDbVertex
100
AcDb2dVertex
 10
587.0859563419439
 20
-13.20556775928541
 30
0.0
  0
VERTEX
  5
37B
330
379
100
AcDbEntity
  8
LAYER_1
 62
     5
100
AcDbVertex
100
AcDb2dVertex
 10
587.0859563419439
 20
-16.12649196645449
 30
0.0
  0
SEQEND
  5
37C
330
379
100
AcDbEntity
  8
LAYER_1
  0
ENDBLK
  5
378
330
375
100
AcDbEntity
  8
0
100
AcDbBlockEnd
  0
BLOCK
  5
37F
330
37D
100
AcDbEntity
  8
0
100
AcDbBlockBegin
  2
BLOCK_104
 70
     0
 71
     0
 10
0.0
 20
0.0
 30
0.0
  3
BLOCK_104
  1

  0
POLYLINE
  5
381
330
37D
100
AcDbEntity
  8
LAYER_1
 62
     5
100
AcDb2dPolyline
 66
     1
 10
0.0
 20
0.0
 30
0.0
  0
VERTEX
  5
382
330
381
100
AcDbEntity
  8
LAYER_1
 62
     5
100
AcDbVertex
100
AcDb2dVertex
 10
587.0859563419439
 20
-16.12649196645449
 30
0.0
  0
VERTEX
  5
383
330
381
100
AcDbEntity
  8
LAYER_1
 62
     5
100
AcDbVertex
100
AcDb2dVertex
 10
580.7359563435314
 20
-16.12649196645449
 30
0.0
  0
SEQEND
  5
384
330
381
100
AcDbEntity
  8
LAYER_1
  0
ENDBLK
  5
380
330
37D
100
AcDbEntity
  8
0
100
AcDbBlockEnd
  0
BLOCK
  5
387
330
385
100
AcDbEntity
  8
0
100
AcDbBlockBegin
  2
BLOCK_105
 70
     0
 71
     0
 10
0.0
 20
0.0
 30
0.0
  3
BLOCK_105
  1

  0
POLYLINE
  5
389
330
385
100
AcDbEntity
  8
LAYER_1
 62
     5
100
AcDb2dPolyline
 66
     1
 10
0.0
 20
0.0
 30
0.0
  0
VERTEX
  5
38A
330
389
100
AcDbEntity
  8
LAYER_1
 62
     5
100
AcDbVertex
100
AcDb2dVertex
 10
580.7359563435314
 20
-16.12649196645449
 30
0.0
  0
VERTEX
  5
38B
330
389
100
AcDbEntity
  8
LAYER_1
 62
     5
100
AcDbVertex
100
AcDb2dVertex
 10
580.7359563435314
 20
-52.92579615647342
 30
0.0
  0
VERTEX
  5
38C
330
389
100
AcDbEntity
  8
LAYER_1
 62
     5
100
AcDbVertex
100
AcDb2dVertex
 10
574.3859563451189
 20
-52.92579615647342
 30
0.0
  0
SEQEND
  5
38D
330
389
100
AcDbEntity
  8
LAYER_1
  0
ENDBLK
  5
388
330
385
100
AcDbEntity
  8
0
100
AcDbBlockEnd
  0
BLOCK
  5
390
330
38E
100
AcDbEntity
  8
0
100
AcDbBlockBegin
  2
BLOCK_106
 70
     0
 71
     0
 10
0.0
 20
0.0
 30
0.0
  3
BLOCK_106
  1

  0
POLYLINE
  5
392
330
38E
100
AcDbEntity
  8
LAYER_1
 62
     5
100
AcDb2dPolyline
 66
     1
 10
0.0
 20
0.0
 30
0.0
  0
VERTEX
  5
393
330
392
100
AcDbEntity
  8
LAYER_1
 62
     5
100
AcDbVertex
100
AcDb2dVertex
 10
574.3859563451189
 20
-52.92579615647342
 30
0.0
  0
VERTEX
  5
394
330
392
100
AcDbEntity
  8
LAYER_1
 62
     5
100
AcDbVertex
100
AcDb2dVertex
 10
574.3859563451189
 20
-79.62649195057949
 30
0.0
  0
SEQEND
  5
395
330
392
100
AcDbEntity
  8
LAYER_1
  0
ENDBLK
  5
391
330
38E
100
AcDbEntity
  8
0
100
AcDbBlockEnd
  0
BLOCK
  5
398
330
396
100
AcDbEntity
  8
0
100
AcDbBlockBegin
  2
BLOCK_107
 70
     0
 71
     0
 10
0.0
 20
0.0
 30
0.0
  3
BLOCK_107
  1

  0
POLYLINE
  5
39A
330
396
100
AcDbEntity
  8
LAYER_1
 62
     5
100
AcDb2dPolyline
 66
     1
 10
0.0
 20
0.0
 30
0.0
  0
VERTEX
  5
39B
330
39A
100
AcDbEntity
  8
LAYER_1
 62
     5
100
AcDbVertex
100
AcDb2dVertex
 10
574.3859563451189
 20
-79.62649195057949
 30
0.0
  0
VERTEX
  5
39C
330
39A
100
AcDbEntity
  8
LAYER_1
 62
     5
100
AcDbVertex
100
AcDb2dVertex
 10
587.0859563419439
 20
-79.62649195057949
 30
0.0
  0
SEQEND
  5
39D
330
39A
100
AcDbEntity
  8
LAYER_1
  0
ENDBLK
  5
399
330
396
100
AcDbEntity
  8
0
100
AcDbBlockEnd
  0
BLOCK
  5
3A0
330
39E
100
AcDbEntity
  8
0
100
AcDbBlockBegin
  2
BLOCK_108
 70
     0
 71
     0
 10
0.0
 20
0.0
 30
0.0
  3
BLOCK_108
  1

  0
POLYLINE
  5
3A2
330
39E
100
AcDbEntity
  8
LAYER_1
 62
     5
100
AcDb2dPolyline
 66
     1
 10
0.0
 20
0.0
 30
0.0
  0
VERTEX
  5
3A3
330
3A2
100
AcDbEntity
  8
LAYER_1
 62
     5
100
AcDbVertex
100
AcDb2dVertex
 10
587.0859563419439
 20
-79.62649195057949
 30
0.0
  0
VERTEX
  5
3A4
330
3A2
100
AcDbEntity
  8
LAYER_1
 62
     5
100
AcDbVertex
100
AcDb2dVertex
 10
587.0859563419439
 20
-82.54758841252283
 30
0.0
  0
SEQEND
  5
3A5
330
3A2
100
AcDbEntity
  8
LAYER_1
  0
ENDBLK
  5
3A1
330
39E
100
AcDbEntity
  8
0
100
AcDbBlockEnd
  0
BLOCK
  5
3A8
330
3A6
100
AcDbEntity
  8
0
100
AcDbBlockBegin
  2
BLOCK_109
 70
     0
 71
     0
 10
0.0
 20
0.0
 30
0.0
  3
BLOCK_109
  1

  0
POLYLINE
  5
3AA
330
3A6
100
AcDbEntity
  8
LAYER_1
 62
     5
100
AcDb2dPolyline
 66
     1
 10
0.0
 20
0.0
 30
0.0
  0
VERTEX
  5
3AB
330
3AA
100
AcDbEntity
  8
LAYER_1
 62
     5
100
AcDbVertex
100
AcDb2dVertex
 10
587.0859563419439
 20
-82.54758841252283
 30
0.0
  0
VERTEX
  5
3AC
330
3AA
100
AcDbEntity
  8
LAYER_1
 62
     5
100
AcDbVertex
100
AcDb2dVertex
 10
612.4859563355939
 20
-82.54758841252283
 30
0.0
  0
SEQEND
  5
3AD
330
3AA
100
AcDbEntity
  8
LAYER_1
  0
ENDBLK
  5
3A9
330
3A6
100
AcDbEntity
  8
0
100
AcDbBlockEnd
  0
BLOCK
  5
3B0
330
3AE
100
AcDbEntity
  8
0
100
AcDbBlockBegin
  2
BLOCK_110
 70
     0
 71
     0
 10
0.0
 20
0.0
 30
0.0
  3
BLOCK_110
  1

  0
POLYLINE
  5
3B2
330
3AE
100
AcDbEntity
  8
LAYER_1
 62
     5
100
AcDb2dPolyline
 66
     1
 10
0.0
 20
0.0
 30
0.0
  0
VERTEX
  5
3B3
330
3B2
100
AcDbEntity
  8
LAYER_1
 62
     5
100
AcDbVertex
100
AcDb2dVertex
 10
612.4859563355939
 20
-82.54758841252283
 30
0.0
  0
VERTEX
  5
3B4
330
3B2
100
AcDbEntity
  8
LAYER_1
 62
     5
100
AcDbVertex
100
AcDb2dVertex
 10
612.4859563355939
 20
-79.62649195057949
 30
0.0
  0
SEQEND
  5
3B5
330
3B2
100
AcDbEntity
  8
LAYER_1
  0
ENDBLK
  5
3B1
330
3AE
100
AcDbEntity
  8
0
100
AcDbBlockEnd
  0
BLOCK
  5
3B8
330
3B6
100
AcDbEntity
  8
0
100
AcDbBlockBegin
  2
BLOCK_111
 70
     0
 71
     0
 10
0.0
 20
0.0
 30
0.0
  3
BLOCK_111
  1

  0
POLYLINE
  5
3BA
330
3B6
100
AcDbEntity
  8
LAYER_1
 62
     5
100
AcDb2dPolyline
 66
     1
 10
0.0
 20
0.0
 30
0.0
  0
VERTEX
  5
3BB
330
3BA
100
AcDbEntity
  8
LAYER_1
 62
     5
100
AcDbVertex
100
AcDb2dVertex
 10
612.4859563355939
 20
-79.62649195057949
 30
0.0
  0
VERTEX
  5
3BC
330
3BA
100
AcDbEntity
  8
LAYER_1
 62
     5
100
AcDbVertex
100
AcDb2dVertex
 10
612.4859563355939
 20
-47.87649195851699
 30
0.0
  0
SEQEND
  5
3BD
330
3BA
100
AcDbEntity
  8
LAYER_1
  0
ENDBLK
  5
3B9
330
3B6
100
AcDbEntity
  8
0
100
AcDbBlockEnd
  0
BLOCK
  5
3C0
330
3BE
100
AcDbEntity
  8
0
100
AcDbBlockBegin
  2
BLOCK_112
 70
     0
 71
     0
 10
0.0
 20
0.0
 30
0.0
  3
BLOCK_112
  1

  0
SPLINE
  5
3C2
330
3BE
100
AcDbEntity
  8
LAYER_1
 62
     5
100
AcDbSpline
210
0.0
220
0.0
230
1.0
 70
    11
 71
     3
 72
    20
 73
    16
 74
     0
 42
0.0000000001
 43
0.0000000001
 40
0.0
 40
0.0
 40
0.0
 40
0.0
 40
1.0
 40
1.0
 40
1.0
 40
2.0
 40
2.0
 40
2.0
 40
3.0
 40
3.0
 40
3.0
 40
4.0
 40
4.0
 40
4.0
 40
5.0
 40
5.0
 40
5.0
 40
5.0
 10
709.3355141455828
 20
-124.4067043417282
 30
0.0
 10
709.3355141455828
 20
-120.2303873397341
 30
0.0
 10
705.9500188122278
 20
-116.8448920063791
 30
0.0
 10
701.7735295554594
 20
-116.8448920063791
 30
0.0
 10
697.5973848082396
 20
-116.8448920063791
 30
0.0
 10
694.2118894748845
 20
-120.2303873397341
 30
0.0
 10
694.2118894748845
 20
-124.4067043417282
 30
0.0
 10
694.2118894748845
 20
-128.5830213437223
 30
0.0
 10
697.5973848082396
 20
-131.9685166770773
 30
0.0
 10
701.7735295554594
 20
-131.9685166770773
 30
0.0
 10
705.9500188122278
 20
-131.9685166770773
 30
0.0
 10
709.3355141455828
 20
-128.5830213437223
 30
0.0
 10
709.3355141455828
 20
-124.4067043417282
 30
0.0
 10
709.3355141455828
 20
-124.4067043417282
 30
0.0
 10
709.3355141455828
 20
-124.4067043417282
 30
0.0
 10
709.3355141455828
 20
-124.4067043417282
 30
0.0
  0
ENDBLK
  5
3C1
330
3BE
100
AcDbEntity
  8
0
100
AcDbBlockEnd
  0
BLOCK
  5
3C5
330
3C3
100
AcDbEntity
  8
0
100
AcDbBlockBegin
  2
BLOCK_113
 70
     0
 71
     0
 10
0.0
 20
0.0
 30
0.0
  3
BLOCK_113
  1

  0
SPLINE
  5
3C7
330
3C3
100
AcDbEntity
  8
LAYER_1
 62
     5
100
AcDbSpline
210
0.0
220
0.0
230
1.0
 70
    11
 71
     3
 72
    20
 73
    16
 74
     0
 42
0.0000000001
 43
0.0000000001
 40
0.0
 40
0.0
 40
0.0
 40
0.0
 40
1.0
 40
1.0
 40
1.0
 40
2.0
 40
2.0
 40
2.0
 40
3.0
 40
3.0
 40
3.0
 40
4.0
 40
4.0
 40
4.0
 40
5.0
 40
5.0
 40
5.0
 40
5.0
 10
776.2785425576665
 20
-124.4067043417282
 30
0.0
 10
776.2785425576665
 20
-120.1806057099722
 30
0.0
 10
772.852739607134
 20
-116.7546305046655
 30
0.0
 10
768.6262964658296
 20
-116.7546305046655
 30
0.0
 10
764.4001978340737
 20
-116.7546305046655
 30
0.0
 10
760.9740503739927
 20
-120.1806057099722
 30
0.0
 10
760.9740503739927
 20
-124.4067043417282
 30
0.0
 10
760.9740503739927
 20
-128.6329752282584
 30
0.0
 10
764.4001978340737
 20
-132.0589504335651
 30
0.0
 10
768.6262964658296
 20
-132.0589504335651
 30
0.0
 10
772.852739607134
 20
-132.0589504335651
 30
0.0
 10
776.2785425576665
 20
-128.6329752282584
 30
0.0
 10
776.2785425576665
 20
-124.4067043417282
 30
0.0
 10
776.2785425576665
 20
-124.4067043417282
 30
0.0
 10
776.2785425576665
 20
-124.4067043417282
 30
0.0
 10
776.2785425576665
 20
-124.4067043417282
 30
0.0
  0
ENDBLK
  5
3C6
330
3C3
100
AcDbEntity
  8
0
100
AcDbBlockEnd
  0
BLOCK
  5
3CA
330
3C8
100
AcDbEntity
  8
0
100
AcDbBlockBegin
  2
BLOCK_114
 70
     0
 71
     0
 10
0.0
 20
0.0
 30
0.0
  3
BLOCK_114
  1

  0
SPLINE
  5
3CC
330
3C8
100
AcDbEntity
  8
LAYER_1
 62
     5
100
AcDbSpline
210
0.0
220
0.0
230
1.0
 70
    11
 71
     3
 72
    20
 73
    16
 74
     0
 42
0.0000000001
 43
0.0000000001
 40
0.0
 40
0.0
 40
0.0
 40
0.0
 40
1.0
 40
1.0
 40
1.0
 40
2.0
 40
2.0
 40
2.0
 40
3.0
 40
3.0
 40
3.0
 40
4.0
 40
4.0
 40
4.0
 40
5.0
 40
5.0
 40
5.0
 40
5.0
 10
743.0223468194528
 20
-133.6523070954932
 30
0.0
 10
743.0223468194528
 20
-129.3321573569899
 30
0.0
 10
739.5200627491478
 20
-125.8298732866849
 30
0.0
 10
735.1999130106445
 20
-125.8298732866849
 30
0.0
 10
730.8797632721412
 20
-125.8298732866849
 30
0.0
 10
727.3774792018362
 20
-129.3321573569899
 30
0.0
 10
727.3774792018362
 20
-133.6523070954932
 30
0.0
 10
727.3774792018362
 20
-137.9726290887707
 30
0.0
 10
730.8797632721412
 20
-141.4749131590757
 30
0.0
 10
735.1999130106445
 20
-141.4749131590757
 30
0.0
 10
739.5200627491478
 20
-141.4749131590757
 30
0.0
 10
743.0223468194528
 20
-137.9726290887707
 30
0.0
 10
743.0223468194528
 20
-133.6523070954932
 30
0.0
 10
743.0223468194528
 20
-133.6523070954932
 30
0.0
 10
743.0223468194528
 20
-133.6523070954932
 30
0.0
 10
743.0223468194528
 20
-133.6523070954932
 30
0.0
  0
ENDBLK
  5
3CB
330
3C8
100
AcDbEntity
  8
0
100
AcDbBlockEnd
  0
BLOCK
  5
3CF
330
3CD
100
AcDbEntity
  8
0
100
AcDbBlockBegin
  2
BLOCK_115
 70
     0
 71
     0
 10
0.0
 20
0.0
 30
0.0
  3
BLOCK_115
  1

  0
SPLINE
  5
3D1
330
3CD
100
AcDbEntity
  8
LAYER_1
 62
     5
100
AcDbSpline
210
0.0
220
0.0
230
1.0
 70
    11
 71
     3
 72
    41
 73
    37
 74
     0
 42
0.0000000001
 43
0.0000000001
 40
0.0
 40
0.0
 40
0.0
 40
0.0
 40
1.0
 40
1.0
 40
1.0
 40
2.0
 40
2.0
 40
2.0
 40
3.0
 40
3.0
 40
3.0
 40
4.0
 40
4.0
 40
4.0
 40
5.0
 40
5.0
 40
5.0
 40
6.0
 40
6.0
 40
6.0
 40
7.0
 40
7.0
 40
7.0
 40
8.0
 40
8.0
 40
8.0
 40
9.0
 40
9.0
 40
9.0
 40
10.0
 40
10.0
 40
10.0
 40
11.0
 40
11.0
 40
11.0
 40
12.0
 40
12.0
 40
12.0
 40
12.0
 10
722.4999130138195
 20
-92.32649194740449
 30
0.0
 10
722.4999130138195
 20
-102.909825278092
 30
0.0
 10
722.4999130138195
 20
-113.4931586087795
 30
0.0
 10
722.4999130138195
 20
-124.076491939467
 30
0.0
 10
723.4734969979511
 20
-124.076491939467
 30
0.0
 10
724.4474254916312
 20
-124.076491939467
 30
0.0
 10
725.4210094757628
 20
-124.076491939467
 30
0.0
 10
725.4210094757628
 20
-113.4931586087795
 30
0.0
 10
725.4210094757628
 20
-102.909825278092
 30
0.0
 10
725.4210094757628
 20
-92.32649194740449
 30
0.0
 10
731.940163662501
 20
-92.32649194740449
 30
0.0
 10
738.4596623587879
 20
-92.32649194740449
 30
0.0
 10
744.9791610550747
 20
-92.32649194740449
 30
0.0
 10
744.9791610550747
 20
-102.909825278092
 30
0.0
 10
744.9791610550747
 20
-113.4931586087795
 30
0.0
 10
744.9791610550747
 20
-124.076491939467
 30
0.0
 10
745.9527450392063
 20
-124.076491939467
 30
0.0
 10
746.9263290233379
 20
-124.076491939467
 30
0.0
 10
747.8999130074695
 20
-124.076491939467
 30
0.0
 10
747.8999130074695
 20
-113.4931586087795
 30
0.0
 10
747.8999130074695
 20
-102.909825278092
 30
0.0
 10
747.8999130074695
 20
-92.32649194740449
 30
0.0
 10
758.6527450360313
 20
-92.32649194740449
 30
0.0
 10
768.431648570913
 20
-92.32649194740449
 30
0.0
 10
777.236968121663
 20
-92.32649194740449
 30
0.0
 10
777.236968121663
 20
-113.4931586087795
 30
0.0
 10
777.236968121663
 20
-134.6598252701545
 30
0.0
 10
777.236968121663
 20
-155.8264919315295
 30
0.0
 10
749.2124943873497
 20
-155.8264919315295
 30
0.0
 10
721.1876761434878
 20
-155.8264919315295
 30
0.0
 10
693.162857899626
 20
-155.8264919315295
 30
0.0
 10
693.162857899626
 20
-134.6598252701545
 30
0.0
 10
693.162857899626
 20
-113.4931586087795
 30
0.0
 10
693.162857899626
 20
-92.32649194740449
 30
0.0
 10
701.9685219599246
 20
-92.32649194740449
 30
0.0
 10
711.7474254948062
 20
-92.32649194740449
 30
0.0
 10
722.4999130138195
 20
-92.32649194740449
 30
0.0
  0
ENDBLK
  5
3D0
330
3CD
100
AcDbEntity
  8
0
100
AcDbBlockEnd
  0
BLOCK
  5
3D4
330
3D2
100
AcDbEntity
  8
0
100
AcDbBlockBegin
  2
BLOCK_116
 70
     0
 71
     0
 10
0.0
 20
0.0
 30
0.0
  3
BLOCK_116
  1

  0
SPLINE
  5
3D6
330
3D2
100
AcDbEntity
  8
LAYER_1
 62
     5
100
AcDbSpline
210
0.0
220
0.0
230
1.0
 70
    11
 71
     3
 72
    41
 73
    37
 74
     0
 42
0.0000000001
 43
0.0000000001
 40
0.0
 40
0.0
 40
0.0
 40
0.0
 40
1.0
 40
1.0
 40
1.0
 40
2.0
 40
2.0
 40
2.0
 40
3.0
 40
3.0
 40
3.0
 40
4.0
 40
4.0
 40
4.0
 40
5.0
 40
5.0
 40
5.0
 40
6.0
 40
6.0
 40
6.0
 40
7.0
 40
7.0
 40
7.0
 40
8.0
 40
8.0
 40
8.0
 40
9.0
 40
9.0
 40
9.0
 40
10.0
 40
10.0
 40
10.0
 40
11.0
 40
11.0
 40
11.0
 40
12.0
 40
12.0
 40
12.0
 40
12.0
 10
612.4859563355939
 20
-92.32649194740449
 30
0.0
 10
612.4859563355939
 20
-102.909825278092
 30
0.0
 10
612.4859563355939
 20
-113.4931586087795
 30
0.0
 10
612.4859563355939
 20
-124.076491939467
 30
0.0
 10
613.459884829274
 20
-124.076491939467
 30
0.0
 10
614.4334688134055
 20
-124.076491939467
 30
0.0
 10
615.4070527975372
 20
-124.076491939467
 30
0.0
 10
615.4070527975372
 20
-113.4931586087795
 30
0.0
 10
615.4070527975372
 20
-102.909825278092
 30
0.0
 10
615.4070527975372
 20
-92.32649194740449
 30
0.0
 10
621.9265514938239
 20
-92.32649194740449
 30
0.0
 10
628.4457056805622
 20
-92.32649194740449
 30
0.0
 10
634.965204376849
 20
-92.32649194740449
 30
0.0
 10
634.965204376849
 20
-102.909825278092
 30
0.0
 10
634.965204376849
 20
-113.4931586087795
 30
0.0
 10
634.965204376849
 20
-124.076491939467
 30
0.0
 10
635.9387883609807
 20
-124.076491939467
 30
0.0
 10
636.9123723451122
 20
-124.076491939467
 30
0.0
 10
637.8859563292439
 20
-124.076491939467
 30
0.0
 10
637.8859563292439
 20
-113.4931586087795
 30
0.0
 10
637.8859563292439
 20
-102.909825278092
 30
0.0
 10
637.8859563292439
 20
-92.32649194740449
 30
0.0
 10
648.6387883578057
 20
-92.32649194740449
 30
0.0
 10
658.4176918926872
 20
-92.32649194740449
 30
0.0
 10
667.2230114434374
 20
-92.32649194740449
 30
0.0
 10
667.2230114434374
 20
-113.4931586087795
 30
0.0
 10
667.2230114434374
 20
-134.6598252701545
 30
0.0
 10
667.2230114434374
 20
-155.8264919315295
 30
0.0
 10
639.198537709124
 20
-155.8264919315295
 30
0.0
 10
611.1737194652621
 20
-155.8264919315295
 30
0.0
 10
583.1492457309488
 20
-155.8264919315295
 30
0.0
 10
583.1492457309488
 20
-134.6598252701545
 30
0.0
 10
583.1492457309488
 20
-113.4931586087795
 30
0.0
 10
583.1492457309488
 20
-92.32649194740449
 30
0.0
 10
591.9542207721504
 20
-92.32649194740449
 30
0.0
 10
601.7334688165805
 20
-92.32649194740449
 30
0.0
 10
612.4859563355939
 20
-92.32649194740449
 30
0.0
  0
ENDBLK
  5
3D5
330
3D2
100
AcDbEntity
  8
0
100
AcDbBlockEnd
  0
BLOCK
  5
3D9
330
3D7
100
AcDbEntity
  8
0
100
AcDbBlockBegin
  2
BLOCK_117
 70
     0
 71
     0
 10
0.0
 20
0.0
 30
0.0
  3
BLOCK_117
  1

  0
SPLINE
  5
3DB
330
3D7
100
AcDbEntity
  8
LAYER_1
 62
     5
100
AcDbSpline
210
0.0
220
0.0
230
1.0
 70
    11
 71
     3
 72
    20
 73
    16
 74
     0
 42
0.0000000001
 43
0.0000000001
 40
0.0
 40
0.0
 40
0.0
 40
0.0
 40
1.0
 40
1.0
 40
1.0
 40
2.0
 40
2.0
 40
2.0
 40
3.0
 40
3.0
 40
3.0
 40
4.0
 40
4.0
 40
4.0
 40
5.0
 40
5.0
 40
5.0
 40
5.0
 10
633.0087346507756
 20
-133.6523070954932
 30
0.0
 10
633.0087346507756
 20
-129.3321573569899
 30
0.0
 10
629.5064505804706
 20
-125.8298732866849
 30
0.0
 10
625.1859563324189
 20
-125.8298732866849
 30
0.0
 10
620.8658065939155
 20
-125.8298732866849
 30
0.0
 10
617.3635225236105
 20
-129.3321573569899
 30
0.0
 10
617.3635225236105
 20
-133.6523070954932
 30
0.0
 10
617.3635225236105
 20
-137.9726290887707
 30
0.0
 10
620.8658065939155
 20
-141.4749131590757
 30
0.0
 10
625.1859563324189
 20
-141.4749131590757
 30
0.0
 10
629.5064505804706
 20
-141.4749131590757
 30
0.0
 10
633.0087346507756
 20
-137.9726290887707
 30
0.0
 10
633.0087346507756
 20
-133.6523070954932
 30
0.0
 10
633.0087346507756
 20
-133.6523070954932
 30
0.0
 10
633.0087346507756
 20
-133.6523070954932
 30
0.0
 10
633.0087346507756
 20
-133.6523070954932
 30
0.0
  0
ENDBLK
  5
3DA
330
3D7
100
AcDbEntity
  8
0
100
AcDbBlockEnd
  0
BLOCK
  5
3DE
330
3DC
100
AcDbEntity
  8
0
100
AcDbBlockBegin
  2
BLOCK_118
 70
     0
 71
     0
 10
0.0
 20
0.0
 30
0.0
  3
BLOCK_118
  1

  0
SPLINE
  5
3E0
330
3DC
100
AcDbEntity
  8
LAYER_1
 62
     5
100
AcDbSpline
210
0.0
220
0.0
230
1.0
 70
    11
 71
     3
 72
    20
 73
    16
 74
     0
 42
0.0000000001
 43
0.0000000001
 40
0.0
 40
0.0
 40
0.0
 40
0.0
 40
1.0
 40
1.0
 40
1.0
 40
2.0
 40
2.0
 40
2.0
 40
3.0
 40
3.0
 40
3.0
 40
4.0
 40
4.0
 40
4.0
 40
5.0
 40
5.0
 40
5.0
 40
5.0
 10
666.2645858794408
 20
-124.4067043417282
 30
0.0
 10
666.2645858794408
 20
-120.1806057099722
 30
0.0
 10
662.8387829289084
 20
-116.7546305046655
 30
0.0
 10
658.6126842971524
 20
-116.7546305046655
 30
0.0
 10
654.3862411558479
 20
-116.7546305046655
 30
0.0
 10
650.9604382053154
 20
-120.1806057099722
 30
0.0
 10
650.9604382053154
 20
-124.4067043417282
 30
0.0
 10
650.9604382053154
 20
-128.6329752282584
 30
0.0
 10
654.3862411558479
 20
-132.0589504335651
 30
0.0
 10
658.6126842971524
 20
-132.0589504335651
 30
0.0
 10
662.8387829289084
 20
-132.0589504335651
 30
0.0
 10
666.2645858794408
 20
-128.6329752282584
 30
0.0
 10
666.2645858794408
 20
-124.4067043417282
 30
0.0
 10
666.2645858794408
 20
-124.4067043417282
 30
0.0
 10
666.2645858794408
 20
-124.4067043417282
 30
0.0
 10
666.2645858794408
 20
-124.4067043417282
 30
0.0
  0
ENDBLK
  5
3DF
330
3DC
100
AcDbEntity
  8
0
100
AcDbBlockEnd
  0
BLOCK
  5
3E3
330
3E1
100
AcDbEntity
  8
0
100
AcDbBlockBegin
  2
BLOCK_119
 70
     0
 71
     0
 10
0.0
 20
0.0
 30
0.0
  3
BLOCK_119
  1

  0
SPLINE
  5
3E5
330
3E1
100
AcDbEntity
  8
LAYER_1
 62
     5
100
AcDbSpline
210
0.0
220
0.0
230
1.0
 70
    11
 71
     3
 72
    20
 73
    16
 74
     0
 42
0.0000000001
 43
0.0000000001
 40
0.0
 40
0.0
 40
0.0
 40
0.0
 40
1.0
 40
1.0
 40
1.0
 40
2.0
 40
2.0
 40
2.0
 40
3.0
 40
3.0
 40
3.0
 40
4.0
 40
4.0
 40
4.0
 40
5.0
 40
5.0
 40
5.0
 40
5.0
 10
599.3215574673571
 20
-124.4067043417282
 30
0.0
 10
599.3215574673571
 20
-120.2303873397341
 30
0.0
 10
595.9360621340021
 20
-116.8448920063791
 30
0.0
 10
591.7595728772337
 20
-116.8448920063791
 30
0.0
 10
587.5834281300139
 20
-116.8448920063791
 30
0.0
 10
584.1979327966588
 20
-120.2303873397341
 30
0.0
 10
584.1979327966588
 20
-124.4067043417282
 30
0.0
 10
584.1979327966588
 20
-128.5830213437223
 30
0.0
 10
587.5834281300139
 20
-131.9685166770773
 30
0.0
 10
591.7595728772337
 20
-131.9685166770773
 30
0.0
 10
595.9360621340021
 20
-131.9685166770773
 30
0.0
 10
599.3215574673571
 20
-128.5830213437223
 30
0.0
 10
599.3215574673571
 20
-124.4067043417282
 30
0.0
 10
599.3215574673571
 20
-124.4067043417282
 30
0.0
 10
599.3215574673571
 20
-124.4067043417282
 30
0.0
 10
599.3215574673571
 20
-124.4067043417282
 30
0.0
  0
ENDBLK
  5
3E4
330
3E1
100
AcDbEntity
  8
0
100
AcDbBlockEnd
  0
BLOCK
  5
3E8
330
3E6
100
AcDbEntity
  8
0
100
AcDbBlockBegin
  2
BLOCK_120
 70
     0
 71
     0
 10
0.0
 20
0.0
 30
0.0
  3
BLOCK_120
  1

  0
SPLINE
  5
3EA
330
3E6
100
AcDbEntity
  8
LAYER_1
 62
     5
100
AcDbSpline
210
0.0
220
0.0
230
1.0
 70
    11
 71
     3
 72
    20
 73
    16
 74
     0
 42
0.0000000001
 43
0.0000000001
 40
0.0
 40
0.0
 40
0.0
 40
0.0
 40
1.0
 40
1.0
 40
1.0
 40
2.0
 40
2.0
 40
2.0
 40
3.0
 40
3.0
 40
3.0
 40
4.0
 40
4.0
 40
4.0
 40
5.0
 40
5.0
 40
5.0
 40
5.0
 10
449.229426971026
 20
-260.5608397786098
 30
0.0
 10
449.229426971026
 20
-257.930164866073
 30
0.0
 10
447.0972573752049
 20
-255.7983397798004
 30
0.0
 10
444.4669269722166
 20
-255.7983397798004
 30
0.0
 10
441.8369410787769
 20
-255.7983397798004
 30
0.0
 10
439.7044269734072
 20
-257.930164866073
 30
0.0
 10
439.7044269734072
 20
-260.5608397786098
 30
0.0
 10
439.7044269734072
 20
-263.1908256720495
 30
0.0
 10
441.8369410787769
 20
-265.3233397774192
 30
0.0
 10
444.4669269722166
 20
-265.3233397774192
 30
0.0
 10
447.0972573752049
 20
-265.3233397774192
 30
0.0
 10
449.229426971026
 20
-263.1908256720495
 30
0.0
 10
449.229426971026
 20
-260.5608397786098
 30
0.0
 10
449.229426971026
 20
-260.5608397786098
 30
0.0
 10
449.229426971026
 20
-260.5608397786098
 30
0.0
 10
449.229426971026
 20
-260.5608397786098
 30
0.0
  0
ENDBLK
  5
3E9
330
3E6
100
AcDbEntity
  8
0
100
AcDbBlockEnd
  0
BLOCK
  5
3ED
330
3EB
100
AcDbEntity
  8
0
100
AcDbBlockBegin
  2
BLOCK_121
 70
     0
 71
     0
 10
0.0
 20
0.0
 30
0.0
  3
BLOCK_121
  1

  0
SPLINE
  5
3EF
330
3EB
100
AcDbEntity
  8
LAYER_1
 62
     5
100
AcDbSpline
210
0.0
220
0.0
230
1.0
 70
    11
 71
     3
 72
    20
 73
    16
 74
     0
 42
0.0000000001
 43
0.0000000001
 40
0.0
 40
0.0
 40
0.0
 40
0.0
 40
1.0
 40
1.0
 40
1.0
 40
2.0
 40
2.0
 40
2.0
 40
3.0
 40
3.0
 40
3.0
 40
4.0
 40
4.0
 40
4.0
 40
5.0
 40
5.0
 40
5.0
 40
5.0
 10
516.0825383909447
 20
-260.5608397786098
 30
0.0
 10
516.0825383909447
 20
-257.930164866073
 30
0.0
 10
513.9500242855751
 20
-255.7983397798004
 30
0.0
 10
511.3200383921353
 20
-255.7983397798004
 30
0.0
 10
508.6897079891471
 20
-255.7983397798004
 30
0.0
 10
506.5575383933259
 20
-257.930164866073
 30
0.0
 10
506.5575383933259
 20
-260.5608397786098
 30
0.0
 10
506.5575383933259
 20
-263.1908256720495
 30
0.0
 10
508.6897079891471
 20
-265.3233397774192
 30
0.0
 10
511.3200383921353
 20
-265.3233397774192
 30
0.0
 10
513.9500242855751
 20
-265.3233397774192
 30
0.0
 10
516.0825383909447
 20
-263.1908256720495
 30
0.0
 10
516.0825383909447
 20
-260.5608397786098
 30
0.0
 10
516.0825383909447
 20
-260.5608397786098
 30
0.0
 10
516.0825383909447
 20
-260.5608397786098
 30
0.0
 10
516.0825383909447
 20
-260.5608397786098
 30
0.0
  0
ENDBLK
  5
3EE
330
3EB
100
AcDbEntity
  8
0
100
AcDbBlockEnd
  0
BLOCK
  5
3F2
330
3F0
100
AcDbEntity
  8
0
100
AcDbBlockBegin
  2
BLOCK_122
 70
     0
 71
     0
 10
0.0
 20
0.0
 30
0.0
  3
BLOCK_122
  1

  0
SPLINE
  5
3F4
330
3F0
100
AcDbEntity
  8
LAYER_1
 62
     5
100
AcDbSpline
210
0.0
220
0.0
230
1.0
 70
    11
 71
     3
 72
    20
 73
    16
 74
     0
 42
0.0000000001
 43
0.0000000001
 40
0.0
 40
0.0
 40
0.0
 40
0.0
 40
1.0
 40
1.0
 40
1.0
 40
2.0
 40
2.0
 40
2.0
 40
3.0
 40
3.0
 40
3.0
 40
4.0
 40
4.0
 40
4.0
 40
5.0
 40
5.0
 40
5.0
 40
5.0
 10
390.3358641602285
 20
-176.4112819654458
 30
0.0
 10
390.3358641602285
 20
-173.7811238172318
 30
0.0
 10
388.2036945644074
 20
-171.6487819666364
 30
0.0
 10
385.5733641614192
 20
-171.6487819666364
 30
0.0
 10
382.9433782679794
 20
-171.6487819666364
 30
0.0
 10
380.8108641626098
 20
-173.7811238172318
 30
0.0
 10
380.8108641626098
 20
-176.4112819654458
 30
0.0
 10
380.8108641626098
 20
-179.041612368434
 30
0.0
 10
382.9433782679794
 20
-181.1737819642552
 30
0.0
 10
385.5733641614192
 20
-181.1737819642552
 30
0.0
 10
388.2036945644074
 20
-181.1737819642552
 30
0.0
 10
390.3358641602285
 20
-179.041612368434
 30
0.0
 10
390.3358641602285
 20
-176.4112819654458
 30
0.0
 10
390.3358641602285
 20
-176.4112819654458
 30
0.0
 10
390.3358641602285
 20
-176.4112819654458
 30
0.0
 10
390.3358641602285
 20
-176.4112819654458
 30
0.0
  0
ENDBLK
  5
3F3
330
3F0
100
AcDbEntity
  8
0
100
AcDbBlockEnd
  0
BLOCK
  5
3F7
330
3F5
100
AcDbEntity
  8
0
100
AcDbBlockBegin
  2
BLOCK_123
 70
     0
 71
     0
 10
0.0
 20
0.0
 30
0.0
  3
BLOCK_123
  1

  0
SPLINE
  5
3F9
330
3F5
100
AcDbEntity
  8
LAYER_1
 62
     5
100
AcDbSpline
210
0.0
220
0.0
230
1.0
 70
    11
 71
     3
 72
    20
 73
    16
 74
     0
 42
0.0000000001
 43
0.0000000001
 40
0.0
 40
0.0
 40
0.0
 40
0.0
 40
1.0
 40
1.0
 40
1.0
 40
2.0
 40
2.0
 40
2.0
 40
3.0
 40
3.0
 40
3.0
 40
4.0
 40
4.0
 40
4.0
 40
5.0
 40
5.0
 40
5.0
 40
5.0
 10
323.4830972498584
 20
-176.4112819654458
 30
0.0
 10
323.4830972498584
 20
-173.7811238172318
 30
0.0
 10
321.3509276540373
 20
-171.6487819666364
 30
0.0
 10
318.720597251049
 20
-171.6487819666364
 30
0.0
 10
316.0902668480608
 20
-171.6487819666364
 30
0.0
 10
313.9580972522397
 20
-173.7811238172318
 30
0.0
 10
313.9580972522397
 20
-176.4112819654458
 30
0.0
 10
313.9580972522397
 20
-179.041612368434
 30
0.0
 10
316.0902668480608
 20
-181.1737819642552
 30
0.0
 10
318.720597251049
 20
-181.1737819642552
 30
0.0
 10
321.3509276540373
 20
-181.1737819642552
 30
0.0
 10
323.4830972498584
 20
-179.041612368434
 30
0.0
 10
323.4830972498584
 20
-176.4112819654458
 30
0.0
 10
323.4830972498584
 20
-176.4112819654458
 30
0.0
 10
323.4830972498584
 20
-176.4112819654458
 30
0.0
 10
323.4830972498584
 20
-176.4112819654458
 30
0.0
  0
ENDBLK
  5
3F8
330
3F5
100
AcDbEntity
  8
0
100
AcDbBlockEnd
  0
BLOCK
  5
3FC
330
3FA
100
AcDbEntity
  8
0
100
AcDbBlockBegin
  2
BLOCK_124
 70
     0
 71
     0
 10
0.0
 20
0.0
 30
0.0
  3
BLOCK_124
  1

  0
SPLINE
  5
3FE
330
3FA
100
AcDbEntity
  8
LAYER_1
 62
     5
100
AcDbSpline
210
0.0
220
0.0
230
1.0
 70
    11
 71
     3
 72
    20
 73
    16
 74
     0
 42
0.0000000001
 43
0.0000000001
 40
0.0
 40
0.0
 40
0.0
 40
0.0
 40
1.0
 40
1.0
 40
1.0
 40
2.0
 40
2.0
 40
2.0
 40
3.0
 40
3.0
 40
3.0
 40
4.0
 40
4.0
 40
4.0
 40
5.0
 40
5.0
 40
5.0
 40
5.0
 10
196.9481851721171
 20
-260.5608397786098
 30
0.0
 10
196.9481851721171
 20
-257.930164866073
 30
0.0
 10
194.816015576296
 20
-255.7983397798004
 30
0.0
 10
192.1856851733077
 20
-255.7983397798004
 30
0.0
 10
189.5553547703195
 20
-255.7983397798004
 30
0.0
 10
187.4231851744984
 20
-257.930164866073
 30
0.0
 10
187.4231851744984
 20
-260.5608397786098
 30
0.0
 10
187.4231851744984
 20
-263.1908256720495
 30
0.0
 10
189.5553547703195
 20
-265.3233397774192
 30
0.0
 10
192.1856851733077
 20
-265.3233397774192
 30
0.0
 10
194.816015576296
 20
-265.3233397774192
 30
0.0
 10
196.9481851721171
 20
-263.1908256720495
 30
0.0
 10
196.9481851721171
 20
-260.5608397786098
 30
0.0
 10
196.9481851721171
 20
-260.5608397786098
 30
0.0
 10
196.9481851721171
 20
-260.5608397786098
 30
0.0
 10
196.9481851721171
 20
-260.5608397786098
 30
0.0
  0
ENDBLK
  5
3FD
330
3FA
100
AcDbEntity
  8
0
100
AcDbBlockEnd
  0
BLOCK
  5
401
330
3FF
100
AcDbEntity
  8
0
100
AcDbBlockBegin
  2
BLOCK_125
 70
     0
 71
     0
 10
0.0
 20
0.0
 30
0.0
  3
BLOCK_125
  1

  0
SPLINE
  5
403
330
3FF
100
AcDbEntity
  8
LAYER_1
 62
     5
100
AcDbSpline
210
0.0
220
0.0
230
1.0
 70
    11
 71
     3
 72
    20
 73
    16
 74
     0
 42
0.0000000001
 43
0.0000000001
 40
0.0
 40
0.0
 40
0.0
 40
0.0
 40
1.0
 40
1.0
 40
1.0
 40
2.0
 40
2.0
 40
2.0
 40
3.0
 40
3.0
 40
3.0
 40
4.0
 40
4.0
 40
4.0
 40
5.0
 40
5.0
 40
5.0
 40
5.0
 10
263.8009520824873
 20
-260.5608397786098
 30
0.0
 10
263.8009520824873
 20
-257.930164866073
 30
0.0
 10
261.6687824866661
 20
-255.7983397798004
 30
0.0
 10
259.0384520836779
 20
-255.7983397798004
 30
0.0
 10
256.4081216806896
 20
-255.7983397798004
 30
0.0
 10
254.2759520848685
 20
-257.930164866073
 30
0.0
 10
254.2759520848685
 20
-260.5608397786098
 30
0.0
 10
254.2759520848685
 20
-263.1908256720495
 30
0.0
 10
256.4081216806896
 20
-265.3233397774192
 30
0.0
 10
259.0384520836779
 20
-265.3233397774192
 30
0.0
 10
261.6687824866661
 20
-265.3233397774192
 30
0.0
 10
263.8009520824873
 20
-263.1908256720495
 30
0.0
 10
263.8009520824873
 20
-260.5608397786098
 30
0.0
 10
263.8009520824873
 20
-260.5608397786098
 30
0.0
 10
263.8009520824873
 20
-260.5608397786098
 30
0.0
 10
263.8009520824873
 20
-260.5608397786098
 30
0.0
  0
ENDBLK
  5
402
330
3FF
100
AcDbEntity
  8
0
100
AcDbBlockEnd
  0
BLOCK
  5
406
330
404
100
AcDbEntity
  8
0
100
AcDbBlockBegin
  2
BLOCK_126
 70
     0
 71
     0
 10
0.0
 20
0.0
 30
0.0
  3
BLOCK_126
  1

  0
SPLINE
  5
408
330
404
100
AcDbEntity
  8
LAYER_1
 62
     5
100
AcDbSpline
210
0.0
220
0.0
230
1.0
 70
    11
 71
     3
 72
    17
 73
    13
 74
     0
 42
0.0000000001
 43
0.0000000001
 40
0.0
 40
0.0
 40
0.0
 40
0.0
 40
1.0
 40
1.0
 40
1.0
 40
2.0
 40
2.0
 40
2.0
 40
3.0
 40
3.0
 40
3.0
 40
4.0
 40
4.0
 40
4.0
 40
4.0
 10
241.1122422357289
 20
-237.8149413467963
 30
0.0
 10
239.7786457733887
 20
-237.8149413467963
 30
0.0
 10
239.1120197969928
 20
-237.1483153704004
 30
0.0
 10
239.1120197969928
 20
-235.8150634176087
 30
0.0
 10
239.1120197969928
 20
-234.4814669552685
 30
0.0
 10
239.7786457733887
 20
-233.8151854884212
 30
0.0
 10
241.1122422357289
 20
-233.8151854884212
 30
0.0
 10
242.4454941885206
 20
-233.8151854884212
 30
0.0
 10
243.1121201649164
 20
-234.4814669552685
 30
0.0
 10
243.1121201649164
 20
-235.8150634176087
 30
0.0
 10
243.1121201649164
 20
-237.1483153704004
 30
0.0
 10
242.4454941885206
 20
-237.8149413467963
 30
0.0
 10
241.1122422357289
 20
-237.8149413467963
 30
0.0
  0
ENDBLK
  5
407
330
404
100
AcDbEntity
  8
0
100
AcDbBlockEnd
  0
BLOCK
  5
40B
330
409
100
AcDbEntity
  8
0
100
AcDbBlockBegin
  2
BLOCK_127
 70
     0
 71
     0
 10
0.0
 20
0.0
 30
0.0
  3
BLOCK_127
  1

  0
SPLINE
  5
40D
330
409
100
AcDbEntity
  8
LAYER_1
 62
     5
100
AcDbSpline
210
0.0
220
0.0
230
1.0
 70
    11
 71
     3
 72
    17
 73
    13
 74
     0
 42
0.0000000001
 43
0.0000000001
 40
0.0
 40
0.0
 40
0.0
 40
0.0
 40
1.0
 40
1.0
 40
1.0
 40
2.0
 40
2.0
 40
2.0
 40
3.0
 40
3.0
 40
3.0
 40
4.0
 40
4.0
 40
4.0
 40
4.0
 10
210.1122395308053
 20
-237.8149413467963
 30
0.0
 10
208.7789875780136
 20
-237.8149413467963
 30
0.0
 10
208.1120170920692
 20
-237.1483153704004
 30
0.0
 10
208.1120170920692
 20
-235.8150634176087
 30
0.0
 10
208.1120170920692
 20
-234.4814669552685
 30
0.0
 10
208.7789875780136
 20
-233.8151854884212
 30
0.0
 10
210.1122395308053
 20
-233.8151854884212
 30
0.0
 10
211.445491483597
 20
-233.8151854884212
 30
0.0
 10
212.1121174599928
 20
-234.4814669552685
 30
0.0
 10
212.1121174599928
 20
-235.8150634176087
 30
0.0
 10
212.1121174599928
 20
-237.1483153704004
 30
0.0
 10
211.445491483597
 20
-237.8149413467963
 30
0.0
 10
210.1122395308053
 20
-237.8149413467963
 30
0.0
  0
ENDBLK
  5
40C
330
409
100
AcDbEntity
  8
0
100
AcDbBlockEnd
  0
BLOCK
  5
410
330
40E
100
AcDbEntity
  8
0
100
AcDbBlockBegin
  2
BLOCK_128
 70
     0
 71
     0
 10
0.0
 20
0.0
 30
0.0
  3
BLOCK_128
  1

  0
SPLINE
  5
412
330
40E
100
AcDbEntity
  8
LAYER_1
 62
     5
100
AcDbSpline
210
0.0
220
0.0
230
1.0
 70
    11
 71
     3
 72
    20
 73
    16
 74
     0
 42
0.0000000001
 43
0.0000000001
 40
0.0
 40
0.0
 40
0.0
 40
0.0
 40
1.0
 40
1.0
 40
1.0
 40
2.0
 40
2.0
 40
2.0
 40
3.0
 40
3.0
 40
3.0
 40
4.0
 40
4.0
 40
4.0
 40
5.0
 40
5.0
 40
5.0
 40
5.0
 10
237.0422064294548
 20
-251.3148925152963
 30
0.0
 10
237.0422064294548
 20
-245.002444057673
 30
0.0
 10
231.9248615956646
 20
-239.8850992238829
 30
0.0
 10
225.6120686284928
 20
-239.8850992238829
 30
0.0
 10
219.2996201708696
 20
-239.8850992238829
 30
0.0
 10
214.1822753370794
 20
-245.002444057673
 30
0.0
 10
214.1822753370794
 20
-251.3148925152963
 30
0.0
 10
214.1822753370794
 20
-257.6276854824681
 30
0.0
 10
219.2996201708696
 20
-262.7450303162582
 30
0.0
 10
225.6120686284928
 20
-262.7450303162582
 30
0.0
 10
231.9248615956646
 20
-262.7450303162582
 30
0.0
 10
237.0422064294548
 20
-257.6276854824681
 30
0.0
 10
237.0422064294548
 20
-251.3148925152963
 30
0.0
 10
237.0422064294548
 20
-251.3148925152963
 30
0.0
 10
237.0422064294548
 20
-251.3148925152963
 30
0.0
 10
237.0422064294548
 20
-251.3148925152963
 30
0.0
  0
ENDBLK
  5
411
330
40E
100
AcDbEntity
  8
0
100
AcDbBlockEnd
  0
BLOCK
  5
415
330
413
100
AcDbEntity
  8
0
100
AcDbBlockBegin
  2
BLOCK_129
 70
     0
 71
     0
 10
0.0
 20
0.0
 30
0.0
  3
BLOCK_129
  1

  0
SPLINE
  5
417
330
413
100
AcDbEntity
  8
LAYER_1
 62
     5
100
AcDbSpline
210
0.0
220
0.0
230
1.0
 70
    11
 71
     3
 72
    17
 73
    13
 74
     0
 42
0.0000000001
 43
0.0000000001
 40
0.0
 40
0.0
 40
0.0
 40
0.0
 40
1.0
 40
1.0
 40
1.0
 40
2.0
 40
2.0
 40
2.0
 40
3.0
 40
3.0
 40
3.0
 40
4.0
 40
4.0
 40
4.0
 40
4.0
 10
241.1122422357289
 20
-268.8152885612684
 30
0.0
 10
239.7786457733887
 20
-268.8152885612684
 30
0.0
 10
239.1120197969928
 20
-268.148318075324
 30
0.0
 10
239.1120197969928
 20
-266.8150661225324
 30
0.0
 10
239.1120197969928
 20
-265.4818141697407
 30
0.0
 10
239.7786457733887
 20
-264.8148436837963
 30
0.0
 10
241.1122422357289
 20
-264.8148436837963
 30
0.0
 10
242.4454941885206
 20
-264.8148436837963
 30
0.0
 10
243.1121201649164
 20
-265.4818141697407
 30
0.0
 10
243.1121201649164
 20
-266.8150661225324
 30
0.0
 10
243.1121201649164
 20
-268.148318075324
 30
0.0
 10
242.4454941885206
 20
-268.8152885612684
 30
0.0
 10
241.1122422357289
 20
-268.8152885612684
 30
0.0
  0
ENDBLK
  5
416
330
413
100
AcDbEntity
  8
0
100
AcDbBlockEnd
  0
BLOCK
  5
41A
330
418
100
AcDbEntity
  8
0
100
AcDbBlockBegin
  2
BLOCK_130
 70
     0
 71
     0
 10
0.0
 20
0.0
 30
0.0
  3
BLOCK_130
  1

  0
SPLINE
  5
41C
330
418
100
AcDbEntity
  8
LAYER_1
 62
     5
100
AcDbSpline
210
0.0
220
0.0
230
1.0
 70
    11
 71
     3
 72
    17
 73
    13
 74
     0
 42
0.0000000001
 43
0.0000000001
 40
0.0
 40
0.0
 40
0.0
 40
0.0
 40
1.0
 40
1.0
 40
1.0
 40
2.0
 40
2.0
 40
2.0
 40
3.0
 40
3.0
 40
3.0
 40
4.0
 40
4.0
 40
4.0
 40
4.0
 10
210.1122395308053
 20
-268.8152885612684
 30
0.0
 10
208.7789875780136
 20
-268.8152885612684
 30
0.0
 10
208.1120170920692
 20
-268.148318075324
 30
0.0
 10
208.1120170920692
 20
-266.8150661225324
 30
0.0
 10
208.1120170920692
 20
-265.4818141697407
 30
0.0
 10
208.7789875780136
 20
-264.8148436837963
 30
0.0
 10
210.1122395308053
 20
-264.8148436837963
 30
0.0
 10
211.445491483597
 20
-264.8148436837963
 30
0.0
 10
212.1121174599928
 20
-265.4818141697407
 30
0.0
 10
212.1121174599928
 20
-266.8150661225324
 30
0.0
 10
212.1121174599928
 20
-268.148318075324
 30
0.0
 10
211.445491483597
 20
-268.8152885612684
 30
0.0
 10
210.1122395308053
 20
-268.8152885612684
 30
0.0
  0
ENDBLK
  5
41B
330
418
100
AcDbEntity
  8
0
100
AcDbBlockEnd
  0
BLOCK
  5
41F
330
41D
100
AcDbEntity
  8
0
100
AcDbBlockBegin
  2
BLOCK_131
 70
     0
 71
     0
 10
0.0
 20
0.0
 30
0.0
  3
BLOCK_131
  1

  0
SPLINE
  5
421
330
41D
100
AcDbEntity
  8
LAYER_1
 62
     5
100
AcDbSpline
210
0.0
220
0.0
230
1.0
 70
    11
 71
     3
 72
    20
 73
    16
 74
     0
 42
0.0000000001
 43
0.0000000001
 40
0.0
 40
0.0
 40
0.0
 40
0.0
 40
1.0
 40
1.0
 40
1.0
 40
2.0
 40
2.0
 40
2.0
 40
3.0
 40
3.0
 40
3.0
 40
4.0
 40
4.0
 40
4.0
 40
5.0
 40
5.0
 40
5.0
 40
5.0
 10
69.25951061636569
 20
-178.3579331693862
 30
0.0
 10
69.25951061636569
 20
-175.7277750211722
 30
0.0
 10
67.12734102054456
 20
-173.5954331705769
 30
0.0
 10
64.4970106175563
 20
-173.5954331705769
 30
0.0
 10
61.86702472411658
 20
-173.5954331705769
 30
0.0
 10
59.73451061874693
 20
-175.7277750211722
 30
0.0
 10
59.73451061874693
 20
-178.3579331693862
 30
0.0
 10
59.73451061874693
 20
-180.9882635723745
 30
0.0
 10
61.86702472411658
 20
-183.1204331681956
 30
0.0
 10
64.4970106175563
 20
-183.1204331681956
 30
0.0
 10
67.12734102054456
 20
-183.1204331681956
 30
0.0
 10
69.25951061636569
 20
-180.9882635723745
 30
0.0
 10
69.25951061636569
 20
-178.3579331693862
 30
0.0
 10
69.25951061636569
 20
-178.3579331693862
 30
0.0
 10
69.25951061636569
 20
-178.3579331693862
 30
0.0
 10
69.25951061636569
 20
-178.3579331693862
 30
0.0
  0
ENDBLK
  5
420
330
41D
100
AcDbEntity
  8
0
100
AcDbBlockEnd
  0
BLOCK
  5
424
330
422
100
AcDbEntity
  8
0
100
AcDbBlockBegin
  2
BLOCK_132
 70
     0
 71
     0
 10
0.0
 20
0.0
 30
0.0
  3
BLOCK_132
  1

  0
SPLINE
  5
426
330
422
100
AcDbEntity
  8
LAYER_1
 62
     5
100
AcDbSpline
210
0.0
220
0.0
230
1.0
 70
    11
 71
     3
 72
    20
 73
    16
 74
     0
 42
0.0000000001
 43
0.0000000001
 40
0.0
 40
0.0
 40
0.0
 40
0.0
 40
1.0
 40
1.0
 40
1.0
 40
2.0
 40
2.0
 40
2.0
 40
3.0
 40
3.0
 40
3.0
 40
4.0
 40
4.0
 40
4.0
 40
5.0
 40
5.0
 40
5.0
 40
5.0
 10
136.1122775267358
 20
-178.3579331693862
 30
0.0
 10
136.1122775267358
 20
-175.7277750211722
 30
0.0
 10
133.9801079309147
 20
-173.5954331705769
 30
0.0
 10
131.3497775279264
 20
-173.5954331705769
 30
0.0
 10
128.7197916344867
 20
-173.5954331705769
 30
0.0
 10
126.5872775291171
 20
-175.7277750211722
 30
0.0
 10
126.5872775291171
 20
-178.3579331693862
 30
0.0
 10
126.5872775291171
 20
-180.9882635723745
 30
0.0
 10
128.7197916344867
 20
-183.1204331681956
 30
0.0
 10
131.3497775279264
 20
-183.1204331681956
 30
0.0
 10
133.9801079309147
 20
-183.1204331681956
 30
0.0
 10
136.1122775267358
 20
-180.9882635723745
 30
0.0
 10
136.1122775267358
 20
-178.3579331693862
 30
0.0
 10
136.1122775267358
 20
-178.3579331693862
 30
0.0
 10
136.1122775267358
 20
-178.3579331693862
 30
0.0
 10
136.1122775267358
 20
-178.3579331693862
 30
0.0
  0
ENDBLK
  5
425
330
422
100
AcDbEntity
  8
0
100
AcDbBlockEnd
  0
BLOCK
  5
429
330
427
100
AcDbEntity
  8
0
100
AcDbBlockBegin
  2
BLOCK_133
 70
     0
 71
     0
 10
0.0
 20
0.0
 30
0.0
  3
BLOCK_133
  1

  0
SPLINE
  5
42B
330
427
100
AcDbEntity
  8
LAYER_1
 62
     5
100
AcDbSpline
210
0.0
220
0.0
230
1.0
 70
    11
 71
     3
 72
    17
 73
    13
 74
     0
 42
0.0000000001
 43
0.0000000001
 40
0.0
 40
0.0
 40
0.0
 40
0.0
 40
1.0
 40
1.0
 40
1.0
 40
2.0
 40
2.0
 40
2.0
 40
3.0
 40
3.0
 40
3.0
 40
4.0
 40
4.0
 40
4.0
 40
4.0
 10
299.8511202592386
 20
-97.10294458292913
 30
0.0
 10
301.1843722120303
 20
-97.10294458292913
 30
0.0
 10
301.8509981884262
 20
-97.76974281409923
 30
0.0
 10
301.8509981884262
 20
-99.10299476689092
 30
0.0
 10
301.8509981884262
 20
-100.4362467196826
 30
0.0
 10
301.1843722120303
 20
-101.1028726960784
 30
0.0
 10
299.8511202592386
 20
-101.1028726960784
 30
0.0
 10
298.5178683064469
 20
-101.1028726960784
 30
0.0
 10
297.8512423300511
 20
-100.4362467196826
 30
0.0
 10
297.8512423300511
 20
-99.10299476689092
 30
0.0
 10
297.8512423300511
 20
-97.76974281409923
 30
0.0
 10
298.5178683064469
 20
-97.10294458292913
 30
0.0
 10
299.8511202592386
 20
-97.10294458292913
 30
0.0
  0
ENDBLK
  5
42A
330
427
100
AcDbEntity
  8
0
100
AcDbBlockEnd
  0
BLOCK
  5
42E
330
42C
100
AcDbEntity
  8
0
100
AcDbBlockBegin
  2
BLOCK_134
 70
     0
 71
     0
 10
0.0
 20
0.0
 30
0.0
  3
BLOCK_134
  1

  0
SPLINE
  5
430
330
42C
100
AcDbEntity
  8
LAYER_1
 62
     5
100
AcDbSpline
210
0.0
220
0.0
230
1.0
 70
    11
 71
     3
 72
    17
 73
    13
 74
     0
 42
0.0000000001
 43
0.0000000001
 40
0.0
 40
0.0
 40
0.0
 40
0.0
 40
1.0
 40
1.0
 40
1.0
 40
2.0
 40
2.0
 40
2.0
 40
3.0
 40
3.0
 40
3.0
 40
4.0
 40
4.0
 40
4.0
 40
4.0
 10
268.851117554315
 20
-97.10294458292913
 30
0.0
 10
270.1843695071067
 20
-97.10294458292913
 30
0.0
 10
270.8513399930511
 20
-97.76974281409923
 30
0.0
 10
270.8513399930511
 20
-99.10299476689092
 30
0.0
 10
270.8513399930511
 20
-100.4362467196826
 30
0.0
 10
270.1843695071067
 20
-101.1028726960784
 30
0.0
 10
268.851117554315
 20
-101.1028726960784
 30
0.0
 10
267.5178656015233
 20
-101.1028726960784
 30
0.0
 10
266.8512396251275
 20
-100.4362467196826
 30
0.0
 10
266.8512396251275
 20
-99.10299476689092
 30
0.0
 10
266.8512396251275
 20
-97.76974281409923
 30
0.0
 10
267.5178656015233
 20
-97.10294458292913
 30
0.0
 10
268.851117554315
 20
-97.10294458292913
 30
0.0
  0
ENDBLK
  5
42F
330
42C
100
AcDbEntity
  8
0
100
AcDbBlockEnd
  0
BLOCK
  5
433
330
431
100
AcDbEntity
  8
0
100
AcDbBlockBegin
  2
BLOCK_135
 70
     0
 71
     0
 10
0.0
 20
0.0
 30
0.0
  3
BLOCK_135
  1

  0
SPLINE
  5
435
330
431
100
AcDbEntity
  8
LAYER_1
 62
     5
100
AcDbSpline
210
0.0
220
0.0
230
1.0
 70
    11
 71
     3
 72
    17
 73
    13
 74
     0
 42
0.0000000001
 43
0.0000000001
 40
0.0
 40
0.0
 40
0.0
 40
0.0
 40
1.0
 40
1.0
 40
1.0
 40
2.0
 40
2.0
 40
2.0
 40
3.0
 40
3.0
 40
3.0
 40
4.0
 40
4.0
 40
4.0
 40
4.0
 10
299.8511202592386
 20
-128.1029472878527
 30
0.0
 10
301.1843722120303
 20
-128.1029472878527
 30
0.0
 10
301.8509981884262
 20
-128.7697455190228
 30
0.0
 10
301.8509981884262
 20
-130.1029974718145
 30
0.0
 10
301.8509981884262
 20
-131.4362494246062
 30
0.0
 10
301.1843722120303
 20
-132.1028754010021
 30
0.0
 10
299.8511202592386
 20
-132.1028754010021
 30
0.0
 10
298.5178683064469
 20
-132.1028754010021
 30
0.0
 10
297.8512423300511
 20
-131.4362494246062
 30
0.0
 10
297.8512423300511
 20
-130.1029974718145
 30
0.0
 10
297.8512423300511
 20
-128.7697455190228
 30
0.0
 10
298.5178683064469
 20
-128.1029472878527
 30
0.0
 10
299.8511202592386
 20
-128.1029472878527
 30
0.0
  0
ENDBLK
  5
434
330
431
100
AcDbEntity
  8
0
100
AcDbBlockEnd
  0
BLOCK
  5
438
330
436
100
AcDbEntity
  8
0
100
AcDbBlockBegin
  2
BLOCK_136
 70
     0
 71
     0
 10
0.0
 20
0.0
 30
0.0
  3
BLOCK_136
  1

  0
SPLINE
  5
43A
330
436
100
AcDbEntity
  8
LAYER_1
 62
     5
100
AcDbSpline
210
0.0
220
0.0
230
1.0
 70
    11
 71
     3
 72
    17
 73
    13
 74
     0
 42
0.0000000001
 43
0.0000000001
 40
0.0
 40
0.0
 40
0.0
 40
0.0
 40
1.0
 40
1.0
 40
1.0
 40
2.0
 40
2.0
 40
2.0
 40
3.0
 40
3.0
 40
3.0
 40
4.0
 40
4.0
 40
4.0
 40
4.0
 10
268.851117554315
 20
-128.1029472878527
 30
0.0
 10
270.1843695071067
 20
-128.1029472878527
 30
0.0
 10
270.8513399930511
 20
-128.7697455190228
 30
0.0
 10
270.8513399930511
 20
-130.1029974718145
 30
0.0
 10
270.8513399930511
 20
-131.4362494246062
 30
0.0
 10
270.1843695071067
 20
-132.1028754010021
 30
0.0
 10
268.851117554315
 20
-132.1028754010021
 30
0.0
 10
267.5178656015233
 20
-132.1028754010021
 30
0.0
 10
266.8512396251275
 20
-131.4362494246062
 30
0.0
 10
266.8512396251275
 20
-130.1029974718145
 30
0.0
 10
266.8512396251275
 20
-128.7697455190228
 30
0.0
 10
267.5178656015233
 20
-128.1029472878527
 30
0.0
 10
268.851117554315
 20
-128.1029472878527
 30
0.0
  0
ENDBLK
  5
439
330
436
100
AcDbEntity
  8
0
100
AcDbBlockEnd
  0
BLOCK
  5
43D
330
43B
100
AcDbEntity
  8
0
100
AcDbBlockBegin
  2
BLOCK_137
 70
     0
 71
     0
 10
0.0
 20
0.0
 30
0.0
  3
BLOCK_137
  1

  0
SPLINE
  5
43F
330
43B
100
AcDbEntity
  8
LAYER_1
 62
     5
100
AcDbSpline
210
0.0
220
0.0
230
1.0
 70
    11
 71
     3
 72
    20
 73
    16
 74
     0
 42
0.0000000001
 43
0.0000000001
 40
0.0
 40
0.0
 40
0.0
 40
0.0
 40
1.0
 40
1.0
 40
1.0
 40
2.0
 40
2.0
 40
2.0
 40
3.0
 40
3.0
 40
3.0
 40
4.0
 40
4.0
 40
4.0
 40
5.0
 40
5.0
 40
5.0
 40
5.0
 10
288.6056395762861
 20
-114.6029961193527
 30
0.0
 10
288.6056395762861
 20
-112.2532687436381
 30
0.0
 10
286.7008462824915
 20
-110.3484754498434
 30
0.0
 10
284.3512911615511
 20
-110.3484754498434
 30
0.0
 10
282.0013915310622
 20
-110.3484754498434
 30
0.0
 10
280.0965982372675
 20
-112.2532687436381
 30
0.0
 10
280.0965982372675
 20
-114.6029961193527
 30
0.0
 10
280.0965982372675
 20
-116.9527234950674
 30
0.0
 10
282.0013915310622
 20
-118.857516788862
 30
0.0
 10
284.3512911615511
 20
-118.857516788862
 30
0.0
 10
286.7008462824915
 20
-118.857516788862
 30
0.0
 10
288.6056395762861
 20
-116.9527234950674
 30
0.0
 10
288.6056395762861
 20
-114.6029961193527
 30
0.0
 10
288.6056395762861
 20
-114.6029961193527
 30
0.0
 10
288.6056395762861
 20
-114.6029961193527
 30
0.0
 10
288.6056395762861
 20
-114.6029961193527
 30
0.0
  0
ENDBLK
  5
43E
330
43B
100
AcDbEntity
  8
0
100
AcDbBlockEnd
  0
BLOCK
  5
442
330
440
100
AcDbEntity
  8
0
100
AcDbBlockBegin
  2
BLOCK_138
 70
     0
 71
     0
 10
0.0
 20
0.0
 30
0.0
  3
BLOCK_138
  1

  0
SPLINE
  5
444
330
440
100
AcDbEntity
  8
LAYER_1
 62
     5
100
AcDbSpline
210
0.0
220
0.0
230
1.0
 70
    11
 71
     3
 72
    20
 73
    16
 74
     0
 42
0.0000000001
 43
0.0000000001
 40
0.0
 40
0.0
 40
0.0
 40
0.0
 40
1.0
 40
1.0
 40
1.0
 40
2.0
 40
2.0
 40
2.0
 40
3.0
 40
3.0
 40
3.0
 40
4.0
 40
4.0
 40
4.0
 40
5.0
 40
5.0
 40
5.0
 40
5.0
 10
255.6874077051754
 20
-105.3573933655877
 30
0.0
 10
255.6874077051754
 20
-102.7270629625995
 30
0.0
 10
253.5548935998057
 20
-100.5948933667784
 30
0.0
 10
250.924907706366
 20
-100.5948933667784
 30
0.0
 10
248.2945773033778
 20
-100.5948933667784
 30
0.0
 10
246.1624077075566
 20
-102.7270629625995
 30
0.0
 10
246.1624077075566
 20
-105.3573933655877
 30
0.0
 10
246.1624077075566
 20
-107.9875515138017
 30
0.0
 10
248.2945773033778
 20
-110.1198933643971
 30
0.0
 10
250.924907706366
 20
-110.1198933643971
 30
0.0
 10
253.5548935998057
 20
-110.1198933643971
 30
0.0
 10
255.6874077051754
 20
-107.9875515138017
 30
0.0
 10
255.6874077051754
 20
-105.3573933655877
 30
0.0
 10
255.6874077051754
 20
-105.3573933655877
 30
0.0
 10
255.6874077051754
 20
-105.3573933655877
 30
0.0
 10
255.6874077051754
 20
-105.3573933655877
 30
0.0
  0
ENDBLK
  5
443
330
440
100
AcDbEntity
  8
0
100
AcDbBlockEnd
  0
BLOCK
  5
447
330
445
100
AcDbEntity
  8
0
100
AcDbBlockBegin
  2
BLOCK_139
 70
     0
 71
     0
 10
0.0
 20
0.0
 30
0.0
  3
BLOCK_139
  1

  0
SPLINE
  5
449
330
445
100
AcDbEntity
  8
LAYER_1
 62
     5
100
AcDbSpline
210
0.0
220
0.0
230
1.0
 70
    11
 71
     3
 72
    20
 73
    16
 74
     0
 42
0.0000000001
 43
0.0000000001
 40
0.0
 40
0.0
 40
0.0
 40
0.0
 40
1.0
 40
1.0
 40
1.0
 40
2.0
 40
2.0
 40
2.0
 40
3.0
 40
3.0
 40
3.0
 40
4.0
 40
4.0
 40
4.0
 40
5.0
 40
5.0
 40
5.0
 40
5.0
 10
322.5401746155455
 20
-105.3573933655877
 30
0.0
 10
322.5401746155455
 20
-102.7270629625995
 30
0.0
 10
320.4076605101759
 20
-100.5948933667784
 30
0.0
 10
317.7776746167361
 20
-100.5948933667784
 30
0.0
 10
315.1473442137479
 20
-100.5948933667784
 30
0.0
 10
313.0151746179268
 20
-102.7270629625995
 30
0.0
 10
313.0151746179268
 20
-105.3573933655877
 30
0.0
 10
313.0151746179268
 20
-107.9875515138017
 30
0.0
 10
315.1473442137479
 20
-110.1198933643971
 30
0.0
 10
317.7776746167361
 20
-110.1198933643971
 30
0.0
 10
320.4076605101759
 20
-110.1198933643971
 30
0.0
 10
322.5401746155455
 20
-107.9875515138017
 30
0.0
 10
322.5401746155455
 20
-105.3573933655877
 30
0.0
 10
322.5401746155455
 20
-105.3573933655877
 30
0.0
 10
322.5401746155455
 20
-105.3573933655877
 30
0.0
 10
322.5401746155455
 20
-105.3573933655877
 30
0.0
  0
ENDBLK
  5
448
330
445
100
AcDbEntity
  8
0
100
AcDbBlockEnd
  0
BLOCK
  5
44C
330
44A
100
AcDbEntity
  8
0
100
AcDbBlockBegin
  2
BLOCK_140
 70
     0
 71
     0
 10
0.0
 20
0.0
 30
0.0
  3
BLOCK_140
  1

  0
SPLINE
  5
44E
330
44A
100
AcDbEntity
  8
LAYER_1
 62
     5
100
AcDbSpline
210
0.0
220
0.0
230
1.0
 70
    11
 71
     3
 72
    20
 73
    16
 74
     0
 42
0.0000000001
 43
0.0000000001
 40
0.0
 40
0.0
 40
0.0
 40
0.0
 40
1.0
 40
1.0
 40
1.0
 40
2.0
 40
2.0
 40
2.0
 40
3.0
 40
3.0
 40
3.0
 40
4.0
 40
4.0
 40
4.0
 40
5.0
 40
5.0
 40
5.0
 40
5.0
 10
257.3765380215934
 20
-34.76342501301053
 30
0.0
 10
257.3765380215934
 20
-32.13309461002228
 30
0.0
 10
255.2443684257723
 20
-30.00092501420116
 30
0.0
 10
252.614038022784
 20
-30.00092501420116
 30
0.0
 10
249.9837076197958
 20
-30.00092501420116
 30
0.0
 10
247.8515380239746
 20
-32.13309461002228
 30
0.0
 10
247.8515380239746
 20
-34.76342501301053
 30
0.0
 10
247.8515380239746
 20
-37.39358316122452
 30
0.0
 10
249.9837076197958
 20
-39.52592501181991
 30
0.0
 10
252.614038022784
 20
-39.52592501181991
 30
0.0
 10
255.2443684257723
 20
-39.52592501181991
 30
0.0
 10
257.3765380215934
 20
-37.39358316122452
 30
0.0
 10
257.3765380215934
 20
-34.76342501301053
 30
0.0
 10
257.3765380215934
 20
-34.76342501301053
 30
0.0
 10
257.3765380215934
 20
-34.76342501301053
 30
0.0
 10
257.3765380215934
 20
-34.76342501301053
 30
0.0
  0
ENDBLK
  5
44D
330
44A
100
AcDbEntity
  8
0
100
AcDbBlockEnd
  0
BLOCK
  5
451
330
44F
100
AcDbEntity
  8
0
100
AcDbBlockBegin
  2
BLOCK_141
 70
     0
 71
     0
 10
0.0
 20
0.0
 30
0.0
  3
BLOCK_141
  1

  0
SPLINE
  5
453
330
44F
100
AcDbEntity
  8
LAYER_1
 62
     5
100
AcDbSpline
210
0.0
220
0.0
230
1.0
 70
    11
 71
     3
 72
    20
 73
    16
 74
     0
 42
0.0000000001
 43
0.0000000001
 40
0.0
 40
0.0
 40
0.0
 40
0.0
 40
1.0
 40
1.0
 40
1.0
 40
2.0
 40
2.0
 40
2.0
 40
3.0
 40
3.0
 40
3.0
 40
4.0
 40
4.0
 40
4.0
 40
5.0
 40
5.0
 40
5.0
 40
5.0
 10
324.2293049319635
 20
-34.76342501301053
 30
0.0
 10
324.2293049319635
 20
-32.13309461002228
 30
0.0
 10
322.0971353361424
 20
-30.00092501420116
 30
0.0
 10
319.4668049331542
 20
-30.00092501420116
 30
0.0
 10
316.8364745301659
 20
-30.00092501420116
 30
0.0
 10
314.7043049343447
 20
-32.13309461002228
 30
0.0
 10
314.7043049343447
 20
-34.76342501301053
 30
0.0
 10
314.7043049343447
 20
-37.39358316122452
 30
0.0
 10
316.8364745301659
 20
-39.52592501181991
 30
0.0
 10
319.4668049331542
 20
-39.52592501181991
 30
0.0
 10
322.0971353361424
 20
-39.52592501181991
 30
0.0
 10
324.2293049319635
 20
-37.39358316122452
 30
0.0
 10
324.2293049319635
 20
-34.76342501301053
 30
0.0
 10
324.2293049319635
 20
-34.76342501301053
 30
0.0
 10
324.2293049319635
 20
-34.76342501301053
 30
0.0
 10
324.2293049319635
 20
-34.76342501301053
 30
0.0
  0
ENDBLK
  5
452
330
44F
100
AcDbEntity
  8
0
100
AcDbBlockEnd
  0
BLOCK
  5
456
330
454
100
AcDbEntity
  8
0
100
AcDbBlockBegin
  2
BLOCK_142
 70
     0
 71
     0
 10
0.0
 20
0.0
 30
0.0
  3
BLOCK_142
  1

  0
POLYLINE
  5
458
330
454
100
AcDbEntity
  8
LAYER_1
 62
     1
100
AcDb2dPolyline
 66
     1
 10
0.0
 20
0.0
 30
0.0
  0
VERTEX
  5
459
330
458
100
AcDbEntity
  8
LAYER_1
 62
     1
100
AcDbVertex
100
AcDb2dVertex
 10
413.8855033687508
 20
-222.7908799356217
 30
0.0
  0
VERTEX
  5
45A
330
458
100
AcDbEntity
  8
LAYER_1
 62
     1
100
AcDbVertex
100
AcDb2dVertex
 10
413.8855033687508
 20
-286.2908799197467
 30
0.0
  0
SEQEND
  5
45B
330
458
100
AcDbEntity
  8
LAYER_1
  0
ENDBLK
  5
457
330
454
100
AcDbEntity
  8
0
100
AcDbBlockEnd
  0
BLOCK
  5
45E
330
45C
100
AcDbEntity
  8
0
100
AcDbBlockBegin
  2
BLOCK_143
 70
     0
 71
     0
 10
0.0
 20
0.0
 30
0.0
  3
BLOCK_143
  1

  0
POLYLINE
  5
460
330
45C
100
AcDbEntity
  8
LAYER_1
 62
     1
100
AcDb2dPolyline
 66
     1
 10
0.0
 20
0.0
 30
0.0
  0
VERTEX
  5
461
330
460
100
AcDbEntity
  8
LAYER_1
 62
     1
100
AcDbVertex
100
AcDb2dVertex
 10
541.901461995601
 20
-286.2908799197467
 30
0.0
  0
VERTEX
  5
462
330
460
100
AcDbEntity
  8
LAYER_1
 62
     1
100
AcDbVertex
100
AcDb2dVertex
 10
541.901461995601
 20
-222.7908799356217
 30
0.0
  0
SEQEND
  5
463
330
460
100
AcDbEntity
  8
LAYER_1
  0
ENDBLK
  5
45F
330
45C
100
AcDbEntity
  8
0
100
AcDbBlockEnd
  0
BLOCK
  5
466
330
464
100
AcDbEntity
  8
0
100
AcDbBlockBegin
  2
BLOCK_144
 70
     0
 71
     0
 10
0.0
 20
0.0
 30
0.0
  3
BLOCK_144
  1

  0
POLYLINE
  5
468
330
464
100
AcDbEntity
  8
LAYER_1
 62
     1
100
AcDb2dPolyline
 66
     1
 10
0.0
 20
0.0
 30
0.0
  0
VERTEX
  5
469
330
468
100
AcDbEntity
  8
LAYER_1
 62
     1
100
AcDbVertex
100
AcDb2dVertex
 10
452.4936549433002
 20
-225.7116318880165
 30
0.0
  0
VERTEX
  5
46A
330
468
100
AcDbEntity
  8
LAYER_1
 62
     1
100
AcDbVertex
100
AcDb2dVertex
 10
503.2936549306002
 20
-225.7116318880165
 30
0.0
  0
SEQEND
  5
46B
330
468
100
AcDbEntity
  8
LAYER_1
  0
ENDBLK
  5
467
330
464
100
AcDbEntity
  8
0
100
AcDbBlockEnd
  0
BLOCK
  5
46E
330
46C
100
AcDbEntity
  8
0
100
AcDbBlockBegin
  2
BLOCK_145
 70
     0
 71
     0
 10
0.0
 20
0.0
 30
0.0
  3
BLOCK_145
  1

  0
POLYLINE
  5
470
330
46C
100
AcDbEntity
  8
LAYER_1
 62
     1
100
AcDb2dPolyline
 66
     1
 10
0.0
 20
0.0
 30
0.0
  0
VERTEX
  5
471
330
470
100
AcDbEntity
  8
LAYER_1
 62
     1
100
AcDbVertex
100
AcDb2dVertex
 10
416.1551322744335
 20
-214.1812418084339
 30
0.0
  0
VERTEX
  5
472
330
470
100
AcDbEntity
  8
LAYER_1
 62
     1
100
AcDbVertex
100
AcDb2dVertex
 10
416.1551322744335
 20
-150.6812418243089
 30
0.0
  0
SEQEND
  5
473
330
470
100
AcDbEntity
  8
LAYER_1
  0
ENDBLK
  5
46F
330
46C
100
AcDbEntity
  8
0
100
AcDbBlockEnd
  0
BLOCK
  5
476
330
474
100
AcDbEntity
  8
0
100
AcDbBlockBegin
  2
BLOCK_146
 70
     0
 71
     0
 10
0.0
 20
0.0
 30
0.0
  3
BLOCK_146
  1

  0
POLYLINE
  5
478
330
474
100
AcDbEntity
  8
LAYER_1
 62
     1
100
AcDb2dPolyline
 66
     1
 10
0.0
 20
0.0
 30
0.0
  0
VERTEX
  5
479
330
478
100
AcDbEntity
  8
LAYER_1
 62
     1
100
AcDbVertex
100
AcDb2dVertex
 10
288.1391736475833
 20
-150.6812418243089
 30
0.0
  0
VERTEX
  5
47A
330
478
100
AcDbEntity
  8
LAYER_1
 62
     1
100
AcDbVertex
100
AcDb2dVertex
 10
288.1391736475833
 20
-214.1812418084339
 30
0.0
  0
SEQEND
  5
47B
330
478
100
AcDbEntity
  8
LAYER_1
  0
ENDBLK
  5
477
330
474
100
AcDbEntity
  8
0
100
AcDbBlockEnd
  0
BLOCK
  5
47E
330
47C
100
AcDbEntity
  8
0
100
AcDbBlockBegin
  2
BLOCK_147
 70
     0
 71
     0
 10
0.0
 20
0.0
 30
0.0
  3
BLOCK_147
  1

  0
POLYLINE
  5
480
330
47C
100
AcDbEntity
  8
LAYER_1
 62
     1
100
AcDb2dPolyline
 66
     1
 10
0.0
 20
0.0
 30
0.0
  0
VERTEX
  5
481
330
480
100
AcDbEntity
  8
LAYER_1
 62
     1
100
AcDbVertex
100
AcDb2dVertex
 10
377.5469806998841
 20
-211.2601453464905
 30
0.0
  0
VERTEX
  5
482
330
480
100
AcDbEntity
  8
LAYER_1
 62
     1
100
AcDbVertex
100
AcDb2dVertex
 10
326.7469807125841
 20
-211.2601453464905
 30
0.0
  0
SEQEND
  5
483
330
480
100
AcDbEntity
  8
LAYER_1
  0
ENDBLK
  5
47F
330
47C
100
AcDbEntity
  8
0
100
AcDbBlockEnd
  0
BLOCK
  5
486
330
484
100
AcDbEntity
  8
0
100
AcDbBlockBegin
  2
BLOCK_148
 70
     0
 71
     0
 10
0.0
 20
0.0
 30
0.0
  3
BLOCK_148
  1

  0
POLYLINE
  5
488
330
484
100
AcDbEntity
  8
LAYER_1
 62
     1
100
AcDb2dPolyline
 66
     1
 10
0.0
 20
0.0
 30
0.0
  0
VERTEX
  5
489
330
488
100
AcDbEntity
  8
LAYER_1
 62
     1
100
AcDbVertex
100
AcDb2dVertex
 10
161.604261569842
 20
-222.7908799356217
 30
0.0
  0
VERTEX
  5
48A
330
488
100
AcDbEntity
  8
LAYER_1
 62
     1
100
AcDbVertex
100
AcDb2dVertex
 10
161.604261569842
 20
-286.2908799197467
 30
0.0
  0
SEQEND
  5
48B
330
488
100
AcDbEntity
  8
LAYER_1
  0
ENDBLK
  5
487
330
484
100
AcDbEntity
  8
0
100
AcDbBlockEnd
  0
BLOCK
  5
48E
330
48C
100
AcDbEntity
  8
0
100
AcDbBlockBegin
  2
BLOCK_149
 70
     0
 71
     0
 10
0.0
 20
0.0
 30
0.0
  3
BLOCK_149
  1

  0
POLYLINE
  5
490
330
48C
100
AcDbEntity
  8
LAYER_1
 62
     1
100
AcDb2dPolyline
 66
     1
 10
0.0
 20
0.0
 30
0.0
  0
VERTEX
  5
491
330
490
100
AcDbEntity
  8
LAYER_1
 62
     1
100
AcDbVertex
100
AcDb2dVertex
 10
289.6202201966922
 20
-286.2908799197467
 30
0.0
  0
VERTEX
  5
492
330
490
100
AcDbEntity
  8
LAYER_1
 62
     1
100
AcDbVertex
100
AcDb2dVertex
 10
289.6202201966922
 20
-222.7908799356217
 30
0.0
  0
SEQEND
  5
493
330
490
100
AcDbEntity
  8
LAYER_1
  0
ENDBLK
  5
48F
330
48C
100
AcDbEntity
  8
0
100
AcDbBlockEnd
  0
BLOCK
  5
496
330
494
100
AcDbEntity
  8
0
100
AcDbBlockBegin
  2
BLOCK_150
 70
     0
 71
     0
 10
0.0
 20
0.0
 30
0.0
  3
BLOCK_150
  1

  0
POLYLINE
  5
498
330
494
100
AcDbEntity
  8
LAYER_1
 62
     1
100
AcDb2dPolyline
 66
     1
 10
0.0
 20
0.0
 30
0.0
  0
VERTEX
  5
499
330
498
100
AcDbEntity
  8
LAYER_1
 62
     1
100
AcDbVertex
100
AcDb2dVertex
 10
200.2120686348428
 20
-225.7116318880165
 30
0.0
  0
VERTEX
  5
49A
330
498
100
AcDbEntity
  8
LAYER_1
 62
     1
100
AcDbVertex
100
AcDb2dVertex
 10
251.0120686221428
 20
-225.7116318880165
 30
0.0
  0
SEQEND
  5
49B
330
498
100
AcDbEntity
  8
LAYER_1
  0
ENDBLK
  5
497
330
494
100
AcDbEntity
  8
0
100
AcDbBlockEnd
  0
BLOCK
  5
49E
330
49C
100
AcDbEntity
  8
0
100
AcDbBlockBegin
  2
BLOCK_151
 70
     0
 71
     0
 10
0.0
 20
0.0
 30
0.0
  3
BLOCK_151
  1

  0
POLYLINE
  5
4A0
330
49C
100
AcDbEntity
  8
LAYER_1
 62
     1
100
AcDb2dPolyline
 66
     1
 10
0.0
 20
0.0
 30
0.0
  0
VERTEX
  5
4A1
330
4A0
100
AcDbEntity
  8
LAYER_1
 62
     1
100
AcDbVertex
100
AcDb2dVertex
 10
123.3233940663914
 20
-213.2066242956567
 30
0.0
  0
VERTEX
  5
4A2
330
4A0
100
AcDbEntity
  8
LAYER_1
 62
     1
100
AcDbVertex
100
AcDb2dVertex
 10
72.52339407909137
 20
-213.2066242956567
 30
0.0
  0
SEQEND
  5
4A3
330
4A0
100
AcDbEntity
  8
LAYER_1
  0
ENDBLK
  5
49F
330
49C
100
AcDbEntity
  8
0
100
AcDbBlockEnd
  0
BLOCK
  5
4A6
330
4A4
100
AcDbEntity
  8
0
100
AcDbBlockBegin
  2
BLOCK_152
 70
     0
 71
     0
 10
0.0
 20
0.0
 30
0.0
  3
BLOCK_152
  1

  0
POLYLINE
  5
4A8
330
4A4
100
AcDbEntity
  8
LAYER_1
 62
     1
100
AcDb2dPolyline
 66
     1
 10
0.0
 20
0.0
 30
0.0
  0
VERTEX
  5
4A9
330
4A8
100
AcDbEntity
  8
LAYER_1
 62
     1
100
AcDbVertex
100
AcDb2dVertex
 10
33.91558701409055
 20
-216.1277207576
 30
0.0
  0
VERTEX
  5
4AA
330
4A8
100
AcDbEntity
  8
LAYER_1
 62
     1
100
AcDbVertex
100
AcDb2dVertex
 10
33.91558701409055
 20
-152.627720773475
 30
0.0
  0
SEQEND
  5
4AB
330
4A8
100
AcDbEntity
  8
LAYER_1
  0
ENDBLK
  5
4A7
330
4A4
100
AcDbEntity
  8
0
100
AcDbBlockEnd
  0
BLOCK
  5
4AE
330
4AC
100
AcDbEntity
  8
0
100
AcDbBlockBegin
  2
BLOCK_153
 70
     0
 71
     0
 10
0.0
 20
0.0
 30
0.0
  3
BLOCK_153
  1

  0
POLYLINE
  5
4B0
330
4AC
100
AcDbEntity
  8
LAYER_1
 62
     1
100
AcDb2dPolyline
 66
     1
 10
0.0
 20
0.0
 30
0.0
  0
VERTEX
  5
4B1
330
4B0
100
AcDbEntity
  8
LAYER_1
 62
     1
100
AcDbVertex
100
AcDb2dVertex
 10
220.3431395933517
 20
-143.1271809538015
 30
0.0
  0
VERTEX
  5
4B2
330
4B0
100
AcDbEntity
  8
LAYER_1
 62
     1
100
AcDbVertex
100
AcDb2dVertex
 10
220.3431395933517
 20
-79.62718096967654
 30
0.0
  0
SEQEND
  5
4B3
330
4B0
100
AcDbEntity
  8
LAYER_1
  0
ENDBLK
  5
4AF
330
4AC
100
AcDbEntity
  8
0
100
AcDbBlockEnd
  0
BLOCK
  5
4B6
330
4B4
100
AcDbEntity
  8
0
100
AcDbBlockBegin
  2
BLOCK_154
 70
     0
 71
     0
 10
0.0
 20
0.0
 30
0.0
  3
BLOCK_154
  1

  0
POLYLINE
  5
4B8
330
4B4
100
AcDbEntity
  8
LAYER_1
 62
     1
100
AcDb2dPolyline
 66
     1
 10
0.0
 20
0.0
 30
0.0
  0
VERTEX
  5
4B9
330
4B8
100
AcDbEntity
  8
LAYER_1
 62
     1
100
AcDbVertex
100
AcDb2dVertex
 10
222.0326144193182
 20
-9.033212617099336
 30
0.0
  0
VERTEX
  5
4BA
330
4B8
100
AcDbEntity
  8
LAYER_1
 62
     1
100
AcDbVertex
100
AcDb2dVertex
 10
222.0326144193182
 20
-72.53321260122434
 30
0.0
  0
SEQEND
  5
4BB
330
4B8
100
AcDbEntity
  8
LAYER_1
  0
ENDBLK
  5
4B7
330
4B4
100
AcDbEntity
  8
0
100
AcDbBlockEnd
  0
BLOCK
  5
4BE
330
4BC
100
AcDbEntity
  8
0
100
AcDbBlockBegin
  2
BLOCK_155
 70
     0
 71
     0
 10
0.0
 20
0.0
 30
0.0
  3
BLOCK_155
  1

  0
POLYLINE
  5
4C0
330
4BC
100
AcDbEntity
  8
LAYER_1
 62
     1
100
AcDb2dPolyline
 66
     1
 10
0.0
 20
0.0
 30
0.0
  0
VERTEX
  5
4C1
330
4C0
100
AcDbEntity
  8
LAYER_1
 62
     1
100
AcDbVertex
100
AcDb2dVertex
 10
161.9315456409407
 20
-216.1277207576
 30
0.0
  0
VERTEX
  5
4C2
330
4C0
100
AcDbEntity
  8
LAYER_1
 62
     1
100
AcDbVertex
100
AcDb2dVertex
 10
161.9315456409407
 20
-152.627720773475
 30
0.0
  0
SEQEND
  5
4C3
330
4C0
100
AcDbEntity
  8
LAYER_1
  0
ENDBLK
  5
4BF
330
4BC
100
AcDbEntity
  8
0
100
AcDbBlockEnd
  0
BLOCK
  5
4C6
330
4C4
100
AcDbEntity
  8
0
100
AcDbBlockBegin
  2
BLOCK_156
 70
     0
 71
     0
 10
0.0
 20
0.0
 30
0.0
  3
BLOCK_156
  1

  0
POLYLINE
  5
4C8
330
4C4
100
AcDbEntity
  8
LAYER_1
 62
     1
100
AcDb2dPolyline
 66
     1
 10
0.0
 20
0.0
 30
0.0
  0
VERTEX
  5
4C9
330
4C8
100
AcDbEntity
  8
LAYER_1
 62
     1
100
AcDbVertex
100
AcDb2dVertex
 10
348.3590982202019
 20
-143.1271809538015
 30
0.0
  0
VERTEX
  5
4CA
330
4C8
100
AcDbEntity
  8
LAYER_1
 62
     1
100
AcDbVertex
100
AcDb2dVertex
 10
348.3590982202019
 20
-79.62718096967654
 30
0.0
  0
SEQEND
  5
4CB
330
4C8
100
AcDbEntity
  8
LAYER_1
  0
ENDBLK
  5
4C7
330
4C4
100
AcDbEntity
  8
0
100
AcDbBlockEnd
  0
BLOCK
  5
4CE
330
4CC
100
AcDbEntity
  8
0
100
AcDbBlockBegin
  2
BLOCK_157
 70
     0
 71
     0
 10
0.0
 20
0.0
 30
0.0
  3
BLOCK_157
  1

  0
POLYLINE
  5
4D0
330
4CC
100
AcDbEntity
  8
LAYER_1
 62
     1
100
AcDb2dPolyline
 66
     1
 10
0.0
 20
0.0
 30
0.0
  0
VERTEX
  5
4D1
330
4D0
100
AcDbEntity
  8
LAYER_1
 62
     1
100
AcDbVertex
100
AcDb2dVertex
 10
350.0485730461684
 20
-72.53321260122434
 30
0.0
  0
VERTEX
  5
4D2
330
4D0
100
AcDbEntity
  8
LAYER_1
 62
     1
100
AcDbVertex
100
AcDb2dVertex
 10
350.0485730461684
 20
-9.033212617099336
 30
0.0
  0
SEQEND
  5
4D3
330
4D0
100
AcDbEntity
  8
LAYER_1
  0
ENDBLK
  5
4CF
330
4CC
100
AcDbEntity
  8
0
100
AcDbBlockEnd
  0
ENDSEC
  0
SECTION
  2
ENTITIES
  0
INSERT
  5
3D
330
1F
100
AcDbEntity
  8
LAYER_1
100
AcDbBlockReference
  2
BLOCK_2
 10
0.0
 20
0.0
 30
0.0
  0
INSERT
  5
46
330
1F
100
AcDbEntity
  8
LAYER_1
100
AcDbBlockReference
  2
BLOCK_3
 10
0.0
 20
0.0
 30
0.0
  0
INSERT
  5
4E
330
1F
100
AcDbEntity
  8
LAYER_1
100
AcDbBlockReference
  2
BLOCK_4
 10
0.0
 20
0.0
 30
0.0
  0
INSERT
  5
56
330
1F
100
AcDbEntity
  8
LAYER_1
100
AcDbBlockReference
  2
BLOCK_5
 10
0.0
 20
0.0
 30
0.0
  0
INSERT
  5
5E
330
1F
100
AcDbEntity
  8
LAYER_1
100
AcDbBlockReference
  2
BLOCK_6
 10
0.0
 20
0.0
 30
0.0
  0
INSERT
  5
67
330
1F
100
AcDbEntity
  8
LAYER_1
100
AcDbBlockReference
  2
BLOCK_7
 10
0.0
 20
0.0
 30
0.0
  0
INSERT
  5
6F
330
1F
100
AcDbEntity
  8
LAYER_1
100
AcDbBlockReference
  2
BLOCK_8
 10
0.0
 20
0.0
 30
0.0
  0
INSERT
  5
78
330
1F
100
AcDbEntity
  8
LAYER_1
100
AcDbBlockReference
  2
BLOCK_9
 10
0.0
 20
0.0
 30
0.0
  0
INSERT
  5
80
330
1F
100
AcDbEntity
  8
LAYER_1
100
AcDbBlockReference
  2
BLOCK_10
 10
0.0
 20
0.0
 30
0.0
  0
INSERT
  5
88
330
1F
100
AcDbEntity
  8
LAYER_1
100
AcDbBlockReference
  2
BLOCK_11
 10
0.0
 20
0.0
 30
0.0
  0
INSERT
  5
90
330
1F
100
AcDbEntity
  8
LAYER_1
100
AcDbBlockReference
  2
BLOCK_12
 10
0.0
 20
0.0
 30
0.0
  0
INSERT
  5
99
330
1F
100
AcDbEntity
  8
LAYER_1
100
AcDbBlockReference
  2
BLOCK_13
 10
0.0
 20
0.0
 30
0.0
  0
INSERT
  5
A1
330
1F
100
AcDbEntity
  8
LAYER_1
100
AcDbBlockReference
  2
BLOCK_14
 10
0.0
 20
0.0
 30
0.0
  0
INSERT
  5
A9
330
1F
100
AcDbEntity
  8
LAYER_1
100
AcDbBlockReference
  2
BLOCK_15
 10
0.0
 20
0.0
 30
0.0
  0
INSERT
  5
B1
330
1F
100
AcDbEntity
  8
LAYER_1
100
AcDbBlockReference
  2
BLOCK_16
 10
0.0
 20
0.0
 30
0.0
  0
INSERT
  5
BA
330
1F
100
AcDbEntity
  8
LAYER_1
100
AcDbBlockReference
  2
BLOCK_17
 10
0.0
 20
0.0
 30
0.0
  0
INSERT
  5
C2
330
1F
100
AcDbEntity
  8
LAYER_1
100
AcDbBlockReference
  2
BLOCK_18
 10
0.0
 20
0.0
 30
0.0
  0
INSERT
  5
CB
330
1F
100
AcDbEntity
  8
LAYER_1
100
AcDbBlockReference
  2
BLOCK_19
 10
0.0
 20
0.0
 30
0.0
  0
INSERT
  5
D3
330
1F
100
AcDbEntity
  8
LAYER_1
100
AcDbBlockReference
  2
BLOCK_20
 10
0.0
 20
0.0
 30
0.0
  0
INSERT
  5
DB
330
1F
100
AcDbEntity
  8
LAYER_1
100
AcDbBlockReference
  2
BLOCK_21
 10
0.0
 20
0.0
 30
0.0
  0
INSERT
  5
E3
330
1F
100
AcDbEntity
  8
LAYER_1
100
AcDbBlockReference
  2
BLOCK_22
 10
0.0
 20
0.0
 30
0.0
  0
INSERT
  5
EC
330
1F
100
AcDbEntity
  8
LAYER_1
100
AcDbBlockReference
  2
BLOCK_23
 10
0.0
 20
0.0
 30
0.0
  0
INSERT
  5
F4
330
1F
100
AcDbEntity
  8
LAYER_1
100
AcDbBlockReference
  2
BLOCK_24
 10
0.0
 20
0.0
 30
0.0
  0
INSERT
  5
FC
330
1F
100
AcDbEntity
  8
LAYER_1
100
AcDbBlockReference
  2
BLOCK_25
 10
0.0
 20
0.0
 30
0.0
  0
INSERT
  5
104
330
1F
100
AcDbEntity
  8
LAYER_1
100
AcDbBlockReference
  2
BLOCK_26
 10
0.0
 20
0.0
 30
0.0
  0
INSERT
  5
10C
330
1F
100
AcDbEntity
  8
LAYER_1
100
AcDbBlockReference
  2
BLOCK_27
 10
0.0
 20
0.0
 30
0.0
  0
INSERT
  5
115
330
1F
100
AcDbEntity
  8
LAYER_1
100
AcDbBlockReference
  2
BLOCK_28
 10
0.0
 20
0.0
 30
0.0
  0
INSERT
  5
11D
330
1F
100
AcDbEntity
  8
LAYER_1
100
AcDbBlockReference
  2
BLOCK_29
 10
0.0
 20
0.0
 30
0.0
  0
INSERT
  5
126
330
1F
100
AcDbEntity
  8
LAYER_1
100
AcDbBlockReference
  2
BLOCK_30
 10
0.0
 20
0.0
 30
0.0
  0
INSERT
  5
12E
330
1F
100
AcDbEntity
  8
LAYER_1
100
AcDbBlockReference
  2
BLOCK_31
 10
0.0
 20
0.0
 30
0.0
  0
INSERT
  5
136
330
1F
100
AcDbEntity
  8
LAYER_1
100
AcDbBlockReference
  2
BLOCK_32
 10
0.0
 20
0.0
 30
0.0
  0
INSERT
  5
13F
330
1F
100
AcDbEntity
  8
LAYER_1
100
AcDbBlockReference
  2
BLOCK_33
 10
0.0
 20
0.0
 30
0.0
  0
INSERT
  5
147
330
1F
100
AcDbEntity
  8
LAYER_1
100
AcDbBlockReference
  2
BLOCK_34
 10
0.0
 20
0.0
 30
0.0
  0
INSERT
  5
14F
330
1F
100
AcDbEntity
  8
LAYER_1
100
AcDbBlockReference
  2
BLOCK_35
 10
0.0
 20
0.0
 30
0.0
  0
INSERT
  5
157
330
1F
100
AcDbEntity
  8
LAYER_1
100
AcDbBlockReference
  2
BLOCK_36
 10
0.0
 20
0.0
 30
0.0
  0
INSERT
  5
15F
330
1F
100
AcDbEntity
  8
LAYER_1
100
AcDbBlockReference
  2
BLOCK_37
 10
0.0
 20
0.0
 30
0.0
  0
INSERT
  5
168
330
1F
100
AcDbEntity
  8
LAYER_1
100
AcDbBlockReference
  2
BLOCK_38
 10
0.0
 20
0.0
 30
0.0
  0
INSERT
  5
170
330
1F
100
AcDbEntity
  8
LAYER_1
100
AcDbBlockReference
  2
BLOCK_39
 10
0.0
 20
0.0
 30
0.0
  0
INSERT
  5
179
330
1F
100
AcDbEntity
  8
LAYER_1
100
AcDbBlockReference
  2
BLOCK_40
 10
0.0
 20
0.0
 30
0.0
  0
INSERT
  5
181
330
1F
100
AcDbEntity
  8
LAYER_1
100
AcDbBlockReference
  2
BLOCK_41
 10
0.0
 20
0.0
 30
0.0
  0
INSERT
  5
189
330
1F
100
AcDbEntity
  8
LAYER_1
100
AcDbBlockReference
  2
BLOCK_42
 10
0.0
 20
0.0
 30
0.0
  0
INSERT
  5
192
330
1F
100
AcDbEntity
  8
LAYER_1
100
AcDbBlockReference
  2
BLOCK_43
 10
0.0
 20
0.0
 30
0.0
  0
INSERT
  5
19A
330
1F
100
AcDbEntity
  8
LAYER_1
100
AcDbBlockReference
  2
BLOCK_44
 10
0.0
 20
0.0
 30
0.0
  0
INSERT
  5
1A2
330
1F
100
AcDbEntity
  8
LAYER_1
100
AcDbBlockReference
  2
BLOCK_45
 10
0.0
 20
0.0
 30
0.0
  0
INSERT
  5
1AA
330
1F
100
AcDbEntity
  8
LAYER_1
100
AcDbBlockReference
  2
BLOCK_46
 10
0.0
 20
0.0
 30
0.0
  0
INSERT
  5
1B2
330
1F
100
AcDbEntity
  8
LAYER_1
100
AcDbBlockReference
  2
BLOCK_47
 10
0.0
 20
0.0
 30
0.0
  0
INSERT
  5
1BB
330
1F
100
AcDbEntity
  8
LAYER_1
100
AcDbBlockReference
  2
BLOCK_48
 10
0.0
 20
0.0
 30
0.0
  0
INSERT
  5
1C3
330
1F
100
AcDbEntity
  8
LAYER_1
100
AcDbBlockReference
  2
BLOCK_49
 10
0.0
 20
0.0
 30
0.0
  0
INSERT
  5
1CC
330
1F
100
AcDbEntity
  8
LAYER_1
100
AcDbBlockReference
  2
BLOCK_50
 10
0.0
 20
0.0
 30
0.0
  0
INSERT
  5
1D4
330
1F
100
AcDbEntity
  8
LAYER_1
100
AcDbBlockReference
  2
BLOCK_51
 10
0.0
 20
0.0
 30
0.0
  0
INSERT
  5
1DC
330
1F
100
AcDbEntity
  8
LAYER_1
100
AcDbBlockReference
  2
BLOCK_52
 10
0.0
 20
0.0
 30
0.0
  0
INSERT
  5
1E5
330
1F
100
AcDbEntity
  8
LAYER_1
100
AcDbBlockReference
  2
BLOCK_53
 10
0.0
 20
0.0
 30
0.0
  0
INSERT
  5
1ED
330
1F
100
AcDbEntity
  8
LAYER_1
100
AcDbBlockReference
  2
BLOCK_54
 10
0.0
 20
0.0
 30
0.0
  0
INSERT
  5
1F5
330
1F
100
AcDbEntity
  8
LAYER_1
100
AcDbBlockReference
  2
BLOCK_55
 10
0.0
 20
0.0
 30
0.0
  0
INSERT
  5
1FD
330
1F
100
AcDbEntity
  8
LAYER_1
100
AcDbBlockReference
  2
BLOCK_56
 10
0.0
 20
0.0
 30
0.0
  0
INSERT
  5
205
330
1F
100
AcDbEntity
  8
LAYER_1
100
AcDbBlockReference
  2
BLOCK_57
 10
0.0
 20
0.0
 30
0.0
  0
INSERT
  5
20D
330
1F
100
AcDbEntity
  8
LAYER_1
100
AcDbBlockReference
  2
BLOCK_58
 10
0.0
 20
0.0
 30
0.0
  0
INSERT
  5
215
330
1F
100
AcDbEntity
  8
LAYER_1
100
AcDbBlockReference
  2
BLOCK_59
 10
0.0
 20
0.0
 30
0.0
  0
INSERT
  5
21D
330
1F
100
AcDbEntity
  8
LAYER_1
100
AcDbBlockReference
  2
BLOCK_60
 10
0.0
 20
0.0
 30
0.0
  0
INSERT
  5
225
330
1F
100
AcDbEntity
  8
LAYER_1
100
AcDbBlockReference
  2
BLOCK_61
 10
0.0
 20
0.0
 30
0.0
  0
INSERT
  5
22D
330
1F
100
AcDbEntity
  8
LAYER_1
100
AcDbBlockReference
  2
BLOCK_62
 10
0.0
 20
0.0
 30
0.0
  0
INSERT
  5
235
330
1F
100
AcDbEntity
  8
LAYER_1
100
AcDbBlockReference
  2
BLOCK_63
 10
0.0
 20
0.0
 30
0.0
  0
INSERT
  5
23D
330
1F
100
AcDbEntity
  8
LAYER_1
100
AcDbBlockReference
  2
BLOCK_64
 10
0.0
 20
0.0
 30
0.0
  0
INSERT
  5
245
330
1F
100
AcDbEntity
  8
LAYER_1
100
AcDbBlockReference
  2
BLOCK_65
 10
0.0
 20
0.0
 30
0.0
  0
INSERT
  5
24D
330
1F
100
AcDbEntity
  8
LAYER_1
100
AcDbBlockReference
  2
BLOCK_66
 10
0.0
 20
0.0
 30
0.0
  0
INSERT
  5
255
330
1F
100
AcDbEntity
  8
LAYER_1
100
AcDbBlockReference
  2
BLOCK_67
 10
0.0
 20
0.0
 30
0.0
  0
INSERT
  5
25D
330
1F
100
AcDbEntity
  8
LAYER_1
100
AcDbBlockReference
  2
BLOCK_68
 10
0.0
 20
0.0
 30
0.0
  0
INSERT
  5
265
330
1F
100
AcDbEntity
  8
LAYER_1
100
AcDbBlockReference
  2
BLOCK_69
 10
0.0
 20
0.0
 30
0.0
  0
INSERT
  5
26D
330
1F
100
AcDbEntity
  8
LAYER_1
100
AcDbBlockReference
  2
BLOCK_70
 10
0.0
 20
0.0
 30
0.0
  0
INSERT
  5
275
330
1F
100
AcDbEntity
  8
LAYER_1
100
AcDbBlockReference
  2
BLOCK_71
 10
0.0
 20
0.0
 30
0.0
  0
INSERT
  5
27D
330
1F
100
AcDbEntity
  8
LAYER_1
100
AcDbBlockReference
  2
BLOCK_72
 10
0.0
 20
0.0
 30
0.0
  0
INSERT
  5
285
330
1F
100
AcDbEntity
  8
LAYER_1
100
AcDbBlockReference
  2
BLOCK_73
 10
0.0
 20
0.0
 30
0.0
  0
INSERT
  5
28D
330
1F
100
AcDbEntity
  8
LAYER_1
100
AcDbBlockReference
  2
BLOCK_74
 10
0.0
 20
0.0
 30
0.0
  0
INSERT
  5
295
330
1F
100
AcDbEntity
  8
LAYER_1
100
AcDbBlockReference
  2
BLOCK_75
 10
0.0
 20
0.0
 30
0.0
  0
INSERT
  5
29D
330
1F
100
AcDbEntity
  8
LAYER_1
100
AcDbBlockReference
  2
BLOCK_76
 10
0.0
 20
0.0
 30
0.0
  0
INSERT
  5
2A5
330
1F
100
AcDbEntity
  8
LAYER_1
100
AcDbBlockReference
  2
BLOCK_77
 10
0.0
 20
0.0
 30
0.0
  0
INSERT
  5
2AD
330
1F
100
AcDbEntity
  8
LAYER_1
100
AcDbBlockReference
  2
BLOCK_78
 10
0.0
 20
0.0
 30
0.0
  0
INSERT
  5
2B6
330
1F
100
AcDbEntity
  8
LAYER_1
100
AcDbBlockReference
  2
BLOCK_79
 10
0.0
 20
0.0
 30
0.0
  0
INSERT
  5
2BE
330
1F
100
AcDbEntity
  8
LAYER_1
100
AcDbBlockReference
  2
BLOCK_80
 10
0.0
 20
0.0
 30
0.0
  0
INSERT
  5
2C6
330
1F
100
AcDbEntity
  8
LAYER_1
100
AcDbBlockReference
  2
BLOCK_81
 10
0.0
 20
0.0
 30
0.0
  0
INSERT
  5
2CE
330
1F
100
AcDbEntity
  8
LAYER_1
100
AcDbBlockReference
  2
BLOCK_82
 10
0.0
 20
0.0
 30
0.0
  0
INSERT
  5
2D6
330
1F
100
AcDbEntity
  8
LAYER_1
100
AcDbBlockReference
  2
BLOCK_83
 10
0.0
 20
0.0
 30
0.0
  0
INSERT
  5
2DE
330
1F
100
AcDbEntity
  8
LAYER_1
100
AcDbBlockReference
  2
BLOCK_84
 10
0.0
 20
0.0
 30
0.0
  0
INSERT
  5
2E6
330
1F
100
AcDbEntity
  8
LAYER_1
100
AcDbBlockReference
  2
BLOCK_85
 10
0.0
 20
0.0
 30
0.0
  0
INSERT
  5
2EE
330
1F
100
AcDbEntity
  8
LAYER_1
100
AcDbBlockReference
  2
BLOCK_86
 10
0.0
 20
0.0
 30
0.0
  0
INSERT
  5
2F6
330
1F
100
AcDbEntity
  8
LAYER_1
100
AcDbBlockReference
  2
BLOCK_87
 10
0.0
 20
0.0
 30
0.0
  0
INSERT
  5
2FE
330
1F
100
AcDbEntity
  8
LAYER_1
100
AcDbBlockReference
  2
BLOCK_88
 10
0.0
 20
0.0
 30
0.0
  0
INSERT
  5
306
330
1F
100
AcDbEntity
  8
LAYER_1
100
AcDbBlockReference
  2
BLOCK_89
 10
0.0
 20
0.0
 30
0.0
  0
INSERT
  5
30E
330
1F
100
AcDbEntity
  8
LAYER_1
100
AcDbBlockReference
  2
BLOCK_90
 10
0.0
 20
0.0
 30
0.0
  0
INSERT
  5
316
330
1F
100
AcDbEntity
  8
LAYER_1
100
AcDbBlockReference
  2
BLOCK_91
 10
0.0
 20
0.0
 30
0.0
  0
INSERT
  5
31E
330
1F
100
AcDbEntity
  8
LAYER_1
100
AcDbBlockReference
  2
BLOCK_92
 10
0.0
 20
0.0
 30
0.0
  0
INSERT
  5
326
330
1F
100
AcDbEntity
  8
LAYER_1
100
AcDbBlockReference
  2
BLOCK_93
 10
0.0
 20
0.0
 30
0.0
  0
INSERT
  5
32E
330
1F
100
AcDbEntity
  8
LAYER_1
100
AcDbBlockReference
  2
BLOCK_94
 10
0.0
 20
0.0
 30
0.0
  0
INSERT
  5
336
330
1F
100
AcDbEntity
  8
LAYER_1
100
AcDbBlockReference
  2
BLOCK_95
 10
0.0
 20
0.0
 30
0.0
  0
INSERT
  5
33E
330
1F
100
AcDbEntity
  8
LAYER_1
100
AcDbBlockReference
  2
BLOCK_96
 10
0.0
 20
0.0
 30
0.0
  0
INSERT
  5
346
330
1F
100
AcDbEntity
  8
LAYER_1
100
AcDbBlockReference
  2
BLOCK_97
 10
0.0
 20
0.0
 30
0.0
  0
INSERT
  5
34E
330
1F
100
AcDbEntity
  8
LAYER_1
100
AcDbBlockReference
  2
BLOCK_98
 10
0.0
 20
0.0
 30
0.0
  0
INSERT
  5
356
330
1F
100
AcDbEntity
  8
LAYER_1
100
AcDbBlockReference
  2
BLOCK_99
 10
0.0
 20
0.0
 30
0.0
  0
INSERT
  5
35E
330
1F
100
AcDbEntity
  8
LAYER_1
100
AcDbBlockReference
  2
BLOCK_100
 10
0.0
 20
0.0
 30
0.0
  0
INSERT
  5
366
330
1F
100
AcDbEntity
  8
LAYER_1
100
AcDbBlockReference
  2
BLOCK_101
 10
0.0
 20
0.0
 30
0.0
  0
INSERT
  5
36E
330
1F
100
AcDbEntity
  8
LAYER_1
100
AcDbBlockReference
  2
BLOCK_102
 10
0.0
 20
0.0
 30
0.0
  0
INSERT
  5
376
330
1F
100
AcDbEntity
  8
LAYER_1
100
AcDbBlockReference
  2
BLOCK_103
 10
0.0
 20
0.0
 30
0.0
  0
INSERT
  5
37E
330
1F
100
AcDbEntity
  8
LAYER_1
100
AcDbBlockReference
  2
BLOCK_104
 10
0.0
 20
0.0
 30
0.0
  0
INSERT
  5
386
330
1F
100
AcDbEntity
  8
LAYER_1
100
AcDbBlockReference
  2
BLOCK_105
 10
0.0
 20
0.0
 30
0.0
  0
INSERT
  5
38F
330
1F
100
AcDbEntity
  8
LAYER_1
100
AcDbBlockReference
  2
BLOCK_106
 10
0.0
 20
0.0
 30
0.0
  0
INSERT
  5
397
330
1F
100
AcDbEntity
  8
LAYER_1
100
AcDbBlockReference
  2
BLOCK_107
 10
0.0
 20
0.0
 30
0.0
  0
INSERT
  5
39F
330
1F
100
AcDbEntity
  8
LAYER_1
100
AcDbBlockReference
  2
BLOCK_108
 10
0.0
 20
0.0
 30
0.0
  0
INSERT
  5
3A7
330
1F
100
AcDbEntity
  8
LAYER_1
100
AcDbBlockReference
  2
BLOCK_109
 10
0.0
 20
0.0
 30
0.0
  0
INSERT
  5
3AF
330
1F
100
AcDbEntity
  8
LAYER_1
100
AcDbBlockReference
  2
BLOCK_110
 10
0.0
 20
0.0
 30
0.0
  0
INSERT
  5
3B7
330
1F
100
AcDbEntity
  8
LAYER_1
100
AcDbBlockReference
  2
BLOCK_111
 10
0.0
 20
0.0
 30
0.0
  0
INSERT
  5
3BF
330
1F
100
AcDbEntity
  8
LAYER_1
100
AcDbBlockReference
  2
BLOCK_112
 10
0.0
 20
0.0
 30
0.0
  0
INSERT
  5
3C4
330
1F
100
AcDbEntity
  8
LAYER_1
100
AcDbBlockReference
  2
BLOCK_113
 10
0.0
 20
0.0
 30
0.0
  0
INSERT
  5
3C9
330
1F
100
AcDbEntity
  8
LAYER_1
100
AcDbBlockReference
  2
BLOCK_114
 10
0.0
 20
0.0
 30
0.0
  0
INSERT
  5
3CE
330
1F
100
AcDbEntity
  8
LAYER_1
100
AcDbBlockReference
  2
BLOCK_115
 10
0.0
 20
0.0
 30
0.0
  0
INSERT
  5
3D3
330
1F
100
AcDbEntity
  8
LAYER_1
100
AcDbBlockReference
  2
BLOCK_116
 10
0.0
 20
0.0
 30
0.0
  0
INSERT
  5
3D8
330
1F
100
AcDbEntity
  8
LAYER_1
100
AcDbBlockReference
  2
BLOCK_117
 10
0.0
 20
0.0
 30
0.0
  0
INSERT
  5
3DD
330
1F
100
AcDbEntity
  8
LAYER_1
100
AcDbBlockReference
  2
BLOCK_118
 10
0.0
 20
0.0
 30
0.0
  0
INSERT
  5
3E2
330
1F
100
AcDbEntity
  8
LAYER_1
100
AcDbBlockReference
  2
BLOCK_119
 10
0.0
 20
0.0
 30
0.0
  0
INSERT
  5
3E7
330
1F
100
AcDbEntity
  8
LAYER_1
100
AcDbBlockReference
  2
BLOCK_120
 10
0.0
 20
0.0
 30
0.0
  0
INSERT
  5
3EC
330
1F
100
AcDbEntity
  8
LAYER_1
100
AcDbBlockReference
  2
BLOCK_121
 10
0.0
 20
0.0
 30
0.0
  0
INSERT
  5
3F1
330
1F
100
AcDbEntity
  8
LAYER_1
100
AcDbBlockReference
  2
BLOCK_122
 10
0.0
 20
0.0
 30
0.0
  0
INSERT
  5
3F6
330
1F
100
AcDbEntity
  8
LAYER_1
100
AcDbBlockReference
  2
BLOCK_123
 10
0.0
 20
0.0
 30
0.0
  0
INSERT
  5
3FB
330
1F
100
AcDbEntity
  8
LAYER_1
100
AcDbBlockReference
  2
BLOCK_124
 10
0.0
 20
0.0
 30
0.0
  0
INSERT
  5
400
330
1F
100
AcDbEntity
  8
LAYER_1
100
AcDbBlockReference
  2
BLOCK_125
 10
0.0
 20
0.0
 30
0.0
  0
INSERT
  5
405
330
1F
100
AcDbEntity
  8
LAYER_1
100
AcDbBlockReference
  2
BLOCK_126
 10
0.0
 20
0.0
 30
0.0
  0
INSERT
  5
40A
330
1F
100
AcDbEntity
  8
LAYER_1
100
AcDbBlockReference
  2
BLOCK_127
 10
0.0
 20
0.0
 30
0.0
  0
INSERT
  5
40F
330
1F
100
AcDbEntity
  8
LAYER_1
100
AcDbBlockReference
  2
BLOCK_128
 10
0.0
 20
0.0
 30
0.0
  0
INSERT
  5
414
330
1F
100
AcDbEntity
  8
LAYER_1
100
AcDbBlockReference
  2
BLOCK_129
 10
0.0
 20
0.0
 30
0.0
  0
INSERT
  5
419
330
1F
100
AcDbEntity
  8
LAYER_1
100
AcDbBlockReference
  2
BLOCK_130
 10
0.0
 20
0.0
 30
0.0
  0
INSERT
  5
41E
330
1F
100
AcDbEntity
  8
LAYER_1
100
AcDbBlockReference
  2
BLOCK_131
 10
0.0
 20
0.0
 30
0.0
  0
INSERT
  5
423
330
1F
100
AcDbEntity
  8
LAYER_1
100
AcDbBlockReference
  2
BLOCK_132
 10
0.0
 20
0.0
 30
0.0
  0
INSERT
  5
428
330
1F
100
AcDbEntity
  8
LAYER_1
100
AcDbBlockReference
  2
BLOCK_133
 10
0.0
 20
0.0
 30
0.0
  0
INSERT
  5
42D
330
1F
100
AcDbEntity
  8
LAYER_1
100
AcDbBlockReference
  2
BLOCK_134
 10
0.0
 20
0.0
 30
0.0
  0
INSERT
  5
432
330
1F
100
AcDbEntity
  8
LAYER_1
100
AcDbBlockReference
  2
BLOCK_135
 10
0.0
 20
0.0
 30
0.0
  0
INSERT
  5
437
330
1F
100
AcDbEntity
  8
LAYER_1
100
AcDbBlockReference
  2
BLOCK_136
 10
0.0
 20
0.0
 30
0.0
  0
INSERT
  5
43C
330
1F
100
AcDbEntity
  8
LAYER_1
100
AcDbBlockReference
  2
BLOCK_137
 10
0.0
 20
0.0
 30
0.0
  0
INSERT
  5
441
330
1F
100
AcDbEntity
  8
LAYER_1
100
AcDbBlockReference
  2
BLOCK_138
 10
0.0
 20
0.0
 30
0.0
  0
INSERT
  5
446
330
1F
100
AcDbEntity
  8
LAYER_1
100
AcDbBlockReference
  2
BLOCK_139
 10
0.0
 20
0.0
 30
0.0
  0
INSERT
  5
44B
330
1F
100
AcDbEntity
  8
LAYER_1
100
AcDbBlockReference
  2
BLOCK_140
 10
0.0
 20
0.0
 30
0.0
  0
INSERT
  5
450
330
1F
100
AcDbEntity
  8
LAYER_1
100
AcDbBlockReference
  2
BLOCK_141
 10
0.0
 20
0.0
 30
0.0
  0
INSERT
  5
455
330
1F
100
AcDbEntity
  8
LAYER_1
100
AcDbBlockReference
  2
BLOCK_142
 10
0.0
 20
0.0
 30
0.0
  0
INSERT
  5
45D
330
1F
100
AcDbEntity
  8
LAYER_1
100
AcDbBlockReference
  2
BLOCK_143
 10
0.0
 20
0.0
 30
0.0
  0
INSERT
  5
465
330
1F
100
AcDbEntity
  8
LAYER_1
100
AcDbBlockReference
  2
BLOCK_144
 10
0.0
 20
0.0
 30
0.0
  0
INSERT
  5
46D
330
1F
100
AcDbEntity
  8
LAYER_1
100
AcDbBlockReference
  2
BLOCK_145
 10
0.0
 20
0.0
 30
0.0
  0
INSERT
  5
475
330
1F
100
AcDbEntity
  8
LAYER_1
100
AcDbBlockReference
  2
BLOCK_146
 10
0.0
 20
0.0
 30
0.0
  0
INSERT
  5
47D
330
1F
100
AcDbEntity
  8
LAYER_1
100
AcDbBlockReference
  2
BLOCK_147
 10
0.0
 20
0.0
 30
0.0
  0
INSERT
  5
485
330
1F
100
AcDbEntity
  8
LAYER_1
100
AcDbBlockReference
  2
BLOCK_148
 10
0.0
 20
0.0
 30
0.0
  0
INSERT
  5
48D
330
1F
100
AcDbEntity
  8
LAYER_1
100
AcDbBlockReference
  2
BLOCK_149
 10
0.0
 20
0.0
 30
0.0
  0
INSERT
  5
495
330
1F
100
AcDbEntity
  8
LAYER_1
100
AcDbBlockReference
  2
BLOCK_150
 10
0.0
 20
0.0
 30
0.0
  0
INSERT
  5
49D
330
1F
100
AcDbEntity
  8
LAYER_1
100
AcDbBlockReference
  2
BLOCK_151
 10
0.0
 20
0.0
 30
0.0
  0
INSERT
  5
4A5
330
1F
100
AcDbEntity
  8
LAYER_1
100
AcDbBlockReference
  2
BLOCK_152
 10
0.0
 20
0.0
 30
0.0
  0
INSERT
  5
4AD
330
1F
100
AcDbEntity
  8
LAYER_1
100
AcDbBlockReference
  2
BLOCK_153
 10
0.0
 20
0.0
 30
0.0
  0
INSERT
  5
4B5
330
1F
100
AcDbEntity
  8
LAYER_1
100
AcDbBlockReference
  2
BLOCK_154
 10
0.0
 20
0.0
 30
0.0
  0
INSERT
  5
4BD
330
1F
100
AcDbEntity
  8
LAYER_1
100
AcDbBlockReference
  2
BLOCK_155
 10
0.0
 20
0.0
 30
0.0
  0
INSERT
  5
4C5
330
1F
100
AcDbEntity
  8
LAYER_1
100
AcDbBlockReference
  2
BLOCK_156
 10
0.0
 20
0.0
 30
0.0
  0
INSERT
  5
4CD
330
1F
100
AcDbEntity
  8
LAYER_1
100
AcDbBlockReference
  2
BLOCK_157
 10
0.0
 20
0.0
 30
0.0
  0
ENDSEC
  0
SECTION
  2
OBJECTS
  0
DICTIONARY
  5
C
330
0
100
AcDbDictionary
  3
ACAD_GROUP
350
D
  3
ACAD_LAYOUT
350
1A
  3
ACAD_MLINESTYLE
350
17
  3
ACAD_PLOTSETTINGS
350
19
  3
ACAD_TABLESTYLE
350
4D4
  3
ACAD_VISUALSTYLE
350
2A
1001
ACAD
1000
TREAT_AS_HARD
1070
     0
  0
DICTIONARY
  5
D
102
{ACAD_REACTORS
330
C
102
}
330
C
100
AcDbDictionary
1001
ACAD
1000
TREAT_AS_HARD
1070
     0
  0
DICTIONARY
  5
1A
102
{ACAD_REACTORS
330
C
102
}
330
C
100
AcDbDictionary
1001
ACAD
1000
TREAT_AS_HARD
1070
     0
  0
DICTIONARY
  5
17
102
{ACAD_REACTORS
330
C
102
}
330
C
100
AcDbDictionary
  3
STANDARD
350
18
1001
ACAD
1000
TREAT_AS_HARD
1070
     0
  0
DICTIONARY
  5
19
102
{ACAD_REACTORS
330
C
102
}
330
C
100
AcDbDictionary
1001
ACAD
1000
TREAT_AS_HARD
1070
     0
  0
DICTIONARY
  5
4D4
102
{ACAD_REACTORS
330
C
102
}
330
C
100
AcDbDictionary
1001
ACAD
1000
TREAT_AS_HARD
1070
     0
  0
DICTIONARY
  5
2A
102
{ACAD_REACTORS
330
C
102
}
330
C
100
AcDbDictionary
  3
2DWIREFRAME
350
2F
  3
3DWIREFRAME
350
30
  3
3D_HIDDEN
350
31
  3
BASIC
350
32
  3
BRIGHTEN
350
36
  3
COLORCHANGE
350
3A
  3
CONCEPTUAL
350
34
  3
DIM
350
35
  3
FACEPATTERN
350
39
  3
FLAT
350
2B
  3
FLATWITHEDGES
350
2C
  3
GOURAUD
350
2D
  3
GOURAUDWITHEDGES
350
2E
  3
LINEPATTERN
350
38
  3
REALISTIC
350
33
  3
THICKEN
350
37
1001
ACAD
1000
TREAT_AS_HARD
1070
     0
  0
MLINESTYLE
  5
18
102
{ACAD_REACTORS
330
17
102
}
330
17
100
AcDbMlineStyle
  2
Standard
 70
     0
  3

 62
   256
 51
90.0
 52
90.0
 71
     2
 49
0.5
 62
   256
  6
BYLAYER
 49
-0.5
 62
   256
  6
BYLAYER
  0
VISUALSTYLE
  5
2F
102
{ACAD_REACTORS
330
2A
102
}
330
2A
100
AcDbVisualStyle
  2
2dWireframe
 70
     4
 71
     0
 72
     2
 73
     0
 90
        0
 40
-0.6
 41
-30.0
 62
     5
 63
     7
 74
     1
 91
        4
 64
     7
 65
   257
 75
     1
175
     1
 42
1.0
 92
        0
 66
   257
 43
1.0
 76
     1
 77
     6
 78
     2
 67
     7
 79
     5
170
     0
171
     0
290
     0
174
     0
 93
        1
 44
0.0
173
     0
291
     0
 45
0.0
1001
ACAD
1000
AcDbSavedByObjectVersion
1070
     0
  0
VISUALSTYLE
  5
30
102
{ACAD_REACTORS
330
2A
102
}
330
2A
100
AcDbVisualStyle
  2
3dWireframe
 70
     5
 71
     0
 72
     2
 73
     0
 90
        0
 40
-0.6
 41
-30.0
 62
     5
 63
     7
 74
     1
 91
        4
 64
     7
 65
   257
 75
     1
175
     1
 42
1.0
 92
        0
 66
   257
 43
1.0
 76
     1
 77
     6
 78
     2
 67
     7
 79
     5
170
     0
171
     0
290
     0
174
     0
 93
        1
 44
0.0
173
     0
291
     0
 45
0.0
1001
ACAD
1000
AcDbSavedByObjectVersion
1070
     0
  0
VISUALSTYLE
  5
31
102
{ACAD_REACTORS
330
2A
102
}
330
2A
100
AcDbVisualStyle
  2
3D Hidden
 70
     6
 71
     1
 72
     2
 73
     2
 90
        0
 40
-0.6
 41
-30.0
 62
     5
 63
     7
 74
     2
 91
        2
 64
     7
 65
   257
 75
     2
175
     1
 42
40.0
 92
        0
 66
   257
 43
1.0
 76
     1
 77
     6
 78
     2
 67
     7
 79
     3
170
     0
171
     0
290
     0
174
     0
 93
        1
 44
0.0
173
     0
291
     0
 45
0.0
1001
ACAD
1000
AcDbSavedByObjectVersion
1070
     0
  0
VISUALSTYLE
  5
32
102
{ACAD_REACTORS
330
2A
102
}
330
2A
100
AcDbVisualStyle
  2
Basic
 70
     7
 71
     1
 72
     0
 73
     1
 90
        0
 40
-0.6
 41
-30.0
 62
     5
 63
     7
 74
     0
 91
        4
 64
     7
 65
   257
 75
     1
175
     1
 42
1.0
 92
        8
 66
     7
 43
1.0
 76
     1
 77
     6
 78
     2
 67
     7
 79
     5
170
     0
171
     0
290
     0
174
     0
 93
        1
 44
0.0
173
     0
291
     1
 45
0.0
1001
ACAD
1000
AcDbSavedByObjectVersion
1070
     0
  0
VISUALSTYLE
  5
36
102
{ACAD_REACTORS
330
2A
102
}
330
2A
100
AcDbVisualStyle
  2
Brighten
 70
    12
 71
     2
 72
     2
 73
     0
 90
        0
 40
-0.6
 41
-30.0
 62
     5
 63
     7
 74
     1
 91
        4
 64
     7
 65
   257
 75
     1
175
     1
 42
1.0
 92
        8
 66
     7
 43
1.0
 76
     1
 77
     6
 78
     2
 67
     7
 79
     5
170
     0
171
     0
290
     0
174
     0
 93
        1
 44
50.0
173
     0
291
     1
 45
0.0
1001
ACAD
1000
AcDbSavedByObjectVersion
1070
     0
  0
VISUALSTYLE
  5
3A
102
{ACAD_REACTORS
330
2A
102
}
330
2A
100
AcDbVisualStyle
  2
ColorChange
 70
    16
 71
     2
 72
     2
 73
     3
 90
        0
 40
-0.6
 41
-30.0
 62
     5
 63
     8
 74
     1
 91
        4
 64
     7
 65
   257
 75
     1
175
     1
 42
1.0
 92
        8
 66
     8
 43
1.0
 76
     1
 77
     6
 78
     2
 67
     7
 79
     5
170
     0
171
     0
290
     0
174
     0
 93
        1
 44
0.0
173
     0
291
     1
 45
0.0
1001
ACAD
1000
AcDbSavedByObjectVersion
1070
     0
  0
VISUALSTYLE
  5
34
102
{ACAD_REACTORS
330
2A
102
}
330
2A
100
AcDbVisualStyle
  2
Conceptual
 70
     9
 71
     3
 72
     2
 73
     0
 90
        0
 40
-0.6
 41
-30.0
 62
     5
 63
     7
 74
     2
 91
        2
 64
     7
 65
   257
 75
     1
175
     1
 42
40.0
 92
        8
 66
     7
 43
1.0
 76
     1
 77
     6
 78
     2
 67
     7
 79
     3
170
     0
171
     0
290
     0
174
     0
 93
        1
 44
0.0
173
     0
291
     0
 45
0.0
1001
ACAD
1000
AcDbSavedByObjectVersion
1070
     0
  0
VISUALSTYLE
  5
35
102
{ACAD_REACTORS
330
2A
102
}
330
2A
100
AcDbVisualStyle
  2
Dim
 70
    11
 71
     2
 72
     2
 73
     0
 90
        0
 40
-0.6
 41
-30.0
 62
     5
 63
     7
 74
     1
 91
        4
 64
     7
 65
   257
 75
     1
175
     1
 42
1.0
 92
        8
 66
     7
 43
1.0
 76
     1
 77
     6
 78
     2
 67
     7
 79
     5
170
     0
171
     0
290
     0
174
     0
 93
        1
 44
-50.0
173
     0
291
     1
 45
0.0
1001
ACAD
1000
AcDbSavedByObjectVersion
1070
     0
  0
VISUALSTYLE
  5
39
102
{ACAD_REACTORS
330
2A
102
}
330
2A
100
AcDbVisualStyle
  2
Facepattern
 70
    15
 71
     2
 72
     2
 73
     0
 90
        0
 40
-0.6
 41
-30.0
 62
     5
 63
     7
 74
     1
 91
        4
 64
     7
 65
   257
 75
     1
175
     1
 42
1.0
 92
        8
 66
     7
 43
1.0
 76
     1
 77
     6
 78
     2
 67
     7
 79
     5
170
     0
171
     0
290
     0
174
     0
 93
        1
 44
0.0
173
     0
291
     1
 45
0.0
1001
ACAD
1000
AcDbSavedByObjectVersion
1070
     0
  0
VISUALSTYLE
  5
2B
102
{ACAD_REACTORS
330
2A
102
}
330
2A
100
AcDbVisualStyle
  2
Flat
 70
     0
 71
     2
 72
     1
 73
     1
 90
        2
 40
-0.6
 41
30.0
 62
     5
 63
     7
 74
     0
 91
        4
 64
     7
 65
   257
 75
     1
175
     1
 42
1.0
 92
        8
 66
     7
 43
1.0
 76
     1
 77
     6
 78
     2
 67
     7
 79
     5
170
     0
171
     0
290
     0
174
     0
 93
       13
 44
0.0
173
     0
291
     1
 45
0.0
1001
ACAD
1000
AcDbSavedByObjectVersion
1070
     0
  0
VISUALSTYLE
  5
2C
102
{ACAD_REACTORS
330
2A
102
}
330
2A
100
AcDbVisualStyle
  2
FlatWithEdges
 70
     1
 71
     2
 72
     1
 73
     1
 90
        2
 40
-0.6
 41
30.0
 62
     5
 63
     7
 74
     1
 91
        4
 64
     7
 65
   257
 75
     1
175
     1
 42
1.0
 92
        0
 66
   257
 43
1.0
 76
     1
 77
     6
 78
     2
 67
     7
 79
     5
170
     0
171
     0
290
     0
174
     0
 93
       13
 44
0.0
173
     0
291
     1
 45
0.0
1001
ACAD
1000
AcDbSavedByObjectVersion
1070
     0
  0
VISUALSTYLE
  5
2D
102
{ACAD_REACTORS
330
2A
102
}
330
2A
100
AcDbVisualStyle
  2
Gouraud
 70
     2
 71
     2
 72
     2
 73
     1
 90
        2
 40
-0.6
 41
30.0
 62
     5
 63
     7
 74
     0
 91
        4
 64
     7
 65
   257
 75
     1
175
     1
 42
1.0
 92
        0
 66
     7
 43
1.0
 76
     1
 77
     6
 78
     2
 67
     7
 79
     5
170
     0
171
     0
290
     0
174
     0
 93
       13
 44
0.0
173
     0
291
     1
 45
0.0
1001
ACAD
1000
AcDbSavedByObjectVersion
1070
     0
  0
VISUALSTYLE
  5
2E
102
{ACAD_REACTORS
330
2A
102
}
330
2A
100
AcDbVisualStyle
  2
GouraudWithEdges
 70
     3
 71
     2
 72
     2
 73
     1
 90
        2
 40
-0.6
 41
30.0
 62
     5
 63
     7
 74
     1
 91
        4
 64
     7
 65
   257
 75
     1
175
     1
 42
1.0
 92
        0
 66
   257
 43
1.0
 76
     1
 77
     6
 78
     2
 67
     7
 79
     5
170
     0
171
     0
290
     0
174
     0
 93
       13
 44
0.0
173
     0
291
     1
 45
0.0
1001
ACAD
1000
AcDbSavedByObjectVersion
1070
     0
  0
VISUALSTYLE
  5
38
102
{ACAD_REACTORS
330
2A
102
}
330
2A
100
AcDbVisualStyle
  2
Linepattern
 70
    14
 71
     2
 72
     2
 73
     0
 90
        0
 40
-0.6
 41
-30.0
 62
     5
 63
     7
 74
     1
 91
        4
 64
     7
 65
   257
 75
     7
175
     7
 42
1.0
 92
        8
 66
     7
 43
1.0
 76
     1
 77
     6
 78
     2
 67
     7
 79
     5
170
     0
171
     0
290
     0
174
     0
 93
        1
 44
0.0
173
     0
291
     1
 45
0.0
1001
ACAD
1000
AcDbSavedByObjectVersion
1070
     0
  0
VISUALSTYLE
  5
33
102
{ACAD_REACTORS
330
2A
102
}
330
2A
100
AcDbVisualStyle
  2
Realistic
 70
     8
 71
     2
 72
     2
 73
     0
 90
        0
 40
-0.6
 41
-30.0
 62
     5
 63
     7
 74
     1
 91
        0
 64
     7
 65
   257
 75
     1
175
     1
 42
1.0
 92
        8
 66
     8
 43
1.0
 76
     1
 77
     6
 78
     2
 67
     7
 79
     5
170
     0
171
     0
290
     0
174
     0
 93
       13
 44
0.0
173
     0
291
     0
 45
0.0
1001
ACAD
1000
AcDbSavedByObjectVersion
1070
     0
  0
VISUALSTYLE
  5
37
102
{ACAD_REACTORS
330
2A
102
}
330
2A
100
AcDbVisualStyle
  2
Thicken
 70
    13
 71
     2
 72
     2
 73
     0
 90
        0
 40
-0.6
 41
-30.0
 62
     5
 63
     7
 74
     1
 91
        4
 64
     7
 65
   257
 75
     1
175
     1
 42
1.0
 92
       12
 66
     7
 43
1.0
 76
     1
 77
     6
 78
     2
 67
     7
 79
     5
170
     0
171
     0
290
     0
174
     0
 93
        1
 44
0.0
173
     0
291
     1
 45
0.0
1001
ACAD
1000
AcDbSavedByObjectVersion
1070
     0
  0
ENDSEC
  0
EOF
