  0
SECTION
  2
HEADER
  9
$ACADVER
  1
AC1009
  9
$INSBASE
 10
0.0
 20
0.0
 30
0.0
  9
$EXTMIN
 10
3.9530747305292371
 20
3.3442899731177809
 30
-0.0015258207003583
  9
$EXTMAX
 10
406.8375334461487114
 20
212.5934245311630946
 30
0.0000000349246037
  9
$LIMMIN
 10
0.0
 20
0.0
  9
$LIMMAX
 10
12.0
 20
9.0
  9
$ORTHOMODE
 70
     1
  9
$REGENMODE
 70
     1
  9
$FILLMODE
 70
     1
  9
$QTEXTMODE
 70
     0
  9
$MIRRTEXT
 70
     0
  9
$DRAGMODE
 70
     2
  9
$LTSCALE
 40
1.0
  9
$OSMODE
 70
  2543
  9
$ATTMODE
 70
     1
  9
$TEXTSIZE
 40
0.2
  9
$TRACEWID
 40
0.05
  9
$TEXTSTYLE
  7
STANDARD
  9
$CLAYER
  8
ESTERNO
  9
$CELTYPE
  6
BYLAYER
  9
$CECOLOR
 62
   256
  9
$DIMSCALE
 40
1.0
  9
$DIMASZ
 40
0.18
  9
$DIMEXO
 40
0.0625
  9
$DIMDLI
 40
0.38
  9
$DIMRND
 40
0.0
  9
$DIMDLE
 40
0.0
  9
$DIMEXE
 40
0.18
  9
$DIMTP
 40
0.0
  9
$DIMTM
 40
0.0
  9
$DIMTXT
 40
0.18
  9
$DIMCEN
 40
0.09
  9
$DIMTSZ
 40
0.0
  9
$DIMTOL
 70
     0
  9
$DIMLIM
 70
     0
  9
$DIMTIH
 70
     1
  9
$DIMTOH
 70
     1
  9
$DIMSE1
 70
     0
  9
$DIMSE2
 70
     0
  9
$DIMTAD
 70
     0
  9
$DIMZIN
 70
     0
  9
$DIMBLK
  1

  9
$DIMASO
 70
     1
  9
$DIMSHO
 70
     1
  9
$DIMPOST
  1

  9
$DIMAPOST
  1

  9
$DIMALT
 70
     0
  9
$DIMALTD
 70
     2
  9
$DIMALTF
 40
25.3999999999999986
  9
$DIMLFAC
 40
1.0
  9
$DIMTOFL
 70
     0
  9
$DIMTVP
 40
0.0
  9
$DIMTIX
 70
     0
  9
$DIMSOXD
 70
     0
  9
$DIMSAH
 70
     0
  9
$DIMBLK1
  1

  9
$DIMBLK2
  1

  9
$DIMSTYLE
  2
STANDARD
  9
$DIMCLRD
 70
     0
  9
$DIMCLRE
 70
     0
  9
$DIMCLRT
 70
     0
  9
$DIMTFAC
 40
1.0
  9
$DIMGAP
 40
0.09
  9
$LUNITS
 70
     2
  9
$LUPREC
 70
     4
  9
$SKETCHINC
 40
0.1
  9
$FILLETRAD
 40
0.0
  9
$AUNITS
 70
     0
  9
$AUPREC
 70
     0
  9
$MENU
  1
.
  9
$ELEVATION
 40
0.0
  9
$PELEVATION
 40
0.0
  9
$THICKNESS
 40
0.0
  9
$LIMCHECK
 70
     0
  9
$BLIPMODE
 70
     0
  9
$CHAMFERA
 40
0.0
  9
$CHAMFERB
 40
0.0
  9
$SKPOLY
 70
     0
  9
$TDCREATE
 40
2457850.6367840399034321
  9
$TDUPDATE
 40
2457862.4964059721678495
  9
$TDINDWG
 40
1.0023100925999999
  9
$TDUSRTIMER
 40
1.0023089236
  9
$USRTIMER
 70
     1
  9
$ANGBASE
 50
0.0
  9
$ANGDIR
 70
     0
  9
$PDMODE
 70
     0
  9
$PDSIZE
 40
0.0
  9
$PLINEWID
 40
0.0
  9
$COORDS
 70
     1
  9
$SPLFRAME
 70
     0
  9
$SPLINETYPE
 70
     6
  9
$SPLINESEGS
 70
     8
  9
$ATTDIA
 70
     1
  9
$ATTREQ
 70
     1
  9
$HANDLING
 70
     1
  9
$HANDSEED
  5
2842
  9
$SURFTAB1
 70
     6
  9
$SURFTAB2
 70
     6
  9
$SURFTYPE
 70
     6
  9
$SURFU
 70
     6
  9
$SURFV
 70
     6
  9
$UCSNAME
  2

  9
$UCSORG
 10
0.0
 20
0.0
 30
0.0
  9
$UCSXDIR
 10
1.0
 20
0.0
 30
0.0
  9
$UCSYDIR
 10
0.0
 20
1.0
 30
0.0
  9
$PUCSNAME
  2

  9
$PUCSORG
 10
0.0
 20
0.0
 30
0.0
  9
$PUCSXDIR
 10
1.0
 20
0.0
 30
0.0
  9
$PUCSYDIR
 10
0.0
 20
1.0
 30
0.0
  9
$USERI1
 70
     0
  9
$USERI2
 70
     0
  9
$USERI3
 70
     0
  9
$USERI4
 70
     0
  9
$USERI5
 70
     0
  9
$USERR1
 40
0.0
  9
$USERR2
 40
0.0
  9
$USERR3
 40
0.0
  9
$USERR4
 40
0.0
  9
$USERR5
 40
0.0
  9
$WORLDVIEW
 70
     1
  9
$SHADEDGE
 70
     3
  9
$SHADEDIF
 70
    70
  9
$TILEMODE
 70
     1
  9
$MAXACTVP
 70
    64
  9
$PLIMCHECK
 70
     0
  9
$PEXTMIN
 10
0.0
 20
0.0
 30
0.0
  9
$PEXTMAX
 10
0.0
 20
0.0
 30
0.0
  9
$PLIMMIN
 10
0.0
 20
0.0
  9
$PLIMMAX
 10
12.0
 20
9.0
  9
$UNITMODE
 70
     0
  9
$VISRETAIN
 70
     1
  9
$PLINEGEN
 70
     0
  9
$PSLTSCALE
 70
     1
  0
ENDSEC
  0
SECTION
  2
TABLES
  0
TABLE
  2
VPORT
 70
     1
  0
VPORT
  2
*ACTIVE
 70
     0
 10
0.0
 20
0.0
 11
1.0
 21
1.0
 12
441.6084287621392832
 22
61.7671436231631716
 13
0.0
 23
0.0
 14
0.5
 24
0.5
 15
0.5
 25
0.5
 16
0.0
 26
0.0
 36
1.0
 17
0.0
 27
0.0
 37
0.0
 40
884.7566072329004783
 41
1.432778489116517
 42
50.0
 43
0.0
 44
0.0
 50
0.0
 51
0.0
 71
     0
 72
  1000
 73
     1
 74
     3
 75
     0
 76
     1
 77
     0
 78
     0
  0
ENDTAB
  0
TABLE
  2
LTYPE
 70
     2
  0
LTYPE
  2
CONTINUOUS
 70
     0
  3
Solid line
 72
    65
 73
     0
 40
0.0
  0
ENDTAB
  0
TABLE
  2
LAYER
 70
     4
  0
LAYER
  2
0
 70
     0
 62
     7
  6
CONTINUOUS
  0
LAYER
  2
ESTERNO
 70
     0
 62
     7
  6
CONTINUOUS
  0
LAYER
  2
INTERNO
 70
     0
 62
     7
  6
CONTINUOUS
  0
LAYER
  2
DEFPOINTS
 70
     0
 62
     7
  6
CONTINUOUS
  0
ENDTAB
  0
TABLE
  2
STYLE
 70
     2
  0
STYLE
  2
STANDARD
 70
     0
 40
0.0
 41
1.0
 50
0.0
 71
     0
 42
0.2
  3
txt
  4

  0
STYLE
  2
ANNOTATIVE
 70
     0
 40
0.0
 41
1.0
 50
0.0
 71
     0
 42
0.2
  3
txt
  4

  0
ENDTAB
  0
TABLE
  2
VIEW
 70
     0
  0
ENDTAB
  0
TABLE
  2
UCS
 70
     0
  0
ENDTAB
  0
TABLE
  2
APPID
 70
    12
  0
APPID
  2
ACAD
 70
     0
  0
APPID
  2
ACADANNOTATIVE
 70
     0
  0
APPID
  2
ACADANNOPO
 70
     0
  0
APPID
  2
ACAD_DSTYLE_DIMJAG
 70
     0
  0
APPID
  2
ACAD_DSTYLE_DIMTALN
 70
     0
  0
APPID
  2
ACAD_MLEADERVER
 70
     0
  0
APPID
  2
ACAD_NAV_VCDISPLAY
 70
     0
  0
APPID
  2
ACAECLAYERSTANDARD
 70
     0
  0
APPID
  2
ACCMTRANSPARENCY
 70
     0
  0
APPID
  2
ACAD_EXEMPT_FROM_CAD_STANDARDS
 70
     0
  0
APPID
  2
ACAD_PSEXT
 70
     0
  0
APPID
  2
ACDBDYNAMICBLOCKTRUENAME2
 70
     0
  0
ENDTAB
  0
TABLE
  2
DIMSTYLE
 70
     3
  0
DIMSTYLE
  2
STANDARD
 70
     0
  3

  4

  5

  6

  7

 40
1.0
 41
0.18
 42
0.0625
 43
0.38
 44
0.18
 45
0.0
 46
0.0
 47
0.0
 48
0.0
140
0.18
141
0.09
142
0.0
143
25.3999999999999986
144
1.0
145
0.0
146
1.0
147
0.09
 71
     0
 72
     0
 73
     1
 74
     1
 75
     0
 76
     0
 77
     0
 78
     0
170
     0
171
     2
172
     0
173
     0
174
     0
175
     0
176
     0
177
     0
178
     0
  0
DIMSTYLE
  2
ANNOTATIVE
 70
     0
  3

  4

  5

  6

  7

 40
0.0
 41
0.18
 42
0.0625
 43
0.38
 44
0.18
 45
0.0
 46
0.0
 47
0.0
 48
0.0
140
0.18
141
0.09
142
0.0
143
25.3999999999999986
144
1.0
145
0.0
146
1.0
147
0.09
 71
     0
 72
     0
 73
     1
 74
     1
 75
     0
 76
     0
 77
     0
 78
     0
170
     0
171
     2
172
     0
173
     0
174
     0
175
     0
176
     0
177
     0
178
     0
  0
ENDTAB
  0
ENDSEC
  0
SECTION
  2
BLOCKS
  0
BLOCK
  8
0
  2
$MODEL_SPACE
 70
     0
 10
0.0
 20
0.0
 30
0.0
  3
$MODEL_SPACE
  1

  0
ENDBLK
  5
2018
  8
0
  0
BLOCK
 67
     1
  8
0
  2
$PAPER_SPACE
 70
     0
 10
0.0
 20
0.0
 30
0.0
  3
$PAPER_SPACE
  1

  0
ENDBLK
  5
2014
 67
     1
  8
0
  0
BLOCK
  8
0
  2
*U2
 70
     1
 10
0.0
 20
0.0
 30
0.0
  3
*U2
  1

  0
POLYLINE
  5
1DE
  8
0
 66
     1
 10
0.0
 20
0.0
 30
0.0
  0
VERTEX
  5
22D3
  8
0
 10
2.658600147522975
 20
-1.1323329573994541
 30
0.0
 42
-0.0112904490246372
  0
VERTEX
  5
22D4
  8
0
 10
1.6718278805177531
 20
-1.1236878923447191
 30
0.0
 42
0.0926255526910737
  0
VERTEX
  5
22D5
  8
0
 10
0.3521205189147167
 20
2.0698988312471429
 30
0.0
 42
0.0130907170848356
  0
VERTEX
  5
22D6
  8
0
 10
-1.514949473363117
 20
1.755703019331575
 30
0.0
 42
0.1129830516329582
  0
VERTEX
  5
22D7
  8
0
 10
-1.716718393719588
 20
-1.6939220304600431
 30
0.0
 42
0.0086754960259421
  0
VERTEX
  5
22D8
  8
0
 10
-2.658600147522975
 20
-2.0698988312470861
 30
0.0
 42
-0.0245000119570227
  0
SEQEND
  5
22D9
  8
0
  0
ENDBLK
  5
1DF
  8
0
  0
BLOCK
  8
0
  2
*U4
 70
     1
 10
0.0
 20
0.0
 30
0.0
  3
*U4
  1

  0
POLYLINE
  5
1F7
  8
0
 66
     1
 10
0.0
 20
0.0
 30
0.0
  0
VERTEX
  5
22DA
  8
0
 10
2.658600147522975
 20
-1.1323329573994541
 30
0.0
 42
-0.0112904490246372
  0
VERTEX
  5
22DB
  8
0
 10
1.6718278805177531
 20
-1.1236878923447191
 30
0.0
 42
0.0926255526910737
  0
VERTEX
  5
22DC
  8
0
 10
0.3521205189147167
 20
2.0698988312471429
 30
0.0
 42
0.0130907170848356
  0
VERTEX
  5
22DD
  8
0
 10
-1.514949473363117
 20
1.755703019331575
 30
0.0
 42
0.1129830516329582
  0
VERTEX
  5
22DE
  8
0
 10
-1.716718393719588
 20
-1.6939220304600431
 30
0.0
 42
0.0086754960259421
  0
VERTEX
  5
22DF
  8
0
 10
-2.658600147522975
 20
-2.0698988312470861
 30
0.0
 42
-0.0245000119570227
  0
SEQEND
  5
22E0
  8
0
  0
ENDBLK
  5
1F8
  8
0
  0
BLOCK
  8
0
  2
*U6
 70
     1
 10
0.0
 20
0.0
 30
0.0
  3
*U6
  1

  0
POLYLINE
  5
210
  8
0
 66
     1
 10
0.0
 20
0.0
 30
0.0
  0
VERTEX
  5
22E1
  8
0
 10
2.850279497808458
 20
-1.384762628164935
 30
0.0
 42
0.0087268677907589
  0
VERTEX
  5
22E2
  8
0
 10
1.704591460404798
 20
-1.4047606872453
 30
0.0
 42
0.0926255526910737
  0
VERTEX
  5
22E3
  8
0
 10
0.6425247883952352
 20
1.883496916042132
 30
0.0
 42
0.0130907170848356
  0
VERTEX
  5
22E4
  8
0
 10
-1.243592857223291
 20
1.7184830039743131
 30
0.0
 42
0.1129830516329582
  0
VERTEX
  5
22E5
  8
0
 10
-1.7185244095238641
 20
-1.704244519799772
 30
0.0
 42
0.0087268677907584
  0
VERTEX
  5
22E6
  8
0
 10
-2.850279497808458
 20
-1.883496916042132
 30
0.0
  0
SEQEND
  5
22E7
  8
0
  0
ENDBLK
  5
211
  8
0
  0
BLOCK
  8
0
  2
*U8
 70
     1
 10
0.0
 20
0.0
 30
0.0
  3
*U8
  1

  0
POLYLINE
  5
23B
  8
0
 66
     1
 10
0.0
 20
0.0
 30
0.0
  0
VERTEX
  5
22E8
  8
0
 10
2.658600147522975
 20
-1.1323329573994541
 30
0.0
 42
-0.0112904490246372
  0
VERTEX
  5
22E9
  8
0
 10
1.6718278805177531
 20
-1.1236878923447191
 30
0.0
 42
0.0926255526910737
  0
VERTEX
  5
22EA
  8
0
 10
0.3521205189147167
 20
2.0698988312471429
 30
0.0
 42
0.0130907170848356
  0
VERTEX
  5
22EB
  8
0
 10
-1.514949473363117
 20
1.755703019331575
 30
0.0
 42
0.1129830516329582
  0
VERTEX
  5
22EC
  8
0
 10
-1.716718393719588
 20
-1.6939220304600431
 30
0.0
 42
0.0086754960259421
  0
VERTEX
  5
22ED
  8
0
 10
-2.658600147522975
 20
-2.0698988312470861
 30
0.0
 42
-0.0245000119570227
  0
SEQEND
  5
22EE
  8
0
  0
ENDBLK
  5
23C
  8
0
  0
BLOCK
  8
0
  2
*U10
 70
     1
 10
0.0
 20
0.0
 30
0.0
  3
*U10
  1

  0
POLYLINE
  5
41A
  8
0
 66
     1
 10
0.0
 20
0.0
 30
0.0
  0
VERTEX
  5
22EF
  8
0
 10
2.658600147522975
 20
-1.1323329573994541
 30
0.0
 42
-0.0112904490246372
  0
VERTEX
  5
22F0
  8
0
 10
1.6718278805177531
 20
-1.1236878923447191
 30
0.0
 42
0.0926255526910737
  0
VERTEX
  5
22F1
  8
0
 10
0.3521205189147167
 20
2.0698988312471429
 30
0.0
 42
0.0130907170848356
  0
VERTEX
  5
22F2
  8
0
 10
-1.514949473363117
 20
1.755703019331575
 30
0.0
 42
0.1129830516329582
  0
VERTEX
  5
22F3
  8
0
 10
-1.716718393719588
 20
-1.6939220304600431
 30
0.0
 42
0.0086754960259421
  0
VERTEX
  5
22F4
  8
0
 10
-2.658600147522975
 20
-2.0698988312470861
 30
0.0
 42
-0.0245000119570227
  0
SEQEND
  5
22F5
  8
0
  0
ENDBLK
  5
41B
  8
0
  0
BLOCK
  8
0
  2
*U12
 70
     1
 10
0.0
 20
0.0
 30
0.0
  3
*U12
  1

  0
POLYLINE
  5
435
  8
0
 66
     1
 10
0.0
 20
0.0
 30
0.0
  0
VERTEX
  5
22F6
  8
0
 10
2.658600147522975
 20
-1.1323329573994541
 30
0.0
 42
-0.0112904490246372
  0
VERTEX
  5
22F7
  8
0
 10
1.6718278805177531
 20
-1.1236878923447191
 30
0.0
 42
0.0926255526910737
  0
VERTEX
  5
22F8
  8
0
 10
0.3521205189147167
 20
2.0698988312471429
 30
0.0
 42
0.0130907170848356
  0
VERTEX
  5
22F9
  8
0
 10
-1.514949473363117
 20
1.755703019331575
 30
0.0
 42
0.1129830516329582
  0
VERTEX
  5
22FA
  8
0
 10
-1.716718393719588
 20
-1.6939220304600431
 30
0.0
 42
0.0086754960259421
  0
VERTEX
  5
22FB
  8
0
 10
-2.658600147522975
 20
-2.0698988312470861
 30
0.0
 42
-0.0245000119570227
  0
SEQEND
  5
22FC
  8
0
  0
ENDBLK
  5
436
  8
0
  0
BLOCK
  8
0
  2
*U14
 70
     1
 10
0.0
 20
0.0
 30
0.0
  3
*U14
  1

  0
POLYLINE
  5
44E
  8
0
 66
     1
 10
0.0
 20
0.0
 30
0.0
  0
VERTEX
  5
22FD
  8
0
 10
2.850279497808458
 20
-1.384762628164935
 30
0.0
 42
0.0087268677907589
  0
VERTEX
  5
22FE
  8
0
 10
1.704591460404798
 20
-1.4047606872453
 30
0.0
 42
0.0926255526910737
  0
VERTEX
  5
22FF
  8
0
 10
0.6425247883952352
 20
1.883496916042132
 30
0.0
 42
0.0130907170848356
  0
VERTEX
  5
2300
  8
0
 10
-1.243592857223291
 20
1.7184830039743131
 30
0.0
 42
0.1129830516329582
  0
VERTEX
  5
2301
  8
0
 10
-1.7185244095238641
 20
-1.704244519799772
 30
0.0
 42
0.0087268677907584
  0
VERTEX
  5
2302
  8
0
 10
-2.850279497808458
 20
-1.883496916042132
 30
0.0
  0
SEQEND
  5
2303
  8
0
  0
ENDBLK
  5
44F
  8
0
  0
BLOCK
  8
0
  2
*U16
 70
     1
 10
0.0
 20
0.0
 30
0.0
  3
*U16
  1

  0
POLYLINE
  5
479
  8
0
 66
     1
 10
0.0
 20
0.0
 30
0.0
  0
VERTEX
  5
2304
  8
0
 10
2.658600147522975
 20
-1.1323329573994541
 30
0.0
 42
-0.0112904490246372
  0
VERTEX
  5
2305
  8
0
 10
1.6718278805177531
 20
-1.1236878923447191
 30
0.0
 42
0.0926255526910737
  0
VERTEX
  5
2306
  8
0
 10
0.3521205189147167
 20
2.0698988312471429
 30
0.0
 42
0.0130907170848356
  0
VERTEX
  5
2307
  8
0
 10
-1.514949473363117
 20
1.755703019331575
 30
0.0
 42
0.1129830516329582
  0
VERTEX
  5
2308
  8
0
 10
-1.716718393719588
 20
-1.6939220304600431
 30
0.0
 42
0.0086754960259421
  0
VERTEX
  5
2309
  8
0
 10
-2.658600147522975
 20
-2.0698988312470861
 30
0.0
 42
-0.0245000119570227
  0
SEQEND
  5
230A
  8
0
  0
ENDBLK
  5
47A
  8
0
  0
BLOCK
  8
0
  2
*U18
 70
     1
 10
0.0
 20
0.0
 30
0.0
  3
*U18
  1

  0
POLYLINE
  5
84D
  8
0
 66
     1
 10
0.0
 20
0.0
 30
0.0
  0
VERTEX
  5
230B
  8
0
 10
2.658600147522975
 20
-1.1323329573994541
 30
0.0
 42
-0.0112904490246372
  0
VERTEX
  5
230C
  8
0
 10
1.6718278805177531
 20
-1.1236878923447191
 30
0.0
 42
0.0926255526910737
  0
VERTEX
  5
230D
  8
0
 10
0.3521205189147167
 20
2.0698988312471429
 30
0.0
 42
0.0130907170848356
  0
VERTEX
  5
230E
  8
0
 10
-1.514949473363117
 20
1.755703019331575
 30
0.0
 42
0.1129830516329582
  0
VERTEX
  5
230F
  8
0
 10
-1.716718393719588
 20
-1.6939220304600431
 30
0.0
 42
0.0086754960259421
  0
VERTEX
  5
2310
  8
0
 10
-2.658600147522975
 20
-2.0698988312470861
 30
0.0
 42
-0.0245000119570227
  0
SEQEND
  5
2311
  8
0
  0
ENDBLK
  5
84E
  8
0
  0
BLOCK
  8
0
  2
*U20
 70
     1
 10
0.0
 20
0.0
 30
0.0
  3
*U20
  1

  0
POLYLINE
  5
866
  8
0
 66
     1
 10
0.0
 20
0.0
 30
0.0
  0
VERTEX
  5
2312
  8
0
 10
2.658600147522975
 20
-1.1323329573994541
 30
0.0
 42
-0.0112904490246372
  0
VERTEX
  5
2313
  8
0
 10
1.6718278805177531
 20
-1.1236878923447191
 30
0.0
 42
0.0926255526910737
  0
VERTEX
  5
2314
  8
0
 10
0.3521205189147167
 20
2.0698988312471429
 30
0.0
 42
0.0130907170848356
  0
VERTEX
  5
2315
  8
0
 10
-1.514949473363117
 20
1.755703019331575
 30
0.0
 42
0.1129830516329582
  0
VERTEX
  5
2316
  8
0
 10
-1.716718393719588
 20
-1.6939220304600431
 30
0.0
 42
0.0086754960259421
  0
VERTEX
  5
2317
  8
0
 10
-2.658600147522975
 20
-2.0698988312470861
 30
0.0
 42
-0.0245000119570227
  0
SEQEND
  5
2318
  8
0
  0
ENDBLK
  5
867
  8
0
  0
BLOCK
  8
0
  2
*U22
 70
     1
 10
0.0
 20
0.0
 30
0.0
  3
*U22
  1

  0
POLYLINE
  5
87F
  8
0
 66
     1
 10
0.0
 20
0.0
 30
0.0
  0
VERTEX
  5
2319
  8
0
 10
2.850279497808458
 20
-1.384762628164935
 30
0.0
 42
0.0087268677907589
  0
VERTEX
  5
231A
  8
0
 10
1.704591460404798
 20
-1.4047606872453
 30
0.0
 42
0.0926255526910737
  0
VERTEX
  5
231B
  8
0
 10
0.6425247883952352
 20
1.883496916042132
 30
0.0
 42
0.0130907170848356
  0
VERTEX
  5
231C
  8
0
 10
-1.243592857223291
 20
1.7184830039743131
 30
0.0
 42
0.1129830516329582
  0
VERTEX
  5
231D
  8
0
 10
-1.7185244095238641
 20
-1.704244519799772
 30
0.0
 42
0.0087268677907584
  0
VERTEX
  5
231E
  8
0
 10
-2.850279497808458
 20
-1.883496916042132
 30
0.0
  0
SEQEND
  5
231F
  8
0
  0
ENDBLK
  5
880
  8
0
  0
BLOCK
  8
0
  2
*U24
 70
     1
 10
0.0
 20
0.0
 30
0.0
  3
*U24
  1

  0
POLYLINE
  5
8AA
  8
0
 66
     1
 10
0.0
 20
0.0
 30
0.0
  0
VERTEX
  5
2320
  8
0
 10
2.658600147522975
 20
-1.1323329573994541
 30
0.0
 42
-0.0112904490246372
  0
VERTEX
  5
2321
  8
0
 10
1.6718278805177531
 20
-1.1236878923447191
 30
0.0
 42
0.0926255526910737
  0
VERTEX
  5
2322
  8
0
 10
0.3521205189147167
 20
2.0698988312471429
 30
0.0
 42
0.0130907170848356
  0
VERTEX
  5
2323
  8
0
 10
-1.514949473363117
 20
1.755703019331575
 30
0.0
 42
0.1129830516329582
  0
VERTEX
  5
2324
  8
0
 10
-1.716718393719588
 20
-1.6939220304600431
 30
0.0
 42
0.0086754960259421
  0
VERTEX
  5
2325
  8
0
 10
-2.658600147522975
 20
-2.0698988312470861
 30
0.0
 42
-0.0245000119570227
  0
SEQEND
  5
2326
  8
0
  0
ENDBLK
  5
8AB
  8
0
  0
BLOCK
  8
0
  2
*U26
 70
     1
 10
0.0
 20
0.0
 30
0.0
  3
*U26
  1

  0
POLYLINE
  5
967
  8
0
 66
     1
 10
0.0
 20
0.0
 30
0.0
  0
VERTEX
  5
23A9
  8
0
 10
2.658600147522975
 20
-1.1323329573994541
 30
0.0
 42
-0.0112904490246372
  0
VERTEX
  5
23AA
  8
0
 10
1.6718278805177531
 20
-1.1236878923447191
 30
0.0
 42
0.0926255526910737
  0
VERTEX
  5
23AB
  8
0
 10
0.3521205189147167
 20
2.0698988312471429
 30
0.0
 42
0.0130907170848356
  0
VERTEX
  5
23AC
  8
0
 10
-1.514949473363117
 20
1.755703019331575
 30
0.0
 42
0.1129830516329582
  0
VERTEX
  5
23AD
  8
0
 10
-1.716718393719588
 20
-1.6939220304600431
 30
0.0
 42
0.0086754960259421
  0
VERTEX
  5
23AE
  8
0
 10
-2.658600147522975
 20
-2.0698988312470861
 30
0.0
 42
-0.0245000119570227
  0
SEQEND
  5
23AF
  8
0
  0
ENDBLK
  5
968
  8
0
  0
BLOCK
  8
0
  2
*U28
 70
     1
 10
0.0
 20
0.0
 30
0.0
  3
*U28
  1

  0
POLYLINE
  5
982
  8
0
 66
     1
 10
0.0
 20
0.0
 30
0.0
  0
VERTEX
  5
23B0
  8
0
 10
2.658600147522975
 20
-1.1323329573994541
 30
0.0
 42
-0.0112904490246372
  0
VERTEX
  5
23B1
  8
0
 10
1.6718278805177531
 20
-1.1236878923447191
 30
0.0
 42
0.0926255526910737
  0
VERTEX
  5
23B2
  8
0
 10
0.3521205189147167
 20
2.0698988312471429
 30
0.0
 42
0.0130907170848356
  0
VERTEX
  5
23B3
  8
0
 10
-1.514949473363117
 20
1.755703019331575
 30
0.0
 42
0.1129830516329582
  0
VERTEX
  5
23B4
  8
0
 10
-1.716718393719588
 20
-1.6939220304600431
 30
0.0
 42
0.0086754960259421
  0
VERTEX
  5
23B5
  8
0
 10
-2.658600147522975
 20
-2.0698988312470861
 30
0.0
 42
-0.0245000119570227
  0
SEQEND
  5
23B6
  8
0
  0
ENDBLK
  5
983
  8
0
  0
BLOCK
  8
0
  2
*U30
 70
     1
 10
0.0
 20
0.0
 30
0.0
  3
*U30
  1

  0
POLYLINE
  5
99B
  8
0
 66
     1
 10
0.0
 20
0.0
 30
0.0
  0
VERTEX
  5
23B7
  8
0
 10
2.850279497808458
 20
-1.384762628164935
 30
0.0
 42
0.0087268677907589
  0
VERTEX
  5
23B8
  8
0
 10
1.704591460404798
 20
-1.4047606872453
 30
0.0
 42
0.0926255526910737
  0
VERTEX
  5
23B9
  8
0
 10
0.6425247883952352
 20
1.883496916042132
 30
0.0
 42
0.0130907170848356
  0
VERTEX
  5
23BA
  8
0
 10
-1.243592857223291
 20
1.7184830039743131
 30
0.0
 42
0.1129830516329582
  0
VERTEX
  5
23BB
  8
0
 10
-1.7185244095238641
 20
-1.704244519799772
 30
0.0
 42
0.0087268677907584
  0
VERTEX
  5
23BC
  8
0
 10
-2.850279497808458
 20
-1.883496916042132
 30
0.0
  0
SEQEND
  5
23BD
  8
0
  0
ENDBLK
  5
99C
  8
0
  0
BLOCK
  8
0
  2
*U32
 70
     1
 10
0.0
 20
0.0
 30
0.0
  3
*U32
  1

  0
POLYLINE
  5
9C6
  8
0
 66
     1
 10
0.0
 20
0.0
 30
0.0
  0
VERTEX
  5
23BE
  8
0
 10
2.658600147522975
 20
-1.1323329573994541
 30
0.0
 42
-0.0112904490246372
  0
VERTEX
  5
23BF
  8
0
 10
1.6718278805177531
 20
-1.1236878923447191
 30
0.0
 42
0.0926255526910737
  0
VERTEX
  5
23C0
  8
0
 10
0.3521205189147167
 20
2.0698988312471429
 30
0.0
 42
0.0130907170848356
  0
VERTEX
  5
23C1
  8
0
 10
-1.514949473363117
 20
1.755703019331575
 30
0.0
 42
0.1129830516329582
  0
VERTEX
  5
23C2
  8
0
 10
-1.716718393719588
 20
-1.6939220304600431
 30
0.0
 42
0.0086754960259421
  0
VERTEX
  5
23C3
  8
0
 10
-2.658600147522975
 20
-2.0698988312470861
 30
0.0
 42
-0.0245000119570227
  0
SEQEND
  5
23C4
  8
0
  0
ENDBLK
  5
9C7
  8
0
  0
BLOCK
  8
0
  2
*U34
 70
     1
 10
0.0
 20
0.0
 30
0.0
  3
*U34
  1

  0
POLYLINE
  5
A16
  8
0
 66
     1
 10
0.0
 20
0.0
 30
0.0
  0
VERTEX
  5
2500
  8
0
 10
2.658600147522975
 20
-1.1323329573994541
 30
0.0
 42
-0.0112904490246372
  0
VERTEX
  5
2501
  8
0
 10
1.6718278805177531
 20
-1.1236878923447191
 30
0.0
 42
0.0926255526910737
  0
VERTEX
  5
2502
  8
0
 10
0.3521205189147167
 20
2.0698988312471429
 30
0.0
 42
0.0130907170848356
  0
VERTEX
  5
2503
  8
0
 10
-1.514949473363117
 20
1.755703019331575
 30
0.0
 42
0.1129830516329582
  0
VERTEX
  5
2504
  8
0
 10
-1.716718393719588
 20
-1.6939220304600431
 30
0.0
 42
0.0086754960259421
  0
VERTEX
  5
2505
  8
0
 10
-2.658600147522975
 20
-2.0698988312470861
 30
0.0
 42
-0.0245000119570227
  0
SEQEND
  5
2506
  8
0
  0
ENDBLK
  5
A17
  8
0
  0
BLOCK
  8
0
  2
*U37
 70
     1
 10
0.0
 20
0.0
 30
0.0
  3
*U37
  1

  0
POLYLINE
  5
21C7
  8
0
 66
     1
 10
0.0
 20
0.0
 30
0.0
  0
VERTEX
  5
25FC
  8
0
 10
1.242235085179765
 20
-0.5290843488057141
 30
0.0
 42
-0.0112904490246372
  0
VERTEX
  5
25FD
  8
0
 10
0.7811641970665808
 20
-0.5250449286113456
 30
0.0
 42
0.0926255526910737
  0
VERTEX
  5
25FE
  8
0
 10
0.1645288642653196
 20
0.9671634726054916
 30
0.0
 42
0.0130907170848356
  0
VERTEX
  5
25FF
  8
0
 10
-0.7078625154819411
 20
0.8203549871167245
 30
0.0
 42
0.1129830516329582
  0
VERTEX
  5
2600
  8
0
 10
-0.8021393597073414
 20
-0.791487723250504
 30
0.0
 42
0.0086754960259421
  0
VERTEX
  5
2601
  8
0
 10
-1.242235085179765
 20
-0.967163472605465
 30
0.0
 42
-0.0245000119570227
  0
SEQEND
  5
2602
  8
0
  0
ENDBLK
  5
21C8
  8
0
  0
BLOCK
  8
0
  2
*U38
 70
     1
 10
0.0
 20
0.0
 30
0.0
  3
*U38
  1

  0
INSERT
  5
21CB
  8
0
  6
BYBLOCK
 62
     0
  2
*U37
 10
345.6847178525400182
 20
137.5093680207870932
 30
0.0
  0
INSERT
  5
21CC
  8
0
  6
BYBLOCK
 62
     0
  2
*U37
 10
343.0942061197255271
 20
136.6145117846504036
 30
0.0
 41
0.9999999999999996
 42
0.9999999999999996
 43
0.9999999999999996
 50
19.9999999999999893
  0
INSERT
  5
21CD
  8
0
  6
BYBLOCK
 62
     0
  2
*U37
 10
340.9659802184798991
 20
134.8876147887444006
 30
0.0
 41
0.9999999999999996
 42
0.9999999999999996
 43
0.9999999999999996
 50
40.0000000000000071
  0
INSERT
  5
21CE
  8
0
  6
BYBLOCK
 62
     0
  2
*U37
 10
339.5567356017622842
 20
132.536966297060701
 30
0.0
 41
0.9999999999999992
 42
0.9999999999999992
 43
0.9999999999999992
 50
60.0
  0
INSERT
  5
21CF
  8
0
  6
BYBLOCK
 62
     0
  2
*U37
 10
339.0364479685844117
 20
129.8460892095733925
 30
0.0
 41
0.9999999999999992
 42
0.9999999999999992
 43
0.9999999999999992
 50
80.0000000000000142
  0
INSERT
  5
21D0
  8
0
  6
BYBLOCK
 62
     0
  2
*U37
 10
339.4678716861351973
 20
127.1395430161496023
 30
0.0
 41
0.9999999999999991
 42
0.9999999999999991
 43
0.9999999999999991
 50
100.0
  0
INSERT
  5
21D1
  8
0
  6
BYBLOCK
 62
     0
  2
*U37
 10
340.7989706869420274
 20
124.7437771320839062
 30
0.0
 41
0.9999999999999991
 42
0.9999999999999991
 43
0.9999999999999991
 50
120.0
  0
INSERT
  5
21D2
  8
0
  6
BYBLOCK
 62
     0
  2
*U37
 10
342.8691947865785892
 20
122.9477562807333015
 30
0.0
 41
0.9999999999999989
 42
0.9999999999999989
 43
0.9999999999999989
 50
140.0
  0
INSERT
  5
21D3
  8
0
  6
BYBLOCK
 62
     0
  2
*U37
 10
345.4288444053751164
 20
121.9681070832155001
 30
0.0
 41
0.9999999999999987
 42
0.9999999999999987
 43
0.9999999999999987
 50
160.0
  0
INSERT
  5
21D4
  8
0
  6
BYBLOCK
 62
     0
  2
*U37
 10
348.1691880228995046
 20
121.9229896908334041
 30
0.0
 41
0.9999999999999987
 42
0.9999999999999987
 43
0.9999999999999987
 50
180.0
  0
INSERT
  5
21D5
  8
0
  6
BYBLOCK
 62
     0
  2
*U37
 10
350.7596997557139957
 20
122.8178459269701932
 30
0.0
 41
0.9999999999999987
 42
0.9999999999999987
 43
0.9999999999999987
 50
199.9999999999998863
  0
INSERT
  5
21D6
  8
0
  6
BYBLOCK
 62
     0
  2
*U37
 10
352.8879256569596805
 20
124.5447429228761962
 30
0.0
 41
0.9999999999999984
 42
0.9999999999999984
 43
0.9999999999999984
 50
220.0
  0
INSERT
  5
21D7
  8
0
  6
BYBLOCK
 62
     0
  2
*U37
 10
354.2971702736771817
 20
126.8953914145597963
 30
0.0
 41
0.9999999999999984
 42
0.9999999999999984
 43
0.9999999999999984
 50
240.0
  0
INSERT
  5
21D8
  8
0
  6
BYBLOCK
 62
     0
  2
*U37
 10
354.8174579068551111
 20
129.5862685020472043
 30
0.0
 41
0.9999999999999984
 42
0.9999999999999984
 43
0.9999999999999984
 50
260.0
  0
INSERT
  5
21D9
  8
0
  6
BYBLOCK
 62
     0
  2
*U37
 10
354.3860341893043255
 20
132.2928146954710087
 30
0.0
 41
0.9999999999999984
 42
0.9999999999999984
 43
0.9999999999999984
 50
280.0000000000001137
  0
INSERT
  5
21DA
  8
0
  6
BYBLOCK
 62
     0
  2
*U37
 10
353.0549351884974953
 20
134.6885805795367048
 30
0.0
 41
0.9999999999999984
 42
0.9999999999999984
 43
0.9999999999999984
 50
300.0
  0
INSERT
  5
21DB
  8
0
  6
BYBLOCK
 62
     0
  2
*U37
 10
350.9847110888608768
 20
136.4846014308872952
 30
0.0
 41
0.9999999999999984
 42
0.9999999999999984
 43
0.9999999999999984
 50
320.0
  0
INSERT
  5
21DC
  8
0
  6
BYBLOCK
 62
     0
  2
*U37
 10
348.4250614700644064
 20
137.4642506284050967
 30
0.0
 41
0.9999999999999984
 42
0.9999999999999984
 43
0.9999999999999984
 50
340.0
  0
ENDBLK
  5
21DD
  8
0
  0
BLOCK
  8
0
  2
*U41
 70
     1
 10
0.0
 20
0.0
 30
0.0
  3
*U41
  1

  0
POLYLINE
  5
2263
  8
0
 66
     1
 10
0.0
 20
0.0
 30
0.0
  0
VERTEX
  5
27F7
  8
0
 10
1.242235085179765
 20
-0.5290843488057141
 30
0.0
 42
-0.0112904490246372
  0
VERTEX
  5
27F8
  8
0
 10
0.7811641970665808
 20
-0.5250449286113456
 30
0.0
 42
0.0926255526910737
  0
VERTEX
  5
27F9
  8
0
 10
0.1645288642653196
 20
0.9671634726054916
 30
0.0
 42
0.0130907170848356
  0
VERTEX
  5
27FA
  8
0
 10
-0.7078625154819411
 20
0.8203549871167245
 30
0.0
 42
0.1129830516329582
  0
VERTEX
  5
27FB
  8
0
 10
-0.8021393597073414
 20
-0.791487723250504
 30
0.0
 42
0.0086754960259421
  0
VERTEX
  5
27FC
  8
0
 10
-1.242235085179765
 20
-0.967163472605465
 30
0.0
 42
-0.0245000119570227
  0
SEQEND
  5
27FD
  8
0
  0
ENDBLK
  5
2264
  8
0
  0
BLOCK
  8
0
  2
*U43
 70
     1
 10
0.0
 20
0.0
 30
0.0
  3
*U43
  1

  0
INSERT
  5
2269
  8
0
  6
BYBLOCK
 62
     0
  2
*U41
 10
345.6847178525400182
 20
137.5093680207870932
 30
0.0
  0
INSERT
  5
226A
  8
0
  6
BYBLOCK
 62
     0
  2
*U41
 10
343.0942061197255271
 20
136.6145117846504036
 30
0.0
 41
0.9999999999999996
 42
0.9999999999999996
 43
0.9999999999999996
 50
19.9999999999999893
  0
INSERT
  5
226B
  8
0
  6
BYBLOCK
 62
     0
  2
*U41
 10
340.9659802184798991
 20
134.8876147887444006
 30
0.0
 41
0.9999999999999996
 42
0.9999999999999996
 43
0.9999999999999996
 50
40.0000000000000071
  0
INSERT
  5
226C
  8
0
  6
BYBLOCK
 62
     0
  2
*U41
 10
339.5567356017622842
 20
132.536966297060701
 30
0.0
 41
0.9999999999999992
 42
0.9999999999999992
 43
0.9999999999999992
 50
60.0
  0
INSERT
  5
226D
  8
0
  6
BYBLOCK
 62
     0
  2
*U41
 10
339.0364479685844117
 20
129.8460892095733925
 30
0.0
 41
0.9999999999999992
 42
0.9999999999999992
 43
0.9999999999999992
 50
80.0000000000000142
  0
INSERT
  5
226E
  8
0
  6
BYBLOCK
 62
     0
  2
*U41
 10
339.4678716861351973
 20
127.1395430161496023
 30
0.0
 41
0.9999999999999991
 42
0.9999999999999991
 43
0.9999999999999991
 50
100.0
  0
INSERT
  5
226F
  8
0
  6
BYBLOCK
 62
     0
  2
*U41
 10
340.7989706869420274
 20
124.7437771320839062
 30
0.0
 41
0.9999999999999991
 42
0.9999999999999991
 43
0.9999999999999991
 50
120.0
  0
INSERT
  5
2270
  8
0
  6
BYBLOCK
 62
     0
  2
*U41
 10
342.8691947865785892
 20
122.9477562807333015
 30
0.0
 41
0.9999999999999989
 42
0.9999999999999989
 43
0.9999999999999989
 50
140.0
  0
INSERT
  5
2271
  8
0
  6
BYBLOCK
 62
     0
  2
*U41
 10
345.4288444053751164
 20
121.9681070832155001
 30
0.0
 41
0.9999999999999987
 42
0.9999999999999987
 43
0.9999999999999987
 50
160.0
  0
INSERT
  5
2272
  8
0
  6
BYBLOCK
 62
     0
  2
*U41
 10
348.1691880228995046
 20
121.9229896908334041
 30
0.0
 41
0.9999999999999987
 42
0.9999999999999987
 43
0.9999999999999987
 50
180.0
  0
INSERT
  5
2273
  8
0
  6
BYBLOCK
 62
     0
  2
*U41
 10
350.7596997557139957
 20
122.8178459269701932
 30
0.0
 41
0.9999999999999987
 42
0.9999999999999987
 43
0.9999999999999987
 50
199.9999999999998863
  0
INSERT
  5
2274
  8
0
  6
BYBLOCK
 62
     0
  2
*U41
 10
352.8879256569596805
 20
124.5447429228761962
 30
0.0
 41
0.9999999999999984
 42
0.9999999999999984
 43
0.9999999999999984
 50
220.0
  0
INSERT
  5
2275
  8
0
  6
BYBLOCK
 62
     0
  2
*U41
 10
354.2971702736771817
 20
126.8953914145597963
 30
0.0
 41
0.9999999999999984
 42
0.9999999999999984
 43
0.9999999999999984
 50
240.0
  0
INSERT
  5
2276
  8
0
  6
BYBLOCK
 62
     0
  2
*U41
 10
354.8174579068551111
 20
129.5862685020472043
 30
0.0
 41
0.9999999999999984
 42
0.9999999999999984
 43
0.9999999999999984
 50
260.0
  0
INSERT
  5
2277
  8
0
  6
BYBLOCK
 62
     0
  2
*U41
 10
354.3860341893043255
 20
132.2928146954710087
 30
0.0
 41
0.9999999999999984
 42
0.9999999999999984
 43
0.9999999999999984
 50
280.0000000000001137
  0
INSERT
  5
2278
  8
0
  6
BYBLOCK
 62
     0
  2
*U41
 10
353.0549351884974953
 20
134.6885805795367048
 30
0.0
 41
0.9999999999999984
 42
0.9999999999999984
 43
0.9999999999999984
 50
300.0
  0
INSERT
  5
2279
  8
0
  6
BYBLOCK
 62
     0
  2
*U41
 10
350.9847110888608768
 20
136.4846014308872952
 30
0.0
 41
0.9999999999999984
 42
0.9999999999999984
 43
0.9999999999999984
 50
320.0
  0
INSERT
  5
227A
  8
0
  6
BYBLOCK
 62
     0
  2
*U41
 10
348.4250614700644064
 20
137.4642506284050967
 30
0.0
 41
0.9999999999999984
 42
0.9999999999999984
 43
0.9999999999999984
 50
340.0
  0
ENDBLK
  5
227B
  8
0
  0
BLOCK
  8
0
  2
*D44
 70
     1
 10
0.0
 20
0.0
 30
0.0
  3
*D44
  1

  0
LINE
  5
229C
  8
ESTERNO
 62
     0
 10
344.5830558592170973
 20
186.1776922017112099
 30
0.0
 11
406.5531809753774724
 21
186.0796815595201963
 31
0.0
  0
LINE
  5
229D
  8
ESTERNO
 62
     0
 10
344.294064032032793
 20
3.454068645991486
 30
0.0
 11
406.2641891481932817
 21
3.3560580038005252
 31
0.0
  0
LINE
  5
229E
  8
ESTERNO
 62
     0
 10
406.3728965166567946
 20
185.8999664684907032
 30
0.0
 11
406.2289699711118942
 21
94.8981544655059963
 31
0.0
  0
LINE
  5
229F
  8
ESTERNO
 62
     0
 10
406.0844740571636748
 20
3.536342462521274
 30
0.0
 11
406.2284006027085752
 21
94.5381544655059685
 31
0.0
  0
SOLID
  5
22A0
  8
ESTERNO
 62
     0
 10
406.3428965541776279
 20
185.9000139157982971
 30
0.0
 11
406.4028964791360181
 21
185.8999190211831092
 31
0.0
 12
406.3731812005023016
 22
186.0799662433657886
 32
0.0
 13
406.3731812005023016
 23
186.0799662433657886
 33
0.0
  0
SOLID
  5
22A1
  8
ESTERNO
 62
     0
 10
406.0544740946845081
 20
3.536389909828872
 30
0.0
 11
406.1144740196428984
 21
3.5362950152136761
 31
0.0
 12
406.0841893733181109
 22
3.3563426876461149
 32
0.0
 13
406.0841893733181109
 23
3.3563426876461149
 33
0.0
  0
INSERT
  5
22A2
  8
ESTERNO
  2
*U46
 10
0.0
 20
0.0
 30
0.0
  0
POINT
  5
22A3
  8
DEFPOINTS
 62
     0
 10
344.5205559373853816
 20
186.177791050268695
 30
0.0
  0
POINT
  5
22A4
  8
DEFPOINTS
 62
     0
 10
344.2315641102011909
 20
3.4541674945489822
 30
0.0
  0
POINT
  5
22A5
  8
DEFPOINTS
 62
     0
 10
406.0841893733181109
 20
3.3563426876461149
 30
0.0
  0
ENDBLK
  5
229B
  8
0
  0
BLOCK
  8
0
  2
*D45
 70
     1
 10
0.0
 20
0.0
 30
0.0
  3
*D45
  1

  0
LINE
  5
22B5
  8
ESTERNO
 62
     0
 10
3.954445507990612
 20
186.240291050268695
 30
0.0
 11
3.9544455079906138
 21
212.5877440526132034
 31
0.0
  0
LINE
  5
22B6
  8
ESTERNO
 62
     0
 10
336.4208720916810762
 20
186.240291050268695
 30
0.0
 11
336.4208720916810762
 21
212.5877440526132034
 31
0.0
  0
LINE
  5
22B7
  8
ESTERNO
 62
     0
 10
4.1344455079906144
 20
212.4077440526131113
 30
0.0
 11
169.4676587998357888
 21
212.4077440526131113
 31
0.0
  0
LINE
  5
22B8
  8
ESTERNO
 62
     0
 10
336.2408720916811262
 20
212.4077440526131113
 30
0.0
 11
170.9076587998357866
 21
212.4077440526131113
 31
0.0
  0
SOLID
  5
22B9
  8
ESTERNO
 62
     0
 10
4.1344455079906144
 20
212.4377440526131124
 30
0.0
 11
4.1344455079906144
 21
212.3777440526131954
 31
0.0
 12
3.9544455079906138
 22
212.4077440526131113
 32
0.0
 13
3.9544455079906138
 23
212.4077440526131113
 33
0.0
  0
SOLID
  5
22BA
  8
ESTERNO
 62
     0
 10
336.2408720916811262
 20
212.4377440526131124
 30
0.0
 11
336.2408720916811262
 21
212.3777440526131954
 31
0.0
 12
336.4208720916810762
 22
212.4077440526131113
 32
0.0
 13
336.4208720916810762
 23
212.4077440526131113
 33
0.0
  0
INSERT
  5
22BB
  8
ESTERNO
  2
*U47
 10
0.0
 20
0.0
 30
0.0
  0
POINT
  5
22BC
  8
DEFPOINTS
 62
     0
 10
3.954445507990612
 20
186.177791050268695
 30
0.0
  0
POINT
  5
22BD
  8
DEFPOINTS
 62
     0
 10
336.4208720916810762
 20
186.177791050268695
 30
0.0
  0
POINT
  5
22BE
  8
DEFPOINTS
 62
     0
 10
336.4208720916810762
 20
212.4077440526131113
 30
0.0
  0
ENDBLK
  5
22A9
  8
0
  0
BLOCK
  8
0
  2
*U46
 70
     1
 10
0.0
 20
0.0
 30
0.0
  3
*U46
  1

  0
TEXT
  5
2836
  8
ESTERNO
 62
     0
 10
405.6286852869101835
 20
94.6281544655060145
 30
0.0
 40
0.18
  1
182.7239
  0
ENDBLK
  5
2838
  8
0
  0
BLOCK
  8
0
  2
*U47
 70
     1
 10
0.0
 20
0.0
 30
0.0
  3
*U47
  1

  0
TEXT
  5
283F
  8
ESTERNO
 62
     0
 10
169.5576587998357923
 20
212.3177440526131079
 30
0.0
 40
0.18
  1
332.4664
  0
ENDBLK
  5
2841
  8
0
  0
ENDSEC
  0
SECTION
  2
ENTITIES
  0
CIRCLE
  5
92A
  8
INTERNO
 10
186.7763432548779008
 20
30.5555647564246513
 30
0.0
 40
10.0
  0
POLYLINE
  5
92B
  8
INTERNO
 66
     1
 10
0.0
 20
0.0
 30
0.0
 70
     1
  0
VERTEX
  5
2327
  8
INTERNO
 10
163.5572752926825046
 20
12.5305647563828604
 30
0.0
  0
VERTEX
  5
2328
  8
INTERNO
 10
163.5572752926825046
 20
17.3805647563828813
 30
0.0
  0
VERTEX
  5
2329
  8
INTERNO
 10
159.7072752926825956
 20
17.3805647563828813
 30
0.0
  0
VERTEX
  5
232A
  8
INTERNO
 10
159.7072752926825956
 20
12.5305647563828604
 30
0.0
  0
SEQEND
  5
232B
  8
INTERNO
  0
POLYLINE
  5
92C
  8
INTERNO
 66
     1
 10
0.0
 20
0.0
 30
0.0
 70
     1
  0
VERTEX
  5
232C
  8
INTERNO
 10
163.5572752926825046
 20
48.5805647563827492
 30
0.0
  0
VERTEX
  5
232D
  8
INTERNO
 10
163.5572752926825046
 20
43.730564756382762
 30
0.0
  0
VERTEX
  5
232E
  8
INTERNO
 10
159.7072752926825956
 20
43.730564756382762
 30
0.0
  0
VERTEX
  5
232F
  8
INTERNO
 10
159.7072752926825956
 20
48.5805647563827492
 30
0.0
  0
SEQEND
  5
2330
  8
INTERNO
  0
POLYLINE
  5
92D
  8
INTERNO
 66
     1
 10
0.0
 20
0.0
 30
0.0
 70
     1
  0
VERTEX
  5
2331
  8
INTERNO
 10
163.5572752926825046
 20
25.6305647563827712
 30
0.0
  0
VERTEX
  5
2332
  8
INTERNO
 10
159.7072752926825956
 20
25.6305647563827712
 30
0.0
  0
VERTEX
  5
2333
  8
INTERNO
 10
159.7072752926825956
 20
35.480564756382897
 30
0.0
  0
VERTEX
  5
2334
  8
INTERNO
 10
163.5572752926825046
 20
35.480564756382897
 30
0.0
  0
SEQEND
  5
2335
  8
INTERNO
  0
POLYLINE
  5
92E
  8
INTERNO
 66
     1
 10
0.0
 20
0.0
 30
0.0
 70
     1
  0
VERTEX
  5
2336
  8
INTERNO
 10
209.9954112170892131
 20
12.5305647563190501
 30
0.0
  0
VERTEX
  5
2337
  8
INTERNO
 10
209.9954112171029124
 20
17.3805647563190711
 30
0.0
  0
VERTEX
  5
2338
  8
INTERNO
 10
213.8454112171031909
 20
17.3805647563085586
 30
0.0
  0
VERTEX
  5
2339
  8
INTERNO
 10
213.8454112170894916
 20
12.5305647563083902
 30
0.0
  0
SEQEND
  5
233A
  8
INTERNO
  0
POLYLINE
  5
92F
  8
INTERNO
 66
     1
 10
0.0
 20
0.0
 30
0.0
 70
     1
  0
VERTEX
  5
233B
  8
INTERNO
 10
209.9954112171888028
 20
48.5805647563190632
 30
0.0
  0
VERTEX
  5
233C
  8
INTERNO
 10
209.9954112171751888
 20
43.7305647563189481
 30
0.0
  0
VERTEX
  5
233D
  8
INTERNO
 10
213.8454112171750978
 20
43.7305647563083824
 30
0.0
  0
VERTEX
  5
233E
  8
INTERNO
 10
213.8454112171887118
 20
48.580564756308398
 30
0.0
  0
SEQEND
  5
233F
  8
INTERNO
  0
POLYLINE
  5
930
  8
INTERNO
 66
     1
 10
0.0
 20
0.0
 30
0.0
 70
     1
  0
VERTEX
  5
2340
  8
INTERNO
 10
209.9954112171255929
 20
25.6305647563190817
 30
0.0
  0
VERTEX
  5
2341
  8
INTERNO
 10
213.8454112171255019
 20
25.6305647563084413
 30
0.0
  0
VERTEX
  5
2342
  8
INTERNO
 10
213.8454112171523036
 20
35.4805647563084676
 30
0.0
  0
VERTEX
  5
2343
  8
INTERNO
 10
209.9954112171529061
 20
35.4805647563190405
 30
0.0
  0
SEQEND
  5
2344
  8
INTERNO
  0
POLYLINE
  5
931
  8
ESTERNO
 66
     1
 10
0.0
 20
0.0
 30
0.0
  0
VERTEX
  5
2345
  8
ESTERNO
 10
186.7763432548233027
 20
51.6555647563827733
 30
0.0
  0
VERTEX
  5
2346
  8
ESTERNO
 10
218.8704112170806013
 20
51.6555647563827733
 30
0.0
  0
VERTEX
  5
2347
  8
ESTERNO
 10
218.8704112170806013
 20
9.4555647563829552
 30
0.0
  0
VERTEX
  5
2348
  8
ESTERNO
 10
186.7763432548815956
 20
9.4555647563829552
 30
0.0
  0
VERTEX
  5
2349
  8
ESTERNO
 10
186.7763432548815956
 20
9.4555647563829552
 30
0.0
  0
VERTEX
  5
234A
  8
ESTERNO
 10
186.7763432548815956
 20
9.4555647563829552
 30
0.0
  0
VERTEX
  5
234B
  8
ESTERNO
 10
154.6822752926825046
 20
9.4555647563829552
 30
0.0
  0
VERTEX
  5
234C
  8
ESTERNO
 10
154.6822752926825046
 20
51.6555647563827733
 30
0.0
  0
VERTEX
  5
234D
  8
ESTERNO
 10
186.7763432549396896
 20
51.6555647563827733
 30
0.0
  0
SEQEND
  5
234E
  8
ESTERNO
  0
POLYLINE
  5
932
  8
INTERNO
 66
     1
 10
0.0
 20
0.0
 30
0.0
 70
     1
  0
VERTEX
  5
234F
  8
INTERNO
 10
193.9954112170904921
 20
13.0305647563492606
 30
0.0
  0
VERTEX
  5
2350
  8
INTERNO
 10
204.9954112170906058
 20
13.0305647563188796
 30
0.0
  0
VERTEX
  5
2351
  8
INTERNO
 10
204.9954112171010081
 20
16.8805647563191883
 30
0.0
  0
VERTEX
  5
2352
  8
INTERNO
 10
193.9954112171010081
 20
16.8805647563496493
 30
0.0
  0
SEQEND
  5
2353
  8
INTERNO
  0
POLYLINE
  5
933
  8
INTERNO
 66
     1
 10
0.0
 20
0.0
 30
0.0
 70
     1
  0
VERTEX
  5
2354
  8
INTERNO
 10
193.9954112170904921
 20
48.0805647564163223
 30
0.0
  0
VERTEX
  5
2355
  8
INTERNO
 10
204.9954112170906058
 20
48.080564756446762
 30
0.0
  0
VERTEX
  5
2356
  8
INTERNO
 10
204.9954112171010081
 20
44.2305647564463698
 30
0.0
  0
VERTEX
  5
2357
  8
INTERNO
 10
193.9954112171010081
 20
44.2305647564160367
 30
0.0
  0
SEQEND
  5
2358
  8
INTERNO
  0
POLYLINE
  5
934
  8
INTERNO
 66
     1
 10
0.0
 20
0.0
 30
0.0
 70
     1
  0
VERTEX
  5
2359
  8
INTERNO
 10
179.5572752926825046
 20
13.0305647563691895
 30
0.0
  0
VERTEX
  5
235A
  8
INTERNO
 10
168.5572752926825046
 20
13.0305647563691895
 30
0.0
  0
VERTEX
  5
235B
  8
INTERNO
 10
168.5572752926825046
 20
16.88056475636958
 30
0.0
  0
VERTEX
  5
235C
  8
INTERNO
 10
179.5572752926825046
 20
16.88056475636958
 30
0.0
  0
SEQEND
  5
235D
  8
INTERNO
  0
POLYLINE
  5
935
  8
INTERNO
 66
     1
 10
0.0
 20
0.0
 30
0.0
 70
     1
  0
VERTEX
  5
235E
  8
INTERNO
 10
179.5572752927793942
 20
48.0805647564363596
 30
0.0
  0
VERTEX
  5
235F
  8
INTERNO
 10
168.5572752927793942
 20
48.0805647564970613
 30
0.0
  0
VERTEX
  5
2360
  8
INTERNO
 10
168.5572752927579927
 20
44.2305647564966691
 30
0.0
  0
VERTEX
  5
2361
  8
INTERNO
 10
179.5572752927579927
 20
44.2305647564359887
 30
0.0
  0
SEQEND
  5
2362
  8
INTERNO
  0
CIRCLE
  5
936
  8
INTERNO
 10
166.3283378917637947
 20
40.6463297658431699
 30
0.0
 40
1.5
  0
CIRCLE
  5
937
  8
INTERNO
 10
166.3283378917973891
 20
20.6463297658431806
 30
0.0
 40
1.5
  0
CIRCLE
  5
938
  8
INTERNO
 10
207.2243486180784942
 20
40.6463297657760521
 30
0.0
 40
1.5
  0
CIRCLE
  5
939
  8
INTERNO
 10
207.2243486179893068
 20
20.6463297657761302
 30
0.0
 40
1.5
  0
CIRCLE
  5
93F
  8
INTERNO
 10
296.1809083303160719
 20
146.02357016531559
 30
0.0
 40
15.0
  0
CIRCLE
  5
941
  8
INTERNO
 10
316.628913693428899
 20
136.0235701652819955
 30
0.0
 40
1.5
  0
CIRCLE
  5
942
  8
INTERNO
 10
316.6289136933951909
 20
156.0235701652819955
 30
0.0
 40
1.5
  0
CIRCLE
  5
943
  8
INTERNO
 10
275.7329029671141143
 20
136.0235701653490992
 30
0.0
 40
1.5
  0
CIRCLE
  5
944
  8
INTERNO
 10
275.7329029672030742
 20
156.0235701653490992
 30
0.0
 40
1.5
  0
CIRCLE
  5
945
  8
INTERNO
 10
128.1408423987136871
 20
108.0432045215874979
 30
0.0
 40
1.3
  0
CIRCLE
  5
946
  8
INTERNO
 10
100.6408423987137013
 20
108.0432045215874979
 30
0.0
 40
1.3
  0
CIRCLE
  5
947
  8
INTERNO
 10
42.7408423987137667
 20
108.0432045215874979
 30
0.0
 40
1.3
  0
CIRCLE
  5
948
  8
INTERNO
 10
15.2408423987137702
 20
108.0432045215874979
 30
0.0
 40
1.3
  0
CIRCLE
  5
949
  8
INTERNO
 10
128.1408423987136871
 20
26.0432045215874908
 30
0.0
 40
1.3
  0
CIRCLE
  5
94A
  8
INTERNO
 10
100.6408423987137013
 20
26.0432045215875405
 30
0.0
 40
1.3
  0
CIRCLE
  5
94B
  8
INTERNO
 10
42.7408423987137667
 20
26.0432045215875405
 30
0.0
 40
1.3
  0
CIRCLE
  5
94C
  8
INTERNO
 10
15.2408423987137702
 20
26.0432045215875405
 30
0.0
 40
1.3
  0
CIRCLE
  5
94D
  8
INTERNO
 10
128.1408423987136871
 20
94.0432045215874837
 30
0.0
 40
1.3
  0
CIRCLE
  5
94E
  8
INTERNO
 10
100.6408423987137013
 20
94.0432045215875547
 30
0.0
 40
1.3
  0
CIRCLE
  5
94F
  8
INTERNO
 10
42.7408423987137667
 20
94.0432045215875547
 30
0.0
 40
1.3
  0
CIRCLE
  5
950
  8
INTERNO
 10
15.2408423987137702
 20
94.0432045215875547
 30
0.0
 40
1.3
  0
CIRCLE
  5
951
  8
INTERNO
 10
128.1408423987136871
 20
40.0432045215874766
 30
0.0
 40
1.3
  0
CIRCLE
  5
952
  8
INTERNO
 10
100.6408423987137013
 20
40.0432045215875192
 30
0.0
 40
1.3
  0
CIRCLE
  5
953
  8
INTERNO
 10
42.7408423987137667
 20
40.0432045215875192
 30
0.0
 40
1.3
  0
CIRCLE
  5
954
  8
INTERNO
 10
15.2408423987137702
 20
40.0432045215875192
 30
0.0
 40
1.3
  0
CIRCLE
  5
955
  8
INTERNO
 10
77.6908423987137837
 20
111.4143613998808036
 30
0.0
 40
1.5
  0
CIRCLE
  5
956
  8
INTERNO
 10
77.6908423987137837
 20
91.4143613998808036
 30
0.0
 40
1.5
  0
CIRCLE
  5
957
  8
INTERNO
 10
65.6908423987137837
 20
111.4143613998808036
 30
0.0
 40
1.5
  0
CIRCLE
  5
958
  8
INTERNO
 10
65.6908423987137837
 20
91.4143613998808036
 30
0.0
 40
1.5
  0
CIRCLE
  5
959
  8
INTERNO
 10
71.6908423987137979
 20
67.0432045215875263
 30
0.0
 40
15.0
  0
POLYLINE
  5
95A
  8
ESTERNO
 66
     1
 10
0.0
 20
0.0
 30
0.0
 70
     1
  0
VERTEX
  5
2363
  8
ESTERNO
 10
149.7374787722258986
 20
20.9626059713763802
 30
0.0
 42
0.2190560053376339
  0
VERTEX
  5
2364
  8
ESTERNO
 10
152.5337527819154104
 20
27.038890676515571
 30
0.0
  0
VERTEX
  5
2365
  8
ESTERNO
 10
152.5337527818336127
 20
107.0475183668147992
 30
0.0
 42
0.2190560053376358
  0
VERTEX
  5
2366
  8
ESTERNO
 10
149.737478772126309
 20
113.123803071963593
 30
0.0
  0
VERTEX
  5
2367
  8
ESTERNO
 10
139.23339952267321
 20
122.1194892267301952
 30
0.0
 42
0.1789228215640729
  0
VERTEX
  5
2368
  8
ESTERNO
 10
134.0296735323807127
 20
124.0432045215874979
 30
0.0
  0
VERTEX
  5
2369
  8
ESTERNO
 10
17.1908423987139116
 20
124.0432045215874979
 30
0.0
 42
0.4142135623730951
  0
VERTEX
  5
236A
  8
ESTERNO
 10
9.1908423987139241
 20
116.0432045215874979
 30
0.0
  0
VERTEX
  5
236B
  8
ESTERNO
 10
9.1908423987139241
 20
18.0432045215875405
 30
0.0
 42
0.4142135623730951
  0
VERTEX
  5
236C
  8
ESTERNO
 10
17.1908423987139116
 20
10.0432045215875405
 30
0.0
  0
VERTEX
  5
236D
  8
ESTERNO
 10
134.029673532349392
 20
10.0432045215874801
 30
0.0
 42
0.178922821564821
  0
VERTEX
  5
236E
  8
ESTERNO
 10
139.2333995226597949
 20
11.9669198164601198
 30
0.0
  0
SEQEND
  5
236F
  8
ESTERNO
  0
CIRCLE
  5
95B
  8
INTERNO
 10
77.6908423987137837
 20
101.4143613998808036
 30
0.0
 40
1.5
  0
CIRCLE
  5
95C
  8
INTERNO
 10
65.6908423987137837
 20
101.4143613998808036
 30
0.0
 40
1.5
  0
POLYLINE
  5
95D
  8
INTERNO
 66
     1
 10
0.0
 20
0.0
 30
0.0
 70
     1
  0
VERTEX
  5
2370
  8
INTERNO
 10
25.1908423986930217
 20
82.0262902679189665
 30
0.0
  0
VERTEX
  5
2371
  8
INTERNO
 10
25.1908423986930217
 20
78.0262902679185117
 30
0.0
  0
VERTEX
  5
2372
  8
INTERNO
 10
21.190842398693011
 20
78.0262902679185117
 30
0.0
  0
VERTEX
  5
2373
  8
INTERNO
 10
21.190842398693011
 20
74.0262902679185117
 30
0.0
  0
VERTEX
  5
2374
  8
INTERNO
 10
17.190842398693011
 20
74.0262902679185117
 30
0.0
  0
VERTEX
  5
2375
  8
INTERNO
 10
17.190842398693011
 20
78.0262902679185117
 30
0.0
  0
VERTEX
  5
2376
  8
INTERNO
 10
13.1908423986930092
 20
78.0262902679185117
 30
0.0
  0
VERTEX
  5
2377
  8
INTERNO
 10
13.1908423986930092
 20
82.0262902679189665
 30
0.0
  0
VERTEX
  5
2378
  8
INTERNO
 10
17.190842398693011
 20
82.0262902679189665
 30
0.0
  0
VERTEX
  5
2379
  8
INTERNO
 10
17.190842398693011
 20
86.0262902679189665
 30
0.0
  0
VERTEX
  5
237A
  8
INTERNO
 10
21.190842398693011
 20
86.0262902679189665
 30
0.0
  0
VERTEX
  5
237B
  8
INTERNO
 10
21.190842398693011
 20
82.0262902679189665
 30
0.0
  0
SEQEND
  5
237C
  8
INTERNO
  0
POLYLINE
  5
95E
  8
INTERNO
 66
     1
 10
0.0
 20
0.0
 30
0.0
 70
     1
  0
VERTEX
  5
237D
  8
INTERNO
 10
25.1908423987140395
 20
56.0601187753284194
 30
0.0
  0
VERTEX
  5
237E
  8
INTERNO
 10
25.1908423987140395
 20
52.0601187753279575
 30
0.0
  0
VERTEX
  5
237F
  8
INTERNO
 10
21.1908423987140395
 20
52.0601187753279575
 30
0.0
  0
VERTEX
  5
2380
  8
INTERNO
 10
21.1908423987140395
 20
48.0601187753279575
 30
0.0
  0
VERTEX
  5
2381
  8
INTERNO
 10
17.1908423987140395
 20
48.0601187753279575
 30
0.0
  0
VERTEX
  5
2382
  8
INTERNO
 10
17.1908423987140395
 20
52.0601187753279575
 30
0.0
  0
VERTEX
  5
2383
  8
INTERNO
 10
13.1908423987140395
 20
52.0601187753279575
 30
0.0
  0
VERTEX
  5
2384
  8
INTERNO
 10
13.1908423987140395
 20
56.0601187753284194
 30
0.0
  0
VERTEX
  5
2385
  8
INTERNO
 10
17.1908423987140395
 20
56.0601187753284194
 30
0.0
  0
VERTEX
  5
2386
  8
INTERNO
 10
17.1908423987140395
 20
60.0601187753284123
 30
0.0
  0
VERTEX
  5
2387
  8
INTERNO
 10
21.1908423987140395
 20
60.0601187753284123
 30
0.0
  0
VERTEX
  5
2388
  8
INTERNO
 10
21.1908423987140395
 20
56.0601187753284194
 30
0.0
  0
SEQEND
  5
2389
  8
INTERNO
  0
POLYLINE
  5
95F
  8
INTERNO
 66
     1
 10
0.0
 20
0.0
 30
0.0
 70
     1
  0
VERTEX
  5
238A
  8
INTERNO
 10
143.980781659554907
 20
32.060118775327453
 30
0.0
  0
VERTEX
  5
238B
  8
INTERNO
 10
143.980781659554907
 20
28.0601187753279113
 30
0.0
  0
VERTEX
  5
238C
  8
INTERNO
 10
139.980781659554907
 20
28.0601187753279113
 30
0.0
  0
VERTEX
  5
238D
  8
INTERNO
 10
139.980781659554907
 20
24.0601187753279113
 30
0.0
  0
VERTEX
  5
238E
  8
INTERNO
 10
135.9807816595549923
 20
24.0601187753279113
 30
0.0
  0
VERTEX
  5
238F
  8
INTERNO
 10
135.9807816595549923
 20
28.0601187753279113
 30
0.0
  0
VERTEX
  5
2390
  8
INTERNO
 10
131.980781659555106
 20
28.0601187753279113
 30
0.0
  0
VERTEX
  5
2391
  8
INTERNO
 10
131.980781659555106
 20
32.060118775327453
 30
0.0
  0
VERTEX
  5
2392
  8
INTERNO
 10
135.9807816595549923
 20
32.060118775327453
 30
0.0
  0
VERTEX
  5
2393
  8
INTERNO
 10
135.9807816595549923
 20
36.0601187753274601
 30
0.0
  0
VERTEX
  5
2394
  8
INTERNO
 10
139.980781659554907
 20
36.0601187753274601
 30
0.0
  0
VERTEX
  5
2395
  8
INTERNO
 10
139.980781659554907
 20
32.060118775327453
 30
0.0
  0
SEQEND
  5
2396
  8
INTERNO
  0
POLYLINE
  5
960
  8
INTERNO
 66
     1
 10
0.0
 20
0.0
 30
0.0
 70
     1
  0
VERTEX
  5
2397
  8
INTERNO
 10
143.9307816595336078
 20
105.9762902679188983
 30
0.0
  0
VERTEX
  5
2398
  8
INTERNO
 10
143.9307816595336078
 20
102.0762902679183952
 30
0.0
  0
VERTEX
  5
2399
  8
INTERNO
 10
139.9307816595336078
 20
102.0762902679183952
 30
0.0
  0
VERTEX
  5
239A
  8
INTERNO
 10
139.9307816595336078
 20
98.0762902679184236
 30
0.0
  0
VERTEX
  5
239B
  8
INTERNO
 10
136.0307816595338863
 20
98.0762902679184236
 30
0.0
  0
VERTEX
  5
239C
  8
INTERNO
 10
136.0307816595338863
 20
102.0762902679183952
 30
0.0
  0
VERTEX
  5
239D
  8
INTERNO
 10
132.0307816595338863
 20
102.0762902679183952
 30
0.0
  0
VERTEX
  5
239E
  8
INTERNO
 10
132.0307816595338863
 20
105.9762902679188983
 30
0.0
  0
VERTEX
  5
239F
  8
INTERNO
 10
136.0307816595338863
 20
105.9762902679188983
 30
0.0
  0
VERTEX
  5
23A0
  8
INTERNO
 10
136.0307816595338863
 20
109.9762902679187988
 30
0.0
  0
VERTEX
  5
23A1
  8
INTERNO
 10
139.9307816595336078
 20
109.9762902679187988
 30
0.0
  0
VERTEX
  5
23A2
  8
INTERNO
 10
139.9307816595336078
 20
105.9762902679188983
 30
0.0
  0
SEQEND
  5
23A3
  8
INTERNO
  0
POLYLINE
  5
964
  8
INTERNO
 66
     1
 10
0.0
 20
0.0
 30
0.0
 70
     1
  0
VERTEX
  5
23A4
  8
INTERNO
 10
112.6508602702283071
 20
78.0470927029616064
 30
0.0
 42
0.9999999999999998
  0
VERTEX
  5
23A5
  8
INTERNO
 10
112.6508602702283071
 20
56.0470927029616135
 30
0.0
  0
VERTEX
  5
23A6
  8
INTERNO
 10
128.6508602702282076
 20
56.0470927029616135
 30
0.0
 42
0.9999999999999998
  0
VERTEX
  5
23A7
  8
INTERNO
 10
128.6508602702282076
 20
78.0470927029616064
 30
0.0
  0
SEQEND
  5
23A8
  8
INTERNO
  0
POLYLINE
  5
A08
  8
ESTERNO
 66
     1
 10
0.0
 20
0.0
 30
0.0
 70
     1
  0
VERTEX
  5
23C5
  8
ESTERNO
 10
50.1072090888800403
 20
133.2862381755147112
 30
0.0
  0
VERTEX
  5
23C6
  8
ESTERNO
 10
54.1072090888800403
 20
133.2862381755147112
 30
0.0
  0
VERTEX
  5
23C7
  8
ESTERNO
 10
54.1072090888800403
 20
130.2862381755147112
 30
0.0
  0
VERTEX
  5
23C8
  8
ESTERNO
 10
54.1072090888800403
 20
129.2862381755147112
 30
0.0
  0
VERTEX
  5
23C9
  8
ESTERNO
 10
53.7072090888801696
 20
129.2862381755147112
 30
0.0
  0
VERTEX
  5
23CA
  8
ESTERNO
 10
53.7072090888801696
 20
128.5862381755146089
 30
0.0
  0
VERTEX
  5
23CB
  8
ESTERNO
 10
55.5596805886859784
 20
126.5816683105210956
 30
0.0
  0
VERTEX
  5
23CC
  8
ESTERNO
 10
58.1572090888801014
 20
126.5816683105210956
 30
0.0
  0
VERTEX
  5
23CD
  8
ESTERNO
 10
58.1072090888801469
 20
126.5816683105210956
 30
0.0
  0
VERTEX
  5
23CE
  8
ESTERNO
 10
58.1072090888801469
 20
154.4362381755144895
 30
0.0
  0
VERTEX
  5
23CF
  8
ESTERNO
 10
62.1072090888801469
 20
154.4362381755144895
 30
0.0
  0
VERTEX
  5
23D0
  8
ESTERNO
 10
62.1072090888801469
 20
126.5816683105210956
 30
0.0
  0
VERTEX
  5
23D1
  8
ESTERNO
 10
62.0572090888800716
 20
126.5816683105210956
 30
0.0
  0
VERTEX
  5
23D2
  8
ESTERNO
 10
64.6547375890743297
 20
126.5816683105210956
 30
0.0
  0
VERTEX
  5
23D3
  8
ESTERNO
 10
66.5072090888801313
 20
128.5862381755146089
 30
0.0
  0
VERTEX
  5
23D4
  8
ESTERNO
 10
66.5072090888801313
 20
129.2862381755147112
 30
0.0
  0
VERTEX
  5
23D5
  8
ESTERNO
 10
66.107209088880154
 20
129.2862381755147112
 30
0.0
  0
VERTEX
  5
23D6
  8
ESTERNO
 10
66.107209088880154
 20
130.2862381755147112
 30
0.0
  0
VERTEX
  5
23D7
  8
ESTERNO
 10
66.107209088880154
 20
133.2862381755147112
 30
0.0
  0
VERTEX
  5
23D8
  8
ESTERNO
 10
70.107209088880154
 20
133.2862381755147112
 30
0.0
  0
VERTEX
  5
23D9
  8
ESTERNO
 10
74.1072090888801398
 20
133.2862381755147112
 30
0.0
  0
VERTEX
  5
23DA
  8
ESTERNO
 10
74.1072090888801398
 20
130.2862381755147112
 30
0.0
  0
VERTEX
  5
23DB
  8
ESTERNO
 10
74.1072090888801398
 20
129.2862381755147112
 30
0.0
  0
VERTEX
  5
23DC
  8
ESTERNO
 10
73.7072090888801768
 20
129.2862381755147112
 30
0.0
  0
VERTEX
  5
23DD
  8
ESTERNO
 10
73.7072090888801768
 20
128.5862381755146089
 30
0.0
  0
VERTEX
  5
23DE
  8
ESTERNO
 10
75.5596805886859784
 20
126.5816683105210956
 30
0.0
  0
VERTEX
  5
23DF
  8
ESTERNO
 10
78.1572090888802364
 20
126.5816683105210956
 30
0.0
  0
VERTEX
  5
23E0
  8
ESTERNO
 10
78.1572090888802364
 20
126.5816683105210956
 30
0.0
  0
VERTEX
  5
23E1
  8
ESTERNO
 10
78.1572090888802364
 20
133.2862381755147112
 30
0.0
  0
VERTEX
  5
23E2
  8
ESTERNO
 10
82.0572090888801995
 20
133.2862381755147112
 30
0.0
  0
VERTEX
  5
23E3
  8
ESTERNO
 10
82.0572090888801995
 20
126.5816683105210956
 30
0.0
  0
VERTEX
  5
23E4
  8
ESTERNO
 10
82.0572090888801995
 20
126.5816683105210956
 30
0.0
  0
VERTEX
  5
23E5
  8
ESTERNO
 10
84.6547375890743439
 20
126.5816683105210956
 30
0.0
  0
VERTEX
  5
23E6
  8
ESTERNO
 10
86.5072090888801313
 20
128.5862381755146089
 30
0.0
  0
VERTEX
  5
23E7
  8
ESTERNO
 10
86.5072090888801313
 20
129.2862381755147112
 30
0.0
  0
VERTEX
  5
23E8
  8
ESTERNO
 10
86.1072090888801398
 20
129.2862381755147112
 30
0.0
  0
VERTEX
  5
23E9
  8
ESTERNO
 10
86.1072090888801398
 20
130.2862381755147112
 30
0.0
  0
VERTEX
  5
23EA
  8
ESTERNO
 10
86.1072090888801398
 20
133.2862381755147112
 30
0.0
  0
VERTEX
  5
23EB
  8
ESTERNO
 10
90.107209088880154
 20
133.2862381755147112
 30
0.0
  0
VERTEX
  5
23EC
  8
ESTERNO
 10
94.107209088880154
 20
133.2862381755147112
 30
0.0
  0
VERTEX
  5
23ED
  8
ESTERNO
 10
94.107209088880154
 20
130.2862381755147112
 30
0.0
  0
VERTEX
  5
23EE
  8
ESTERNO
 10
94.107209088880154
 20
129.2862381755147112
 30
0.0
  0
VERTEX
  5
23EF
  8
ESTERNO
 10
93.7072090888803046
 20
129.2862381755147112
 30
0.0
  0
VERTEX
  5
23F0
  8
ESTERNO
 10
93.7072090888803046
 20
128.5862381755146089
 30
0.0
  0
VERTEX
  5
23F1
  8
ESTERNO
 10
95.5596805886860636
 20
126.5816683105210956
 30
0.0
  0
VERTEX
  5
23F2
  8
ESTERNO
 10
98.1572090888802506
 20
126.5816683105210956
 30
0.0
  0
VERTEX
  5
23F3
  8
ESTERNO
 10
98.1072090888802535
 20
126.5816683105210956
 30
0.0
  0
VERTEX
  5
23F4
  8
ESTERNO
 10
98.1072090888802535
 20
154.4362381755144895
 30
0.0
  0
VERTEX
  5
23F5
  8
ESTERNO
 10
102.1072090888801966
 20
154.4362381755144895
 30
0.0
  0
VERTEX
  5
23F6
  8
ESTERNO
 10
102.1072090888801966
 20
126.5816683105210956
 30
0.0
  0
VERTEX
  5
23F7
  8
ESTERNO
 10
102.0572090888801995
 20
126.5816683105210956
 30
0.0
  0
VERTEX
  5
23F8
  8
ESTERNO
 10
104.6547375890744007
 20
126.5816683105210956
 30
0.0
  0
VERTEX
  5
23F9
  8
ESTERNO
 10
106.5072090888802023
 20
128.5862381755146089
 30
0.0
  0
VERTEX
  5
23FA
  8
ESTERNO
 10
106.5072090888802023
 20
129.2862381755147112
 30
0.0
  0
VERTEX
  5
23FB
  8
ESTERNO
 10
106.1072090888801966
 20
129.2862381755147112
 30
0.0
  0
VERTEX
  5
23FC
  8
ESTERNO
 10
106.1072090888801966
 20
130.2862381755147112
 30
0.0
  0
VERTEX
  5
23FD
  8
ESTERNO
 10
106.1072090888801966
 20
133.2862381755147112
 30
0.0
  0
VERTEX
  5
23FE
  8
ESTERNO
 10
110.1072090888801966
 20
133.2862381755147112
 30
0.0
  0
VERTEX
  5
23FF
  8
ESTERNO
 10
114.1072090888802961
 20
133.2862381755147112
 30
0.0
  0
VERTEX
  5
2400
  8
ESTERNO
 10
114.1072090888802961
 20
130.2862381755147112
 30
0.0
  0
VERTEX
  5
2401
  8
ESTERNO
 10
114.1072090888802961
 20
129.2862381755147112
 30
0.0
  0
VERTEX
  5
2402
  8
ESTERNO
 10
113.7072090888803046
 20
129.2862381755147112
 30
0.0
  0
VERTEX
  5
2403
  8
ESTERNO
 10
113.7072090888803046
 20
128.5862381755146089
 30
0.0
  0
VERTEX
  5
2404
  8
ESTERNO
 10
115.5596805886861063
 20
126.5816683105210956
 30
0.0
  0
VERTEX
  5
2405
  8
ESTERNO
 10
118.1572090888802933
 20
126.5816683105210956
 30
0.0
  0
VERTEX
  5
2406
  8
ESTERNO
 10
118.1572090888802933
 20
126.5816683105210956
 30
0.0
  0
VERTEX
  5
2407
  8
ESTERNO
 10
118.1572090888802933
 20
133.2862381755147112
 30
0.0
  0
VERTEX
  5
2408
  8
ESTERNO
 10
122.057209088880299
 20
133.2862381755147112
 30
0.0
  0
VERTEX
  5
2409
  8
ESTERNO
 10
122.057209088880299
 20
126.5816683105210956
 30
0.0
  0
VERTEX
  5
240A
  8
ESTERNO
 10
122.057209088880299
 20
126.5816683105210956
 30
0.0
  0
VERTEX
  5
240B
  8
ESTERNO
 10
124.6547375890744007
 20
126.5816683105210956
 30
0.0
  0
VERTEX
  5
240C
  8
ESTERNO
 10
126.5072090888802023
 20
128.5862381755146089
 30
0.0
  0
VERTEX
  5
240D
  8
ESTERNO
 10
126.5072090888802023
 20
129.2862381755147112
 30
0.0
  0
VERTEX
  5
240E
  8
ESTERNO
 10
126.1072090888801966
 20
129.2862381755147112
 30
0.0
  0
VERTEX
  5
240F
  8
ESTERNO
 10
126.1072090888801966
 20
130.2862381755147112
 30
0.0
  0
VERTEX
  5
2410
  8
ESTERNO
 10
126.1072090888801966
 20
133.2862381755147112
 30
0.0
  0
VERTEX
  5
2411
  8
ESTERNO
 10
130.1072090888802109
 20
133.2862381755147112
 30
0.0
  0
VERTEX
  5
2412
  8
ESTERNO
 10
134.1072090888802109
 20
133.2862381755147112
 30
0.0
  0
VERTEX
  5
2413
  8
ESTERNO
 10
134.1072090888802109
 20
130.2862381755147112
 30
0.0
  0
VERTEX
  5
2414
  8
ESTERNO
 10
134.1072090888802109
 20
129.2862381755147112
 30
0.0
  0
VERTEX
  5
2415
  8
ESTERNO
 10
133.7072090888804041
 20
129.2862381755147112
 30
0.0
  0
VERTEX
  5
2416
  8
ESTERNO
 10
133.7072090888804041
 20
128.5862381755146089
 30
0.0
  0
VERTEX
  5
2417
  8
ESTERNO
 10
135.5596805886862057
 20
126.5816683105210956
 30
0.0
  0
VERTEX
  5
2418
  8
ESTERNO
 10
138.1572090888803075
 20
126.5816683105210956
 30
0.0
  0
VERTEX
  5
2419
  8
ESTERNO
 10
138.1072090888804098
 20
126.5816683105210956
 30
0.0
  0
VERTEX
  5
241A
  8
ESTERNO
 10
138.1072090888804098
 20
154.4362381755144895
 30
0.0
  0
VERTEX
  5
241B
  8
ESTERNO
 10
142.1072090888804098
 20
154.4362381755144895
 30
0.0
  0
VERTEX
  5
241C
  8
ESTERNO
 10
142.1072090888804098
 20
126.5816683105210956
 30
0.0
  0
VERTEX
  5
241D
  8
ESTERNO
 10
142.0572090888803132
 20
126.5816683105210956
 30
0.0
  0
VERTEX
  5
241E
  8
ESTERNO
 10
144.6547375890745002
 20
126.5816683105210956
 30
0.0
  0
VERTEX
  5
241F
  8
ESTERNO
 10
146.5072090888803018
 20
128.5862381755146089
 30
0.0
  0
VERTEX
  5
2420
  8
ESTERNO
 10
146.5072090888803018
 20
129.2862381755147112
 30
0.0
  0
VERTEX
  5
2421
  8
ESTERNO
 10
146.1072090888802109
 20
129.2862381755147112
 30
0.0
  0
VERTEX
  5
2422
  8
ESTERNO
 10
146.1072090888802109
 20
130.2862381755147112
 30
0.0
  0
VERTEX
  5
2423
  8
ESTERNO
 10
146.1072090888802109
 20
133.2862381755147112
 30
0.0
  0
VERTEX
  5
2424
  8
ESTERNO
 10
150.1072090888802109
 20
133.2862381755147112
 30
0.0
  0
VERTEX
  5
2425
  8
ESTERNO
 10
154.1072090888802109
 20
133.2862381755147112
 30
0.0
  0
VERTEX
  5
2426
  8
ESTERNO
 10
154.1072090888802109
 20
130.2862381755147112
 30
0.0
  0
VERTEX
  5
2427
  8
ESTERNO
 10
154.1072090888802109
 20
129.2862381755147112
 30
0.0
  0
VERTEX
  5
2428
  8
ESTERNO
 10
153.7072090888804041
 20
129.2862381755147112
 30
0.0
  0
VERTEX
  5
2429
  8
ESTERNO
 10
153.7072090888804041
 20
128.5862381755146089
 30
0.0
  0
VERTEX
  5
242A
  8
ESTERNO
 10
155.5596805886862057
 20
126.5816683105210956
 30
0.0
  0
VERTEX
  5
242B
  8
ESTERNO
 10
158.1572090888803928
 20
126.5816683105210956
 30
0.0
  0
VERTEX
  5
242C
  8
ESTERNO
 10
158.1572090888803928
 20
126.5816683105210956
 30
0.0
  0
VERTEX
  5
242D
  8
ESTERNO
 10
158.1572090888803928
 20
133.2862381755145975
 30
0.0
  0
VERTEX
  5
242E
  8
ESTERNO
 10
162.0572090888803132
 20
133.2862381755145975
 30
0.0
  0
VERTEX
  5
242F
  8
ESTERNO
 10
162.0572090888803132
 20
126.5816683105210956
 30
0.0
  0
VERTEX
  5
2430
  8
ESTERNO
 10
162.0572090888803132
 20
126.5816683105210956
 30
0.0
  0
VERTEX
  5
2431
  8
ESTERNO
 10
164.6547375890745002
 20
126.5816683105210956
 30
0.0
  0
VERTEX
  5
2432
  8
ESTERNO
 10
166.5072090888803018
 20
128.5862381755146089
 30
0.0
  0
VERTEX
  5
2433
  8
ESTERNO
 10
166.5072090888803018
 20
129.2862381755145975
 30
0.0
  0
VERTEX
  5
2434
  8
ESTERNO
 10
166.1072090888804098
 20
129.2862381755145975
 30
0.0
  0
VERTEX
  5
2435
  8
ESTERNO
 10
166.1072090888804098
 20
130.2862381755145975
 30
0.0
  0
VERTEX
  5
2436
  8
ESTERNO
 10
166.1072090888804098
 20
133.2862381755145975
 30
0.0
  0
VERTEX
  5
2437
  8
ESTERNO
 10
170.1072090888804098
 20
133.2862381755145975
 30
0.0
  0
VERTEX
  5
2438
  8
ESTERNO
 10
170.1072090888804951
 20
175.3862381755145066
 30
0.0
  0
VERTEX
  5
2439
  8
ESTERNO
 10
166.1072090888804951
 20
175.3862381755145066
 30
0.0
  0
VERTEX
  5
243A
  8
ESTERNO
 10
166.1072090888804951
 20
179.3862381755145066
 30
0.0
  0
VERTEX
  5
243B
  8
ESTERNO
 10
166.5072090888805008
 20
179.3862381755145066
 30
0.0
  0
VERTEX
  5
243C
  8
ESTERNO
 10
166.5072090888805008
 20
180.0862381755146089
 30
0.0
  0
VERTEX
  5
243D
  8
ESTERNO
 10
164.6547375890746139
 20
182.090808040508108
 30
0.0
  0
VERTEX
  5
243E
  8
ESTERNO
 10
162.1072090888804951
 20
182.090808040508108
 30
0.0
  0
VERTEX
  5
243F
  8
ESTERNO
 10
162.1072090888804951
 20
182.090808040508108
 30
0.0
  0
VERTEX
  5
2440
  8
ESTERNO
 10
162.1072090888804098
 20
154.3362381755146089
 30
0.0
  0
VERTEX
  5
2441
  8
ESTERNO
 10
158.1072090888804098
 20
154.3362381755146089
 30
0.0
  0
VERTEX
  5
2442
  8
ESTERNO
 10
158.1072090888804951
 20
182.090808040508108
 30
0.0
  0
VERTEX
  5
2443
  8
ESTERNO
 10
158.1072090888804951
 20
182.090808040508108
 30
0.0
  0
VERTEX
  5
2444
  8
ESTERNO
 10
155.5596805886862057
 20
182.090808040508108
 30
0.0
  0
VERTEX
  5
2445
  8
ESTERNO
 10
153.7072090888804894
 20
180.0862381755146941
 30
0.0
  0
VERTEX
  5
2446
  8
ESTERNO
 10
153.7072090888804894
 20
179.3862381755145918
 30
0.0
  0
VERTEX
  5
2447
  8
ESTERNO
 10
153.7572090888805008
 20
179.3862381755145918
 30
0.0
  0
VERTEX
  5
2448
  8
ESTERNO
 10
153.7572090888805008
 20
179.3862381755145918
 30
0.0
  0
VERTEX
  5
2449
  8
ESTERNO
 10
154.1072090888802109
 20
179.3862381755145918
 30
0.0
  0
VERTEX
  5
244A
  8
ESTERNO
 10
154.1072090888802109
 20
175.3862381755145918
 30
0.0
  0
VERTEX
  5
244B
  8
ESTERNO
 10
150.1072090888802109
 20
175.3862381755145918
 30
0.0
  0
VERTEX
  5
244C
  8
ESTERNO
 10
146.1072090888802109
 20
175.3862381755145918
 30
0.0
  0
VERTEX
  5
244D
  8
ESTERNO
 10
146.1072090888802109
 20
179.3862381755145918
 30
0.0
  0
VERTEX
  5
244E
  8
ESTERNO
 10
146.5072090888803018
 20
179.3862381755145918
 30
0.0
  0
VERTEX
  5
244F
  8
ESTERNO
 10
146.1072090888802109
 20
179.3862381755145918
 30
0.0
  0
VERTEX
  5
2450
  8
ESTERNO
 10
146.5072090888803018
 20
179.3862381755145918
 30
0.0
  0
VERTEX
  5
2451
  8
ESTERNO
 10
146.5072090888803018
 20
180.0862381755146941
 30
0.0
  0
VERTEX
  5
2452
  8
ESTERNO
 10
144.6547375890745002
 20
182.090808040508108
 30
0.0
  0
VERTEX
  5
2453
  8
ESTERNO
 10
142.0572090888803984
 20
182.090808040508108
 30
0.0
  0
VERTEX
  5
2454
  8
ESTERNO
 10
142.0572090888803984
 20
182.090808040508108
 30
0.0
  0
VERTEX
  5
2455
  8
ESTERNO
 10
142.0572090888803984
 20
175.3862381755145918
 30
0.0
  0
VERTEX
  5
2456
  8
ESTERNO
 10
138.1156851925900071
 20
175.3862381755145918
 30
0.0
  0
VERTEX
  5
2457
  8
ESTERNO
 10
138.1572090888803928
 20
182.090808040508108
 30
0.0
  0
VERTEX
  5
2458
  8
ESTERNO
 10
138.1572090888803928
 20
182.090808040508108
 30
0.0
  0
VERTEX
  5
2459
  8
ESTERNO
 10
135.5596805886862057
 20
182.090808040508108
 30
0.0
  0
VERTEX
  5
245A
  8
ESTERNO
 10
133.7072090888804041
 20
180.0862381755146941
 30
0.0
  0
VERTEX
  5
245B
  8
ESTERNO
 10
133.7072090888804041
 20
179.3862381755145918
 30
0.0
  0
VERTEX
  5
245C
  8
ESTERNO
 10
134.1072090888804098
 20
179.3862381755145918
 30
0.0
  0
VERTEX
  5
245D
  8
ESTERNO
 10
133.7072090888804041
 20
179.3862381755145918
 30
0.0
  0
VERTEX
  5
245E
  8
ESTERNO
 10
134.1072090888804098
 20
179.3862381755145918
 30
0.0
  0
VERTEX
  5
245F
  8
ESTERNO
 10
134.1072090888804098
 20
175.3862381755145918
 30
0.0
  0
VERTEX
  5
2460
  8
ESTERNO
 10
130.1072090888804098
 20
175.3862381755145918
 30
0.0
  0
VERTEX
  5
2461
  8
ESTERNO
 10
126.1072090888803956
 20
175.3862381755145918
 30
0.0
  0
VERTEX
  5
2462
  8
ESTERNO
 10
126.1072090888803956
 20
179.3862381755145918
 30
0.0
  0
VERTEX
  5
2463
  8
ESTERNO
 10
126.5072090888803018
 20
179.3862381755145918
 30
0.0
  0
VERTEX
  5
2464
  8
ESTERNO
 10
126.5072090888803018
 20
180.0862381755146941
 30
0.0
  0
VERTEX
  5
2465
  8
ESTERNO
 10
124.6547375890745002
 20
182.090808040508108
 30
0.0
  0
VERTEX
  5
2466
  8
ESTERNO
 10
122.1072090888802961
 20
182.090808040508108
 30
0.0
  0
VERTEX
  5
2467
  8
ESTERNO
 10
122.1072090888802961
 20
182.090808040508108
 30
0.0
  0
VERTEX
  5
2468
  8
ESTERNO
 10
122.1072090888800972
 20
154.3362381755146089
 30
0.0
  0
VERTEX
  5
2469
  8
ESTERNO
 10
118.1072090888801966
 20
154.3362381755146089
 30
0.0
  0
VERTEX
  5
246A
  8
ESTERNO
 10
118.1072090888803956
 20
182.090808040508108
 30
0.0
  0
VERTEX
  5
246B
  8
ESTERNO
 10
118.1072090888803956
 20
182.090808040508108
 30
0.0
  0
VERTEX
  5
246C
  8
ESTERNO
 10
115.5596805886862057
 20
182.090808040508108
 30
0.0
  0
VERTEX
  5
246D
  8
ESTERNO
 10
113.7072090888804041
 20
180.0862381755146941
 30
0.0
  0
VERTEX
  5
246E
  8
ESTERNO
 10
113.7072090888804041
 20
179.3862381755145918
 30
0.0
  0
VERTEX
  5
246F
  8
ESTERNO
 10
113.7572090888803018
 20
179.3862381755145918
 30
0.0
  0
VERTEX
  5
2470
  8
ESTERNO
 10
113.7572090888803018
 20
179.3862381755145918
 30
0.0
  0
VERTEX
  5
2471
  8
ESTERNO
 10
114.1072090888802961
 20
179.3862381755145918
 30
0.0
  0
VERTEX
  5
2472
  8
ESTERNO
 10
114.1072090888802961
 20
175.3862381755145918
 30
0.0
  0
VERTEX
  5
2473
  8
ESTERNO
 10
110.1072090888801966
 20
175.3862381755145918
 30
0.0
  0
VERTEX
  5
2474
  8
ESTERNO
 10
106.1072090888801966
 20
175.3862381755145918
 30
0.0
  0
VERTEX
  5
2475
  8
ESTERNO
 10
106.1072090888801966
 20
179.3862381755145918
 30
0.0
  0
VERTEX
  5
2476
  8
ESTERNO
 10
106.5072090888803018
 20
179.3862381755145918
 30
0.0
  0
VERTEX
  5
2477
  8
ESTERNO
 10
106.1072090888801966
 20
179.3862381755145918
 30
0.0
  0
VERTEX
  5
2478
  8
ESTERNO
 10
106.5072090888803018
 20
179.3862381755145918
 30
0.0
  0
VERTEX
  5
2479
  8
ESTERNO
 10
106.5072090888803018
 20
180.0862381755146941
 30
0.0
  0
VERTEX
  5
247A
  8
ESTERNO
 10
104.6547375890744007
 20
182.090808040508108
 30
0.0
  0
VERTEX
  5
247B
  8
ESTERNO
 10
102.057209088880299
 20
182.090808040508108
 30
0.0
  0
VERTEX
  5
247C
  8
ESTERNO
 10
102.057209088880299
 20
182.090808040508108
 30
0.0
  0
VERTEX
  5
247D
  8
ESTERNO
 10
102.057209088880299
 20
175.3862381755145918
 30
0.0
  0
VERTEX
  5
247E
  8
ESTERNO
 10
98.1156851925899218
 20
175.3862381755145918
 30
0.0
  0
VERTEX
  5
247F
  8
ESTERNO
 10
98.1572090888803217
 20
182.090808040508108
 30
0.0
  0
VERTEX
  5
2480
  8
ESTERNO
 10
98.1572090888803217
 20
182.090808040508108
 30
0.0
  0
VERTEX
  5
2481
  8
ESTERNO
 10
95.5596805886860636
 20
182.090808040508108
 30
0.0
  0
VERTEX
  5
2482
  8
ESTERNO
 10
93.7072090888803046
 20
180.0862381755146941
 30
0.0
  0
VERTEX
  5
2483
  8
ESTERNO
 10
93.7072090888803046
 20
179.3862381755145918
 30
0.0
  0
VERTEX
  5
2484
  8
ESTERNO
 10
94.1072090888802535
 20
179.3862381755145918
 30
0.0
  0
VERTEX
  5
2485
  8
ESTERNO
 10
93.7072090888803046
 20
179.3862381755145918
 30
0.0
  0
VERTEX
  5
2486
  8
ESTERNO
 10
94.1072090888802535
 20
179.3862381755145918
 30
0.0
  0
VERTEX
  5
2487
  8
ESTERNO
 10
94.1072090888802535
 20
175.3862381755145918
 30
0.0
  0
VERTEX
  5
2488
  8
ESTERNO
 10
90.1072090888802535
 20
175.3862381755145918
 30
0.0
  0
VERTEX
  5
2489
  8
ESTERNO
 10
86.1072090888802393
 20
175.3862381755145918
 30
0.0
  0
VERTEX
  5
248A
  8
ESTERNO
 10
86.1072090888802393
 20
179.3862381755145918
 30
0.0
  0
VERTEX
  5
248B
  8
ESTERNO
 10
86.507209088880245
 20
179.3862381755145918
 30
0.0
  0
VERTEX
  5
248C
  8
ESTERNO
 10
86.507209088880245
 20
180.0862381755146941
 30
0.0
  0
VERTEX
  5
248D
  8
ESTERNO
 10
84.6547375890744149
 20
182.090808040508108
 30
0.0
  0
VERTEX
  5
248E
  8
ESTERNO
 10
82.1072090888802535
 20
182.090808040508108
 30
0.0
  0
VERTEX
  5
248F
  8
ESTERNO
 10
82.1072090888802535
 20
182.090808040508108
 30
0.0
  0
VERTEX
  5
2490
  8
ESTERNO
 10
82.1072090888801256
 20
154.3362381755146089
 30
0.0
  0
VERTEX
  5
2491
  8
ESTERNO
 10
78.1072090888801398
 20
154.3362381755146089
 30
0.0
  0
VERTEX
  5
2492
  8
ESTERNO
 10
78.1072090888802535
 20
182.090808040508108
 30
0.0
  0
VERTEX
  5
2493
  8
ESTERNO
 10
78.1072090888802535
 20
182.090808040508108
 30
0.0
  0
VERTEX
  5
2494
  8
ESTERNO
 10
75.5596805886860921
 20
182.090808040508108
 30
0.0
  0
VERTEX
  5
2495
  8
ESTERNO
 10
73.7072090888802762
 20
180.0862381755146941
 30
0.0
  0
VERTEX
  5
2496
  8
ESTERNO
 10
73.7072090888802762
 20
179.3862381755145918
 30
0.0
  0
VERTEX
  5
2497
  8
ESTERNO
 10
73.7572090888802308
 20
179.3862381755145918
 30
0.0
  0
VERTEX
  5
2498
  8
ESTERNO
 10
73.7572090888802308
 20
179.3862381755145918
 30
0.0
  0
VERTEX
  5
2499
  8
ESTERNO
 10
74.1072090888801398
 20
179.3862381755145918
 30
0.0
  0
VERTEX
  5
249A
  8
ESTERNO
 10
74.1072090888801398
 20
175.3862381755145918
 30
0.0
  0
VERTEX
  5
249B
  8
ESTERNO
 10
70.107209088880154
 20
175.3862381755145918
 30
0.0
  0
VERTEX
  5
249C
  8
ESTERNO
 10
66.107209088880154
 20
175.3862381755145918
 30
0.0
  0
VERTEX
  5
249D
  8
ESTERNO
 10
66.107209088880154
 20
179.3862381755145918
 30
0.0
  0
VERTEX
  5
249E
  8
ESTERNO
 10
66.507209088880245
 20
179.3862381755145918
 30
0.0
  0
VERTEX
  5
249F
  8
ESTERNO
 10
66.107209088880154
 20
179.3862381755145918
 30
0.0
  0
VERTEX
  5
24A0
  8
ESTERNO
 10
66.507209088880245
 20
179.3862381755145918
 30
0.0
  0
VERTEX
  5
24A1
  8
ESTERNO
 10
66.507209088880245
 20
180.0862381755146941
 30
0.0
  0
VERTEX
  5
24A2
  8
ESTERNO
 10
64.6547375890743297
 20
182.090808040508108
 30
0.0
  0
VERTEX
  5
24A3
  8
ESTERNO
 10
62.0572090888802066
 20
182.090808040508108
 30
0.0
  0
VERTEX
  5
24A4
  8
ESTERNO
 10
62.0572090888802066
 20
182.090808040508108
 30
0.0
  0
VERTEX
  5
24A5
  8
ESTERNO
 10
62.0572090888802066
 20
175.3862381755145918
 30
0.0
  0
VERTEX
  5
24A6
  8
ESTERNO
 10
58.115685192589801
 20
175.3862381755145918
 30
0.0
  0
VERTEX
  5
24A7
  8
ESTERNO
 10
58.1572090888802293
 20
182.090808040508108
 30
0.0
  0
VERTEX
  5
24A8
  8
ESTERNO
 10
58.1572090888802293
 20
182.090808040508108
 30
0.0
  0
VERTEX
  5
24A9
  8
ESTERNO
 10
55.5596805886859784
 20
182.090808040508108
 30
0.0
  0
VERTEX
  5
24AA
  8
ESTERNO
 10
53.7072090888801696
 20
180.0862381755146941
 30
0.0
  0
VERTEX
  5
24AB
  8
ESTERNO
 10
53.7072090888801696
 20
179.3862381755145918
 30
0.0
  0
VERTEX
  5
24AC
  8
ESTERNO
 10
54.1072090888801469
 20
179.3862381755145918
 30
0.0
  0
VERTEX
  5
24AD
  8
ESTERNO
 10
53.7072090888801696
 20
179.3862381755145918
 30
0.0
  0
VERTEX
  5
24AE
  8
ESTERNO
 10
54.1072090888801469
 20
179.3862381755145918
 30
0.0
  0
VERTEX
  5
24AF
  8
ESTERNO
 10
54.1072090888801469
 20
175.3862381755145918
 30
0.0
  0
VERTEX
  5
24B0
  8
ESTERNO
 10
50.1072090888801469
 20
175.3862381755145918
 30
0.0
  0
VERTEX
  5
24B1
  8
ESTERNO
 10
46.1072090888801469
 20
175.3862381755145918
 30
0.0
  0
VERTEX
  5
24B2
  8
ESTERNO
 10
46.1072090888801469
 20
179.3862381755145918
 30
0.0
  0
VERTEX
  5
24B3
  8
ESTERNO
 10
46.5072090888801313
 20
179.3862381755145918
 30
0.0
  0
VERTEX
  5
24B4
  8
ESTERNO
 10
46.5072090888801313
 20
180.0862381755146941
 30
0.0
  0
VERTEX
  5
24B5
  8
ESTERNO
 10
44.6547375890743297
 20
182.090808040508108
 30
0.0
  0
VERTEX
  5
24B6
  8
ESTERNO
 10
42.1072090888801469
 20
182.090808040508108
 30
0.0
  0
VERTEX
  5
24B7
  8
ESTERNO
 10
42.1072090888801469
 20
182.090808040508108
 30
0.0
  0
VERTEX
  5
24B8
  8
ESTERNO
 10
42.1072090888800403
 20
154.3362381755146089
 30
0.0
  0
VERTEX
  5
24B9
  8
ESTERNO
 10
38.1072090888800403
 20
154.3362381755146089
 30
0.0
  0
VERTEX
  5
24BA
  8
ESTERNO
 10
38.1072090888801469
 20
182.090808040508108
 30
0.0
  0
VERTEX
  5
24BB
  8
ESTERNO
 10
38.1072090888801469
 20
182.090808040508108
 30
0.0
  0
VERTEX
  5
24BC
  8
ESTERNO
 10
35.5596805886859784
 20
182.090808040508108
 30
0.0
  0
VERTEX
  5
24BD
  8
ESTERNO
 10
33.7072090888801768
 20
180.0862381755146941
 30
0.0
  0
VERTEX
  5
24BE
  8
ESTERNO
 10
33.7072090888801768
 20
179.3862381755145918
 30
0.0
  0
VERTEX
  5
24BF
  8
ESTERNO
 10
33.7572090888801313
 20
179.3862381755145918
 30
0.0
  0
VERTEX
  5
24C0
  8
ESTERNO
 10
33.7572090888801313
 20
179.3862381755145918
 30
0.0
  0
VERTEX
  5
24C1
  8
ESTERNO
 10
34.1072090888800403
 20
179.3862381755145918
 30
0.0
  0
VERTEX
  5
24C2
  8
ESTERNO
 10
34.1072090888800403
 20
175.3862381755145918
 30
0.0
  0
VERTEX
  5
24C3
  8
ESTERNO
 10
30.1072090888800403
 20
175.3862381755145918
 30
0.0
  0
VERTEX
  5
24C4
  8
ESTERNO
 10
26.1072090888800403
 20
175.3862381755145918
 30
0.0
  0
VERTEX
  5
24C5
  8
ESTERNO
 10
26.1072090888800403
 20
179.3862381755145918
 30
0.0
  0
VERTEX
  5
24C6
  8
ESTERNO
 10
26.5072090888801313
 20
179.3862381755145918
 30
0.0
  0
VERTEX
  5
24C7
  8
ESTERNO
 10
26.1072090888800403
 20
179.3862381755145918
 30
0.0
  0
VERTEX
  5
24C8
  8
ESTERNO
 10
26.5072090888801313
 20
179.3862381755145918
 30
0.0
  0
VERTEX
  5
24C9
  8
ESTERNO
 10
26.5072090888801313
 20
180.0862381755146941
 30
0.0
  0
VERTEX
  5
24CA
  8
ESTERNO
 10
24.6547375890742195
 20
182.090808040508108
 30
0.0
  0
VERTEX
  5
24CB
  8
ESTERNO
 10
22.057209088880029
 20
182.090808040508108
 30
0.0
  0
VERTEX
  5
24CC
  8
ESTERNO
 10
22.057209088880029
 20
182.090808040508108
 30
0.0
  0
VERTEX
  5
24CD
  8
ESTERNO
 10
22.0572090888800894
 20
175.3862381755145918
 30
0.0
  0
VERTEX
  5
24CE
  8
ESTERNO
 10
18.1156851925896909
 20
175.3862381755145918
 30
0.0
  0
VERTEX
  5
24CF
  8
ESTERNO
 10
18.1572090888800517
 20
182.090808040508108
 30
0.0
  0
VERTEX
  5
24D0
  8
ESTERNO
 10
18.1572090888800517
 20
182.090808040508108
 30
0.0
  0
VERTEX
  5
24D1
  8
ESTERNO
 10
15.5596805886858593
 20
182.090808040508108
 30
0.0
  0
VERTEX
  5
24D2
  8
ESTERNO
 10
13.7072090888800595
 20
180.0862381755146941
 30
0.0
  0
VERTEX
  5
24D3
  8
ESTERNO
 10
13.7072090888800595
 20
179.3862381755145918
 30
0.0
  0
VERTEX
  5
24D4
  8
ESTERNO
 10
14.1072090888800403
 20
179.3862381755145918
 30
0.0
  0
VERTEX
  5
24D5
  8
ESTERNO
 10
13.7072090888800595
 20
179.3862381755145918
 30
0.0
  0
VERTEX
  5
24D6
  8
ESTERNO
 10
14.1072090888799799
 20
179.3862381755145918
 30
0.0
  0
VERTEX
  5
24D7
  8
ESTERNO
 10
14.1072090888799799
 20
175.3862381755145918
 30
0.0
  0
VERTEX
  5
24D8
  8
ESTERNO
 10
10.1072090888799799
 20
175.3862381755145918
 30
0.0
  0
VERTEX
  5
24D9
  8
ESTERNO
 10
10.1072090888799799
 20
133.2862381755147112
 30
0.0
  0
VERTEX
  5
24DA
  8
ESTERNO
 10
14.1072090888799799
 20
133.2862381755147112
 30
0.0
  0
VERTEX
  5
24DB
  8
ESTERNO
 10
14.1072090888799799
 20
130.2862381755147112
 30
0.0
  0
VERTEX
  5
24DC
  8
ESTERNO
 10
14.1072090888799799
 20
129.2862381755147112
 30
0.0
  0
VERTEX
  5
24DD
  8
ESTERNO
 10
13.7072090888800595
 20
129.2862381755147112
 30
0.0
  0
VERTEX
  5
24DE
  8
ESTERNO
 10
13.7072090888800595
 20
128.5862381755146089
 30
0.0
  0
VERTEX
  5
24DF
  8
ESTERNO
 10
15.5596805886858593
 20
126.5816683105210956
 30
0.0
  0
VERTEX
  5
24E0
  8
ESTERNO
 10
18.1572090888800517
 20
126.5816683105210956
 30
0.0
  0
VERTEX
  5
24E1
  8
ESTERNO
 10
18.1072090888800687
 20
126.5816683105210956
 30
0.0
  0
VERTEX
  5
24E2
  8
ESTERNO
 10
18.1072090888800687
 20
154.4362381755144895
 30
0.0
  0
VERTEX
  5
24E3
  8
ESTERNO
 10
22.1072090888800403
 20
154.4362381755144895
 30
0.0
  0
VERTEX
  5
24E4
  8
ESTERNO
 10
22.1072090888800403
 20
126.5816683105210956
 30
0.0
  0
VERTEX
  5
24E5
  8
ESTERNO
 10
22.057209088880029
 20
126.5816683105210956
 30
0.0
  0
VERTEX
  5
24E6
  8
ESTERNO
 10
24.6547375890742195
 20
126.5816683105210956
 30
0.0
  0
VERTEX
  5
24E7
  8
ESTERNO
 10
26.5072090888800211
 20
128.5862381755146089
 30
0.0
  0
VERTEX
  5
24E8
  8
ESTERNO
 10
26.5072090888800211
 20
129.2862381755147112
 30
0.0
  0
VERTEX
  5
24E9
  8
ESTERNO
 10
26.1072090888800403
 20
129.2862381755147112
 30
0.0
  0
VERTEX
  5
24EA
  8
ESTERNO
 10
26.1072090888800403
 20
130.2862381755147112
 30
0.0
  0
VERTEX
  5
24EB
  8
ESTERNO
 10
26.1072090888800403
 20
133.2862381755147112
 30
0.0
  0
VERTEX
  5
24EC
  8
ESTERNO
 10
30.1072090888800403
 20
133.2862381755147112
 30
0.0
  0
VERTEX
  5
24ED
  8
ESTERNO
 10
34.1072090888800403
 20
133.2862381755147112
 30
0.0
  0
VERTEX
  5
24EE
  8
ESTERNO
 10
34.1072090888800403
 20
130.2862381755147112
 30
0.0
  0
VERTEX
  5
24EF
  8
ESTERNO
 10
34.1072090888800403
 20
129.2862381755147112
 30
0.0
  0
VERTEX
  5
24F0
  8
ESTERNO
 10
33.7072090888800702
 20
129.2862381755147112
 30
0.0
  0
VERTEX
  5
24F1
  8
ESTERNO
 10
33.7072090888800702
 20
128.5862381755146089
 30
0.0
  0
VERTEX
  5
24F2
  8
ESTERNO
 10
35.5596805886858576
 20
126.5816683105210956
 30
0.0
  0
VERTEX
  5
24F3
  8
ESTERNO
 10
38.1572090888801014
 20
126.5816683105210956
 30
0.0
  0
VERTEX
  5
24F4
  8
ESTERNO
 10
38.1572090888801014
 20
126.5816683105210956
 30
0.0
  0
VERTEX
  5
24F5
  8
ESTERNO
 10
38.1572090888801014
 20
133.2862381755147112
 30
0.0
  0
VERTEX
  5
24F6
  8
ESTERNO
 10
42.0572090888800716
 20
133.2862381755147112
 30
0.0
  0
VERTEX
  5
24F7
  8
ESTERNO
 10
42.0572090888800716
 20
126.5816683105210956
 30
0.0
  0
VERTEX
  5
24F8
  8
ESTERNO
 10
42.0572090888800716
 20
126.5816683105210956
 30
0.0
  0
VERTEX
  5
24F9
  8
ESTERNO
 10
44.6547375890742018
 20
126.5816683105210956
 30
0.0
  0
VERTEX
  5
24FA
  8
ESTERNO
 10
46.5072090888800034
 20
128.5862381755146089
 30
0.0
  0
VERTEX
  5
24FB
  8
ESTERNO
 10
46.5072090888800034
 20
129.2862381755147112
 30
0.0
  0
VERTEX
  5
24FC
  8
ESTERNO
 10
46.1072090888800403
 20
129.2862381755147112
 30
0.0
  0
VERTEX
  5
24FD
  8
ESTERNO
 10
46.1072090888800403
 20
130.2862381755147112
 30
0.0
  0
VERTEX
  5
24FE
  8
ESTERNO
 10
46.1072090888800403
 20
133.2862381755147112
 30
0.0
  0
SEQEND
  5
24FF
  8
ESTERNO
  0
LINE
  5
A0B
  8
INTERNO
 10
150.1072090888802109
 20
133.2862381755147112
 30
0.0
 11
150.1072090888802109
 21
175.3862381755145918
 31
0.0
  0
LINE
  5
A0C
  8
INTERNO
 10
130.1072090888802109
 20
133.2862381755147112
 30
0.0
 11
130.1072090888804098
 21
175.3862381755145918
 31
0.0
  0
LINE
  5
A0D
  8
INTERNO
 10
110.1072090888801966
 20
133.2862381755147112
 30
0.0
 11
110.1072090888801966
 21
175.3862381755145918
 31
0.0
  0
LINE
  5
A0E
  8
INTERNO
 10
90.107209088880154
 20
133.2862381755147112
 30
0.0
 11
90.1072090888802535
 21
175.3862381755145918
 31
0.0
  0
LINE
  5
A0F
  8
INTERNO
 10
70.107209088880154
 20
133.2862381755147112
 30
0.0
 11
70.107209088880154
 21
175.3862381755145918
 31
0.0
  0
LINE
  5
A10
  8
INTERNO
 10
50.1072090888801469
 20
175.3862381755145918
 30
0.0
 11
50.1072090888800403
 21
133.2862381755147112
 31
0.0
  0
LINE
  5
A11
  8
INTERNO
 10
30.1072090888800403
 20
133.2862381755147112
 30
0.0
 11
30.1072090888800403
 21
175.3862381755145918
 31
0.0
  0
POLYLINE
  5
1035
  8
ESTERNO
 66
     1
 10
0.0
 20
0.0
 30
0.0
 70
     1
  0
VERTEX
  5
2507
  8
ESTERNO
 10
290.4803493346536811
 20
178.3530467588921056
 30
0.0
 42
0.0087268677907589
  0
VERTEX
  5
2508
  8
ESTERNO
 10
289.3555394994012886
 20
178.1344058753946058
 30
0.0
 42
0.0926255526910737
  0
VERTEX
  5
2509
  8
ESTERNO
 10
287.7386080660801895
 20
181.188281514858204
 30
0.0
 42
0.0130907170848356
  0
VERTEX
  5
250A
  8
ESTERNO
 10
285.909799150702213
 20
180.6982536428718049
 30
0.0
 42
0.1129830516329582
  0
VERTEX
  5
250B
  8
ESTERNO
 10
286.0364332730002843
 20
177.2450540424372889
 30
0.0
 42
0.0087268677907584
  0
VERTEX
  5
250C
  8
ESTERNO
 10
284.9529989394898735
 20
176.8719976842234871
 30
0.0
 42
0.0087268677907589
  0
VERTEX
  5
250D
  8
ESTERNO
 10
283.8832440840519098
 20
176.4613572689164016
 30
0.0
 42
0.0926255526910737
  0
VERTEX
  5
250E
  8
ESTERNO
 10
281.760577532813727
 20
179.1880604785864932
 30
0.0
 42
0.0130907170848356
  0
VERTEX
  5
250F
  8
ESTERNO
 10
280.0446447811481221
 20
178.3879078956059061
 30
0.0
 42
0.1129830516329582
  0
VERTEX
  5
2510
  8
ESTERNO
 10
280.7689968643188081
 20
175.0091599409668959
 30
0.0
 42
0.0087268677907584
  0
VERTEX
  5
2511
  8
ESTERNO
 10
279.7668028895689076
 20
174.4536347494515951
 30
0.0
 42
0.0087268677907589
  0
VERTEX
  5
2512
  8
ESTERNO
 10
278.7846069739056247
 20
173.8634719035597982
 30
0.0
 42
0.0926255526910737
  0
VERTEX
  5
2513
  8
ESTERNO
 10
276.2207014537888199
 20
176.1801531861891874
 30
0.0
 42
0.0130907170848356
  0
VERTEX
  5
2514
  8
ESTERNO
 10
274.6697826141909786
 20
175.0941881235513904
 30
0.0
 42
0.1129830516329582
  0
VERTEX
  5
2515
  8
ESTERNO
 10
275.9698435867268245
 20
171.8925533615804966
 30
0.0
 42
0.0087268677907584
  0
VERTEX
  5
2516
  8
ESTERNO
 10
275.0793411275258222
 20
171.171438688598613
 30
0.0
 42
0.0087268677907589
  0
VERTEX
  5
2517
  8
ESTERNO
 10
274.2145476775195903
 20
170.4196852115576917
 30
0.0
 42
0.0926255526910737
  0
VERTEX
  5
2518
  8
ESTERNO
 10
271.2873061603540918
 20
172.2559533786709949
 30
0.0
 42
0.0130907170848356
  0
VERTEX
  5
2519
  8
ESTERNO
 10
269.9485251169624007
 20
170.917172335279389
 30
0.0
 42
0.1129830516329582
  0
VERTEX
  5
251A
  8
ESTERNO
 10
271.7847932840758176
 20
167.9899308181138906
 30
0.0
 42
0.0087268677907584
  0
VERTEX
  5
251B
  8
ESTERNO
 10
271.0330398070303772
 20
167.1251373681022017
 30
0.0
 42
0.0087268677907589
  0
VERTEX
  5
251C
  8
ESTERNO
 10
270.3119251340527853
 20
166.2346349089065995
 30
0.0
 42
0.0926255526910737
  0
VERTEX
  5
251D
  8
ESTERNO
 10
267.1102903720819768
 20
167.5346958814425022
 30
0.0
 42
0.0130907170848356
  0
VERTEX
  5
251E
  8
ESTERNO
 10
266.0243253094441798
 20
165.9837770418446894
 30
0.0
 42
0.1129830516329582
  0
VERTEX
  5
251F
  8
ESTERNO
 10
268.3410065920737111
 20
163.419871521727913
 30
0.0
 42
0.0087268677907584
  0
VERTEX
  5
2520
  8
ESTERNO
 10
267.7508437461781909
 20
162.437675606058292
 30
0.0
 42
0.0087268677907589
  0
VERTEX
  5
2521
  8
ESTERNO
 10
267.1953185546665281
 20
161.4354816313147865
 30
0.0
 42
0.0926255526910737
  0
VERTEX
  5
2522
  8
ESTERNO
 10
263.8165706000273758
 20
162.1598337144853872
 30
0.0
 42
0.0130907170848356
  0
VERTEX
  5
2523
  8
ESTERNO
 10
263.0164180170467034
 20
160.4439009628198107
 30
0.0
 42
0.1129830516329582
  0
VERTEX
  5
2524
  8
ESTERNO
 10
265.743121226716994
 20
158.3212344115815995
 30
0.0
 42
0.0087268677907584
  0
VERTEX
  5
2525
  8
ESTERNO
 10
265.3324808114073221
 20
157.2514795561370136
 30
0.0
 42
0.0087268677907589
  0
VERTEX
  5
2526
  8
ESTERNO
 10
264.959424453195993
 20
156.1680452226331965
 30
0.0
 42
0.0926255526910737
  0
VERTEX
  5
2527
  8
ESTERNO
 10
261.506224852761477
 20
156.2946793449312963
 30
0.0
 42
0.0130907170848356
  0
VERTEX
  5
2528
  8
ESTERNO
 10
261.0161969807750779
 20
154.4658704295532914
 30
0.0
 42
0.1129830516329582
  0
VERTEX
  5
2529
  8
ESTERNO
 10
264.0700726202385908
 20
152.848938996232107
 30
0.0
 42
0.0087268677907584
  0
VERTEX
  5
252A
  8
ESTERNO
 10
263.8514317367399258
 20
151.7241291609728933
 30
0.0
 42
0.0087268677907589
  0
VERTEX
  5
252B
  8
ESTERNO
 10
263.6721793404975074
 20
150.5923740726883011
 30
0.0
 42
0.0926255526910737
  0
VERTEX
  5
252C
  8
ESTERNO
 10
260.2494518167234787
 20
150.1174425203876979
 30
0.0
 42
0.0130907170848356
  0
VERTEX
  5
252D
  8
ESTERNO
 10
260.0844379046556014
 20
148.2313248747692001
 30
0.0
 42
0.1129830516329582
  0
VERTEX
  5
252E
  8
ESTERNO
 10
263.3726955079429786
 20
147.1692582027596075
 30
0.0
 42
0.0087268677907584
  0
VERTEX
  5
252F
  8
ESTERNO
 10
263.3526974488627275
 20
146.0235701653487865
 30
0.0
 42
0.0087268677907589
  0
VERTEX
  5
2530
  8
ESTERNO
 10
263.3726955079429786
 20
144.8778821279452131
 30
0.0
 42
0.0926255526910737
  0
VERTEX
  5
2531
  8
ESTERNO
 10
260.0844379046556014
 20
143.8158154559355921
 30
0.0
 42
0.0130907170848356
  0
VERTEX
  5
2532
  8
ESTERNO
 10
260.2494518167234219
 20
141.9296978103170943
 30
0.0
 42
0.1129830516329582
  0
VERTEX
  5
2533
  8
ESTERNO
 10
263.6721793404975074
 20
141.4547662580164911
 30
0.0
 42
0.0087268677907584
  0
VERTEX
  5
2534
  8
ESTERNO
 10
263.8514317367410058
 20
140.3230111697247935
 30
0.0
 42
0.0087268677907589
  0
VERTEX
  5
2535
  8
ESTERNO
 10
264.0700726202385908
 20
139.1982013344725999
 30
0.0
 42
0.0926255526910737
  0
VERTEX
  5
2536
  8
ESTERNO
 10
261.0161969807750211
 20
137.5812699011513871
 30
0.0
 42
0.0130907170848356
  0
VERTEX
  5
2537
  8
ESTERNO
 10
261.5062248527613065
 20
135.7524609857734958
 30
0.0
 42
0.1129830516329582
  0
VERTEX
  5
2538
  8
ESTERNO
 10
264.9594244531958793
 20
135.8790951080715104
 30
0.0
 42
0.0087268677907584
  0
VERTEX
  5
2539
  8
ESTERNO
 10
265.3324808114095958
 20
134.7956607745610995
 30
0.0
 42
0.0087268677907589
  0
VERTEX
  5
253A
  8
ESTERNO
 10
265.7431212267168235
 20
133.7259059191231074
 30
0.0
 42
0.0926255526910737
  0
VERTEX
  5
253B
  8
ESTERNO
 10
263.0164180170465897
 20
131.6032393678850099
 30
0.0
 42
0.0130907170848356
  0
VERTEX
  5
253C
  8
ESTERNO
 10
263.816570600027319
 20
129.8873066162192913
 30
0.0
 42
0.1129830516329582
  0
VERTEX
  5
253D
  8
ESTERNO
 10
267.1953185546664145
 20
130.6116586993900057
 30
0.0
 42
0.0087268677907584
  0
VERTEX
  5
253E
  8
ESTERNO
 10
267.7508437461816015
 20
129.6094647246401053
 30
0.0
 42
0.0087268677907589
  0
VERTEX
  5
253F
  8
ESTERNO
 10
268.3410065920734269
 20
128.6272688089767939
 30
0.0
 42
0.0926255526910737
  0
VERTEX
  5
2540
  8
ESTERNO
 10
266.0243253094438955
 20
126.0633632888600033
 30
0.0
 42
0.0130907170848356
  0
VERTEX
  5
2541
  8
ESTERNO
 10
267.1102903720818063
 20
124.5124444492622047
 30
0.0
 42
0.1129830516329582
  0
VERTEX
  5
2542
  8
ESTERNO
 10
270.3119251340526716
 20
125.8125054217980932
 30
0.0
 42
0.0087268677907584
  0
VERTEX
  5
2543
  8
ESTERNO
 10
271.033039807034811
 20
124.9220029625971051
 30
0.0
 42
0.0087268677907589
  0
VERTEX
  5
2544
  8
ESTERNO
 10
271.7847932840754765
 20
124.0572095125908021
 30
0.0
 42
0.0926255526910737
  0
VERTEX
  5
2545
  8
ESTERNO
 10
269.948525116962287
 20
121.1299679954253037
 30
0.0
 42
0.0130907170848356
  0
VERTEX
  5
2546
  8
ESTERNO
 10
271.2873061603539213
 20
119.7911869520336978
 30
0.0
 42
0.1129830516329582
  0
VERTEX
  5
2547
  8
ESTERNO
 10
274.2145476775194197
 20
121.627455119147001
 30
0.0
 42
0.0087268677907584
  0
VERTEX
  5
2548
  8
ESTERNO
 10
275.079341127530995
 20
120.8757016421016033
 30
0.0
 42
0.0087268677907589
  0
VERTEX
  5
2549
  8
ESTERNO
 10
275.9698435867267108
 20
120.1545869691240966
 30
0.0
 42
0.0926255526910737
  0
VERTEX
  5
254A
  8
ESTERNO
 10
274.6697826141908081
 20
116.9529522071533023
 30
0.0
 42
0.0130907170848356
  0
VERTEX
  5
254B
  8
ESTERNO
 10
276.2207014537884788
 20
115.8669871445154058
 30
0.0
 42
0.1129830516329582
  0
VERTEX
  5
254C
  8
ESTERNO
 10
278.7846069739052837
 20
118.1836684271448945
 30
0.0
 42
0.0087268677907584
  0
VERTEX
  5
254D
  8
ESTERNO
 10
279.7668028895747057
 20
117.5935055812495023
 30
0.0
 42
0.0087268677907589
  0
VERTEX
  5
254E
  8
ESTERNO
 10
280.7689968643184102
 20
117.0379803897376974
 30
0.0
 42
0.0926255526910737
  0
VERTEX
  5
254F
  8
ESTERNO
 10
280.044644781147781
 20
113.6592324350987013
 30
0.0
 42
0.0130907170848356
  0
VERTEX
  5
2550
  8
ESTERNO
 10
281.7605775328134996
 20
112.8590798521180005
 30
0.0
 42
0.1129830516329582
  0
VERTEX
  5
2551
  8
ESTERNO
 10
283.8832440840516256
 20
115.5857830617882058
 30
0.0
 42
0.0087268677907584
  0
VERTEX
  5
2552
  8
ESTERNO
 10
284.9529989394961831
 20
115.175142646478605
 30
0.0
 42
0.0087268677907589
  0
VERTEX
  5
2553
  8
ESTERNO
 10
286.0364332730000001
 20
114.8020862882672048
 30
0.0
 42
0.0926255526910737
  0
VERTEX
  5
2554
  8
ESTERNO
 10
285.9097991507018719
 20
111.348886687832703
 30
0.0
 42
0.0130907170848356
  0
VERTEX
  5
2555
  8
ESTERNO
 10
287.7386080660800189
 20
110.858858815846304
 30
0.0
 42
0.1129830516329582
  0
VERTEX
  5
2556
  8
ESTERNO
 10
289.3555394994011749
 20
113.9127344553099022
 30
0.0
 42
0.0087268677907584
  0
VERTEX
  5
2557
  8
ESTERNO
 10
290.480349334660275
 20
113.694093571811095
 30
0.0
 42
0.0087268677907589
  0
VERTEX
  5
2558
  8
ESTERNO
 10
291.6121044229449808
 20
113.514841175568705
 30
0.0
 42
0.0926255526910737
  0
VERTEX
  5
2559
  8
ESTERNO
 10
292.0870359752456125
 20
110.0921136517947048
 30
0.0
 42
0.0130907170848356
  0
VERTEX
  5
255A
  8
ESTERNO
 10
293.9731536208640819
 20
109.9270997397268985
 30
0.0
 42
0.1129830516329582
  0
VERTEX
  5
255B
  8
ESTERNO
 10
295.0352202928737029
 20
113.2153573430143041
 30
0.0
 42
0.0087268677907584
  0
VERTEX
  5
255C
  8
ESTERNO
 10
296.1809083302844101
 20
113.1953592839338967
 30
0.0
 42
0.0087268677907589
  0
VERTEX
  5
255D
  8
ESTERNO
 10
297.3265963676881256
 20
113.2153573430143041
 30
0.0
 42
0.0926255526910737
  0
VERTEX
  5
255E
  8
ESTERNO
 10
298.3886630396975761
 20
109.927099739726799
 30
0.0
 42
0.0130907170848356
  0
VERTEX
  5
255F
  8
ESTERNO
 10
300.2747806853161023
 20
110.0921136517947048
 30
0.0
 42
0.1129830516329582
  0
VERTEX
  5
2560
  8
ESTERNO
 10
300.7497122376166772
 20
113.514841175568705
 30
0.0
 42
0.0087268677907584
  0
VERTEX
  5
2561
  8
ESTERNO
 10
301.8814673259083747
 20
113.6940935718124024
 30
0.0
 42
0.0087268677907589
  0
VERTEX
  5
2562
  8
ESTERNO
 10
303.0062771611605967
 20
113.9127344553098027
 30
0.0
 42
0.0926255526910737
  0
VERTEX
  5
2563
  8
ESTERNO
 10
304.6232085944815822
 20
110.858858815846304
 30
0.0
 42
0.0130907170848356
  0
VERTEX
  5
2564
  8
ESTERNO
 10
306.4520175098596724
 20
111.3488866878326036
 30
0.0
 42
0.1129830516329582
  0
VERTEX
  5
2565
  8
ESTERNO
 10
306.3253833875617147
 20
114.8020862882671054
 30
0.0
 42
0.0087268677907584
  0
VERTEX
  5
2566
  8
ESTERNO
 10
307.4088177210721824
 20
115.1751426464808929
 30
0.0
 42
0.0087268677907589
  0
VERTEX
  5
2567
  8
ESTERNO
 10
308.4785725765100892
 20
115.5857830617881064
 30
0.0
 42
0.0926255526910737
  0
VERTEX
  5
2568
  8
ESTERNO
 10
310.601239127748272
 20
112.8590798521179011
 30
0.0
 42
0.0130907170848356
  0
VERTEX
  5
2569
  8
ESTERNO
 10
312.3171718794138769
 20
113.6592324350985024
 30
0.0
 42
0.1129830516329582
  0
VERTEX
  5
256A
  8
ESTERNO
 10
311.5928197962431909
 20
117.0379803897375979
 30
0.0
 42
0.0087268677907584
  0
VERTEX
  5
256B
  8
ESTERNO
 10
312.5950137709932051
 20
117.5935055812528987
 30
0.0
 42
0.0087268677907589
  0
VERTEX
  5
256C
  8
ESTERNO
 10
313.577209686656488
 20
118.1836684271446956
 30
0.0
 42
0.0926255526910737
  0
VERTEX
  5
256D
  8
ESTERNO
 10
316.1411152067732928
 20
115.8669871445152069
 30
0.0
 42
0.0130907170848356
  0
VERTEX
  5
256E
  8
ESTERNO
 10
317.6920340463710772
 20
116.9529522071531034
 30
0.0
 42
0.1129830516329582
  0
VERTEX
  5
256F
  8
ESTERNO
 10
316.3919730738351745
 20
120.1545869691239972
 30
0.0
 42
0.0087268677907584
  0
VERTEX
  5
2570
  8
ESTERNO
 10
317.2824755330361199
 20
120.8757016421059944
 30
0.0
 42
0.0087268677907589
  0
VERTEX
  5
2571
  8
ESTERNO
 10
318.1472689830425224
 20
121.6274551191468021
 30
0.0
 42
0.0926255526910737
  0
VERTEX
  5
2572
  8
ESTERNO
 10
321.0745105002080209
 20
119.7911869520334989
 30
0.0
 42
0.0130907170848356
  0
VERTEX
  5
2573
  8
ESTERNO
 10
322.4132915435995983
 20
121.1299679954251047
 30
0.0
 42
0.1129830516329582
  0
VERTEX
  5
2574
  8
ESTERNO
 10
320.5770233764861246
 20
124.0572095125906031
 30
0.0
 42
0.0087268677907584
  0
VERTEX
  5
2575
  8
ESTERNO
 10
321.3287768535316786
 20
124.9220029626023063
 30
0.0
 42
0.0087268677907589
  0
VERTEX
  5
2576
  8
ESTERNO
 10
322.0498915265091
 20
125.8125054217978942
 30
0.0
 42
0.0926255526910737
  0
VERTEX
  5
2577
  8
ESTERNO
 10
325.2515262884799085
 20
124.5124444492620057
 30
0.0
 42
0.0130907170848356
  0
VERTEX
  5
2578
  8
ESTERNO
 10
326.3374913511178192
 20
126.0633632888598044
 30
0.0
 42
0.1129830516329582
  0
VERTEX
  5
2579
  8
ESTERNO
 10
324.0208100684882879
 20
128.627268808976595
 30
0.0
 42
0.0087268677907584
  0
VERTEX
  5
257A
  8
ESTERNO
 10
324.6109729143835807
 20
129.6094647246461022
 30
0.0
 42
0.0087268677907589
  0
VERTEX
  5
257B
  8
ESTERNO
 10
325.1664981058955846
 20
130.6116586993896931
 30
0.0
 42
0.0926255526910737
  0
VERTEX
  5
257C
  8
ESTERNO
 10
328.5452460605346232
 20
129.8873066162190923
 30
0.0
 42
0.0130907170848356
  0
VERTEX
  5
257D
  8
ESTERNO
 10
329.3453986435152956
 20
131.6032393678846972
 30
0.0
 42
0.1129830516329582
  0
VERTEX
  5
257E
  8
ESTERNO
 10
326.618695433845005
 20
133.7259059191229085
 30
0.0
 42
0.0087268677907584
  0
VERTEX
  5
257F
  8
ESTERNO
 10
327.0293358491546201
 20
134.7956607745674944
 30
0.0
 42
0.0087268677907589
  0
VERTEX
  5
2580
  8
ESTERNO
 10
327.4023922073661197
 20
135.8790951080713114
 30
0.0
 42
0.0926255526910737
  0
VERTEX
  5
2581
  8
ESTERNO
 10
330.8555918078005789
 20
135.7524609857732116
 30
0.0
 42
0.0130907170848356
  0
VERTEX
  5
2582
  8
ESTERNO
 10
331.3456196797869211
 20
137.5812699011511029
 30
0.0
 42
0.1129830516329582
  0
VERTEX
  5
2583
  8
ESTERNO
 10
328.2917440403231808
 20
139.198201334472401
 30
0.0
 42
0.0087268677907584
  0
VERTEX
  5
2584
  8
ESTERNO
 10
328.5103849238220164
 20
140.3230111697315863
 30
0.0
 42
0.0087268677907589
  0
VERTEX
  5
2585
  8
ESTERNO
 10
328.6896373200644916
 20
141.4547662580162921
 30
0.0
 42
0.0926255526910737
  0
VERTEX
  5
2586
  8
ESTERNO
 10
332.1123648438385203
 20
141.9296978103168101
 30
0.0
 42
0.0130907170848356
  0
VERTEX
  5
2587
  8
ESTERNO
 10
332.2773787559063976
 20
143.8158154559353079
 30
0.0
 42
0.1129830516329582
  0
VERTEX
  5
2588
  8
ESTERNO
 10
328.9891211526187931
 20
144.8778821279449005
 30
0.0
 42
0.0087268677907584
  0
VERTEX
  5
2589
  8
ESTERNO
 10
329.0091192116993284
 20
146.023570165355693
 30
0.0
 42
0.0087268677907589
  0
VERTEX
  5
258A
  8
ESTERNO
 10
328.9891211526190204
 20
147.1692582027592948
 30
0.0
 42
0.0926255526910737
  0
VERTEX
  5
258B
  8
ESTERNO
 10
332.2773787559063976
 20
148.2313248747688021
 30
0.0
 42
0.0130907170848356
  0
VERTEX
  5
258C
  8
ESTERNO
 10
332.1123648438385771
 20
150.1174425203874137
 30
0.0
 42
0.1129830516329582
  0
VERTEX
  5
258D
  8
ESTERNO
 10
328.6896373200644916
 20
150.5923740726879885
 30
0.0
 42
0.0087268677907584
  0
VERTEX
  5
258E
  8
ESTERNO
 10
328.5103849238208795
 20
151.7241291609796008
 30
0.0
 42
0.0087268677907589
  0
VERTEX
  5
258F
  8
ESTERNO
 10
328.2917440403234082
 20
152.8489389962317944
 30
0.0
 42
0.0926255526910737
  0
VERTEX
  5
2590
  8
ESTERNO
 10
331.3456196797869211
 20
154.4658704295528935
 30
0.0
 42
0.0130907170848356
  0
VERTEX
  5
2591
  8
ESTERNO
 10
330.8555918078005789
 20
156.2946793449310121
 30
0.0
 42
0.1129830516329582
  0
VERTEX
  5
2592
  8
ESTERNO
 10
327.4023922073661197
 20
156.1680452226329123
 30
0.0
 42
0.0087268677907584
  0
VERTEX
  5
2593
  8
ESTERNO
 10
327.0293358491521758
 20
157.2514795561434084
 30
0.0
 42
0.0087268677907589
  0
VERTEX
  5
2594
  8
ESTERNO
 10
326.6186954338451187
 20
158.3212344115814005
 30
0.0
 42
0.0926255526910737
  0
VERTEX
  5
2595
  8
ESTERNO
 10
329.3453986435152956
 20
160.4439009628194981
 30
0.0
 42
0.0130907170848356
  0
VERTEX
  5
2596
  8
ESTERNO
 10
328.5452460605346801
 20
162.159833714485103
 30
0.0
 42
0.1129830516329582
  0
VERTEX
  5
2597
  8
ESTERNO
 10
325.1664981058956982
 20
161.4354816313145022
 30
0.0
 42
0.0087268677907584
  0
VERTEX
  5
2598
  8
ESTERNO
 10
324.6109729143802269
 20
162.437675606064289
 30
0.0
 42
0.0087268677907589
  0
VERTEX
  5
2599
  8
ESTERNO
 10
324.0208100684885153
 20
163.4198715217276003
 30
0.0
 42
0.0926255526910737
  0
VERTEX
  5
259A
  8
ESTERNO
 10
326.3374913511178761
 20
165.9837770418444052
 30
0.0
 42
0.0130907170848356
  0
VERTEX
  5
259B
  8
ESTERNO
 10
325.2515262884800791
 20
167.5346958814421896
 30
0.0
 42
0.1129830516329582
  0
VERTEX
  5
259C
  8
ESTERNO
 10
322.0498915265093274
 20
166.2346349089062869
 30
0.0
 42
0.0087268677907584
  0
VERTEX
  5
259D
  8
ESTERNO
 10
321.3287768535273017
 20
167.1251373681074028
 30
0.0
 42
0.0087268677907589
  0
VERTEX
  5
259E
  8
ESTERNO
 10
320.5770233764864088
 20
167.9899308181138053
 30
0.0
 42
0.0926255526910737
  0
VERTEX
  5
259F
  8
ESTERNO
 10
322.4132915435998257
 20
170.9171723352791901
 30
0.0
 42
0.0130907170848356
  0
VERTEX
  5
25A0
  8
ESTERNO
 10
321.0745105002080777
 20
172.2559533786707959
 30
0.0
 42
0.1129830516329582
  0
VERTEX
  5
25A1
  8
ESTERNO
 10
318.1472689830425224
 20
170.4196852115574927
 30
0.0
 42
0.0087268677907584
  0
VERTEX
  5
25A2
  8
ESTERNO
 10
317.2824755330308903
 20
171.1714386886029047
 30
0.0
 42
0.0087268677907589
  0
VERTEX
  5
25A3
  8
ESTERNO
 10
316.3919730738352882
 20
171.8925533615804113
 30
0.0
 42
0.0926255526910737
  0
VERTEX
  5
25A4
  8
ESTERNO
 10
317.6920340463713046
 20
175.0941881235511914
 30
0.0
 42
0.0130907170848356
  0
VERTEX
  5
25A5
  8
ESTERNO
 10
316.1411152067734065
 20
176.1801531861891021
 30
0.0
 42
0.1129830516329582
  0
VERTEX
  5
25A6
  8
ESTERNO
 10
313.5772096866566017
 20
173.8634719035595992
 30
0.0
 42
0.0087268677907584
  0
VERTEX
  5
25A7
  8
ESTERNO
 10
312.5950137709871797
 20
174.4536347494550057
 30
0.0
 42
0.0087268677907589
  0
VERTEX
  5
25A8
  8
ESTERNO
 10
311.5928197962434751
 20
175.0091599409668106
 30
0.0
 42
0.0926255526910737
  0
VERTEX
  5
25A9
  8
ESTERNO
 10
312.3171718794141043
 20
178.3879078956059061
 30
0.0
 42
0.0130907170848356
  0
VERTEX
  5
25AA
  8
ESTERNO
 10
310.6012391277484994
 20
179.1880604785864932
 30
0.0
 42
0.1129830516329582
  0
VERTEX
  5
25AB
  8
ESTERNO
 10
308.4785725765103734
 20
176.4613572689162879
 30
0.0
 42
0.0087268677907584
  0
VERTEX
  5
25AC
  8
ESTERNO
 10
307.4088177210658159
 20
176.871997684225903
 30
0.0
 42
0.0087268677907589
  0
VERTEX
  5
25AD
  8
ESTERNO
 10
306.3253833875619989
 20
177.2450540424372889
 30
0.0
 42
0.0926255526910737
  0
VERTEX
  5
25AE
  8
ESTERNO
 10
306.4520175098601271
 20
180.6982536428718049
 30
0.0
 42
0.0130907170848356
  0
VERTEX
  5
25AF
  8
ESTERNO
 10
304.6232085944820938
 20
181.188281514858204
 30
0.0
 42
0.1129830516329582
  0
VERTEX
  5
25B0
  8
ESTERNO
 10
303.006277161160881
 20
178.1344058753946058
 30
0.0
 42
0.0087268677907584
  0
VERTEX
  5
25B1
  8
ESTERNO
 10
301.8814673259017241
 20
178.3530467588932993
 30
0.0
 42
0.0087268677907589
  0
VERTEX
  5
25B2
  8
ESTERNO
 10
300.7497122376169045
 20
178.5322991551356893
 30
0.0
 42
0.0926255526910737
  0
VERTEX
  5
25B3
  8
ESTERNO
 10
300.2747806853165002
 20
181.9550266789098032
 30
0.0
 42
0.0130907170848356
  0
VERTEX
  5
25B4
  8
ESTERNO
 10
298.388663039697974
 20
182.1200405909775952
 30
0.0
 42
0.1129830516329582
  0
VERTEX
  5
25B5
  8
ESTERNO
 10
297.3265963676881825
 20
178.8317829876901044
 30
0.0
 42
0.0087268677907584
  0
VERTEX
  5
25B6
  8
ESTERNO
 10
296.1809083302775889
 20
178.8517810467706113
 30
0.0
 42
0.0087268677907589
  0
VERTEX
  5
25B7
  8
ESTERNO
 10
295.0352202928738734
 20
178.8317829876901897
 30
0.0
 42
0.0926255526910737
  0
VERTEX
  5
25B8
  8
ESTERNO
 10
293.9731536208643092
 20
182.1200405909775952
 30
0.0
 42
0.0130907170848356
  0
VERTEX
  5
25B9
  8
ESTERNO
 10
292.0870359752457261
 20
181.9550266789098032
 30
0.0
 42
0.1129830516329582
  0
VERTEX
  5
25BA
  8
ESTERNO
 10
291.6121044229452082
 20
178.5322991551356893
 30
0.0
 42
0.0087268677907584
  0
SEQEND
  5
25BB
  8
ESTERNO
  0
CIRCLE
  5
222A
  8
0
 10
212.7805033472060927
 20
88.2555647563827392
 30
0.0
 40
1.5
  0
CIRCLE
  5
222B
  8
0
 10
212.7805033472060927
 20
57.2555647563827392
 30
0.0
 40
1.5
  0
CIRCLE
  5
222C
  8
0
 10
181.7805033472060927
 20
88.2555647563827392
 30
0.0
 40
1.5
  0
CIRCLE
  5
222D
  8
0
 10
181.7805033472060927
 20
57.2555647563827392
 30
0.0
 40
1.5
  0
CIRCLE
  5
222E
  8
0
 10
197.2805033472060927
 20
72.7555647563827392
 30
0.0
 40
11.5
  0
POLYLINE
  5
2231
  8
0
 66
     1
 10
0.0
 20
0.0
 30
0.0
 70
     1
  0
VERTEX
  5
2738
  8
0
 10
279.760644358356501
 20
48.5805647562906415
 30
0.0
  0
VERTEX
  5
2739
  8
0
 10
279.760644358356501
 20
43.7305647562906188
 30
0.0
  0
VERTEX
  5
273A
  8
0
 10
283.6106443583569217
 20
43.7305647562906188
 30
0.0
  0
VERTEX
  5
273B
  8
0
 10
283.6106443583569217
 20
48.5805647562906415
 30
0.0
  0
SEQEND
  5
273C
  8
0
  0
POLYLINE
  5
2232
  8
0
 66
     1
 10
0.0
 20
0.0
 30
0.0
 70
     1
  0
VERTEX
  5
273D
  8
0
 10
279.760644358356501
 20
12.5305647562906799
 30
0.0
  0
VERTEX
  5
273E
  8
0
 10
279.760644358356501
 20
17.3805647562907097
 30
0.0
  0
VERTEX
  5
273F
  8
0
 10
283.6106443583569217
 20
17.3805647562907097
 30
0.0
  0
VERTEX
  5
2740
  8
0
 10
283.6106443583569217
 20
12.5305647562906799
 30
0.0
  0
SEQEND
  5
2741
  8
0
  0
POLYLINE
  5
2233
  8
0
 66
     1
 10
0.0
 20
0.0
 30
0.0
 70
     1
  0
VERTEX
  5
2742
  8
0
 10
279.760644358356501
 20
35.4805647562906827
 30
0.0
  0
VERTEX
  5
2743
  8
0
 10
283.6106443583569217
 20
35.4805647562906827
 30
0.0
  0
VERTEX
  5
2744
  8
0
 10
283.6106443583569217
 20
25.6305647562906493
 30
0.0
  0
VERTEX
  5
2745
  8
0
 10
279.760644358356501
 20
25.6305647562906493
 30
0.0
  0
SEQEND
  5
2746
  8
0
  0
POLYLINE
  5
2234
  8
0
 66
     1
 10
0.0
 20
0.0
 30
0.0
 70
     1
  0
VERTEX
  5
2747
  8
0
 10
160.1805033472062121
 20
85.9055647563827165
 30
0.0
  0
VERTEX
  5
2748
  8
0
 10
160.1805033472062121
 20
77.7055647563827137
 30
0.0
  0
VERTEX
  5
2749
  8
0
 10
156.1805033472062121
 20
77.7055647563827137
 30
0.0
  0
VERTEX
  5
274A
  8
0
 10
156.1805033472062121
 20
67.5889901468466832
 30
0.0
  0
VERTEX
  5
274B
  8
0
 10
160.1805033472062121
 20
67.5889901468466832
 30
0.0
  0
VERTEX
  5
274C
  8
0
 10
160.1805033472062121
 20
59.605564756382762
 30
0.0
  0
VERTEX
  5
274D
  8
0
 10
156.1805033472062121
 20
59.605564756382762
 30
0.0
  0
VERTEX
  5
274E
  8
0
 10
156.1805033472062121
 20
54.7055647563827918
 30
0.0
  0
VERTEX
  5
274F
  8
0
 10
160.1805033472062121
 20
54.7055647563827918
 30
0.0
  0
VERTEX
  5
2750
  8
0
 10
160.1805033472062121
 20
51.6555647563827733
 30
0.0
  0
VERTEX
  5
2751
  8
0
 10
213.6245135057172035
 20
51.6555647563827733
 30
0.0
  0
VERTEX
  5
2752
  8
0
 10
218.380503347206087
 20
56.6555647563827733
 30
0.0
  0
VERTEX
  5
2753
  8
0
 10
218.380503347206087
 20
89.0995749148936511
 30
0.0
  0
VERTEX
  5
2754
  8
0
 10
213.380503347206087
 20
93.8555647563827051
 30
0.0
  0
VERTEX
  5
2755
  8
0
 10
160.1805033472062121
 20
93.8555647563827051
 30
0.0
  0
VERTEX
  5
2756
  8
0
 10
160.1805033472062121
 20
90.8055647563826938
 30
0.0
  0
VERTEX
  5
2757
  8
0
 10
156.1805033472062121
 20
90.8055647563826938
 30
0.0
  0
VERTEX
  5
2758
  8
0
 10
156.1805033472062121
 20
85.9055647563827165
 30
0.0
  0
SEQEND
  5
2759
  8
0
  0
POLYLINE
  5
2237
  8
0
 66
     1
 10
0.0
 20
0.0
 30
0.0
 70
     1
  0
VERTEX
  5
275A
  8
0
 10
225.122508433949605
 20
48.5805647563656677
 30
0.0
  0
VERTEX
  5
275B
  8
0
 10
225.122508433935991
 20
43.7305647563656521
 30
0.0
  0
VERTEX
  5
275C
  8
0
 10
221.2725084339361104
 20
43.7305647563762818
 30
0.0
  0
VERTEX
  5
275D
  8
0
 10
221.2725084339496959
 20
48.5805647563762975
 30
0.0
  0
SEQEND
  5
275E
  8
0
  0
POLYLINE
  5
2238
  8
0
 66
     1
 10
0.0
 20
0.0
 30
0.0
 70
     1
  0
VERTEX
  5
275F
  8
0
 10
225.1225084338504985
 20
12.5305647563657203
 30
0.0
  0
VERTEX
  5
2760
  8
0
 10
225.1225084338641977
 20
17.3805647563657395
 30
0.0
  0
VERTEX
  5
2761
  8
0
 10
221.2725084338638055
 20
17.3805647563763692
 30
0.0
  0
VERTEX
  5
2762
  8
0
 10
221.2725084338501063
 20
12.53056475637635
 30
0.0
  0
SEQEND
  5
2763
  8
0
  0
POLYLINE
  5
2239
  8
0
 66
     1
 10
0.0
 20
0.0
 30
0.0
 70
     1
  0
VERTEX
  5
2764
  8
0
 10
225.1225084339131968
 20
35.4805647563657089
 30
0.0
  0
VERTEX
  5
2765
  8
0
 10
221.2725084339137993
 20
35.4805647563762818
 30
0.0
  0
VERTEX
  5
2766
  8
0
 10
221.272508433886486
 20
25.6305647563762591
 30
0.0
  0
VERTEX
  5
2767
  8
0
 10
225.1225084338863951
 20
25.6305647563656898
 30
0.0
  0
SEQEND
  5
2768
  8
0
  0
POLYLINE
  5
223A
  8
0
 66
     1
 10
0.0
 20
0.0
 30
0.0
 70
     1
  0
VERTEX
  5
2769
  8
0
 10
276.5805033472864238
 20
85.9055647562227591
 30
0.0
  0
VERTEX
  5
276A
  8
0
 10
276.5805033472635728
 20
77.7055647562228131
 30
0.0
  0
VERTEX
  5
276B
  8
0
 10
280.5805033472636865
 20
77.7055647562117997
 30
0.0
  0
VERTEX
  5
276C
  8
0
 10
280.58050334723589
 20
67.588990146675755
 30
0.0
  0
VERTEX
  5
276D
  8
0
 10
276.58050334723589
 20
67.58899014668674
 30
0.0
  0
VERTEX
  5
276E
  8
0
 10
276.5805033472140053
 20
59.6055647562227975
 30
0.0
  0
VERTEX
  5
276F
  8
0
 10
280.5805033472140053
 20
59.6055647562118267
 30
0.0
  0
VERTEX
  5
2770
  8
0
 10
280.5805033472004197
 20
54.7055647562118565
 30
0.0
  0
VERTEX
  5
2771
  8
0
 10
276.5805033472004197
 20
54.7055647562228273
 30
0.0
  0
VERTEX
  5
2772
  8
0
 10
276.5805033471921774
 20
51.6555647562228089
 30
0.0
  0
VERTEX
  5
2773
  8
0
 10
223.136493188681186
 20
51.6555647563696994
 30
0.0
  0
VERTEX
  5
2774
  8
0
 10
218.380503347206087
 20
56.6555647563827733
 30
0.0
  0
VERTEX
  5
2775
  8
0
 10
218.3805033472951891
 20
89.0995749148936511
 30
0.0
  0
VERTEX
  5
2776
  8
0
 10
223.3805033473084052
 20
93.8555647563689348
 30
0.0
  0
VERTEX
  5
2777
  8
0
 10
276.5805033473081949
 20
93.8555647562228046
 30
0.0
  0
VERTEX
  5
2778
  8
0
 10
276.5805033473000094
 20
90.8055647562227364
 30
0.0
  0
VERTEX
  5
2779
  8
0
 10
280.5805033473000094
 20
90.8055647562117656
 30
0.0
  0
VERTEX
  5
277A
  8
0
 10
280.5805033472864238
 20
85.9055647562117883
 30
0.0
  0
SEQEND
  5
277B
  8
0
  0
CIRCLE
  5
223B
  8
0
 10
239.4805033472505045
 20
72.7555647563247589
 30
0.0
 40
1.5
  0
POLYLINE
  5
223D
  8
0
 66
     1
 10
0.0
 20
0.0
 30
0.0
 70
     1
  0
VERTEX
  5
277C
  8
0
 10
252.441576396099407
 20
9.4555647562906984
 30
0.0
  0
VERTEX
  5
277D
  8
0
 10
218.8704112170806013
 20
9.4555647563829552
 30
0.0
  0
VERTEX
  5
277E
  8
0
 10
218.870411217196505
 20
51.655564756382887
 30
0.0
  0
VERTEX
  5
277F
  8
0
 10
252.4415763961575863
 20
51.6555647562906302
 30
0.0
  0
VERTEX
  5
2780
  8
0
 10
286.012741575118298
 20
51.6555647562906302
 30
0.0
  0
VERTEX
  5
2781
  8
0
 10
286.012741575118298
 20
9.4555647562906984
 30
0.0
  0
SEQEND
  5
2782
  8
0
  0
CIRCLE
  5
2244
  8
0
 10
193.5755510402663049
 20
168.1982043786246095
 30
0.0
 40
1.5
  0
POLYLINE
  5
2247
  8
0
 66
     1
 10
0.0
 20
0.0
 30
0.0
 70
     1
  0
VERTEX
  5
2783
  8
0
 10
214.6755510402554989
 20
164.2982043784980135
 30
0.0
 42
0.4142135623741007
  0
VERTEX
  5
2784
  8
0
 10
194.6755510402417997
 20
184.2982043785530948
 30
0.0
  0
VERTEX
  5
2785
  8
0
 10
192.4755510402416121
 20
184.2982043785513042
 30
0.0
 42
0.4142135623720937
  0
VERTEX
  5
2786
  8
0
 10
172.4755510402549987
 20
164.2982043786066981
 30
0.0
  0
VERTEX
  5
2787
  8
0
 10
172.4755510401643903
 20
131.0982043786829081
 30
0.0
  0
VERTEX
  5
2788
  8
0
 10
175.5255510401644017
 20
131.0982043786746942
 30
0.0
  0
VERTEX
  5
2789
  8
0
 10
175.5255510401534025
 20
127.0982043786746942
 30
0.0
  0
VERTEX
  5
278A
  8
0
 10
180.4255510401534082
 20
127.098204378660995
 30
0.0
  0
VERTEX
  5
278B
  8
0
 10
180.4255510401644074
 20
131.098204378660995
 30
0.0
  0
VERTEX
  5
278C
  8
0
 10
188.4089764306282859
 20
131.0982043786391955
 30
0.0
  0
VERTEX
  5
278D
  8
0
 10
188.4089764306172867
 20
127.0982043786391955
 30
0.0
  0
VERTEX
  5
278E
  8
0
 10
198.5255510401532888
 20
127.0982043786114986
 30
0.0
  0
VERTEX
  5
278F
  8
0
 10
198.5255510401644017
 20
131.0982043786115128
 30
0.0
  0
VERTEX
  5
2790
  8
0
 10
206.725551040164305
 20
131.0982043785886901
 30
0.0
  0
VERTEX
  5
2791
  8
0
 10
206.7255510401533058
 20
127.0982043785887043
 30
0.0
  0
VERTEX
  5
2792
  8
0
 10
211.6255510401533115
 20
127.0982043785751046
 30
0.0
  0
VERTEX
  5
2793
  8
0
 10
211.6255510401643107
 20
131.0982043785751046
 30
0.0
  0
VERTEX
  5
2794
  8
0
 10
214.6755510401644074
 20
131.0982043785668907
 30
0.0
  0
SEQEND
  5
2795
  8
0
  0
LINE
  5
2248
  8
0
 10
214.6755510403100971
 20
184.1131845433066019
 30
0.0
 11
214.6755510403100971
 21
184.1131845433066019
 31
0.0
  0
POLYLINE
  5
2249
  8
0
 66
     1
 10
0.0
 20
0.0
 30
0.0
 70
     1
  0
VERTEX
  5
2796
  8
0
 10
214.675551040255101
 20
164.1131845432375087
 30
0.0
 42
-0.4142135623741007
  0
VERTEX
  5
2797
  8
0
 10
234.6755510403787923
 20
184.1131845431829106
 30
0.0
  0
VERTEX
  5
2798
  8
0
 10
236.8755510403790083
 20
184.1131845431692966
 30
0.0
 42
-0.4142135623720937
  0
VERTEX
  5
2799
  8
0
 10
256.8755510402556865
 20
164.1131845431141869
 30
0.0
  0
VERTEX
  5
279A
  8
0
 10
256.8755510401638276
 20
130.9131845431903116
 30
0.0
  0
VERTEX
  5
279B
  8
0
 10
253.8255510401639015
 20
130.9131845431990087
 30
0.0
  0
VERTEX
  5
279C
  8
0
 10
253.8255510401527886
 20
126.9131845431989944
 30
0.0
  0
VERTEX
  5
279D
  8
0
 10
248.9255510401528966
 20
126.9131845432121963
 30
0.0
  0
VERTEX
  5
279E
  8
0
 10
248.9255510401638958
 20
130.9131845432121963
 30
0.0
  0
VERTEX
  5
279F
  8
0
 10
240.9421256496999035
 20
130.9131845432345074
 30
0.0
  0
VERTEX
  5
27A0
  8
0
 10
240.9421256496889043
 20
126.9131845432344932
 30
0.0
  0
VERTEX
  5
27A1
  8
0
 10
230.8255510401529023
 20
126.9131845432622043
 30
0.0
  0
VERTEX
  5
27A2
  8
0
 10
230.8255510401639015
 20
130.9131845432621901
 30
0.0
  0
VERTEX
  5
27A3
  8
0
 10
222.6255510401639128
 20
130.9131845432848991
 30
0.0
  0
VERTEX
  5
27A4
  8
0
 10
222.6255510401529136
 20
126.9131845432848991
 30
0.0
  0
VERTEX
  5
27A5
  8
0
 10
217.7255510401529079
 20
126.9131845432981009
 30
0.0
  0
VERTEX
  5
27A6
  8
0
 10
217.7255510401639071
 20
130.9131845432980867
 30
0.0
  0
VERTEX
  5
27A7
  8
0
 10
214.6755510401638958
 20
130.9131845433068122
 30
0.0
  0
SEQEND
  5
27A8
  8
0
  0
POLYLINE
  5
224A
  8
0
 66
     1
 10
0.0
 20
0.0
 30
0.0
 70
     1
  0
VERTEX
  5
27A9
  8
0
 10
239.9225084339479963
 20
48.0805647564029073
 30
0.0
  0
VERTEX
  5
27AA
  8
0
 10
239.9225084339479963
 20
44.2305647564025435
 30
0.0
  0
VERTEX
  5
27AB
  8
0
 10
230.1725084339483942
 20
44.2305647564025435
 30
0.0
  0
VERTEX
  5
27AC
  8
0
 10
230.1725084339483942
 20
48.0805647564029073
 30
0.0
  0
SEQEND
  5
27AD
  8
0
  0
POLYLINE
  5
224C
  8
0
 66
     1
 10
0.0
 20
0.0
 30
0.0
 70
     1
  0
VERTEX
  5
27AE
  8
0
 10
271.5805033471922911
 20
90.2805647562038303
 30
0.0
  0
VERTEX
  5
27AF
  8
0
 10
260.5805033471921774
 20
90.2805647562038303
 30
0.0
  0
VERTEX
  5
27B0
  8
0
 10
260.5805033471921774
 20
86.4305647562034665
 30
0.0
  0
VERTEX
  5
27B1
  8
0
 10
271.5805033471922911
 20
86.4305647562034665
 30
0.0
  0
SEQEND
  5
27B2
  8
0
  0
POLYLINE
  5
224D
  8
0
 66
     1
 10
0.0
 20
0.0
 30
0.0
 70
     1
  0
VERTEX
  5
27B3
  8
0
 10
271.580503347106287
 20
59.0805647562120271
 30
0.0
  0
VERTEX
  5
27B4
  8
0
 10
260.580503347106287
 20
59.0805647562120271
 30
0.0
  0
VERTEX
  5
27B5
  8
0
 10
260.580503347106287
 20
55.2305647562116633
 30
0.0
  0
VERTEX
  5
27B6
  8
0
 10
271.580503347106287
 20
55.2305647562116633
 30
0.0
  0
SEQEND
  5
27B7
  8
0
  0
POLYLINE
  5
224E
  8
0
 66
     1
 10
0.0
 20
0.0
 30
0.0
 70
     1
  0
VERTEX
  5
27B8
  8
0
 10
165.180503347322599
 20
90.280564756494968
 30
0.0
  0
VERTEX
  5
27B9
  8
0
 10
176.180503347322599
 20
90.280564756494968
 30
0.0
  0
VERTEX
  5
27BA
  8
0
 10
176.180503347322599
 20
86.4305647564946185
 30
0.0
  0
VERTEX
  5
27BB
  8
0
 10
165.180503347322599
 20
86.4305647564946185
 30
0.0
  0
SEQEND
  5
27BC
  8
0
  0
POLYLINE
  5
224F
  8
0
 66
     1
 10
0.0
 20
0.0
 30
0.0
 70
     1
  0
VERTEX
  5
27BD
  8
0
 10
165.1805033474086031
 20
59.0805647565031791
 30
0.0
  0
VERTEX
  5
27BE
  8
0
 10
176.1805033474086031
 20
59.0805647565031791
 30
0.0
  0
VERTEX
  5
27BF
  8
0
 10
176.1805033474086031
 20
55.2305647565028224
 30
0.0
  0
VERTEX
  5
27C0
  8
0
 10
165.1805033474086031
 20
55.2305647565028224
 30
0.0
  0
SEQEND
  5
27C1
  8
0
  0
POLYLINE
  5
2251
  8
0
 66
     1
 10
0.0
 20
0.0
 30
0.0
 70
     1
  0
VERTEX
  5
27C2
  8
0
 10
264.9606443583468263
 20
48.0805647563341267
 30
0.0
  0
VERTEX
  5
27C3
  8
0
 10
264.9606443583259079
 20
44.2305647563337629
 30
0.0
  0
VERTEX
  5
27C4
  8
0
 10
274.71064435832551
 20
44.2305647562801525
 30
0.0
  0
VERTEX
  5
27C5
  8
0
 10
274.7106443583464284
 20
48.0805647562805305
 30
0.0
  0
SEQEND
  5
27C6
  8
0
  0
POLYLINE
  5
2252
  8
0
 66
     1
 10
0.0
 20
0.0
 30
0.0
 70
     1
  0
VERTEX
  5
27C7
  8
0
 10
239.9225084339479963
 20
13.0305647563629297
 30
0.0
  0
VERTEX
  5
27C8
  8
0
 10
239.9225084339479963
 20
16.8805647563632988
 30
0.0
  0
VERTEX
  5
27C9
  8
0
 10
230.1725084339483942
 20
16.8805647563632988
 30
0.0
  0
VERTEX
  5
27CA
  8
0
 10
230.1725084339483942
 20
13.0305647563629297
 30
0.0
  0
SEQEND
  5
27CB
  8
0
  0
POLYLINE
  5
2253
  8
0
 66
     1
 10
0.0
 20
0.0
 30
0.0
 70
     1
  0
VERTEX
  5
27CC
  8
0
 10
264.9606443583468263
 20
13.0305647564317102
 30
0.0
  0
VERTEX
  5
27CD
  8
0
 10
264.9606443583259079
 20
16.8805647564320793
 30
0.0
  0
VERTEX
  5
27CE
  8
0
 10
274.71064435832551
 20
16.8805647564856791
 30
0.0
  0
VERTEX
  5
27CF
  8
0
 10
274.7106443583464284
 20
13.0305647564853206
 30
0.0
  0
SEQEND
  5
27D0
  8
0
  0
POLYLINE
  5
2254
  8
0
 66
     1
 10
0.0
 20
0.0
 30
0.0
 70
     1
  0
VERTEX
  5
27D1
  8
0
 10
218.250551040040591
 20
135.9131845433649914
 30
0.0
  0
VERTEX
  5
27D2
  8
0
 10
218.250551040040591
 20
146.9131845433649914
 30
0.0
  0
VERTEX
  5
27D3
  8
0
 10
222.100551040040898
 20
146.9131845433649914
 30
0.0
  0
VERTEX
  5
27D4
  8
0
 10
222.100551040040898
 20
135.9131845433649914
 30
0.0
  0
SEQEND
  5
27D5
  8
0
  0
POLYLINE
  5
2255
  8
0
 66
     1
 10
0.0
 20
0.0
 30
0.0
 70
     1
  0
VERTEX
  5
27D6
  8
0
 10
249.4505510400323089
 20
135.9131845434509103
 30
0.0
  0
VERTEX
  5
27D7
  8
0
 10
249.4505510400323089
 20
146.9131845434509103
 30
0.0
  0
VERTEX
  5
27D8
  8
0
 10
253.3005510400327012
 20
146.9131845434509103
 30
0.0
  0
VERTEX
  5
27D9
  8
0
 10
253.3005510400327012
 20
135.9131845434509103
 30
0.0
  0
SEQEND
  5
27DA
  8
0
  0
POLYLINE
  5
2256
  8
0
 66
     1
 10
0.0
 20
0.0
 30
0.0
 70
     1
  0
VERTEX
  5
27DB
  8
0
 10
211.1005510401708136
 20
136.0982043786351028
 30
0.0
  0
VERTEX
  5
27DC
  8
0
 10
211.1005510402011112
 20
147.0982043786351028
 30
0.0
  0
VERTEX
  5
27DD
  8
0
 10
207.2505510402006905
 20
147.0982043786455904
 30
0.0
  0
VERTEX
  5
27DE
  8
0
 10
207.250551040170393
 20
136.0982043786455904
 30
0.0
  0
SEQEND
  5
27DF
  8
0
  0
POLYLINE
  5
2257
  8
0
 66
     1
 10
0.0
 20
0.0
 30
0.0
 70
     1
  0
VERTEX
  5
27E0
  8
0
 10
179.9005510401788968
 20
136.0982043788069973
 30
0.0
  0
VERTEX
  5
27E1
  8
0
 10
179.900551040209308
 20
147.0982043788069973
 30
0.0
  0
VERTEX
  5
27E2
  8
0
 10
176.0505510402088873
 20
147.0982043788179112
 30
0.0
  0
VERTEX
  5
27E3
  8
0
 10
176.0505510401785898
 20
136.0982043788179112
 30
0.0
  0
SEQEND
  5
27E4
  8
0
  0
POLYLINE
  5
225D
  8
0
 66
     1
 10
0.0
 20
0.0
 30
0.0
 70
     1
  0
VERTEX
  5
27E5
  8
0
 10
288.6694013506028114
 20
16.1079560617992001
 30
0.0
  0
VERTEX
  5
27E6
  8
0
 10
292.6694013506028114
 20
16.1079560617992001
 30
0.0
  0
VERTEX
  5
27E7
  8
0
 10
292.6694013506028114
 20
11.1079560617132493
 30
0.0
  0
VERTEX
  5
27E8
  8
0
 10
297.6694013506028114
 20
11.1079560617132493
 30
0.0
  0
VERTEX
  5
27E9
  8
0
 10
297.6694013506028114
 20
7.107956061713252
 30
0.0
  0
VERTEX
  5
27EA
  8
0
 10
308.6694013506028114
 20
7.107956061713252
 30
0.0
  0
VERTEX
  5
27EB
  8
0
 10
308.6694013506028114
 20
11.1079560617132493
 30
0.0
  0
VERTEX
  5
27EC
  8
0
 10
308.6694013506028114
 20
61.5460919862194871
 30
0.0
  0
VERTEX
  5
27ED
  8
0
 10
297.6694013506028114
 20
61.5460919862194871
 30
0.0
  0
VERTEX
  5
27EE
  8
0
 10
297.6694013506028114
 20
57.5460919862194871
 30
0.0
  0
VERTEX
  5
27EF
  8
0
 10
292.6694013506028114
 20
57.5460919862194871
 30
0.0
  0
VERTEX
  5
27F0
  8
0
 10
292.6694013506028114
 20
52.5460919861335469
 30
0.0
  0
VERTEX
  5
27F1
  8
0
 10
288.6694013506028114
 20
52.5460919861335469
 30
0.0
  0
VERTEX
  5
27F2
  8
0
 10
288.6694013506028114
 20
41.5460919860544209
 30
0.0
  0
VERTEX
  5
27F3
  8
0
 10
292.6694013506028114
 20
41.5460919860544209
 30
0.0
  0
VERTEX
  5
27F4
  8
0
 10
292.6694013506028114
 20
27.1079560619660889
 30
0.0
  0
VERTEX
  5
27F5
  8
0
 10
288.6694013506028114
 20
27.1079560619660889
 30
0.0
  0
SEQEND
  5
27F6
  8
0
  0
INSERT
  5
225F
  8
0
  2
*U43
 10
365.4917298960760945
 20
-178.9137683944713046
 30
0.0
 50
90.0
  0
CIRCLE
  5
2289
  8
0
 10
252.4415763961613095
 20
30.5555647562488311
 30
0.0
 40
2.0
  0
POLYLINE
  5
228A
  8
0
 66
     1
 10
0.0
 20
0.0
 30
0.0
 70
     1
  0
VERTEX
  5
2801
  8
0
 10
162.9983284078649035
 20
121.0595064263740994
 30
0.0
  0
VERTEX
  5
2802
  8
0
 10
162.9983284078649035
 20
125.0595064263740994
 30
0.0
  0
VERTEX
  5
2803
  8
0
 10
172.8483284078648126
 20
125.0595064263740994
 30
0.0
  0
VERTEX
  5
2804
  8
0
 10
172.8483284078648126
 20
121.0595064263740994
 30
0.0
  0
VERTEX
  5
2805
  8
0
 10
197.7864643322733116
 20
121.0595064263740994
 30
0.0
  0
VERTEX
  5
2806
  8
0
 10
197.7864643322733116
 20
125.0595064263739999
 30
0.0
  0
VERTEX
  5
2807
  8
0
 10
207.6364643322731922
 20
125.0595064263740994
 30
0.0
  0
VERTEX
  5
2808
  8
0
 10
207.6364643322731922
 20
121.0595064263740994
 30
0.0
  0
VERTEX
  5
2809
  8
0
 10
212.6364643322717995
 20
121.0595064263740994
 30
0.0
  0
VERTEX
  5
280A
  8
0
 10
212.6364643322717995
 20
116.0595064263740994
 30
0.0
  0
VERTEX
  5
280B
  8
0
 10
216.6364643322717995
 20
116.0595064263740994
 30
0.0
  0
VERTEX
  5
280C
  8
0
 10
216.6364643322717995
 20
110.2970650737665039
 30
0.0
  0
VERTEX
  5
280D
  8
0
 10
153.9983284078653014
 20
110.2970650737666034
 30
0.0
  0
VERTEX
  5
280E
  8
0
 10
153.9983284078653014
 20
116.0595064263740994
 30
0.0
  0
VERTEX
  5
280F
  8
0
 10
157.9983284078653014
 20
116.0595064263740994
 30
0.0
  0
VERTEX
  5
2810
  8
0
 10
157.9983284078653014
 20
121.0595064263740994
 30
0.0
  0
SEQEND
  5
2811
  8
0
  0
POLYLINE
  5
2292
  8
0
 66
     1
 10
0.0
 20
0.0
 30
0.0
 70
     1
  0
VERTEX
  5
2812
  8
0
 10
268.8186392717287276
 20
113.8555647563689064
 30
0.0
  0
VERTEX
  5
2813
  8
0
 10
268.8186392717287276
 20
109.8555647563689064
 30
0.0
  0
VERTEX
  5
2814
  8
0
 10
273.818639271814618
 20
109.8555647563689064
 30
0.0
  0
VERTEX
  5
2815
  8
0
 10
273.818639271814618
 20
104.8555647563689064
 30
0.0
  0
VERTEX
  5
2816
  8
0
 10
277.818639271814618
 20
104.8555647563689064
 30
0.0
  0
VERTEX
  5
2817
  8
0
 10
277.818639271814618
 20
93.8555647563689348
 30
0.0
  0
VERTEX
  5
2818
  8
0
 10
273.818639271814618
 20
93.8555647563689348
 30
0.0
  0
VERTEX
  5
2819
  8
0
 10
223.3805033473084052
 20
93.8555647563689348
 30
0.0
  0
VERTEX
  5
281A
  8
0
 10
223.3805033473084052
 20
104.8555647563689064
 30
0.0
  0
VERTEX
  5
281B
  8
0
 10
227.3805033473084052
 20
104.8555647563689064
 30
0.0
  0
VERTEX
  5
281C
  8
0
 10
227.3805033473084052
 20
109.8555647563689064
 30
0.0
  0
VERTEX
  5
281D
  8
0
 10
232.3805033473942956
 20
109.8555647563689064
 30
0.0
  0
VERTEX
  5
281E
  8
0
 10
232.3805033473942956
 20
113.8555647563689064
 30
0.0
  0
VERTEX
  5
281F
  8
0
 10
243.3805033474733932
 20
113.8555647563689064
 30
0.0
  0
VERTEX
  5
2820
  8
0
 10
243.3805033474733932
 20
109.8555647563689064
 30
0.0
  0
VERTEX
  5
2821
  8
0
 10
257.8186392715617785
 20
109.8555647563689064
 30
0.0
  0
VERTEX
  5
2822
  8
0
 10
257.8186392715617785
 20
113.8555647563689064
 30
0.0
  0
SEQEND
  5
2823
  8
0
  0
POLYLINE
  5
2296
  8
0
 66
     1
 10
0.0
 20
0.0
 30
0.0
 70
     1
  0
VERTEX
  5
2824
  8
0
 10
162.9983284078647898
 20
99.5346237211590648
 30
0.0
  0
VERTEX
  5
2825
  8
0
 10
162.9983284078647898
 20
95.5346237211590648
 30
0.0
  0
VERTEX
  5
2826
  8
0
 10
172.8483284078646989
 20
95.5346237211590221
 30
0.0
  0
VERTEX
  5
2827
  8
0
 10
172.8483284078646989
 20
99.5346237211590221
 30
0.0
  0
VERTEX
  5
2828
  8
0
 10
197.7864643322731979
 20
99.5346237211590221
 30
0.0
  0
VERTEX
  5
2829
  8
0
 10
197.7864643322731979
 20
95.5346237211590648
 30
0.0
  0
VERTEX
  5
282A
  8
0
 10
207.6364643322731069
 20
95.5346237211590221
 30
0.0
  0
VERTEX
  5
282B
  8
0
 10
207.6364643322731069
 20
99.5346237211590221
 30
0.0
  0
VERTEX
  5
282C
  8
0
 10
212.6364643322717995
 20
99.5346237211590221
 30
0.0
  0
VERTEX
  5
282D
  8
0
 10
212.6364643322717995
 20
104.5346237211589937
 30
0.0
  0
VERTEX
  5
282E
  8
0
 10
216.6364643322717995
 20
104.5346237211589937
 30
0.0
  0
VERTEX
  5
282F
  8
0
 10
216.6364643322717995
 20
110.2970650737665039
 30
0.0
  0
VERTEX
  5
2830
  8
0
 10
153.9983284078653014
 20
110.2970650737666034
 30
0.0
  0
VERTEX
  5
2831
  8
0
 10
153.9983284078653014
 20
104.5346237211589937
 30
0.0
  0
VERTEX
  5
2832
  8
0
 10
157.9983284078653014
 20
104.5346237211589937
 30
0.0
  0
VERTEX
  5
2833
  8
0
 10
157.9983284078653014
 20
99.5346237211590648
 30
0.0
  0
SEQEND
  5
2834
  8
0
  0
POLYLINE
  5
22B4
  8
ESTERNO
 66
     1
 10
0.0
 20
0.0
 30
0.0
 70
     1
  0
VERTEX
  5
2839
  8
ESTERNO
 10
3.954445507990612
 20
186.177791050268695
 30
0.0
  0
VERTEX
  5
283A
  8
ESTERNO
 10
336.4208720916810762
 20
186.177791050268695
 30
0.0
  0
VERTEX
  5
283B
  8
ESTERNO
 10
336.4208720916810762
 20
5.865721347930843
 30
0.0
  0
VERTEX
  5
283C
  8
ESTERNO
 10
3.954445507990612
 20
5.865721347930843
 30
0.0
  0
SEQEND
  5
283D
  8
ESTERNO
  0
ENDSEC
  0
EOF
