  0
SECTION
  2
HEADER
  9
$ACADVER
  1
AC1021
  9
$ACADMAINTVER
 70
    25
  9
$DWGCODEPAGE
  3
ANSI_1252
  9
$INSBASE
 10
0.0
 20
0.0
 30
0.0
  9
$EXTMIN
 10
-29.77813
 20
5.43561
 30
0.0
  9
$EXTMAX
 10
-8.92599
 20
14.74087
 30
0.0
  9
$LIMMIN
 10
0.0
 20
0.0
  9
$LIMMAX
 10
12.0
 20
9.0
  9
$ORTHOMODE
 70
     0
  9
$REGENMODE
 70
     1
  9
$FILLMODE
 70
     1
  9
$QTEXTMODE
 70
     0
  9
$MIRRTEXT
 70
     1
  9
$LTSCALE
 40
1.0
  9
$ATTMODE
 70
     1
  9
$TEXTSIZE
 40
0.2
  9
$TRACEWID
 40
0.05
  9
$TEXTSTYLE
  7
Standard
  9
$CLAYER
  8
0
  9
$CELTYPE
  6
ByLayer
  9
$CECOLOR
 62
   256
  9
$CELTSCALE
 40
1.0
  9
$DISPSILH
 70
     0
  9
$DIMSCALE
 40
1.0
  9
$DIMASZ
 40
0.18
  9
$DIMEXO
 40
0.0625
  9
$DIMDLI
 40
0.38
  9
$DIMRND
 40
0.0
  9
$DIMDLE
 40
0.0
  9
$DIMEXE
 40
0.18
  9
$DIMTP
 40
0.0
  9
$DIMTM
 40
0.0
  9
$DIMTXT
 40
0.18
  9
$DIMCEN
 40
0.09
  9
$DIMTSZ
 40
0.0
  9
$DIMTOL
 70
     0
  9
$DIMLIM
 70
     0
  9
$DIMTIH
 70
     1
  9
$DIMTOH
 70
     1
  9
$DIMSE1
 70
     0
  9
$DIMSE2
 70
     0
  9
$DIMTAD
 70
     0
  9
$DIMZIN
 70
     0
  9
$DIMBLK
  1

  9
$DIMASO
 70
     1
  9
$DIMSHO
 70
     1
  9
$DIMPOST
  1

  9
$DIMAPOST
  1

  9
$DIMALT
 70
     0
  9
$DIMALTD
 70
     2
  9
$DIMALTF
 40
25.4
  9
$DIMLFAC
 40
1.0
  9
$DIMTOFL
 70
     0
  9
$DIMTVP
 40
0.0
  9
$DIMTIX
 70
     0
  9
$DIMSOXD
 70
     0
  9
$DIMSAH
 70
     0
  9
$DIMBLK1
  1

  9
$DIMBLK2
  1

  9
$DIMSTYLE
  2
Standard
  9
$DIMCLRD
 70
     0
  9
$DIMCLRE
 70
     0
  9
$DIMCLRT
 70
     0
  9
$DIMTFAC
 40
1.0
  9
$DIMGAP
 40
0.09
  9
$DIMJUST
 70
     0
  9
$DIMSD1
 70
     0
  9
$DIMSD2
 70
     0
  9
$DIMTOLJ
 70
     1
  9
$DIMTZIN
 70
     0
  9
$DIMALTZ
 70
     0
  9
$DIMALTTZ
 70
     0
  9
$DIMUPT
 70
     0
  9
$DIMDEC
 70
     4
  9
$DIMTDEC
 70
     4
  9
$DIMALTU
 70
     2
  9
$DIMALTTD
 70
     2
  9
$DIMTXSTY
  7
Standard
  9
$DIMAUNIT
 70
     0
  9
$DIMADEC
 70
     0
  9
$DIMALTRND
 40
0.0
  9
$DIMAZIN
 70
     0
  9
$DIMDSEP
 70
    46
  9
$DIMATFIT
 70
     3
  9
$DIMFRAC
 70
     0
  9
$DIMLDRBLK
  1

  9
$DIMLUNIT
 70
     2
  9
$DIMLWD
 70
    -2
  9
$DIMLWE
 70
    -2
  9
$DIMTMOVE
 70
     0
  9
$DIMFXL
 40
1.0
  9
$DIMFXLON
 70
     0
  9
$DIMJOGANG
 40
0.7853981633974483
  9
$DIMTFILL
 70
     0
  9
$DIMTFILLCLR
 70
     0
  9
$DIMARCSYM
 70
     0
  9
$DIMLTYPE
  6

  9
$DIMLTEX1
  6

  9
$DIMLTEX2
  6

  9
$LUNITS
 70
     2
  9
$LUPREC
 70
     4
  9
$SKETCHINC
 40
0.1
  9
$FILLETRAD
 40
0.5
  9
$AUNITS
 70
     0
  9
$AUPREC
 70
     0
  9
$MENU
  1
.
  9
$ELEVATION
 40
0.0
  9
$PELEVATION
 40
0.0
  9
$THICKNESS
 40
0.0
  9
$LIMCHECK
 70
     0
  9
$CHAMFERA
 40
0.0
  9
$CHAMFERB
 40
0.0
  9
$CHAMFERC
 40
0.0
  9
$CHAMFERD
 40
0.0
  9
$SKPOLY
 70
     0
  9
$TDCREATE
 40
2457809.492348472
  9
$TDUCREATE
 40
2457809.367348472
  9
$TDUPDATE
 40
2457809.49235118
  9
$TDUUPDATE
 40
2457809.36735118
  9
$TDINDWG
 40
0.0000000116
  9
$TDUSRTIMER
 40
0.0000000116
  9
$USRTIMER
 70
     1
  9
$ANGBASE
 50
0.0
  9
$ANGDIR
 70
     0
  9
$PDMODE
 70
     0
  9
$PDSIZE
 40
0.0
  9
$PLINEWID
 40
0.0
  9
$SPLFRAME
 70
     0
  9
$SPLINETYPE
 70
     6
  9
$SPLINESEGS
 70
     8
  9
$HANDSEED
  5
CB
  9
$SURFTAB1
 70
     6
  9
$SURFTAB2
 70
     6
  9
$SURFTYPE
 70
     6
  9
$SURFU
 70
     6
  9
$SURFV
 70
     6
  9
$UCSBASE
  2

  9
$UCSNAME
  2

  9
$UCSORG
 10
0.0
 20
0.0
 30
0.0
  9
$UCSXDIR
 10
1.0
 20
0.0
 30
0.0
  9
$UCSYDIR
 10
0.0
 20
1.0
 30
0.0
  9
$UCSORTHOREF
  2

  9
$UCSORTHOVIEW
 70
     0
  9
$UCSORGTOP
 10
0.0
 20
0.0
 30
0.0
  9
$UCSORGBOTTOM
 10
0.0
 20
0.0
 30
0.0
  9
$UCSORGLEFT
 10
0.0
 20
0.0
 30
0.0
  9
$UCSORGRIGHT
 10
0.0
 20
0.0
 30
0.0
  9
$UCSORGFRONT
 10
0.0
 20
0.0
 30
0.0
  9
$UCSORGBACK
 10
0.0
 20
0.0
 30
0.0
  9
$PUCSBASE
  2

  9
$PUCSNAME
  2

  9
$PUCSORG
 10
0.0
 20
0.0
 30
0.0
  9
$PUCSXDIR
 10
1.0
 20
0.0
 30
0.0
  9
$PUCSYDIR
 10
0.0
 20
1.0
 30
0.0
  9
$PUCSORTHOREF
  2

  9
$PUCSORTHOVIEW
 70
     0
  9
$PUCSORGTOP
 10
0.0
 20
0.0
 30
0.0
  9
$PUCSORGBOTTOM
 10
0.0
 20
0.0
 30
0.0
  9
$PUCSORGLEFT
 10
0.0
 20
0.0
 30
0.0
  9
$PUCSORGRIGHT
 10
0.0
 20
0.0
 30
0.0
  9
$PUCSORGFRONT
 10
0.0
 20
0.0
 30
0.0
  9
$PUCSORGBACK
 10
0.0
 20
0.0
 30
0.0
  9
$USERI1
 70
     0
  9
$USERI2
 70
     0
  9
$USERI3
 70
     0
  9
$USERI4
 70
     0
  9
$USERI5
 70
     0
  9
$USERR1
 40
0.0
  9
$USERR2
 40
0.0
  9
$USERR3
 40
0.0
  9
$USERR4
 40
0.0
  9
$USERR5
 40
0.0
  9
$WORLDVIEW
 70
     1
  9
$SHADEDGE
 70
     3
  9
$SHADEDIF
 70
    70
  9
$TILEMODE
 70
     1
  9
$MAXACTVP
 70
    64
  9
$PINSBASE
 10
0.0
 20
0.0
 30
0.0
  9
$PLIMCHECK
 70
     0
  9
$PEXTMIN
 10
1.000000000000000E+20
 20
1.000000000000000E+20
 30
1.000000000000000E+20
  9
$PEXTMAX
 10
-1.000000000000000E+20
 20
-1.000000000000000E+20
 30
-1.000000000000000E+20
  9
$PLIMMIN
 10
0.0
 20
0.0
  9
$PLIMMAX
 10
12.0
 20
9.0
  9
$UNITMODE
 70
     0
  9
$VISRETAIN
 70
     1
  9
$PLINEGEN
 70
     0
  9
$PSLTSCALE
 70
     1
  9
$TREEDEPTH
 70
  3020
  9
$CMLSTYLE
  2
Standard
  9
$CMLJUST
 70
     0
  9
$CMLSCALE
 40
1.0
  9
$PROXYGRAPHICS
 70
     1
  9
$MEASUREMENT
 70
     0
  9
$CELWEIGHT
370
    -1
  9
$ENDCAPS
280
     0
  9
$JOINSTYLE
280
     0
  9
$LWDISPLAY
290
     0
  9
$INSUNITS
 70
     5
  9
$HYPERLINKBASE
  1

  9
$STYLESHEET
  1

  9
$XEDIT
290
     1
  9
$CEPSNTYPE
380
     0
  9
$PSTYLEMODE
290
     1
  9
$FINGERPRINTGUID
  2
{EB7B08ED-EBC5-41DE-9CD3-6EC097051951}
  9
$VERSIONGUID
  2
{FAEB1C32-E019-11D5-929B-00C0DF256EC4}
  9
$EXTNAMES
290
     1
  9
$PSVPSCALE
 40
0.0
  9
$OLESTARTUP
290
     0
  9
$SORTENTS
280
   127
  9
$INDEXCTL
280
     0
  9
$HIDETEXT
280
     1
  9
$XCLIPFRAME
290
     0
  9
$HALOGAP
280
     0
  9
$OBSCOLOR
 70
   257
  9
$OBSLTYPE
280
     0
  9
$INTERSECTIONDISPLAY
280
     0
  9
$INTERSECTIONCOLOR
 70
   257
  9
$DIMASSOC
280
     2
  9
$PROJECTNAME
  1

  9
$CAMERADISPLAY
290
     0
  9
$LENSLENGTH
 40
50.0
  9
$CAMERAHEIGHT
 40
0.0
  9
$STEPSPERSEC
 40
2.0
  9
$STEPSIZE
 40
6.0
  9
$3DDWFPREC
 40
2.0
  9
$PSOLWIDTH
 40
0.25
  9
$PSOLHEIGHT
 40
4.0
  9
$LOFTANG1
 40
1.570796326794897
  9
$LOFTANG2
 40
1.570796326794897
  9
$LOFTMAG1
 40
0.0
  9
$LOFTMAG2
 40
0.0
  9
$LOFTPARAM
 70
     7
  9
$LOFTNORMALS
280
     1
  9
$LATITUDE
 40
37.795
  9
$LONGITUDE
 40
-122.394
  9
$NORTHDIRECTION
 40
0.0
  9
$TIMEZONE
 70
 -8000
  9
$LIGHTGLYPHDISPLAY
280
     1
  9
$TILEMODELIGHTSYNCH
280
     1
  9
$CMATERIAL
347
44
  9
$SOLIDHIST
280
     0
  9
$SHOWHIST
280
     1
  9
$DWFFRAME
280
     2
  9
$DGNFRAME
280
     2
  9
$REALWORLDSCALE
290
     1
  9
$INTERFERECOLOR
 62
   256
  9
$CSHADOW
280
     0
  9
$SHADOWPLANELOCATION
 40
0.0
  0
ENDSEC
  0
SECTION
  2
CLASSES
  0
CLASS
  1
ACDBDICTIONARYWDFLT
  2
AcDbDictionaryWithDefault
  3
ObjectDBX Classes
 90
        0
 91
        4
280
     0
281
     0
  0
CLASS
  1
VISUALSTYLE
  2
AcDbVisualStyle
  3
ObjectDBX Classes
 90
     4095
 91
        4
280
     0
281
     0
  0
CLASS
  1
MATERIAL
  2
AcDbMaterial
  3
ObjectDBX Classes
 90
     1153
 91
        4
280
     0
281
     0
  0
CLASS
  1
SCALE
  2
AcDbScale
  3
ObjectDBX Classes
 90
     1153
 91
        4
280
     0
281
     0
  0
CLASS
  1
TABLESTYLE
  2
AcDbTableStyle
  3
ObjectDBX Classes
 90
     4095
 91
        4
280
     0
281
     0
  0
CLASS
  1
MLEADERSTYLE
  2
AcDbMLeaderStyle
  3
ACDB_MLEADERSTYLE_CLASS
 90
     4095
 91
        4
280
     0
281
     0
  0
CLASS
  1
SUN
  2
AcDbSun
  3
SCENEOE
 90
     1153
 91
        4
280
     0
281
     0
  0
CLASS
  1
DICTIONARYVAR
  2
AcDbDictionaryVar
  3
ObjectDBX Classes
 90
        0
 91
        4
280
     0
281
     0
  0
CLASS
  1
CELLSTYLEMAP
  2
AcDbCellStyleMap
  3
ObjectDBX Classes
 90
     1152
 91
        4
280
     0
281
     0
  0
ENDSEC
  0
SECTION
  2
TABLES
  0
TABLE
  2
VPORT
  5
8
330
0
100
AcDbSymbolTable
 70
     1
  0
VPORT
  5
29
330
8
100
AcDbSymbolTableRecord
100
AcDbViewportTableRecord
  2
*Active
 70
     0
 10
0.0
 20
0.0
 11
1.0
 21
1.0
 12
10.42990654205607
 22
4.5
 13
0.0
 23
0.0
 14
0.5
 24
0.5
 15
0.5
 25
0.5
 16
0.0
 26
0.0
 36
1.0
 17
0.0
 27
0.0
 37
0.0
 40
9.0
 41
1.972972972850329
 42
50.0
 43
0.0
 44
0.0
 50
0.0
 51
0.0
 71
     0
 72
   100
 73
     1
 74
     3
 75
     0
 76
     0
 77
     0
 78
     0
281
     0
 65
     1
110
0.0
120
0.0
130
0.0
111
1.0
121
0.0
131
0.0
112
0.0
122
1.0
132
0.0
 79
     0
146
0.0
 60
     3
 61
     5
292
     1
282
     1
141
0.0
142
0.0
 63
   250
361
6D
  0
ENDTAB
  0
TABLE
  2
LTYPE
  5
5
330
0
100
AcDbSymbolTable
 70
     1
  0
LTYPE
  5
14
330
5
100
AcDbSymbolTableRecord
100
AcDbLinetypeTableRecord
  2
ByBlock
 70
     0
  3

 72
    65
 73
     0
 40
0.0
  0
LTYPE
  5
15
330
5
100
AcDbSymbolTableRecord
100
AcDbLinetypeTableRecord
  2
ByLayer
 70
     0
  3

 72
    65
 73
     0
 40
0.0
  0
LTYPE
  5
16
330
5
100
AcDbSymbolTableRecord
100
AcDbLinetypeTableRecord
  2
Continuous
 70
     0
  3
Solid line
 72
    65
 73
     0
 40
0.0
  0
ENDTAB
  0
TABLE
  2
LAYER
  5
2
330
0
100
AcDbSymbolTable
 70
     3
  0
LAYER
  5
10
330
2
100
AcDbSymbolTableRecord
100
AcDbLayerTableRecord
  2
0
 70
     0
 62
     7
  6
Continuous
370
    -3
390
F
347
46
  0
LAYER
  5
6F
330
2
100
AcDbSymbolTableRecord
100
AcDbLayerTableRecord
  2
Master Layer 2
 70
     4
 62
     7
  6
Continuous
370
    -3
390
F
347
46
  0
LAYER
  5
88
330
2
100
AcDbSymbolTableRecord
100
AcDbLayerTableRecord
  2
Layer 1
 70
     0
 62
     7
  6
Continuous
370
    -3
390
F
347
46
  0
ENDTAB
  0
TABLE
  2
STYLE
  5
3
330
0
100
AcDbSymbolTable
 70
     1
  0
STYLE
  5
11
330
3
100
AcDbSymbolTableRecord
100
AcDbTextStyleTableRecord
  2
Standard
 70
     0
 40
0.0
 41
1.0
 50
0.0
 71
     0
 42
0.2
  3
txt
  4

  0
ENDTAB
  0
TABLE
  2
VIEW
  5
6
330
0
100
AcDbSymbolTable
 70
     0
  0
ENDTAB
  0
TABLE
  2
UCS
  5
7
330
0
100
AcDbSymbolTable
 70
     0
  0
ENDTAB
  0
TABLE
  2
APPID
  5
9
330
0
100
AcDbSymbolTable
 70
     3
  0
APPID
  5
12
330
9
100
AcDbSymbolTableRecord
100
AcDbRegAppTableRecord
  2
ACAD
 70
     0
  0
APPID
  5
6E
330
9
100
AcDbSymbolTableRecord
100
AcDbRegAppTableRecord
  2
ODA
 70
     0
  0
APPID
  5
C3
330
9
100
AcDbSymbolTableRecord
100
AcDbRegAppTableRecord
  2
ACAD_MLEADERVER
 70
     0
  0
ENDTAB
  0
TABLE
  2
DIMSTYLE
  5
A
330
0
100
AcDbSymbolTable
 70
     1
100
AcDbDimStyleTable
  0
DIMSTYLE
105
27
330
A
100
AcDbSymbolTableRecord
100
AcDbDimStyleTableRecord
  2
Standard
 70
     0
178
     0
340
11
  0
ENDTAB
  0
TABLE
  2
BLOCK_RECORD
  5
1
330
0
100
AcDbSymbolTable
 70
     1
  0
BLOCK_RECORD
  5
1F
330
1
100
AcDbSymbolTableRecord
100
AcDbBlockTableRecord
  2
*Model_Space
340
22
 70
     0
280
     1
281
     0
  0
BLOCK_RECORD
  5
1B
330
1
100
AcDbSymbolTableRecord
100
AcDbBlockTableRecord
  2
*Paper_Space
340
1E
 70
     0
280
     1
281
     0
  0
BLOCK_RECORD
  5
23
330
1
100
AcDbSymbolTableRecord
100
AcDbBlockTableRecord
  2
*Paper_Space0
340
26
 70
     0
280
     1
281
     0
  0
ENDTAB
  0
ENDSEC
  0
SECTION
  2
BLOCKS
  0
BLOCK
  5
20
330
1F
100
AcDbEntity
  8
0
100
AcDbBlockBegin
  2
*Model_Space
 70
     0
 10
0.0
 20
0.0
 30
0.0
  3
*Model_Space
  1
*Model_Space
  0
ENDBLK
  5
21
330
1F
100
AcDbEntity
  8
0
100
AcDbBlockEnd
  0
BLOCK
  5
1C
330
1B
100
AcDbEntity
 67
     1
  8
0
100
AcDbBlockBegin
  2
*Paper_Space
 70
     0
 10
0.0
 20
0.0
 30
0.0
  3
*Paper_Space
  1
*Paper_Space
  0
ENDBLK
  5
1D
330
1B
100
AcDbEntity
 67
     1
  8
0
100
AcDbBlockEnd
  0
BLOCK
  5
24
330
23
100
AcDbEntity
  8
0
100
AcDbBlockBegin
  2
*Paper_Space0
 70
     0
 10
0.0
 20
0.0
 30
0.0
  3
*Paper_Space0
  1
*Paper_Space0
  0
ENDBLK
  5
25
330
23
100
AcDbEntity
  8
0
100
AcDbBlockEnd
  0
ENDSEC
  0
SECTION
  2
ENTITIES
  0
SPLINE
  5
70
330
1F
100
AcDbEntity
  8
Master Layer 2
 62
   250
370
     9
100
AcDbSpline
210
0.0
220
0.0
230
1.0
 70
    11
 71
     3
 72
    20
 73
    16
 74
     0
 42
0.000000001
 43
0.0000000001
 40
0.0
 40
0.0
 40
0.0
 40
0.0
 40
0.2
 40
0.2
 40
0.2
 40
0.2
 40
0.4
 40
0.4
 40
0.4
 40
0.4
 40
0.6
 40
0.6
 40
0.6
 40
0.6
 40
1.0
 40
1.0
 40
1.0
 40
1.0
 10
-25.70516
 20
14.1522
 30
0.0
 10
-24.76627
 20
14.1522
 30
0.0
 10
-24.00516
 20
13.39108
 30
0.0
 10
-24.00516
 20
12.4522
 30
0.0
 10
-24.00516
 20
12.4522
 30
0.0
 10
-24.00516
 20
11.51332
 30
0.0
 10
-24.76627
 20
10.7522
 30
0.0
 10
-25.70516
 20
10.7522
 30
0.0
 10
-25.70516
 20
10.7522
 30
0.0
 10
-26.64405
 20
10.7522
 30
0.0
 10
-27.40516
 20
11.51332
 30
0.0
 10
-27.40516
 20
12.4522
 30
0.0
 10
-27.40516
 20
12.4522
 30
0.0
 10
-27.40516
 20
13.39108
 30
0.0
 10
-26.64405
 20
14.1522
 30
0.0
 10
-25.70516
 20
14.1522
 30
0.0
  0
SPLINE
  5
71
330
1F
100
AcDbEntity
  8
Master Layer 2
 62
   250
370
     9
100
AcDbSpline
210
0.0
220
0.0
230
1.0
 70
    11
 71
     3
 72
    20
 73
    16
 74
     0
 42
0.000000001
 43
0.0000000001
 40
0.0
 40
0.0
 40
0.0
 40
0.0
 40
0.2
 40
0.2
 40
0.2
 40
0.2
 40
0.4
 40
0.4
 40
0.4
 40
0.4
 40
0.6
 40
0.6
 40
0.6
 40
0.6
 40
1.0
 40
1.0
 40
1.0
 40
1.0
 10
-25.55516
 20
13.5276
 30
0.0
 10
-25.55516
 20
13.5276
 30
0.0
 10
-25.55516
 20
12.8276
 30
0.0
 10
-25.55516
 20
12.8276
 30
0.0
 10
-25.55516
 20
12.8276
 30
0.0
 10
-25.55516
 20
12.8276
 30
0.0
 10
-25.85516
 20
12.8276
 30
0.0
 10
-25.85516
 20
12.8276
 30
0.0
 10
-25.85516
 20
12.8276
 30
0.0
 10
-25.85516
 20
12.8276
 30
0.0
 10
-25.85516
 20
13.5276
 30
0.0
 10
-25.85516
 20
13.5276
 30
0.0
 10
-25.85516
 20
13.5276
 30
0.0
 10
-25.85516
 20
13.5276
 30
0.0
 10
-25.55516
 20
13.5276
 30
0.0
 10
-25.55516
 20
13.5276
 30
0.0
  0
SPLINE
  5
72
330
1F
100
AcDbEntity
  8
Master Layer 2
 62
   250
370
     9
100
AcDbSpline
210
0.0
220
0.0
230
1.0
 70
    11
 71
     3
 72
    20
 73
    16
 74
     0
 42
0.000000001
 43
0.0000000001
 40
0.0
 40
0.0
 40
0.0
 40
0.0
 40
0.2
 40
0.2
 40
0.2
 40
0.2
 40
0.4
 40
0.4
 40
0.4
 40
0.4
 40
0.6
 40
0.6
 40
0.6
 40
0.6
 40
1.0
 40
1.0
 40
1.0
 40
1.0
 10
-24.62976
 20
12.3022
 30
0.0
 10
-24.62976
 20
12.3022
 30
0.0
 10
-25.32976
 20
12.3022
 30
0.0
 10
-25.32976
 20
12.3022
 30
0.0
 10
-25.32976
 20
12.3022
 30
0.0
 10
-25.32976
 20
12.3022
 30
0.0
 10
-25.32976
 20
12.6022
 30
0.0
 10
-25.32976
 20
12.6022
 30
0.0
 10
-25.32976
 20
12.6022
 30
0.0
 10
-25.32976
 20
12.6022
 30
0.0
 10
-24.62976
 20
12.6022
 30
0.0
 10
-24.62976
 20
12.6022
 30
0.0
 10
-24.62976
 20
12.6022
 30
0.0
 10
-24.62976
 20
12.6022
 30
0.0
 10
-24.62976
 20
12.3022
 30
0.0
 10
-24.62976
 20
12.3022
 30
0.0
  0
SPLINE
  5
73
330
1F
100
AcDbEntity
  8
Master Layer 2
 62
   250
370
     9
100
AcDbSpline
210
0.0
220
0.0
230
1.0
 70
    11
 71
     3
 72
    20
 73
    16
 74
     0
 42
0.000000001
 43
0.0000000001
 40
0.0
 40
0.0
 40
0.0
 40
0.0
 40
0.2
 40
0.2
 40
0.2
 40
0.2
 40
0.4
 40
0.4
 40
0.4
 40
0.4
 40
0.6
 40
0.6
 40
0.6
 40
0.6
 40
1.0
 40
1.0
 40
1.0
 40
1.0
 10
-25.85516
 20
11.3768
 30
0.0
 10
-25.85516
 20
11.3768
 30
0.0
 10
-25.85516
 20
12.0768
 30
0.0
 10
-25.85516
 20
12.0768
 30
0.0
 10
-25.85516
 20
12.0768
 30
0.0
 10
-25.85516
 20
12.0768
 30
0.0
 10
-25.55516
 20
12.0768
 30
0.0
 10
-25.55516
 20
12.0768
 30
0.0
 10
-25.55516
 20
12.0768
 30
0.0
 10
-25.55516
 20
12.0768
 30
0.0
 10
-25.55516
 20
11.3768
 30
0.0
 10
-25.55516
 20
11.3768
 30
0.0
 10
-25.55516
 20
11.3768
 30
0.0
 10
-25.55516
 20
11.3768
 30
0.0
 10
-25.85516
 20
11.3768
 30
0.0
 10
-25.85516
 20
11.3768
 30
0.0
  0
SPLINE
  5
74
330
1F
100
AcDbEntity
  8
Master Layer 2
 62
   250
370
     9
100
AcDbSpline
210
0.0
220
0.0
230
1.0
 70
    11
 71
     3
 72
    20
 73
    16
 74
     0
 42
0.000000001
 43
0.0000000001
 40
0.0
 40
0.0
 40
0.0
 40
0.0
 40
0.2
 40
0.2
 40
0.2
 40
0.2
 40
0.4
 40
0.4
 40
0.4
 40
0.4
 40
0.6
 40
0.6
 40
0.6
 40
0.6
 40
1.0
 40
1.0
 40
1.0
 40
1.0
 10
-26.78056
 20
12.6022
 30
0.0
 10
-26.78056
 20
12.6022
 30
0.0
 10
-26.08056
 20
12.6022
 30
0.0
 10
-26.08056
 20
12.6022
 30
0.0
 10
-26.08056
 20
12.6022
 30
0.0
 10
-26.08056
 20
12.6022
 30
0.0
 10
-26.08056
 20
12.3022
 30
0.0
 10
-26.08056
 20
12.3022
 30
0.0
 10
-26.08056
 20
12.3022
 30
0.0
 10
-26.08056
 20
12.3022
 30
0.0
 10
-26.78056
 20
12.3022
 30
0.0
 10
-26.78056
 20
12.3022
 30
0.0
 10
-26.78056
 20
12.3022
 30
0.0
 10
-26.78056
 20
12.3022
 30
0.0
 10
-26.78056
 20
12.6022
 30
0.0
 10
-26.78056
 20
12.6022
 30
0.0
  0
SPLINE
  5
75
330
1F
100
AcDbEntity
  8
Master Layer 2
 62
   250
370
     9
100
AcDbSpline
210
0.0
220
0.0
230
1.0
 70
    11
 71
     3
 72
   228
 73
   224
 74
     0
 42
0.000000001
 43
0.0000000001
 40
0.0
 40
0.0
 40
0.0
 40
0.0
 40
0.0175438596491228
 40
0.0175438596491228
 40
0.0175438596491228
 40
0.0175438596491228
 40
0.0350877192982456
 40
0.0350877192982456
 40
0.0350877192982456
 40
0.0350877192982456
 40
0.0526315789473684
 40
0.0526315789473684
 40
0.0526315789473684
 40
0.0526315789473684
 40
0.0701754385964912
 40
0.0701754385964912
 40
0.0701754385964912
 40
0.0701754385964912
 40
0.087719298245614
 40
0.087719298245614
 40
0.087719298245614
 40
0.087719298245614
 40
0.1052631578947368
 40
0.1052631578947368
 40
0.1052631578947368
 40
0.1052631578947368
 40
0.1228070175438596
 40
0.1228070175438596
 40
0.1228070175438596
 40
0.1228070175438596
 40
0.1403508771929824
 40
0.1403508771929824
 40
0.1403508771929824
 40
0.1403508771929824
 40
0.1578947368421053
 40
0.1578947368421053
 40
0.1578947368421053
 40
0.1578947368421053
 40
0.1754385964912281
 40
0.1754385964912281
 40
0.1754385964912281
 40
0.1754385964912281
 40
0.1929824561403509
 40
0.1929824561403509
 40
0.1929824561403509
 40
0.1929824561403509
 40
0.2105263157894737
 40
0.2105263157894737
 40
0.2105263157894737
 40
0.2105263157894737
 40
0.2280701754385965
 40
0.2280701754385965
 40
0.2280701754385965
 40
0.2280701754385965
 40
0.2456140350877193
 40
0.2456140350877193
 40
0.2456140350877193
 40
0.2456140350877193
 40
0.2631578947368421
 40
0.2631578947368421
 40
0.2631578947368421
 40
0.2631578947368421
 40
0.2807017543859649
 40
0.2807017543859649
 40
0.2807017543859649
 40
0.2807017543859649
 40
0.2982456140350877
 40
0.2982456140350877
 40
0.2982456140350877
 40
0.2982456140350877
 40
0.3157894736842105
 40
0.3157894736842105
 40
0.3157894736842105
 40
0.3157894736842105
 40
0.3333333333333333
 40
0.3333333333333333
 40
0.3333333333333333
 40
0.3333333333333333
 40
0.3508771929824561
 40
0.3508771929824561
 40
0.3508771929824561
 40
0.3508771929824561
 40
0.3684210526315789
 40
0.3684210526315789
 40
0.3684210526315789
 40
0.3684210526315789
 40
0.3859649122807017
 40
0.3859649122807017
 40
0.3859649122807017
 40
0.3859649122807017
 40
0.4035087719298245
 40
0.4035087719298245
 40
0.4035087719298245
 40
0.4035087719298245
 40
0.4210526315789473
 40
0.4210526315789473
 40
0.4210526315789473
 40
0.4210526315789473
 40
0.4385964912280702
 40
0.4385964912280702
 40
0.4385964912280702
 40
0.4385964912280702
 40
0.456140350877193
 40
0.456140350877193
 40
0.456140350877193
 40
0.456140350877193
 40
0.4736842105263158
 40
0.4736842105263158
 40
0.4736842105263158
 40
0.4736842105263158
 40
0.4912280701754386
 40
0.4912280701754386
 40
0.4912280701754386
 40
0.4912280701754386
 40
0.5087719298245614
 40
0.5087719298245614
 40
0.5087719298245614
 40
0.5087719298245614
 40
0.5263157894736842
 40
0.5263157894736842
 40
0.5263157894736842
 40
0.5263157894736842
 40
0.543859649122807
 40
0.543859649122807
 40
0.543859649122807
 40
0.543859649122807
 40
0.5614035087719298
 40
0.5614035087719298
 40
0.5614035087719298
 40
0.5614035087719298
 40
0.5789473684210527
 40
0.5789473684210527
 40
0.5789473684210527
 40
0.5789473684210527
 40
0.5964912280701754
 40
0.5964912280701754
 40
0.5964912280701754
 40
0.5964912280701754
 40
0.6140350877192983
 40
0.6140350877192983
 40
0.6140350877192983
 40
0.6140350877192983
 40
0.631578947368421
 40
0.631578947368421
 40
0.631578947368421
 40
0.631578947368421
 40
0.6491228070175439
 40
0.6491228070175439
 40
0.6491228070175439
 40
0.6491228070175439
 40
0.6666666666666666
 40
0.6666666666666666
 40
0.6666666666666666
 40
0.6666666666666666
 40
0.6842105263157895
 40
0.6842105263157895
 40
0.6842105263157895
 40
0.6842105263157895
 40
0.7017543859649122
 40
0.7017543859649122
 40
0.7017543859649122
 40
0.7017543859649122
 40
0.7192982456140351
 40
0.7192982456140351
 40
0.7192982456140351
 40
0.7192982456140351
 40
0.7368421052631579
 40
0.7368421052631579
 40
0.7368421052631579
 40
0.7368421052631579
 40
0.7543859649122807
 40
0.7543859649122807
 40
0.7543859649122807
 40
0.7543859649122807
 40
0.7719298245614035
 40
0.7719298245614035
 40
0.7719298245614035
 40
0.7719298245614035
 40
0.7894736842105263
 40
0.7894736842105263
 40
0.7894736842105263
 40
0.7894736842105263
 40
0.8070175438596491
 40
0.8070175438596491
 40
0.8070175438596491
 40
0.8070175438596491
 40
0.8245614035087719
 40
0.8245614035087719
 40
0.8245614035087719
 40
0.8245614035087719
 40
0.8421052631578947
 40
0.8421052631578947
 40
0.8421052631578947
 40
0.8421052631578947
 40
0.8596491228070176
 40
0.8596491228070176
 40
0.8596491228070176
 40
0.8596491228070176
 40
0.8771929824561403
 40
0.8771929824561403
 40
0.8771929824561403
 40
0.8771929824561403
 40
0.8947368421052632
 40
0.8947368421052632
 40
0.8947368421052632
 40
0.8947368421052632
 40
0.9122807017543859
 40
0.9122807017543859
 40
0.9122807017543859
 40
0.9122807017543859
 40
0.9298245614035088
 40
0.9298245614035088
 40
0.9298245614035088
 40
0.9298245614035088
 40
0.9473684210526315
 40
0.9473684210526315
 40
0.9473684210526315
 40
0.9473684210526315
 40
0.9649122807017544
 40
0.9649122807017544
 40
0.9649122807017544
 40
0.9649122807017544
 40
1.0
 40
1.0
 40
1.0
 40
1.0
 10
-29.05228
 20
5.74349
 30
0.0
 10
-29.05228
 20
5.74349
 30
0.0
 10
-28.83066
 20
5.74349
 30
0.0
 10
-28.83066
 20
5.74349
 30
0.0
 10
-28.83066
 20
5.74349
 30
0.0
 10
-28.83066
 20
5.74349
 30
0.0
 10
-28.83066
 20
8.15109
 30
0.0
 10
-28.83066
 20
8.15109
 30
0.0
 10
-28.83066
 20
8.15109
 30
0.0
 10
-28.83066
 20
8.15109
 30
0.0
 10
-28.53066
 20
8.15109
 30
0.0
 10
-28.53066
 20
8.15109
 30
0.0
 10
-28.53066
 20
8.15109
 30
0.0
 10
-28.53066
 20
8.15109
 30
0.0
 10
-28.53066
 20
5.74349
 30
0.0
 10
-28.53066
 20
5.74349
 30
0.0
 10
-28.53066
 20
5.74349
 30
0.0
 10
-28.53066
 20
5.74349
 30
0.0
 10
-28.3074
 20
5.74349
 30
0.0
 10
-28.3074
 20
5.74349
 30
0.0
 10
-28.3074
 20
5.74349
 30
0.0
 10
-28.3074
 20
5.74349
 30
0.0
 10
-28.3074
 20
5.43942
 30
0.0
 10
-28.3074
 20
5.43942
 30
0.0
 10
-28.3074
 20
5.43942
 30
0.0
 10
-28.3074
 20
5.43942
 30
0.0
 10
-27.59978
 20
5.43942
 30
0.0
 10
-27.59978
 20
5.43942
 30
0.0
 10
-27.59978
 20
5.43942
 30
0.0
 10
-27.59978
 20
5.43942
 30
0.0
 10
-27.59978
 20
5.74704
 30
0.0
 10
-27.59978
 20
5.74704
 30
0.0
 10
-27.59978
 20
5.74704
 30
0.0
 10
-27.59978
 20
5.74704
 30
0.0
 10
-27.60408
 20
5.74704
 30
0.0
 10
-27.60408
 20
5.74704
 30
0.0
 10
-27.60408
 20
5.74704
 30
0.0
 10
-27.60408
 20
5.74704
 30
0.0
 10
-27.60408
 20
5.74727
 30
0.0
 10
-27.60408
 20
5.74727
 30
0.0
 10
-27.60408
 20
5.74727
 30
0.0
 10
-27.60408
 20
5.74727
 30
0.0
 10
-27.60031
 20
5.74726
 30
0.0
 10
-27.60031
 20
5.74726
 30
0.0
 10
-27.60031
 20
5.74726
 30
0.0
 10
-27.60031
 20
5.74726
 30
0.0
 10
-27.59807
 20
6.04918
 30
0.0
 10
-27.59807
 20
6.04918
 30
0.0
 10
-27.59807
 20
6.04918
 30
0.0
 10
-27.59807
 20
6.04918
 30
0.0
 10
-27.59718
 20
6.04958
 30
0.0
 10
-27.59718
 20
6.04958
 30
0.0
 10
-27.59718
 20
6.04958
 30
0.0
 10
-27.59718
 20
6.04958
 30
0.0
 10
-27.59803
 20
6.05365
 30
0.0
 10
-27.59803
 20
6.05365
 30
0.0
 10
-27.59803
 20
6.05365
 30
0.0
 10
-27.59803
 20
6.05365
 30
0.0
 10
-27.59904
 20
6.05366
 30
0.0
 10
-27.59904
 20
6.05366
 30
0.0
 10
-27.59904
 20
6.05366
 30
0.0
 10
-27.92362
 20
6.76601
 30
0.0
 10
-28.17389
 20
8.08041
 30
0.0
 10
-28.26511
 20
8.88106
 30
0.0
 10
-28.26511
 20
8.88106
 30
0.0
 10
-28.3022
 20
9.20663
 30
0.0
 10
-28.32202
 20
9.50624
 30
0.0
 10
-28.31935
 20
9.74967
 30
0.0
 10
-28.31935
 20
9.74967
 30
0.0
 10
-28.30807
 20
9.7862
 30
0.0
 10
-28.31381
 20
9.93533
 30
0.0
 10
-28.31627
 20
10.21358
 30
0.0
 10
-28.31627
 20
10.21358
 30
0.0
 10
-28.31939
 20
10.56624
 30
0.0
 10
-28.32836
 20
11.02792
 30
0.0
 10
-28.31582
 20
11.45702
 30
0.0
 10
-28.31582
 20
11.45702
 30
0.0
 10
-28.31582
 20
11.45702
 30
0.0
 10
-28.28193
 20
11.6801
 30
0.0
 10
-28.28193
 20
11.6801
 30
0.0
 10
-28.28193
 20
11.6801
 30
0.0
 10
-28.2434
 20
11.82018
 30
0.0
 10
-28.12742
 20
11.99381
 30
0.0
 10
-27.99411
 20
12.05843
 30
0.0
 10
-27.99411
 20
12.05843
 30
0.0
 10
-27.89108
 20
12.10837
 30
0.0
 10
-27.85455
 20
12.12505
 30
0.0
 10
-27.75819
 20
12.19155
 30
0.0
 10
-27.75819
 20
12.19155
 30
0.0
 10
-27.83358
 20
12.30079
 30
0.0
 10
-27.88466
 20
12.41023
 30
0.0
 10
-27.91453
 20
12.54017
 30
0.0
 10
-27.91453
 20
12.54017
 30
0.0
 10
-27.99883
 20
12.90686
 30
0.0
 10
-27.87233
 20
13.27406
 30
0.0
 10
-27.58624
 20
13.52021
 30
0.0
 10
-27.58624
 20
13.52021
 30
0.0
 10
-27.69442
 20
13.63068
 30
0.0
 10
-27.80505
 20
13.70931
 30
0.0
 10
-27.94468
 20
13.77776
 30
0.0
 10
-27.94468
 20
13.77776
 30
0.0
 10
-27.94468
 20
13.77776
 30
0.0
 10
-27.94351
 20
14.33342
 30
0.0
 10
-27.94351
 20
14.33342
 30
0.0
 10
-27.94351
 20
14.33342
 30
0.0
 10
-27.94351
 20
14.33342
 30
0.0
 10
-27.95434
 20
14.33747
 30
0.0
 10
-27.95434
 20
14.33747
 30
0.0
 10
-27.95434
 20
14.33747
 30
0.0
 10
-27.95434
 20
14.33747
 30
0.0
 10
-28.32747
 20
13.90965
 30
0.0
 10
-28.32747
 20
13.90965
 30
0.0
 10
-28.32747
 20
13.90965
 30
0.0
 10
-28.32747
 20
13.90965
 30
0.0
 10
-28.67241
 20
14.73587
 30
0.0
 10
-28.67241
 20
14.73587
 30
0.0
 10
-28.67241
 20
14.73587
 30
0.0
 10
-28.67241
 20
14.73587
 30
0.0
 10
-28.67934
 20
14.733
 30
0.0
 10
-28.67934
 20
14.733
 30
0.0
 10
-28.67934
 20
14.733
 30
0.0
 10
-28.67934
 20
14.733
 30
0.0
 10
-28.68623
 20
14.73589
 30
0.0
 10
-28.68623
 20
14.73589
 30
0.0
 10
-28.68623
 20
14.73589
 30
0.0
 10
-28.68623
 20
14.73589
 30
0.0
 10
-29.03556
 20
13.9085
 30
0.0
 10
-29.03556
 20
13.9085
 30
0.0
 10
-29.03556
 20
13.9085
 30
0.0
 10
-29.03556
 20
13.9085
 30
0.0
 10
-29.40425
 20
14.33743
 30
0.0
 10
-29.40425
 20
14.33743
 30
0.0
 10
-29.40425
 20
14.33743
 30
0.0
 10
-29.40425
 20
14.33743
 30
0.0
 10
-29.41516
 20
14.33342
 30
0.0
 10
-29.41516
 20
14.33342
 30
0.0
 10
-29.41516
 20
14.33342
 30
0.0
 10
-29.41516
 20
14.33342
 30
0.0
 10
-29.414
 20
13.77776
 30
0.0
 10
-29.414
 20
13.77776
 30
0.0
 10
-29.414
 20
13.77776
 30
0.0
 10
-29.51196
 20
13.72996
 30
0.0
 10
-29.6046
 20
13.67089
 30
0.0
 10
-29.68717
 20
13.60061
 30
0.0
 10
-29.68717
 20
13.60061
 30
0.0
 10
-29.68717
 20
13.60061
 30
0.0
 10
-29.77244
 20
13.52021
 30
0.0
 10
-29.77244
 20
13.52021
 30
0.0
 10
-29.77244
 20
13.52021
 30
0.0
 10
-29.63119
 20
13.39868
 30
0.0
 10
-29.52897
 20
13.2535
 30
0.0
 10
-29.46971
 20
13.076
 30
0.0
 10
-29.46971
 20
13.076
 30
0.0
 10
-29.36845
 20
12.77272
 30
0.0
 10
-29.4195
 20
12.45382
 30
0.0
 10
-29.60049
 20
12.19155
 30
0.0
 10
-29.60049
 20
12.19155
 30
0.0
 10
-29.50432
 20
12.12518
 30
0.0
 10
-29.46752
 20
12.1083
 30
0.0
 10
-29.36464
 20
12.05846
 30
0.0
 10
-29.36464
 20
12.05846
 30
0.0
 10
-29.23969
 20
11.99793
 30
0.0
 10
-29.14834
 20
11.86091
 30
0.0
 10
-29.09522
 20
11.73504
 30
0.0
 10
-29.09522
 20
11.73504
 30
0.0
 10
-29.06507
 20
11.6636
 30
0.0
 10
-29.04513
 20
11.53456
 30
0.0
 10
-29.04286
 20
11.45702
 30
0.0
 10
-29.04286
 20
11.45702
 30
0.0
 10
-29.03058
 20
11.03913
 30
0.0
 10
-29.03746
 20
10.55909
 30
0.0
 10
-29.04238
 20
10.21534
 30
0.0
 10
-29.04238
 20
10.21534
 30
0.0
 10
-29.04652
 20
9.94101
 30
0.0
 10
-29.0492
 20
9.78184
 30
0.0
 10
-29.03933
 20
9.74969
 30
0.0
 10
-29.03933
 20
9.74969
 30
0.0
 10
-29.03669
 20
9.50732
 30
0.0
 10
-29.05631
 20
9.20924
 30
0.0
 10
-29.09309
 20
8.88532
 30
0.0
 10
-29.09309
 20
8.88532
 30
0.0
 10
-29.18607
 20
8.06646
 30
0.0
 10
-29.43148
 20
6.7861
 30
0.0
 10
-29.75966
 20
6.05366
 30
0.0
 10
-29.75966
 20
6.05366
 30
0.0
 10
-29.75966
 20
6.05366
 30
0.0
 10
-29.76064
 20
6.05365
 30
0.0
 10
-29.76064
 20
6.05365
 30
0.0
 10
-29.76064
 20
6.05365
 30
0.0
 10
-29.76064
 20
6.05365
 30
0.0
 10
-29.76151
 20
6.04951
 30
0.0
 10
-29.76151
 20
6.04951
 30
0.0
 10
-29.76151
 20
6.04951
 30
0.0
 10
-29.76151
 20
6.04951
 30
0.0
 10
-29.76061
 20
6.04911
 30
0.0
 10
-29.76061
 20
6.04911
 30
0.0
 10
-29.76061
 20
6.04911
 30
0.0
 10
-29.76061
 20
6.04911
 30
0.0
 10
-29.75836
 20
5.74726
 30
0.0
 10
-29.75836
 20
5.74726
 30
0.0
 10
-29.75836
 20
5.74726
 30
0.0
 10
-29.75836
 20
5.74726
 30
0.0
 10
-29.7546
 20
5.74727
 30
0.0
 10
-29.7546
 20
5.74727
 30
0.0
 10
-29.7546
 20
5.74727
 30
0.0
 10
-29.7546
 20
5.74727
 30
0.0
 10
-29.7546
 20
5.74704
 30
0.0
 10
-29.7546
 20
5.74704
 30
0.0
 10
-29.7546
 20
5.74704
 30
0.0
 10
-29.7546
 20
5.74704
 30
0.0
 10
-29.7599
 20
5.74704
 30
0.0
 10
-29.7599
 20
5.74704
 30
0.0
 10
-29.7599
 20
5.74704
 30
0.0
 10
-29.7599
 20
5.74704
 30
0.0
 10
-29.7599
 20
5.43942
 30
0.0
 10
-29.7599
 20
5.43942
 30
0.0
 10
-29.7599
 20
5.43942
 30
0.0
 10
-29.7599
 20
5.43942
 30
0.0
 10
-29.05228
 20
5.43942
 30
0.0
 10
-29.05228
 20
5.43942
 30
0.0
 10
-29.05228
 20
5.43942
 30
0.0
 10
-29.05228
 20
5.43942
 30
0.0
 10
-29.05228
 20
5.74349
 30
0.0
 10
-29.05228
 20
5.74349
 30
0.0
  0
SPLINE
  5
76
330
1F
100
AcDbEntity
  8
Master Layer 2
 62
   250
370
     9
100
AcDbSpline
210
0.0
220
0.0
230
1.0
 70
    11
 71
     3
 72
   216
 73
   212
 74
     0
 42
0.000000001
 43
0.0000000001
 40
0.0
 40
0.0
 40
0.0
 40
0.0
 40
0.0185185185185185
 40
0.0185185185185185
 40
0.0185185185185185
 40
0.0185185185185185
 40
0.037037037037037
 40
0.037037037037037
 40
0.037037037037037
 40
0.037037037037037
 40
0.0555555555555556
 40
0.0555555555555556
 40
0.0555555555555556
 40
0.0555555555555556
 40
0.0740740740740741
 40
0.0740740740740741
 40
0.0740740740740741
 40
0.0740740740740741
 40
0.0925925925925926
 40
0.0925925925925926
 40
0.0925925925925926
 40
0.0925925925925926
 40
0.1111111111111111
 40
0.1111111111111111
 40
0.1111111111111111
 40
0.1111111111111111
 40
0.1296296296296296
 40
0.1296296296296296
 40
0.1296296296296296
 40
0.1296296296296296
 40
0.1481481481481481
 40
0.1481481481481481
 40
0.1481481481481481
 40
0.1481481481481481
 40
0.1666666666666667
 40
0.1666666666666667
 40
0.1666666666666667
 40
0.1666666666666667
 40
0.1851851851851852
 40
0.1851851851851852
 40
0.1851851851851852
 40
0.1851851851851852
 40
0.2037037037037037
 40
0.2037037037037037
 40
0.2037037037037037
 40
0.2037037037037037
 40
0.2222222222222222
 40
0.2222222222222222
 40
0.2222222222222222
 40
0.2222222222222222
 40
0.2407407407407407
 40
0.2407407407407407
 40
0.2407407407407407
 40
0.2407407407407407
 40
0.2592592592592592
 40
0.2592592592592592
 40
0.2592592592592592
 40
0.2592592592592592
 40
0.2777777777777778
 40
0.2777777777777778
 40
0.2777777777777778
 40
0.2777777777777778
 40
0.2962962962962963
 40
0.2962962962962963
 40
0.2962962962962963
 40
0.2962962962962963
 40
0.3148148148148148
 40
0.3148148148148148
 40
0.3148148148148148
 40
0.3148148148148148
 40
0.3333333333333333
 40
0.3333333333333333
 40
0.3333333333333333
 40
0.3333333333333333
 40
0.3518518518518519
 40
0.3518518518518519
 40
0.3518518518518519
 40
0.3518518518518519
 40
0.3703703703703703
 40
0.3703703703703703
 40
0.3703703703703703
 40
0.3703703703703703
 40
0.3888888888888889
 40
0.3888888888888889
 40
0.3888888888888889
 40
0.3888888888888889
 40
0.4074074074074074
 40
0.4074074074074074
 40
0.4074074074074074
 40
0.4074074074074074
 40
0.4259259259259259
 40
0.4259259259259259
 40
0.4259259259259259
 40
0.4259259259259259
 40
0.4444444444444444
 40
0.4444444444444444
 40
0.4444444444444444
 40
0.4444444444444444
 40
0.462962962962963
 40
0.462962962962963
 40
0.462962962962963
 40
0.462962962962963
 40
0.4814814814814815
 40
0.4814814814814815
 40
0.4814814814814815
 40
0.4814814814814815
 40
0.5
 40
0.5
 40
0.5
 40
0.5
 40
0.5185185185185185
 40
0.5185185185185185
 40
0.5185185185185185
 40
0.5185185185185185
 40
0.5370370370370371
 40
0.5370370370370371
 40
0.5370370370370371
 40
0.5370370370370371
 40
0.5555555555555556
 40
0.5555555555555556
 40
0.5555555555555556
 40
0.5555555555555556
 40
0.5740740740740741
 40
0.5740740740740741
 40
0.5740740740740741
 40
0.5740740740740741
 40
0.5925925925925926
 40
0.5925925925925926
 40
0.5925925925925926
 40
0.5925925925925926
 40
0.6111111111111112
 40
0.6111111111111112
 40
0.6111111111111112
 40
0.6111111111111112
 40
0.6296296296296297
 40
0.6296296296296297
 40
0.6296296296296297
 40
0.6296296296296297
 40
0.6481481481481481
 40
0.6481481481481481
 40
0.6481481481481481
 40
0.6481481481481481
 40
0.6666666666666666
 40
0.6666666666666666
 40
0.6666666666666666
 40
0.6666666666666666
 40
0.6851851851851852
 40
0.6851851851851852
 40
0.6851851851851852
 40
0.6851851851851852
 40
0.7037037037037037
 40
0.7037037037037037
 40
0.7037037037037037
 40
0.7037037037037037
 40
0.7222222222222222
 40
0.7222222222222222
 40
0.7222222222222222
 40
0.7222222222222222
 40
0.7407407407407407
 40
0.7407407407407407
 40
0.7407407407407407
 40
0.7407407407407407
 40
0.7592592592592593
 40
0.7592592592592593
 40
0.7592592592592593
 40
0.7592592592592593
 40
0.7777777777777778
 40
0.7777777777777778
 40
0.7777777777777778
 40
0.7777777777777778
 40
0.7962962962962963
 40
0.7962962962962963
 40
0.7962962962962963
 40
0.7962962962962963
 40
0.8148148148148148
 40
0.8148148148148148
 40
0.8148148148148148
 40
0.8148148148148148
 40
0.8333333333333334
 40
0.8333333333333334
 40
0.8333333333333334
 40
0.8333333333333334
 40
0.8518518518518519
 40
0.8518518518518519
 40
0.8518518518518519
 40
0.8518518518518519
 40
0.8703703703703703
 40
0.8703703703703703
 40
0.8703703703703703
 40
0.8703703703703703
 40
0.8888888888888888
 40
0.8888888888888888
 40
0.8888888888888888
 40
0.8888888888888888
 40
0.9074074074074074
 40
0.9074074074074074
 40
0.9074074074074074
 40
0.9074074074074074
 40
0.9259259259259259
 40
0.9259259259259259
 40
0.9259259259259259
 40
0.9259259259259259
 40
0.9444444444444444
 40
0.9444444444444444
 40
0.9444444444444444
 40
0.9444444444444444
 40
0.9629629629629629
 40
0.9629629629629629
 40
0.9629629629629629
 40
0.9629629629629629
 40
1.0
 40
1.0
 40
1.0
 40
1.0
 10
-23.0781
 20
5.74349
 30
0.0
 10
-23.0781
 20
5.74349
 30
0.0
 10
-22.33322
 20
5.74349
 30
0.0
 10
-22.33322
 20
5.74349
 30
0.0
 10
-22.33322
 20
5.74349
 30
0.0
 10
-22.33322
 20
5.74349
 30
0.0
 10
-22.33322
 20
5.43942
 30
0.0
 10
-22.33322
 20
5.43942
 30
0.0
 10
-22.33322
 20
5.43942
 30
0.0
 10
-22.33322
 20
5.43942
 30
0.0
 10
-21.6256
 20
5.43942
 30
0.0
 10
-21.6256
 20
5.43942
 30
0.0
 10
-21.6256
 20
5.43942
 30
0.0
 10
-21.6256
 20
5.43942
 30
0.0
 10
-21.6256
 20
5.74704
 30
0.0
 10
-21.6256
 20
5.74704
 30
0.0
 10
-21.6256
 20
5.74704
 30
0.0
 10
-21.6256
 20
5.74704
 30
0.0
 10
-21.6299
 20
5.74704
 30
0.0
 10
-21.6299
 20
5.74704
 30
0.0
 10
-21.6299
 20
5.74704
 30
0.0
 10
-21.6299
 20
5.74704
 30
0.0
 10
-21.6299
 20
5.74727
 30
0.0
 10
-21.6299
 20
5.74727
 30
0.0
 10
-21.6299
 20
5.74727
 30
0.0
 10
-21.6299
 20
5.74727
 30
0.0
 10
-21.62613
 20
5.74726
 30
0.0
 10
-21.62613
 20
5.74726
 30
0.0
 10
-21.62613
 20
5.74726
 30
0.0
 10
-21.62613
 20
5.74726
 30
0.0
 10
-21.62389
 20
6.04918
 30
0.0
 10
-21.62389
 20
6.04918
 30
0.0
 10
-21.62389
 20
6.04918
 30
0.0
 10
-21.62389
 20
6.04918
 30
0.0
 10
-21.623
 20
6.04958
 30
0.0
 10
-21.623
 20
6.04958
 30
0.0
 10
-21.623
 20
6.04958
 30
0.0
 10
-21.623
 20
6.04958
 30
0.0
 10
-21.62385
 20
6.05365
 30
0.0
 10
-21.62385
 20
6.05365
 30
0.0
 10
-21.62385
 20
6.05365
 30
0.0
 10
-21.62385
 20
6.05365
 30
0.0
 10
-21.62486
 20
6.05366
 30
0.0
 10
-21.62486
 20
6.05366
 30
0.0
 10
-21.62486
 20
6.05366
 30
0.0
 10
-21.94944
 20
6.76601
 30
0.0
 10
-22.19971
 20
8.08041
 30
0.0
 10
-22.29093
 20
8.88106
 30
0.0
 10
-22.29093
 20
8.88106
 30
0.0
 10
-22.32802
 20
9.20663
 30
0.0
 10
-22.34784
 20
9.50624
 30
0.0
 10
-22.34517
 20
9.74967
 30
0.0
 10
-22.34517
 20
9.74967
 30
0.0
 10
-22.33389
 20
9.7862
 30
0.0
 10
-22.33963
 20
9.93533
 30
0.0
 10
-22.34209
 20
10.21358
 30
0.0
 10
-22.34209
 20
10.21358
 30
0.0
 10
-22.34521
 20
10.56624
 30
0.0
 10
-22.35418
 20
11.02792
 30
0.0
 10
-22.34164
 20
11.45702
 30
0.0
 10
-22.34164
 20
11.45702
 30
0.0
 10
-22.34164
 20
11.45702
 30
0.0
 10
-22.30775
 20
11.6801
 30
0.0
 10
-22.30775
 20
11.6801
 30
0.0
 10
-22.30775
 20
11.6801
 30
0.0
 10
-22.26922
 20
11.82018
 30
0.0
 10
-22.15324
 20
11.99381
 30
0.0
 10
-22.01993
 20
12.05843
 30
0.0
 10
-22.01993
 20
12.05843
 30
0.0
 10
-21.9169
 20
12.10837
 30
0.0
 10
-21.88037
 20
12.12505
 30
0.0
 10
-21.78401
 20
12.19155
 30
0.0
 10
-21.78401
 20
12.19155
 30
0.0
 10
-21.8594
 20
12.30079
 30
0.0
 10
-21.91048
 20
12.41023
 30
0.0
 10
-21.94035
 20
12.54017
 30
0.0
 10
-21.94035
 20
12.54017
 30
0.0
 10
-22.02465
 20
12.90686
 30
0.0
 10
-21.89815
 20
13.27406
 30
0.0
 10
-21.61206
 20
13.52021
 30
0.0
 10
-21.61206
 20
13.52021
 30
0.0
 10
-21.72024
 20
13.63068
 30
0.0
 10
-21.83087
 20
13.70931
 30
0.0
 10
-21.9705
 20
13.77776
 30
0.0
 10
-21.9705
 20
13.77776
 30
0.0
 10
-21.9705
 20
13.77776
 30
0.0
 10
-21.96933
 20
14.33342
 30
0.0
 10
-21.96933
 20
14.33342
 30
0.0
 10
-21.96933
 20
14.33342
 30
0.0
 10
-21.96933
 20
14.33342
 30
0.0
 10
-21.98016
 20
14.33747
 30
0.0
 10
-21.98016
 20
14.33747
 30
0.0
 10
-21.98016
 20
14.33747
 30
0.0
 10
-21.98016
 20
14.33747
 30
0.0
 10
-22.35329
 20
13.90965
 30
0.0
 10
-22.35329
 20
13.90965
 30
0.0
 10
-22.35329
 20
13.90965
 30
0.0
 10
-22.35329
 20
13.90965
 30
0.0
 10
-22.55516
 20
14.39318
 30
0.0
 10
-22.55516
 20
14.39318
 30
0.0
 10
-22.55516
 20
14.39318
 30
0.0
 10
-22.55516
 20
14.39318
 30
0.0
 10
-22.55516
 20
8.15108
 30
0.0
 10
-22.55516
 20
8.15108
 30
0.0
 10
-22.55516
 20
8.15108
 30
0.0
 10
-22.55516
 20
8.15108
 30
0.0
 10
-22.85516
 20
8.15108
 30
0.0
 10
-22.85516
 20
8.15108
 30
0.0
 10
-22.85516
 20
8.15108
 30
0.0
 10
-22.85516
 20
8.15108
 30
0.0
 10
-22.85516
 20
14.39693
 30
0.0
 10
-22.85516
 20
14.39693
 30
0.0
 10
-22.85516
 20
14.39693
 30
0.0
 10
-22.85516
 20
14.39693
 30
0.0
 10
-23.06138
 20
13.9085
 30
0.0
 10
-23.06138
 20
13.9085
 30
0.0
 10
-23.06138
 20
13.9085
 30
0.0
 10
-23.06138
 20
13.9085
 30
0.0
 10
-23.43007
 20
14.33743
 30
0.0
 10
-23.43007
 20
14.33743
 30
0.0
 10
-23.43007
 20
14.33743
 30
0.0
 10
-23.43007
 20
14.33743
 30
0.0
 10
-23.44098
 20
14.33342
 30
0.0
 10
-23.44098
 20
14.33342
 30
0.0
 10
-23.44098
 20
14.33342
 30
0.0
 10
-23.44098
 20
14.33342
 30
0.0
 10
-23.43982
 20
13.77776
 30
0.0
 10
-23.43982
 20
13.77776
 30
0.0
 10
-23.43982
 20
13.77776
 30
0.0
 10
-23.53778
 20
13.72996
 30
0.0
 10
-23.63042
 20
13.67089
 30
0.0
 10
-23.71299
 20
13.60061
 30
0.0
 10
-23.71299
 20
13.60061
 30
0.0
 10
-23.71299
 20
13.60061
 30
0.0
 10
-23.79826
 20
13.52021
 30
0.0
 10
-23.79826
 20
13.52021
 30
0.0
 10
-23.79826
 20
13.52021
 30
0.0
 10
-23.65701
 20
13.39868
 30
0.0
 10
-23.55479
 20
13.2535
 30
0.0
 10
-23.49553
 20
13.076
 30
0.0
 10
-23.49553
 20
13.076
 30
0.0
 10
-23.39427
 20
12.77272
 30
0.0
 10
-23.44532
 20
12.45382
 30
0.0
 10
-23.62631
 20
12.19155
 30
0.0
 10
-23.62631
 20
12.19155
 30
0.0
 10
-23.53014
 20
12.12518
 30
0.0
 10
-23.49334
 20
12.1083
 30
0.0
 10
-23.39046
 20
12.05846
 30
0.0
 10
-23.39046
 20
12.05846
 30
0.0
 10
-23.26551
 20
11.99793
 30
0.0
 10
-23.17416
 20
11.86091
 30
0.0
 10
-23.12104
 20
11.73504
 30
0.0
 10
-23.12104
 20
11.73504
 30
0.0
 10
-23.09089
 20
11.6636
 30
0.0
 10
-23.07095
 20
11.53456
 30
0.0
 10
-23.06868
 20
11.45702
 30
0.0
 10
-23.06868
 20
11.45702
 30
0.0
 10
-23.0564
 20
11.03913
 30
0.0
 10
-23.06328
 20
10.55909
 30
0.0
 10
-23.0682
 20
10.21534
 30
0.0
 10
-23.0682
 20
10.21534
 30
0.0
 10
-23.07234
 20
9.94101
 30
0.0
 10
-23.07502
 20
9.78184
 30
0.0
 10
-23.06515
 20
9.74969
 30
0.0
 10
-23.06515
 20
9.74969
 30
0.0
 10
-23.06251
 20
9.50732
 30
0.0
 10
-23.08213
 20
9.20924
 30
0.0
 10
-23.11891
 20
8.88532
 30
0.0
 10
-23.11891
 20
8.88532
 30
0.0
 10
-23.21189
 20
8.06646
 30
0.0
 10
-23.4573
 20
6.7861
 30
0.0
 10
-23.78548
 20
6.05366
 30
0.0
 10
-23.78548
 20
6.05366
 30
0.0
 10
-23.78548
 20
6.05366
 30
0.0
 10
-23.78646
 20
6.05365
 30
0.0
 10
-23.78646
 20
6.05365
 30
0.0
 10
-23.78646
 20
6.05365
 30
0.0
 10
-23.78646
 20
6.05365
 30
0.0
 10
-23.78733
 20
6.04951
 30
0.0
 10
-23.78733
 20
6.04951
 30
0.0
 10
-23.78733
 20
6.04951
 30
0.0
 10
-23.78733
 20
6.04951
 30
0.0
 10
-23.78643
 20
6.04911
 30
0.0
 10
-23.78643
 20
6.04911
 30
0.0
 10
-23.78643
 20
6.04911
 30
0.0
 10
-23.78643
 20
6.04911
 30
0.0
 10
-23.78418
 20
5.74726
 30
0.0
 10
-23.78418
 20
5.74726
 30
0.0
 10
-23.78418
 20
5.74726
 30
0.0
 10
-23.78418
 20
5.74726
 30
0.0
 10
-23.78042
 20
5.74727
 30
0.0
 10
-23.78042
 20
5.74727
 30
0.0
 10
-23.78042
 20
5.74727
 30
0.0
 10
-23.78042
 20
5.74727
 30
0.0
 10
-23.78042
 20
5.74704
 30
0.0
 10
-23.78042
 20
5.74704
 30
0.0
 10
-23.78042
 20
5.74704
 30
0.0
 10
-23.78042
 20
5.74704
 30
0.0
 10
-23.78572
 20
5.74704
 30
0.0
 10
-23.78572
 20
5.74704
 30
0.0
 10
-23.78572
 20
5.74704
 30
0.0
 10
-23.78572
 20
5.74704
 30
0.0
 10
-23.78572
 20
5.43942
 30
0.0
 10
-23.78572
 20
5.43942
 30
0.0
 10
-23.78572
 20
5.43942
 30
0.0
 10
-23.78572
 20
5.43942
 30
0.0
 10
-23.0781
 20
5.43942
 30
0.0
 10
-23.0781
 20
5.43942
 30
0.0
 10
-23.0781
 20
5.43942
 30
0.0
 10
-23.0781
 20
5.43942
 30
0.0
 10
-23.0781
 20
5.74349
 30
0.0
 10
-23.0781
 20
5.74349
 30
0.0
  0
SPLINE
  5
77
330
1F
100
AcDbEntity
  8
Master Layer 2
 62
   250
370
     9
100
AcDbSpline
210
0.0
220
0.0
230
1.0
 70
    11
 71
     3
 72
   220
 73
   216
 74
     0
 42
0.000000001
 43
0.0000000001
 40
0.0
 40
0.0
 40
0.0
 40
0.0
 40
0.0181818181818182
 40
0.0181818181818182
 40
0.0181818181818182
 40
0.0181818181818182
 40
0.0363636363636364
 40
0.0363636363636364
 40
0.0363636363636364
 40
0.0363636363636364
 40
0.0545454545454545
 40
0.0545454545454545
 40
0.0545454545454545
 40
0.0545454545454545
 40
0.0727272727272727
 40
0.0727272727272727
 40
0.0727272727272727
 40
0.0727272727272727
 40
0.0909090909090909
 40
0.0909090909090909
 40
0.0909090909090909
 40
0.0909090909090909
 40
0.1090909090909091
 40
0.1090909090909091
 40
0.1090909090909091
 40
0.1090909090909091
 40
0.1272727272727273
 40
0.1272727272727273
 40
0.1272727272727273
 40
0.1272727272727273
 40
0.1454545454545454
 40
0.1454545454545454
 40
0.1454545454545454
 40
0.1454545454545454
 40
0.1636363636363636
 40
0.1636363636363636
 40
0.1636363636363636
 40
0.1636363636363636
 40
0.1818181818181818
 40
0.1818181818181818
 40
0.1818181818181818
 40
0.1818181818181818
 40
0.2
 40
0.2
 40
0.2
 40
0.2
 40
0.2181818181818182
 40
0.2181818181818182
 40
0.2181818181818182
 40
0.2181818181818182
 40
0.2363636363636364
 40
0.2363636363636364
 40
0.2363636363636364
 40
0.2363636363636364
 40
0.2545454545454545
 40
0.2545454545454545
 40
0.2545454545454545
 40
0.2545454545454545
 40
0.2727272727272727
 40
0.2727272727272727
 40
0.2727272727272727
 40
0.2727272727272727
 40
0.2909090909090909
 40
0.2909090909090909
 40
0.2909090909090909
 40
0.2909090909090909
 40
0.3090909090909091
 40
0.3090909090909091
 40
0.3090909090909091
 40
0.3090909090909091
 40
0.3272727272727273
 40
0.3272727272727273
 40
0.3272727272727273
 40
0.3272727272727273
 40
0.3454545454545455
 40
0.3454545454545455
 40
0.3454545454545455
 40
0.3454545454545455
 40
0.3636363636363636
 40
0.3636363636363636
 40
0.3636363636363636
 40
0.3636363636363636
 40
0.3818181818181818
 40
0.3818181818181818
 40
0.3818181818181818
 40
0.3818181818181818
 40
0.4
 40
0.4
 40
0.4
 40
0.4
 40
0.4181818181818182
 40
0.4181818181818182
 40
0.4181818181818182
 40
0.4181818181818182
 40
0.4363636363636363
 40
0.4363636363636363
 40
0.4363636363636363
 40
0.4363636363636363
 40
0.4545454545454545
 40
0.4545454545454545
 40
0.4545454545454545
 40
0.4545454545454545
 40
0.4727272727272727
 40
0.4727272727272727
 40
0.4727272727272727
 40
0.4727272727272727
 40
0.4909090909090909
 40
0.4909090909090909
 40
0.4909090909090909
 40
0.4909090909090909
 40
0.509090909090909
 40
0.509090909090909
 40
0.509090909090909
 40
0.509090909090909
 40
0.5272727272727272
 40
0.5272727272727272
 40
0.5272727272727272
 40
0.5272727272727272
 40
0.5454545454545454
 40
0.5454545454545454
 40
0.5454545454545454
 40
0.5454545454545454
 40
0.5636363636363636
 40
0.5636363636363636
 40
0.5636363636363636
 40
0.5636363636363636
 40
0.5818181818181818
 40
0.5818181818181818
 40
0.5818181818181818
 40
0.5818181818181818
 40
0.6
 40
0.6
 40
0.6
 40
0.6
 40
0.6181818181818182
 40
0.6181818181818182
 40
0.6181818181818182
 40
0.6181818181818182
 40
0.6363636363636364
 40
0.6363636363636364
 40
0.6363636363636364
 40
0.6363636363636364
 40
0.6545454545454545
 40
0.6545454545454545
 40
0.6545454545454545
 40
0.6545454545454545
 40
0.6727272727272727
 40
0.6727272727272727
 40
0.6727272727272727
 40
0.6727272727272727
 40
0.6909090909090909
 40
0.6909090909090909
 40
0.6909090909090909
 40
0.6909090909090909
 40
0.7090909090909091
 40
0.7090909090909091
 40
0.7090909090909091
 40
0.7090909090909091
 40
0.7272727272727273
 40
0.7272727272727273
 40
0.7272727272727273
 40
0.7272727272727273
 40
0.7454545454545455
 40
0.7454545454545455
 40
0.7454545454545455
 40
0.7454545454545455
 40
0.7636363636363637
 40
0.7636363636363637
 40
0.7636363636363637
 40
0.7636363636363637
 40
0.7818181818181819
 40
0.7818181818181819
 40
0.7818181818181819
 40
0.7818181818181819
 40
0.8
 40
0.8
 40
0.8
 40
0.8
 40
0.8181818181818182
 40
0.8181818181818182
 40
0.8181818181818182
 40
0.8181818181818182
 40
0.8363636363636363
 40
0.8363636363636363
 40
0.8363636363636363
 40
0.8363636363636363
 40
0.8545454545454545
 40
0.8545454545454545
 40
0.8545454545454545
 40
0.8545454545454545
 40
0.8727272727272727
 40
0.8727272727272727
 40
0.8727272727272727
 40
0.8727272727272727
 40
0.8909090909090909
 40
0.8909090909090909
 40
0.8909090909090909
 40
0.8909090909090909
 40
0.9090909090909091
 40
0.9090909090909091
 40
0.9090909090909091
 40
0.9090909090909091
 40
0.9272727272727272
 40
0.9272727272727272
 40
0.9272727272727272
 40
0.9272727272727272
 40
0.9454545454545454
 40
0.9454545454545454
 40
0.9454545454545454
 40
0.9454545454545454
 40
0.9636363636363636
 40
0.9636363636363636
 40
0.9636363636363636
 40
0.9636363636363636
 40
1.0
 40
1.0
 40
1.0
 40
1.0
 10
-24.82708
 20
6.57294
 30
0.0
 10
-24.89445
 20
6.78639
 30
0.0
 10
-24.95682
 20
7.01964
 30
0.0
 10
-25.01312
 20
7.25861
 30
0.0
 10
-25.01312
 20
7.25861
 30
0.0
 10
-25.07459
 20
7.51958
 30
0.0
 10
-25.12887
 20
7.78753
 30
0.0
 10
-25.17452
 20
8.04408
 30
0.0
 10
-25.17452
 20
8.04408
 30
0.0
 10
-25.22473
 20
8.32625
 30
0.0
 10
-25.26452
 20
8.59467
 30
0.0
 10
-25.29203
 20
8.82489
 30
0.0
 10
-25.29203
 20
8.82489
 30
0.0
 10
-25.29203
 20
8.82489
 30
0.0
 10
-25.56472
 20
8.82489
 30
0.0
 10
-25.56472
 20
8.82489
 30
0.0
 10
-25.56472
 20
8.82489
 30
0.0
 10
-25.56472
 20
8.82489
 30
0.0
 10
-25.56485
 20
8.15115
 30
0.0
 10
-25.56485
 20
8.15115
 30
0.0
 10
-25.56485
 20
8.15115
 30
0.0
 10
-25.56485
 20
8.15115
 30
0.0
 10
-25.56865
 20
8.15115
 30
0.0
 10
-25.56865
 20
8.15115
 30
0.0
 10
-25.56865
 20
8.15115
 30
0.0
 10
-25.56865
 20
8.15115
 30
0.0
 10
-25.56865
 20
8.14735
 30
0.0
 10
-25.56865
 20
8.14735
 30
0.0
 10
-25.56865
 20
8.14735
 30
0.0
 10
-25.56865
 20
8.14735
 30
0.0
 10
-25.86686
 20
8.14722
 30
0.0
 10
-25.86686
 20
8.14722
 30
0.0
 10
-25.86686
 20
8.14722
 30
0.0
 10
-25.86686
 20
8.14722
 30
0.0
 10
-25.86686
 20
8.15102
 30
0.0
 10
-25.86686
 20
8.15102
 30
0.0
 10
-25.86686
 20
8.15102
 30
0.0
 10
-25.86686
 20
8.15102
 30
0.0
 10
-25.87066
 20
8.15102
 30
0.0
 10
-25.87066
 20
8.15102
 30
0.0
 10
-25.87066
 20
8.15102
 30
0.0
 10
-25.87066
 20
8.15102
 30
0.0
 10
-25.87062
 20
8.82489
 30
0.0
 10
-25.87062
 20
8.82489
 30
0.0
 10
-25.87062
 20
8.82489
 30
0.0
 10
-25.87062
 20
8.82489
 30
0.0
 10
-26.11829
 20
8.82489
 30
0.0
 10
-26.11829
 20
8.82489
 30
0.0
 10
-26.11829
 20
8.82489
 30
0.0
 10
-26.14599
 20
8.59259
 30
0.0
 10
-26.18523
 20
8.32684
 30
0.0
 10
-26.2345
 20
8.04902
 30
0.0
 10
-26.2345
 20
8.04902
 30
0.0
 10
-26.27956
 20
7.79487
 30
0.0
 10
-26.33304
 20
7.53062
 30
0.0
 10
-26.39376
 20
7.27264
 30
0.0
 10
-26.39376
 20
7.27264
 30
0.0
 10
-26.44995
 20
7.0339
 30
0.0
 10
-26.51242
 20
6.80034
 30
0.0
 10
-26.58023
 20
6.58493
 30
0.0
 10
-26.58023
 20
6.58493
 30
0.0
 10
-26.6421
 20
6.38844
 30
0.0
 10
-26.70844
 20
6.20703
 30
0.0
 10
-26.77854
 20
6.05056
 30
0.0
 10
-26.77854
 20
6.05056
 30
0.0
 10
-26.77854
 20
6.05056
 30
0.0
 10
-26.77883
 20
6.0499
 30
0.0
 10
-26.77883
 20
6.0499
 30
0.0
 10
-26.77883
 20
6.0499
 30
0.0
 10
-26.77883
 20
6.0499
 30
0.0
 10
-26.77883
 20
6.04913
 30
0.0
 10
-26.77883
 20
6.04913
 30
0.0
 10
-26.77883
 20
6.04913
 30
0.0
 10
-26.77883
 20
6.04913
 30
0.0
 10
-26.77661
 20
5.75488
 30
0.0
 10
-26.77661
 20
5.75488
 30
0.0
 10
-26.77661
 20
5.75488
 30
0.0
 10
-26.77661
 20
5.75488
 30
0.0
 10
-26.7728
 20
5.75489
 30
0.0
 10
-26.7728
 20
5.75489
 30
0.0
 10
-26.7728
 20
5.75489
 30
0.0
 10
-26.7728
 20
5.75489
 30
0.0
 10
-26.7728
 20
5.75108
 30
0.0
 10
-26.7728
 20
5.75108
 30
0.0
 10
-26.7728
 20
5.75108
 30
0.0
 10
-26.7728
 20
5.75108
 30
0.0
 10
-26.7728
 20
5.74727
 30
0.0
 10
-26.7728
 20
5.74727
 30
0.0
 10
-26.7728
 20
5.74727
 30
0.0
 10
-26.7728
 20
5.74727
 30
0.0
 10
-26.7728
 20
5.74704
 30
0.0
 10
-26.7728
 20
5.74704
 30
0.0
 10
-26.7728
 20
5.74704
 30
0.0
 10
-26.7728
 20
5.74704
 30
0.0
 10
-26.7728
 20
5.74323
 30
0.0
 10
-26.7728
 20
5.74323
 30
0.0
 10
-26.7728
 20
5.74323
 30
0.0
 10
-26.7728
 20
5.74323
 30
0.0
 10
-26.7728
 20
5.73942
 30
0.0
 10
-26.7728
 20
5.73942
 30
0.0
 10
-26.7728
 20
5.73942
 30
0.0
 10
-26.7728
 20
5.73942
 30
0.0
 10
-26.77661
 20
5.73942
 30
0.0
 10
-26.77661
 20
5.73942
 30
0.0
 10
-26.77661
 20
5.73942
 30
0.0
 10
-26.77661
 20
5.73942
 30
0.0
 10
-26.7781
 20
5.73942
 30
0.0
 10
-26.7781
 20
5.73942
 30
0.0
 10
-26.7781
 20
5.73942
 30
0.0
 10
-26.7781
 20
5.73942
 30
0.0
 10
-26.7781
 20
5.44704
 30
0.0
 10
-26.7781
 20
5.44704
 30
0.0
 10
-26.7781
 20
5.44704
 30
0.0
 10
-26.7781
 20
5.44704
 30
0.0
 10
-26.08572
 20
5.44704
 30
0.0
 10
-26.08572
 20
5.44704
 30
0.0
 10
-26.08572
 20
5.44704
 30
0.0
 10
-26.08572
 20
5.44704
 30
0.0
 10
-26.08572
 20
5.74349
 30
0.0
 10
-26.08572
 20
5.74349
 30
0.0
 10
-26.08572
 20
5.74349
 30
0.0
 10
-26.08572
 20
5.74349
 30
0.0
 10
-26.08572
 20
5.7473
 30
0.0
 10
-26.08572
 20
5.7473
 30
0.0
 10
-26.08572
 20
5.7473
 30
0.0
 10
-26.08572
 20
5.7473
 30
0.0
 10
-26.08572
 20
5.75111
 30
0.0
 10
-26.08572
 20
5.75111
 30
0.0
 10
-26.08572
 20
5.75111
 30
0.0
 10
-26.08572
 20
5.75111
 30
0.0
 10
-26.08191
 20
5.75111
 30
0.0
 10
-26.08191
 20
5.75111
 30
0.0
 10
-26.08191
 20
5.75111
 30
0.0
 10
-26.08191
 20
5.75111
 30
0.0
 10
-26.0781
 20
5.75111
 30
0.0
 10
-26.0781
 20
5.75111
 30
0.0
 10
-26.0781
 20
5.75111
 30
0.0
 10
-26.0781
 20
5.75111
 30
0.0
 10
-25.33322
 20
5.75111
 30
0.0
 10
-25.33322
 20
5.75111
 30
0.0
 10
-25.33322
 20
5.75111
 30
0.0
 10
-25.33322
 20
5.75111
 30
0.0
 10
-25.32941
 20
5.75111
 30
0.0
 10
-25.32941
 20
5.75111
 30
0.0
 10
-25.32941
 20
5.75111
 30
0.0
 10
-25.32941
 20
5.75111
 30
0.0
 10
-25.3256
 20
5.75111
 30
0.0
 10
-25.3256
 20
5.75111
 30
0.0
 10
-25.3256
 20
5.75111
 30
0.0
 10
-25.3256
 20
5.75111
 30
0.0
 10
-25.3256
 20
5.7473
 30
0.0
 10
-25.3256
 20
5.7473
 30
0.0
 10
-25.3256
 20
5.7473
 30
0.0
 10
-25.3256
 20
5.7473
 30
0.0
 10
-25.3256
 20
5.74349
 30
0.0
 10
-25.3256
 20
5.74349
 30
0.0
 10
-25.3256
 20
5.74349
 30
0.0
 10
-25.3256
 20
5.74349
 30
0.0
 10
-25.3256
 20
5.44704
 30
0.0
 10
-25.3256
 20
5.44704
 30
0.0
 10
-25.3256
 20
5.44704
 30
0.0
 10
-25.3256
 20
5.44704
 30
0.0
 10
-24.63322
 20
5.44704
 30
0.0
 10
-24.63322
 20
5.44704
 30
0.0
 10
-24.63322
 20
5.44704
 30
0.0
 10
-24.63322
 20
5.44704
 30
0.0
 10
-24.63322
 20
5.73942
 30
0.0
 10
-24.63322
 20
5.73942
 30
0.0
 10
-24.63322
 20
5.73942
 30
0.0
 10
-24.63322
 20
5.73942
 30
0.0
 10
-24.63371
 20
5.73942
 30
0.0
 10
-24.63371
 20
5.73942
 30
0.0
 10
-24.63371
 20
5.73942
 30
0.0
 10
-24.63371
 20
5.73942
 30
0.0
 10
-24.63752
 20
5.73942
 30
0.0
 10
-24.63752
 20
5.73942
 30
0.0
 10
-24.63752
 20
5.73942
 30
0.0
 10
-24.63752
 20
5.73942
 30
0.0
 10
-24.63752
 20
5.74323
 30
0.0
 10
-24.63752
 20
5.74323
 30
0.0
 10
-24.63752
 20
5.74323
 30
0.0
 10
-24.63752
 20
5.74323
 30
0.0
 10
-24.63752
 20
5.74704
 30
0.0
 10
-24.63752
 20
5.74704
 30
0.0
 10
-24.63752
 20
5.74704
 30
0.0
 10
-24.63752
 20
5.74704
 30
0.0
 10
-24.63752
 20
5.74727
 30
0.0
 10
-24.63752
 20
5.74727
 30
0.0
 10
-24.63752
 20
5.74727
 30
0.0
 10
-24.63752
 20
5.74727
 30
0.0
 10
-24.63752
 20
5.75108
 30
0.0
 10
-24.63752
 20
5.75108
 30
0.0
 10
-24.63752
 20
5.75108
 30
0.0
 10
-24.63752
 20
5.75108
 30
0.0
 10
-24.63752
 20
5.75489
 30
0.0
 10
-24.63752
 20
5.75489
 30
0.0
 10
-24.63752
 20
5.75489
 30
0.0
 10
-24.63752
 20
5.75489
 30
0.0
 10
-24.63367
 20
5.75488
 30
0.0
 10
-24.63367
 20
5.75488
 30
0.0
 10
-24.63367
 20
5.75488
 30
0.0
 10
-24.63367
 20
5.75488
 30
0.0
 10
-24.63149
 20
6.0492
 30
0.0
 10
-24.63149
 20
6.0492
 30
0.0
 10
-24.63149
 20
6.0492
 30
0.0
 10
-24.63149
 20
6.0492
 30
0.0
 10
-24.63149
 20
6.0499
 30
0.0
 10
-24.63149
 20
6.0499
 30
0.0
 10
-24.63149
 20
6.0499
 30
0.0
 10
-24.63149
 20
6.0499
 30
0.0
 10
-24.63176
 20
6.0505
 30
0.0
 10
-24.63176
 20
6.0505
 30
0.0
 10
-24.63176
 20
6.0505
 30
0.0
 10
-24.70049
 20
6.20136
 30
0.0
 10
-24.76587
 20
6.37903
 30
0.0
 10
-24.82708
 20
6.57294
 30
0.0
  0
SPLINE
  5
78
330
1F
100
AcDbEntity
  8
Master Layer 2
 62
   250
370
     9
100
AcDbSpline
210
0.0
220
0.0
230
1.0
 70
    27
 71
     3
 72
     8
 73
     4
 74
     0
 42
0.000000001
 43
0.0000000001
 40
0.0
 40
0.0
 40
0.0
 40
0.0
 40
1.0
 40
1.0
 40
1.0
 40
1.0
 10
-20.37781
 20
12.13789
 30
0.0
 10
-20.37781
 20
12.13789
 30
0.0
 10
-20.37781
 20
12.13789
 30
0.0
 10
-20.37781
 20
12.13789
 30
0.0
  0
SPLINE
  5
79
330
1F
100
AcDbEntity
  8
Master Layer 2
 62
   250
370
     9
100
AcDbSpline
210
0.0
220
0.0
230
1.0
 70
    27
 71
     3
 72
     8
 73
     4
 74
     0
 42
0.000000001
 43
0.0000000001
 40
0.0
 40
0.0
 40
0.0
 40
0.0
 40
1.0
 40
1.0
 40
1.0
 40
1.0
 10
-19.29015
 20
9.83157
 30
0.0
 10
-19.29015
 20
9.83157
 30
0.0
 10
-19.29015
 20
9.83157
 30
0.0
 10
-19.29015
 20
9.83157
 30
0.0
  0
SPLINE
  5
7A
330
1F
100
AcDbEntity
  8
Master Layer 2
 62
   250
370
     9
100
AcDbSpline
210
0.0
220
0.0
230
1.0
 70
    27
 71
     3
 72
     8
 73
     4
 74
     0
 42
0.000000001
 43
0.0000000001
 40
0.0
 40
0.0
 40
0.0
 40
0.0
 40
1.0
 40
1.0
 40
1.0
 40
1.0
 10
-19.2872
 20
10.29842
 30
0.0
 10
-19.2872
 20
10.29842
 30
0.0
 10
-19.2872
 20
10.29842
 30
0.0
 10
-19.2872
 20
10.29842
 30
0.0
  0
SPLINE
  5
7B
330
1F
100
AcDbEntity
  8
Master Layer 2
 62
   250
370
     9
100
AcDbSpline
210
0.0
220
0.0
230
1.0
 70
    27
 71
     3
 72
     8
 73
     4
 74
     0
 42
0.000000001
 43
0.0000000001
 40
0.0
 40
0.0
 40
0.0
 40
0.0
 40
1.0
 40
1.0
 40
1.0
 40
1.0
 10
-18.95633
 20
12.13789
 30
0.0
 10
-18.95633
 20
12.13789
 30
0.0
 10
-18.95633
 20
12.13789
 30
0.0
 10
-18.95633
 20
12.13789
 30
0.0
  0
SPLINE
  5
7C
330
1F
100
AcDbEntity
  8
Master Layer 2
 62
   250
370
     9
100
AcDbSpline
210
0.0
220
0.0
230
1.0
 70
    11
 71
     3
 72
   768
 73
   764
 74
     0
 42
0.000000001
 43
0.0000000001
 40
0.0
 40
0.0
 40
0.0
 40
0.0
 40
0.0052083333333333
 40
0.0052083333333333
 40
0.0052083333333333
 40
0.0052083333333333
 40
0.0104166666666667
 40
0.0104166666666667
 40
0.0104166666666667
 40
0.0104166666666667
 40
0.015625
 40
0.015625
 40
0.015625
 40
0.015625
 40
0.0208333333333333
 40
0.0208333333333333
 40
0.0208333333333333
 40
0.0208333333333333
 40
0.0260416666666667
 40
0.0260416666666667
 40
0.0260416666666667
 40
0.0260416666666667
 40
0.03125
 40
0.03125
 40
0.03125
 40
0.03125
 40
0.0364583333333333
 40
0.0364583333333333
 40
0.0364583333333333
 40
0.0364583333333333
 40
0.0416666666666667
 40
0.0416666666666667
 40
0.0416666666666667
 40
0.0416666666666667
 40
0.046875
 40
0.046875
 40
0.046875
 40
0.046875
 40
0.0520833333333333
 40
0.0520833333333333
 40
0.0520833333333333
 40
0.0520833333333333
 40
0.0572916666666667
 40
0.0572916666666667
 40
0.0572916666666667
 40
0.0572916666666667
 40
0.0625
 40
0.0625
 40
0.0625
 40
0.0625
 40
0.0677083333333333
 40
0.0677083333333333
 40
0.0677083333333333
 40
0.0677083333333333
 40
0.0729166666666667
 40
0.0729166666666667
 40
0.0729166666666667
 40
0.0729166666666667
 40
0.078125
 40
0.078125
 40
0.078125
 40
0.078125
 40
0.0833333333333333
 40
0.0833333333333333
 40
0.0833333333333333
 40
0.0833333333333333
 40
0.0885416666666667
 40
0.0885416666666667
 40
0.0885416666666667
 40
0.0885416666666667
 40
0.09375
 40
0.09375
 40
0.09375
 40
0.09375
 40
0.0989583333333333
 40
0.0989583333333333
 40
0.0989583333333333
 40
0.0989583333333333
 40
0.1041666666666667
 40
0.1041666666666667
 40
0.1041666666666667
 40
0.1041666666666667
 40
0.109375
 40
0.109375
 40
0.109375
 40
0.109375
 40
0.1145833333333333
 40
0.1145833333333333
 40
0.1145833333333333
 40
0.1145833333333333
 40
0.1197916666666667
 40
0.1197916666666667
 40
0.1197916666666667
 40
0.1197916666666667
 40
0.125
 40
0.125
 40
0.125
 40
0.125
 40
0.1302083333333333
 40
0.1302083333333333
 40
0.1302083333333333
 40
0.1302083333333333
 40
0.1354166666666667
 40
0.1354166666666667
 40
0.1354166666666667
 40
0.1354166666666667
 40
0.140625
 40
0.140625
 40
0.140625
 40
0.140625
 40
0.1458333333333333
 40
0.1458333333333333
 40
0.1458333333333333
 40
0.1458333333333333
 40
0.1510416666666667
 40
0.1510416666666667
 40
0.1510416666666667
 40
0.1510416666666667
 40
0.15625
 40
0.15625
 40
0.15625
 40
0.15625
 40
0.1614583333333333
 40
0.1614583333333333
 40
0.1614583333333333
 40
0.1614583333333333
 40
0.1666666666666667
 40
0.1666666666666667
 40
0.1666666666666667
 40
0.1666666666666667
 40
0.171875
 40
0.171875
 40
0.171875
 40
0.171875
 40
0.1770833333333333
 40
0.1770833333333333
 40
0.1770833333333333
 40
0.1770833333333333
 40
0.1822916666666667
 40
0.1822916666666667
 40
0.1822916666666667
 40
0.1822916666666667
 40
0.1875
 40
0.1875
 40
0.1875
 40
0.1875
 40
0.1927083333333333
 40
0.1927083333333333
 40
0.1927083333333333
 40
0.1927083333333333
 40
0.1979166666666667
 40
0.1979166666666667
 40
0.1979166666666667
 40
0.1979166666666667
 40
0.203125
 40
0.203125
 40
0.203125
 40
0.203125
 40
0.2083333333333333
 40
0.2083333333333333
 40
0.2083333333333333
 40
0.2083333333333333
 40
0.2135416666666667
 40
0.2135416666666667
 40
0.2135416666666667
 40
0.2135416666666667
 40
0.21875
 40
0.21875
 40
0.21875
 40
0.21875
 40
0.2239583333333333
 40
0.2239583333333333
 40
0.2239583333333333
 40
0.2239583333333333
 40
0.2291666666666667
 40
0.2291666666666667
 40
0.2291666666666667
 40
0.2291666666666667
 40
0.234375
 40
0.234375
 40
0.234375
 40
0.234375
 40
0.2395833333333333
 40
0.2395833333333333
 40
0.2395833333333333
 40
0.2395833333333333
 40
0.2447916666666667
 40
0.2447916666666667
 40
0.2447916666666667
 40
0.2447916666666667
 40
0.25
 40
0.25
 40
0.25
 40
0.25
 40
0.2552083333333333
 40
0.2552083333333333
 40
0.2552083333333333
 40
0.2552083333333333
 40
0.2604166666666667
 40
0.2604166666666667
 40
0.2604166666666667
 40
0.2604166666666667
 40
0.265625
 40
0.265625
 40
0.265625
 40
0.265625
 40
0.2708333333333333
 40
0.2708333333333333
 40
0.2708333333333333
 40
0.2708333333333333
 40
0.2760416666666667
 40
0.2760416666666667
 40
0.2760416666666667
 40
0.2760416666666667
 40
0.28125
 40
0.28125
 40
0.28125
 40
0.28125
 40
0.2864583333333333
 40
0.2864583333333333
 40
0.2864583333333333
 40
0.2864583333333333
 40
0.2916666666666667
 40
0.2916666666666667
 40
0.2916666666666667
 40
0.2916666666666667
 40
0.296875
 40
0.296875
 40
0.296875
 40
0.296875
 40
0.3020833333333333
 40
0.3020833333333333
 40
0.3020833333333333
 40
0.3020833333333333
 40
0.3072916666666667
 40
0.3072916666666667
 40
0.3072916666666667
 40
0.3072916666666667
 40
0.3125
 40
0.3125
 40
0.3125
 40
0.3125
 40
0.3177083333333333
 40
0.3177083333333333
 40
0.3177083333333333
 40
0.3177083333333333
 40
0.3229166666666667
 40
0.3229166666666667
 40
0.3229166666666667
 40
0.3229166666666667
 40
0.328125
 40
0.328125
 40
0.328125
 40
0.328125
 40
0.3333333333333333
 40
0.3333333333333333
 40
0.3333333333333333
 40
0.3333333333333333
 40
0.3385416666666667
 40
0.3385416666666667
 40
0.3385416666666667
 40
0.3385416666666667
 40
0.34375
 40
0.34375
 40
0.34375
 40
0.34375
 40
0.3489583333333333
 40
0.3489583333333333
 40
0.3489583333333333
 40
0.3489583333333333
 40
0.3541666666666667
 40
0.3541666666666667
 40
0.3541666666666667
 40
0.3541666666666667
 40
0.359375
 40
0.359375
 40
0.359375
 40
0.359375
 40
0.3645833333333333
 40
0.3645833333333333
 40
0.3645833333333333
 40
0.3645833333333333
 40
0.3697916666666667
 40
0.3697916666666667
 40
0.3697916666666667
 40
0.3697916666666667
 40
0.375
 40
0.375
 40
0.375
 40
0.375
 40
0.3802083333333333
 40
0.3802083333333333
 40
0.3802083333333333
 40
0.3802083333333333
 40
0.3854166666666667
 40
0.3854166666666667
 40
0.3854166666666667
 40
0.3854166666666667
 40
0.390625
 40
0.390625
 40
0.390625
 40
0.390625
 40
0.3958333333333333
 40
0.3958333333333333
 40
0.3958333333333333
 40
0.3958333333333333
 40
0.4010416666666667
 40
0.4010416666666667
 40
0.4010416666666667
 40
0.4010416666666667
 40
0.40625
 40
0.40625
 40
0.40625
 40
0.40625
 40
0.4114583333333333
 40
0.4114583333333333
 40
0.4114583333333333
 40
0.4114583333333333
 40
0.4166666666666667
 40
0.4166666666666667
 40
0.4166666666666667
 40
0.4166666666666667
 40
0.421875
 40
0.421875
 40
0.421875
 40
0.421875
 40
0.4270833333333333
 40
0.4270833333333333
 40
0.4270833333333333
 40
0.4270833333333333
 40
0.4322916666666667
 40
0.4322916666666667
 40
0.4322916666666667
 40
0.4322916666666667
 40
0.4375
 40
0.4375
 40
0.4375
 40
0.4375
 40
0.4427083333333333
 40
0.4427083333333333
 40
0.4427083333333333
 40
0.4427083333333333
 40
0.4479166666666667
 40
0.4479166666666667
 40
0.4479166666666667
 40
0.4479166666666667
 40
0.453125
 40
0.453125
 40
0.453125
 40
0.453125
 40
0.4583333333333333
 40
0.4583333333333333
 40
0.4583333333333333
 40
0.4583333333333333
 40
0.4635416666666667
 40
0.4635416666666667
 40
0.4635416666666667
 40
0.4635416666666667
 40
0.46875
 40
0.46875
 40
0.46875
 40
0.46875
 40
0.4739583333333333
 40
0.4739583333333333
 40
0.4739583333333333
 40
0.4739583333333333
 40
0.4791666666666667
 40
0.4791666666666667
 40
0.4791666666666667
 40
0.4791666666666667
 40
0.484375
 40
0.484375
 40
0.484375
 40
0.484375
 40
0.4895833333333333
 40
0.4895833333333333
 40
0.4895833333333333
 40
0.4895833333333333
 40
0.4947916666666667
 40
0.4947916666666667
 40
0.4947916666666667
 40
0.4947916666666667
 40
0.5
 40
0.5
 40
0.5
 40
0.5
 40
0.5052083333333334
 40
0.5052083333333334
 40
0.5052083333333334
 40
0.5052083333333334
 40
0.5104166666666666
 40
0.5104166666666666
 40
0.5104166666666666
 40
0.5104166666666666
 40
0.515625
 40
0.515625
 40
0.515625
 40
0.515625
 40
0.5208333333333334
 40
0.5208333333333334
 40
0.5208333333333334
 40
0.5208333333333334
 40
0.5260416666666666
 40
0.5260416666666666
 40
0.5260416666666666
 40
0.5260416666666666
 40
0.53125
 40
0.53125
 40
0.53125
 40
0.53125
 40
0.5364583333333334
 40
0.5364583333333334
 40
0.5364583333333334
 40
0.5364583333333334
 40
0.5416666666666666
 40
0.5416666666666666
 40
0.5416666666666666
 40
0.5416666666666666
 40
0.546875
 40
0.546875
 40
0.546875
 40
0.546875
 40
0.5520833333333334
 40
0.5520833333333334
 40
0.5520833333333334
 40
0.5520833333333334
 40
0.5572916666666666
 40
0.5572916666666666
 40
0.5572916666666666
 40
0.5572916666666666
 40
0.5625
 40
0.5625
 40
0.5625
 40
0.5625
 40
0.5677083333333334
 40
0.5677083333333334
 40
0.5677083333333334
 40
0.5677083333333334
 40
0.5729166666666666
 40
0.5729166666666666
 40
0.5729166666666666
 40
0.5729166666666666
 40
0.578125
 40
0.578125
 40
0.578125
 40
0.578125
 40
0.5833333333333334
 40
0.5833333333333334
 40
0.5833333333333334
 40
0.5833333333333334
 40
0.5885416666666666
 40
0.5885416666666666
 40
0.5885416666666666
 40
0.5885416666666666
 40
0.59375
 40
0.59375
 40
0.59375
 40
0.59375
 40
0.5989583333333334
 40
0.5989583333333334
 40
0.5989583333333334
 40
0.5989583333333334
 40
0.6041666666666666
 40
0.6041666666666666
 40
0.6041666666666666
 40
0.6041666666666666
 40
0.609375
 40
0.609375
 40
0.609375
 40
0.609375
 40
0.6145833333333334
 40
0.6145833333333334
 40
0.6145833333333334
 40
0.6145833333333334
 40
0.6197916666666666
 40
0.6197916666666666
 40
0.6197916666666666
 40
0.6197916666666666
 40
0.625
 40
0.625
 40
0.625
 40
0.625
 40
0.6302083333333334
 40
0.6302083333333334
 40
0.6302083333333334
 40
0.6302083333333334
 40
0.6354166666666666
 40
0.6354166666666666
 40
0.6354166666666666
 40
0.6354166666666666
 40
0.640625
 40
0.640625
 40
0.640625
 40
0.640625
 40
0.6458333333333334
 40
0.6458333333333334
 40
0.6458333333333334
 40
0.6458333333333334
 40
0.6510416666666666
 40
0.6510416666666666
 40
0.6510416666666666
 40
0.6510416666666666
 40
0.65625
 40
0.65625
 40
0.65625
 40
0.65625
 40
0.6614583333333334
 40
0.6614583333333334
 40
0.6614583333333334
 40
0.6614583333333334
 40
0.6666666666666666
 40
0.6666666666666666
 40
0.6666666666666666
 40
0.6666666666666666
 40
0.671875
 40
0.671875
 40
0.671875
 40
0.671875
 40
0.6770833333333334
 40
0.6770833333333334
 40
0.6770833333333334
 40
0.6770833333333334
 40
0.6822916666666666
 40
0.6822916666666666
 40
0.6822916666666666
 40
0.6822916666666666
 40
0.6875
 40
0.6875
 40
0.6875
 40
0.6875
 40
0.6927083333333334
 40
0.6927083333333334
 40
0.6927083333333334
 40
0.6927083333333334
 40
0.6979166666666666
 40
0.6979166666666666
 40
0.6979166666666666
 40
0.6979166666666666
 40
0.703125
 40
0.703125
 40
0.703125
 40
0.703125
 40
0.7083333333333334
 40
0.7083333333333334
 40
0.7083333333333334
 40
0.7083333333333334
 40
0.7135416666666666
 40
0.7135416666666666
 40
0.7135416666666666
 40
0.7135416666666666
 40
0.71875
 40
0.71875
 40
0.71875
 40
0.71875
 40
0.7239583333333334
 40
0.7239583333333334
 40
0.7239583333333334
 40
0.7239583333333334
 40
0.7291666666666666
 40
0.7291666666666666
 40
0.7291666666666666
 40
0.7291666666666666
 40
0.734375
 40
0.734375
 40
0.734375
 40
0.734375
 40
0.7395833333333334
 40
0.7395833333333334
 40
0.7395833333333334
 40
0.7395833333333334
 40
0.7447916666666666
 40
0.7447916666666666
 40
0.7447916666666666
 40
0.7447916666666666
 40
0.75
 40
0.75
 40
0.75
 40
0.75
 40
0.7552083333333334
 40
0.7552083333333334
 40
0.7552083333333334
 40
0.7552083333333334
 40
0.7604166666666666
 40
0.7604166666666666
 40
0.7604166666666666
 40
0.7604166666666666
 40
0.765625
 40
0.765625
 40
0.765625
 40
0.765625
 40
0.7708333333333334
 40
0.7708333333333334
 40
0.7708333333333334
 40
0.7708333333333334
 40
0.7760416666666666
 40
0.7760416666666666
 40
0.7760416666666666
 40
0.7760416666666666
 40
0.78125
 40
0.78125
 40
0.78125
 40
0.78125
 40
0.7864583333333334
 40
0.7864583333333334
 40
0.7864583333333334
 40
0.7864583333333334
 40
0.7916666666666666
 40
0.7916666666666666
 40
0.7916666666666666
 40
0.7916666666666666
 40
0.796875
 40
0.796875
 40
0.796875
 40
0.796875
 40
0.8020833333333334
 40
0.8020833333333334
 40
0.8020833333333334
 40
0.8020833333333334
 40
0.8072916666666666
 40
0.8072916666666666
 40
0.8072916666666666
 40
0.8072916666666666
 40
0.8125
 40
0.8125
 40
0.8125
 40
0.8125
 40
0.8177083333333334
 40
0.8177083333333334
 40
0.8177083333333334
 40
0.8177083333333334
 40
0.8229166666666666
 40
0.8229166666666666
 40
0.8229166666666666
 40
0.8229166666666666
 40
0.828125
 40
0.828125
 40
0.828125
 40
0.828125
 40
0.8333333333333334
 40
0.8333333333333334
 40
0.8333333333333334
 40
0.8333333333333334
 40
0.8385416666666666
 40
0.8385416666666666
 40
0.8385416666666666
 40
0.8385416666666666
 40
0.84375
 40
0.84375
 40
0.84375
 40
0.84375
 40
0.8489583333333334
 40
0.8489583333333334
 40
0.8489583333333334
 40
0.8489583333333334
 40
0.8541666666666666
 40
0.8541666666666666
 40
0.8541666666666666
 40
0.8541666666666666
 40
0.859375
 40
0.859375
 40
0.859375
 40
0.859375
 40
0.8645833333333334
 40
0.8645833333333334
 40
0.8645833333333334
 40
0.8645833333333334
 40
0.8697916666666666
 40
0.8697916666666666
 40
0.8697916666666666
 40
0.8697916666666666
 40
0.875
 40
0.875
 40
0.875
 40
0.875
 40
0.8802083333333334
 40
0.8802083333333334
 40
0.8802083333333334
 40
0.8802083333333334
 40
0.8854166666666666
 40
0.8854166666666666
 40
0.8854166666666666
 40
0.8854166666666666
 40
0.890625
 40
0.890625
 40
0.890625
 40
0.890625
 40
0.8958333333333334
 40
0.8958333333333334
 40
0.8958333333333334
 40
0.8958333333333334
 40
0.9010416666666666
 40
0.9010416666666666
 40
0.9010416666666666
 40
0.9010416666666666
 40
0.90625
 40
0.90625
 40
0.90625
 40
0.90625
 40
0.9114583333333334
 40
0.9114583333333334
 40
0.9114583333333334
 40
0.9114583333333334
 40
0.9166666666666666
 40
0.9166666666666666
 40
0.9166666666666666
 40
0.9166666666666666
 40
0.921875
 40
0.921875
 40
0.921875
 40
0.921875
 40
0.9270833333333334
 40
0.9270833333333334
 40
0.9270833333333334
 40
0.9270833333333334
 40
0.9322916666666666
 40
0.9322916666666666
 40
0.9322916666666666
 40
0.9322916666666666
 40
0.9375
 40
0.9375
 40
0.9375
 40
0.9375
 40
0.9427083333333334
 40
0.9427083333333334
 40
0.9427083333333334
 40
0.9427083333333334
 40
0.9479166666666666
 40
0.9479166666666666
 40
0.9479166666666666
 40
0.9479166666666666
 40
0.953125
 40
0.953125
 40
0.953125
 40
0.953125
 40
0.9583333333333334
 40
0.9583333333333334
 40
0.9583333333333334
 40
0.9583333333333334
 40
0.9635416666666666
 40
0.9635416666666666
 40
0.9635416666666666
 40
0.9635416666666666
 40
0.96875
 40
0.96875
 40
0.96875
 40
0.96875
 40
0.9739583333333334
 40
0.9739583333333334
 40
0.9739583333333334
 40
0.9739583333333334
 40
0.9791666666666666
 40
0.9791666666666666
 40
0.9791666666666666
 40
0.9791666666666666
 40
0.984375
 40
0.984375
 40
0.984375
 40
0.984375
 40
0.9895833333333334
 40
0.9895833333333334
 40
0.9895833333333334
 40
0.9895833333333334
 40
1.0
 40
1.0
 40
1.0
 40
1.0
 10
-18.72894
 20
12.2773
 30
0.0
 10
-18.75802
 20
12.31943
 30
0.0
 10
-18.78377
 20
12.36293
 30
0.0
 10
-18.80606
 20
12.4075
 30
0.0
 10
-18.80606
 20
12.4075
 30
0.0
 10
-18.80606
 20
12.4075
 30
0.0
 10
-18.80752
 20
12.41042
 30
0.0
 10
-18.80752
 20
12.41042
 30
0.0
 10
-18.80752
 20
12.41042
 30
0.0
 10
-18.81955
 20
12.43464
 30
0.0
 10
-18.83055
 20
12.45919
 30
0.0
 10
-18.84053
 20
12.484
 30
0.0
 10
-18.84053
 20
12.484
 30
0.0
 10
-18.8693
 20
12.55558
 30
0.0
 10
-18.88953
 20
12.62948
 30
0.0
 10
-18.90078
 20
12.70461
 30
0.0
 10
-18.90078
 20
12.70461
 30
0.0
 10
-18.91194
 20
12.77914
 30
0.0
 10
-18.9143
 20
12.85492
 30
0.0
 10
-18.90751
 20
12.93085
 30
0.0
 10
-18.90751
 20
12.93085
 30
0.0
 10
-18.90751
 20
12.93085
 30
0.0
 10
-18.90745
 20
12.93149
 30
0.0
 10
-18.90745
 20
12.93149
 30
0.0
 10
-18.90745
 20
12.93149
 30
0.0
 10
-18.90501
 20
12.95851
 30
0.0
 10
-18.90141
 20
12.98555
 30
0.0
 10
-18.89664
 20
13.01258
 30
0.0
 10
-18.89664
 20
13.01258
 30
0.0
 10
-18.88825
 20
13.06011
 30
0.0
 10
-18.87621
 20
13.10759
 30
0.0
 10
-18.86047
 20
13.15477
 30
0.0
 10
-18.86047
 20
13.15477
 30
0.0
 10
-18.84583
 20
13.19866
 30
0.0
 10
-18.82861
 20
13.2404
 30
0.0
 10
-18.80886
 20
13.28018
 30
0.0
 10
-18.80886
 20
13.28018
 30
0.0
 10
-18.78913
 20
13.31994
 30
0.0
 10
-18.76685
 20
13.35777
 30
0.0
 10
-18.74208
 20
13.39387
 30
0.0
 10
-18.74208
 20
13.39387
 30
0.0
 10
-18.71728
 20
13.43
 30
0.0
 10
-18.68997
 20
13.46443
 30
0.0
 10
-18.66021
 20
13.49733
 30
0.0
 10
-18.66021
 20
13.49733
 30
0.0
 10
-18.63048
 20
13.53021
 30
0.0
 10
-18.59813
 20
13.56175
 30
0.0
 10
-18.56325
 20
13.5921
 30
0.0
 10
-18.56325
 20
13.5921
 30
0.0
 10
-18.56325
 20
13.5921
 30
0.0
 10
-18.56025
 20
13.59471
 30
0.0
 10
-18.56025
 20
13.59471
 30
0.0
 10
-18.56025
 20
13.59471
 30
0.0
 10
-18.56025
 20
13.59471
 30
0.0
 10
-18.55723
 20
13.59732
 30
0.0
 10
-18.55723
 20
13.59732
 30
0.0
 10
-18.55723
 20
13.59732
 30
0.0
 10
-18.55723
 20
13.59732
 30
0.0
 10
-18.56
 20
13.60021
 30
0.0
 10
-18.56
 20
13.60021
 30
0.0
 10
-18.56
 20
13.60021
 30
0.0
 10
-18.56
 20
13.60021
 30
0.0
 10
-18.56277
 20
13.6031
 30
0.0
 10
-18.56277
 20
13.6031
 30
0.0
 10
-18.56277
 20
13.6031
 30
0.0
 10
-18.58395
 20
13.62513
 30
0.0
 10
-18.60661
 20
13.64709
 30
0.0
 10
-18.63031
 20
13.66858
 30
0.0
 10
-18.63031
 20
13.66858
 30
0.0
 10
-18.654
 20
13.69006
 30
0.0
 10
-18.67857
 20
13.71094
 30
0.0
 10
-18.70361
 20
13.73082
 30
0.0
 10
-18.70361
 20
13.73082
 30
0.0
 10
-18.72841
 20
13.75052
 30
0.0
 10
-18.75394
 20
13.76947
 30
0.0
 10
-18.77981
 20
13.78733
 30
0.0
 10
-18.77981
 20
13.78733
 30
0.0
 10
-18.80498
 20
13.80469
 30
0.0
 10
-18.83056
 20
13.82108
 30
0.0
 10
-18.8562
 20
13.83613
 30
0.0
 10
-18.8562
 20
13.83613
 30
0.0
 10
-18.87466
 20
13.84758
 30
0.0
 10
-18.89246
 20
13.86031
 30
0.0
 10
-18.90944
 20
13.87413
 30
0.0
 10
-18.90944
 20
13.87413
 30
0.0
 10
-18.92654
 20
13.88805
 30
0.0
 10
-18.94278
 20
13.90308
 30
0.0
 10
-18.95802
 20
13.91905
 30
0.0
 10
-18.95802
 20
13.91905
 30
0.0
 10
-18.97334
 20
13.93511
 30
0.0
 10
-18.98773
 20
13.95217
 30
0.0
 10
-19.00102
 20
13.97007
 30
0.0
 10
-19.00102
 20
13.97007
 30
0.0
 10
-19.00102
 20
13.97007
 30
0.0
 10
-19.00409
 20
13.97424
 30
0.0
 10
-19.00409
 20
13.97424
 30
0.0
 10
-19.00409
 20
13.97424
 30
0.0
 10
-19.00409
 20
13.97424
 30
0.0
 10
-19.00443
 20
13.97471
 30
0.0
 10
-19.00443
 20
13.97471
 30
0.0
 10
-19.00443
 20
13.97471
 30
0.0
 10
-19.01637
 20
13.99117
 30
0.0
 10
-19.02745
 20
14.00836
 30
0.0
 10
-19.03756
 20
14.02616
 30
0.0
 10
-19.03756
 20
14.02616
 30
0.0
 10
-19.04913
 20
14.04655
 30
0.0
 10
-19.05945
 20
14.06775
 30
0.0
 10
-19.06836
 20
14.08957
 30
0.0
 10
-19.06836
 20
14.08957
 30
0.0
 10
-19.07716
 20
14.1111
 30
0.0
 10
-19.08466
 20
14.13341
 30
0.0
 10
-19.09072
 20
14.15628
 30
0.0
 10
-19.09072
 20
14.15628
 30
0.0
 10
-19.09668
 20
14.17875
 30
0.0
 10
-19.10125
 20
14.20175
 30
0.0
 10
-19.10429
 20
14.22511
 30
0.0
 10
-19.10429
 20
14.22511
 30
0.0
 10
-19.10728
 20
14.24802
 30
0.0
 10
-19.10883
 20
14.27137
 30
0.0
 10
-19.10883
 20
14.295
 30
0.0
 10
-19.10883
 20
14.295
 30
0.0
 10
-19.10883
 20
14.295
 30
0.0
 10
-19.10883
 20
14.37417
 30
0.0
 10
-19.10883
 20
14.37417
 30
0.0
 10
-19.10883
 20
14.37417
 30
0.0
 10
-19.10883
 20
14.3889
 30
0.0
 10
-19.11029
 20
14.40332
 30
0.0
 10
-19.11307
 20
14.41725
 30
0.0
 10
-19.11307
 20
14.41725
 30
0.0
 10
-19.11592
 20
14.43153
 30
0.0
 10
-19.12018
 20
14.44539
 30
0.0
 10
-19.12568
 20
14.45862
 30
0.0
 10
-19.12568
 20
14.45862
 30
0.0
 10
-19.13128
 20
14.47208
 30
0.0
 10
-19.13819
 20
14.4849
 30
0.0
 10
-19.14622
 20
14.49688
 30
0.0
 10
-19.14622
 20
14.49688
 30
0.0
 10
-19.15432
 20
14.50897
 30
0.0
 10
-19.16362
 20
14.52026
 30
0.0
 10
-19.1739
 20
14.53053
 30
0.0
 10
-19.1739
 20
14.53053
 30
0.0
 10
-19.18417
 20
14.54081
 30
0.0
 10
-19.19547
 20
14.5501
 30
0.0
 10
-19.20756
 20
14.55822
 30
0.0
 10
-19.20756
 20
14.55822
 30
0.0
 10
-19.21954
 20
14.56625
 30
0.0
 10
-19.23236
 20
14.57316
 30
0.0
 10
-19.24581
 20
14.57875
 30
0.0
 10
-19.24581
 20
14.57875
 30
0.0
 10
-19.25904
 20
14.58425
 30
0.0
 10
-19.2729
 20
14.58851
 30
0.0
 10
-19.28718
 20
14.59136
 30
0.0
 10
-19.28718
 20
14.59136
 30
0.0
 10
-19.30111
 20
14.59414
 30
0.0
 10
-19.31553
 20
14.5956
 30
0.0
 10
-19.33026
 20
14.5956
 30
0.0
 10
-19.33026
 20
14.5956
 30
0.0
 10
-19.33026
 20
14.5956
 30
0.0
 10
-19.66707
 20
14.5956
 30
0.0
 10
-19.66707
 20
14.5956
 30
0.0
 10
-19.66707
 20
14.5956
 30
0.0
 10
-19.66707
 20
14.5956
 30
0.0
 10
-20.00388
 20
14.5956
 30
0.0
 10
-20.00388
 20
14.5956
 30
0.0
 10
-20.00388
 20
14.5956
 30
0.0
 10
-20.01861
 20
14.5956
 30
0.0
 10
-20.03303
 20
14.59414
 30
0.0
 10
-20.04696
 20
14.59136
 30
0.0
 10
-20.04696
 20
14.59136
 30
0.0
 10
-20.06124
 20
14.58851
 30
0.0
 10
-20.0751
 20
14.58425
 30
0.0
 10
-20.08833
 20
14.57875
 30
0.0
 10
-20.08833
 20
14.57875
 30
0.0
 10
-20.10177
 20
14.57316
 30
0.0
 10
-20.11459
 20
14.56625
 30
0.0
 10
-20.12657
 20
14.55822
 30
0.0
 10
-20.12657
 20
14.55822
 30
0.0
 10
-20.13868
 20
14.55011
 30
0.0
 10
-20.14998
 20
14.5408
 30
0.0
 10
-20.16026
 20
14.53054
 30
0.0
 10
-20.16026
 20
14.53054
 30
0.0
 10
-20.17052
 20
14.52028
 30
0.0
 10
-20.1798
 20
14.50899
 30
0.0
 10
-20.18792
 20
14.49688
 30
0.0
 10
-20.18792
 20
14.49688
 30
0.0
 10
-20.19595
 20
14.48489
 30
0.0
 10
-20.20286
 20
14.47207
 30
0.0
 10
-20.20846
 20
14.45862
 30
0.0
 10
-20.20846
 20
14.45862
 30
0.0
 10
-20.21396
 20
14.44539
 30
0.0
 10
-20.21822
 20
14.43153
 30
0.0
 10
-20.22107
 20
14.41725
 30
0.0
 10
-20.22107
 20
14.41725
 30
0.0
 10
-20.22385
 20
14.40332
 30
0.0
 10
-20.22531
 20
14.3889
 30
0.0
 10
-20.22531
 20
14.37417
 30
0.0
 10
-20.22531
 20
14.37417
 30
0.0
 10
-20.22531
 20
14.37417
 30
0.0
 10
-20.22531
 20
14.295
 30
0.0
 10
-20.22531
 20
14.295
 30
0.0
 10
-20.22531
 20
14.295
 30
0.0
 10
-20.22531
 20
14.27137
 30
0.0
 10
-20.22686
 20
14.24802
 30
0.0
 10
-20.22985
 20
14.22511
 30
0.0
 10
-20.22985
 20
14.22511
 30
0.0
 10
-20.23289
 20
14.20175
 30
0.0
 10
-20.23746
 20
14.17875
 30
0.0
 10
-20.24342
 20
14.15628
 30
0.0
 10
-20.24342
 20
14.15628
 30
0.0
 10
-20.24948
 20
14.13341
 30
0.0
 10
-20.25698
 20
14.1111
 30
0.0
 10
-20.26578
 20
14.08957
 30
0.0
 10
-20.26578
 20
14.08957
 30
0.0
 10
-20.27469
 20
14.06775
 30
0.0
 10
-20.28501
 20
14.04655
 30
0.0
 10
-20.29658
 20
14.02616
 30
0.0
 10
-20.29658
 20
14.02616
 30
0.0
 10
-20.30764
 20
14.00668
 30
0.0
 10
-20.31987
 20
13.98792
 30
0.0
 10
-20.33312
 20
13.97007
 30
0.0
 10
-20.33312
 20
13.97007
 30
0.0
 10
-20.34641
 20
13.95217
 30
0.0
 10
-20.3608
 20
13.93511
 30
0.0
 10
-20.37612
 20
13.91905
 30
0.0
 10
-20.37612
 20
13.91905
 30
0.0
 10
-20.39136
 20
13.90308
 30
0.0
 10
-20.4076
 20
13.88805
 30
0.0
 10
-20.4247
 20
13.87413
 30
0.0
 10
-20.4247
 20
13.87413
 30
0.0
 10
-20.44168
 20
13.86031
 30
0.0
 10
-20.45948
 20
13.84758
 30
0.0
 10
-20.47794
 20
13.83613
 30
0.0
 10
-20.47794
 20
13.83613
 30
0.0
 10
-20.50358
 20
13.82108
 30
0.0
 10
-20.52916
 20
13.80469
 30
0.0
 10
-20.55433
 20
13.78733
 30
0.0
 10
-20.55433
 20
13.78733
 30
0.0
 10
-20.5802
 20
13.76947
 30
0.0
 10
-20.60573
 20
13.75052
 30
0.0
 10
-20.63053
 20
13.73082
 30
0.0
 10
-20.63053
 20
13.73082
 30
0.0
 10
-20.65557
 20
13.71094
 30
0.0
 10
-20.68014
 20
13.69006
 30
0.0
 10
-20.70383
 20
13.66858
 30
0.0
 10
-20.70383
 20
13.66858
 30
0.0
 10
-20.72753
 20
13.64709
 30
0.0
 10
-20.75019
 20
13.62513
 30
0.0
 10
-20.77138
 20
13.60309
 30
0.0
 10
-20.77138
 20
13.60309
 30
0.0
 10
-20.77138
 20
13.60309
 30
0.0
 10
-20.77414
 20
13.6002
 30
0.0
 10
-20.77414
 20
13.6002
 30
0.0
 10
-20.77414
 20
13.6002
 30
0.0
 10
-20.77414
 20
13.6002
 30
0.0
 10
-20.77689
 20
13.59732
 30
0.0
 10
-20.77689
 20
13.59732
 30
0.0
 10
-20.77689
 20
13.59732
 30
0.0
 10
-20.77689
 20
13.59732
 30
0.0
 10
-20.77389
 20
13.59471
 30
0.0
 10
-20.77389
 20
13.59471
 30
0.0
 10
-20.77389
 20
13.59471
 30
0.0
 10
-20.77389
 20
13.59471
 30
0.0
 10
-20.77089
 20
13.5921
 30
0.0
 10
-20.77089
 20
13.5921
 30
0.0
 10
-20.77089
 20
13.5921
 30
0.0
 10
-20.73601
 20
13.56175
 30
0.0
 10
-20.70366
 20
13.53021
 30
0.0
 10
-20.67393
 20
13.49733
 30
0.0
 10
-20.67393
 20
13.49733
 30
0.0
 10
-20.64417
 20
13.46443
 30
0.0
 10
-20.61686
 20
13.43
 30
0.0
 10
-20.59206
 20
13.39387
 30
0.0
 10
-20.59206
 20
13.39387
 30
0.0
 10
-20.5673
 20
13.35777
 30
0.0
 10
-20.54501
 20
13.31994
 30
0.0
 10
-20.52529
 20
13.28019
 30
0.0
 10
-20.52529
 20
13.28019
 30
0.0
 10
-20.50555
 20
13.24041
 30
0.0
 10
-20.48832
 20
13.19866
 30
0.0
 10
-20.47367
 20
13.15477
 30
0.0
 10
-20.47367
 20
13.15477
 30
0.0
 10
-20.45883
 20
13.11031
 30
0.0
 10
-20.44729
 20
13.06558
 30
0.0
 10
-20.43899
 20
13.0208
 30
0.0
 10
-20.43899
 20
13.0208
 30
0.0
 10
-20.43343
 20
12.99082
 30
0.0
 10
-20.42931
 20
12.96081
 30
0.0
 10
-20.42663
 20
12.93085
 30
0.0
 10
-20.42663
 20
12.93085
 30
0.0
 10
-20.42419
 20
12.90351
 30
0.0
 10
-20.42293
 20
12.87619
 30
0.0
 10
-20.42284
 20
12.84894
 30
0.0
 10
-20.42284
 20
12.84894
 30
0.0
 10
-20.42268
 20
12.80051
 30
0.0
 10
-20.42622
 20
12.7523
 30
0.0
 10
-20.43336
 20
12.70461
 30
0.0
 10
-20.43336
 20
12.70461
 30
0.0
 10
-20.44461
 20
12.62948
 30
0.0
 10
-20.46484
 20
12.55558
 30
0.0
 10
-20.49361
 20
12.484
 30
0.0
 10
-20.49361
 20
12.484
 30
0.0
 10
-20.52236
 20
12.4125
 30
0.0
 10
-20.55969
 20
12.34323
 30
0.0
 10
-20.6052
 20
12.2773
 30
0.0
 10
-20.6052
 20
12.2773
 30
0.0
 10
-20.6052
 20
12.2773
 30
0.0
 10
-20.60736
 20
12.27417
 30
0.0
 10
-20.60736
 20
12.27417
 30
0.0
 10
-20.60736
 20
12.27417
 30
0.0
 10
-20.60736
 20
12.27417
 30
0.0
 10
-20.60952
 20
12.27104
 30
0.0
 10
-20.60952
 20
12.27104
 30
0.0
 10
-20.60952
 20
12.27104
 30
0.0
 10
-20.60952
 20
12.27104
 30
0.0
 10
-20.60639
 20
12.26888
 30
0.0
 10
-20.60639
 20
12.26888
 30
0.0
 10
-20.60639
 20
12.26888
 30
0.0
 10
-20.60639
 20
12.26888
 30
0.0
 10
-20.60326
 20
12.26672
 30
0.0
 10
-20.60326
 20
12.26672
 30
0.0
 10
-20.60326
 20
12.26672
 30
0.0
 10
-20.50742
 20
12.20058
 30
0.0
 10
-20.46923
 20
12.18211
 30
0.0
 10
-20.37781
 20
12.13789
 30
0.0
 10
-20.37781
 20
12.13789
 30
0.0
 10
-20.37781
 20
12.13789
 30
0.0
 10
-20.36275
 20
12.1306
 30
0.0
 10
-20.36275
 20
12.1306
 30
0.0
 10
-20.36275
 20
12.1306
 30
0.0
 10
-20.33611
 20
12.1177
 30
0.0
 10
-20.31096
 20
12.10113
 30
0.0
 10
-20.28745
 20
12.08189
 30
0.0
 10
-20.28745
 20
12.08189
 30
0.0
 10
-20.262
 20
12.06107
 30
0.0
 10
-20.23845
 20
12.03711
 30
0.0
 10
-20.21693
 20
12.01124
 30
0.0
 10
-20.21693
 20
12.01124
 30
0.0
 10
-20.19311
 20
11.98262
 30
0.0
 10
-20.17167
 20
11.95159
 30
0.0
 10
-20.15272
 20
11.91978
 30
0.0
 10
-20.15272
 20
11.91978
 30
0.0
 10
-20.13168
 20
11.88445
 30
0.0
 10
-20.11368
 20
11.84812
 30
0.0
 10
-20.09888
 20
11.81303
 30
0.0
 10
-20.09888
 20
11.81303
 30
0.0
 10
-20.09235
 20
11.79754
 30
0.0
 10
-20.08629
 20
11.77925
 30
0.0
 10
-20.08083
 20
11.75939
 30
0.0
 10
-20.08083
 20
11.75939
 30
0.0
 10
-20.07488
 20
11.73777
 30
0.0
 10
-20.06957
 20
11.71411
 30
0.0
 10
-20.06505
 20
11.69005
 30
0.0
 10
-20.06505
 20
11.69005
 30
0.0
 10
-20.06006
 20
11.66348
 30
0.0
 10
-20.056
 20
11.63647
 30
0.0
 10
-20.05305
 20
11.61111
 30
0.0
 10
-20.05305
 20
11.61111
 30
0.0
 10
-20.04995
 20
11.58453
 30
0.0
 10
-20.04802
 20
11.55974
 30
0.0
 10
-20.04742
 20
11.53912
 30
0.0
 10
-20.04742
 20
11.53912
 30
0.0
 10
-20.03519
 20
11.12197
 30
0.0
 10
-20.04203
 20
10.64277
 30
0.0
 10
-20.04693
 20
10.29922
 30
0.0
 10
-20.04693
 20
10.29922
 30
0.0
 10
-20.04693
 20
10.29922
 30
0.0
 10
-20.04694
 20
10.29874
 30
0.0
 10
-20.04694
 20
10.29874
 30
0.0
 10
-20.04694
 20
10.29874
 30
0.0
 10
-20.04694
 20
10.29874
 30
0.0
 10
-20.04694
 20
10.29857
 30
0.0
 10
-20.04694
 20
10.29857
 30
0.0
 10
-20.04694
 20
10.29857
 30
0.0
 10
-20.04694
 20
10.29857
 30
0.0
 10
-20.04693
 20
10.29829
 30
0.0
 10
-20.04693
 20
10.29829
 30
0.0
 10
-20.04693
 20
10.29829
 30
0.0
 10
-20.04693
 20
10.29829
 30
0.0
 10
-20.04728
 20
10.27745
 30
0.0
 10
-20.04728
 20
10.27745
 30
0.0
 10
-20.04728
 20
10.27745
 30
0.0
 10
-20.04945
 20
10.14658
 30
0.0
 10
-20.05103
 20
10.05152
 30
0.0
 10
-20.05085
 20
9.9809
 30
0.0
 10
-20.05085
 20
9.9809
 30
0.0
 10
-20.05067
 20
9.91022
 30
0.0
 10
-20.04872
 20
9.86396
 30
0.0
 10
-20.04388
 20
9.83082
 30
0.0
 10
-20.04388
 20
9.83082
 30
0.0
 10
-20.04358
 20
9.80169
 30
0.0
 10
-20.0436
 20
9.77171
 30
0.0
 10
-20.04392
 20
9.741
 30
0.0
 10
-20.04392
 20
9.741
 30
0.0
 10
-20.04424
 20
9.70991
 30
0.0
 10
-20.04491
 20
9.67795
 30
0.0
 10
-20.04587
 20
9.64524
 30
0.0
 10
-20.04587
 20
9.64524
 30
0.0
 10
-20.04684
 20
9.61244
 30
0.0
 10
-20.04814
 20
9.57876
 30
0.0
 10
-20.04975
 20
9.54428
 30
0.0
 10
-20.04975
 20
9.54428
 30
0.0
 10
-20.05136
 20
9.5097
 30
0.0
 10
-20.05331
 20
9.47423
 30
0.0
 10
-20.05556
 20
9.43799
 30
0.0
 10
-20.05556
 20
9.43799
 30
0.0
 10
-20.07102
 20
9.18931
 30
0.0
 10
-20.10367
 20
8.88873
 30
0.0
 10
-20.15076
 20
8.56642
 30
0.0
 10
-20.15076
 20
8.56642
 30
0.0
 10
-20.19565
 20
8.25917
 30
0.0
 10
-20.25367
 20
7.93222
 30
0.0
 10
-20.32241
 20
7.61172
 30
0.0
 10
-20.32241
 20
7.61172
 30
0.0
 10
-20.38425
 20
7.32334
 30
0.0
 10
-20.45485
 20
7.04004
 30
0.0
 10
-20.53241
 20
6.78085
 30
0.0
 10
-20.53241
 20
6.78085
 30
0.0
 10
-20.60303
 20
6.54484
 30
0.0
 10
-20.67945
 20
6.32888
 30
0.0
 10
-20.76028
 20
6.14737
 30
0.0
 10
-20.76028
 20
6.14737
 30
0.0
 10
-20.76028
 20
6.14737
 30
0.0
 10
-20.76306
 20
6.14732
 30
0.0
 10
-20.76306
 20
6.14732
 30
0.0
 10
-20.76306
 20
6.14732
 30
0.0
 10
-20.76306
 20
6.14732
 30
0.0
 10
-20.76369
 20
6.14434
 30
0.0
 10
-20.76369
 20
6.14434
 30
0.0
 10
-20.76369
 20
6.14434
 30
0.0
 10
-20.76369
 20
6.14434
 30
0.0
 10
-20.76432
 20
6.14135
 30
0.0
 10
-20.76432
 20
6.14135
 30
0.0
 10
-20.76432
 20
6.14135
 30
0.0
 10
-20.76432
 20
6.14135
 30
0.0
 10
-20.76645
 20
6.13123
 30
0.0
 10
-20.76645
 20
6.13123
 30
0.0
 10
-20.76645
 20
6.13123
 30
0.0
 10
-20.76645
 20
6.13123
 30
0.0
 10
-20.76708
 20
6.12823
 30
0.0
 10
-20.76708
 20
6.12823
 30
0.0
 10
-20.76708
 20
6.12823
 30
0.0
 10
-20.76708
 20
6.12823
 30
0.0
 10
-20.7677
 20
6.12523
 30
0.0
 10
-20.7677
 20
6.12523
 30
0.0
 10
-20.7677
 20
6.12523
 30
0.0
 10
-20.7677
 20
6.12523
 30
0.0
 10
-20.76511
 20
6.12408
 30
0.0
 10
-20.76511
 20
6.12408
 30
0.0
 10
-20.76511
 20
6.12408
 30
0.0
 10
-20.76511
 20
6.12408
 30
0.0
 10
-20.76301
 20
5.84087
 30
0.0
 10
-20.76301
 20
5.84087
 30
0.0
 10
-20.76301
 20
5.84087
 30
0.0
 10
-20.76301
 20
5.84087
 30
0.0
 10
-20.76449
 20
5.84087
 30
0.0
 10
-20.76449
 20
5.84087
 30
0.0
 10
-20.76449
 20
5.84087
 30
0.0
 10
-20.76449
 20
5.84087
 30
0.0
 10
-20.76449
 20
5.83706
 30
0.0
 10
-20.76449
 20
5.83706
 30
0.0
 10
-20.76449
 20
5.83706
 30
0.0
 10
-20.76449
 20
5.83706
 30
0.0
 10
-20.76449
 20
5.83325
 30
0.0
 10
-20.76449
 20
5.83325
 30
0.0
 10
-20.76449
 20
5.83325
 30
0.0
 10
-20.76449
 20
5.83325
 30
0.0
 10
-20.76449
 20
5.51801
 30
0.0
 10
-20.76449
 20
5.51801
 30
0.0
 10
-20.76449
 20
5.51801
 30
0.0
 10
-20.76449
 20
5.51801
 30
0.0
 10
-20.76449
 20
5.5142
 30
0.0
 10
-20.76449
 20
5.5142
 30
0.0
 10
-20.76449
 20
5.5142
 30
0.0
 10
-20.76449
 20
5.5142
 30
0.0
 10
-20.76449
 20
5.51039
 30
0.0
 10
-20.76449
 20
5.51039
 30
0.0
 10
-20.76449
 20
5.51039
 30
0.0
 10
-20.76449
 20
5.51039
 30
0.0
 10
-20.76068
 20
5.51039
 30
0.0
 10
-20.76068
 20
5.51039
 30
0.0
 10
-20.76068
 20
5.51039
 30
0.0
 10
-20.76068
 20
5.51039
 30
0.0
 10
-20.75687
 20
5.51039
 30
0.0
 10
-20.75687
 20
5.51039
 30
0.0
 10
-20.75687
 20
5.51039
 30
0.0
 10
-20.75687
 20
5.51039
 30
0.0
 10
-20.04163
 20
5.51039
 30
0.0
 10
-20.04163
 20
5.51039
 30
0.0
 10
-20.04163
 20
5.51039
 30
0.0
 10
-20.04163
 20
5.51039
 30
0.0
 10
-20.03782
 20
5.51039
 30
0.0
 10
-20.03782
 20
5.51039
 30
0.0
 10
-20.03782
 20
5.51039
 30
0.0
 10
-20.03782
 20
5.51039
 30
0.0
 10
-20.03401
 20
5.51039
 30
0.0
 10
-20.03401
 20
5.51039
 30
0.0
 10
-20.03401
 20
5.51039
 30
0.0
 10
-20.03401
 20
5.51039
 30
0.0
 10
-20.03401
 20
5.5142
 30
0.0
 10
-20.03401
 20
5.5142
 30
0.0
 10
-20.03401
 20
5.5142
 30
0.0
 10
-20.03401
 20
5.5142
 30
0.0
 10
-20.03401
 20
5.51801
 30
0.0
 10
-20.03401
 20
5.51801
 30
0.0
 10
-20.03401
 20
5.51801
 30
0.0
 10
-20.03401
 20
5.51801
 30
0.0
 10
-20.03401
 20
5.81446
 30
0.0
 10
-20.03401
 20
5.81446
 30
0.0
 10
-20.03401
 20
5.81446
 30
0.0
 10
-20.03401
 20
5.81446
 30
0.0
 10
-19.82484
 20
5.81446
 30
0.0
 10
-19.82484
 20
5.81446
 30
0.0
 10
-19.82484
 20
5.81446
 30
0.0
 10
-19.82484
 20
5.81446
 30
0.0
 10
-19.82484
 20
8.21054
 30
0.0
 10
-19.82484
 20
8.21054
 30
0.0
 10
-19.82484
 20
8.21054
 30
0.0
 10
-19.82484
 20
8.21054
 30
0.0
 10
-19.52484
 20
8.21054
 30
0.0
 10
-19.52484
 20
8.21054
 30
0.0
 10
-19.52484
 20
8.21054
 30
0.0
 10
-19.52484
 20
8.21054
 30
0.0
 10
-19.52484
 20
5.81446
 30
0.0
 10
-19.52484
 20
5.81446
 30
0.0
 10
-19.52484
 20
5.81446
 30
0.0
 10
-19.52484
 20
5.81446
 30
0.0
 10
-19.30013
 20
5.81446
 30
0.0
 10
-19.30013
 20
5.81446
 30
0.0
 10
-19.30013
 20
5.81446
 30
0.0
 10
-19.30013
 20
5.81446
 30
0.0
 10
-19.30013
 20
5.51801
 30
0.0
 10
-19.30013
 20
5.51801
 30
0.0
 10
-19.30013
 20
5.51801
 30
0.0
 10
-19.30013
 20
5.51801
 30
0.0
 10
-19.30013
 20
5.5142
 30
0.0
 10
-19.30013
 20
5.5142
 30
0.0
 10
-19.30013
 20
5.5142
 30
0.0
 10
-19.30013
 20
5.5142
 30
0.0
 10
-19.30013
 20
5.51039
 30
0.0
 10
-19.30013
 20
5.51039
 30
0.0
 10
-19.30013
 20
5.51039
 30
0.0
 10
-19.30013
 20
5.51039
 30
0.0
 10
-19.29632
 20
5.51039
 30
0.0
 10
-19.29632
 20
5.51039
 30
0.0
 10
-19.29632
 20
5.51039
 30
0.0
 10
-19.29632
 20
5.51039
 30
0.0
 10
-19.29251
 20
5.51039
 30
0.0
 10
-19.29251
 20
5.51039
 30
0.0
 10
-19.29251
 20
5.51039
 30
0.0
 10
-19.29251
 20
5.51039
 30
0.0
 10
-18.57727
 20
5.51039
 30
0.0
 10
-18.57727
 20
5.51039
 30
0.0
 10
-18.57727
 20
5.51039
 30
0.0
 10
-18.57727
 20
5.51039
 30
0.0
 10
-18.57346
 20
5.51039
 30
0.0
 10
-18.57346
 20
5.51039
 30
0.0
 10
-18.57346
 20
5.51039
 30
0.0
 10
-18.57346
 20
5.51039
 30
0.0
 10
-18.56965
 20
5.51039
 30
0.0
 10
-18.56965
 20
5.51039
 30
0.0
 10
-18.56965
 20
5.51039
 30
0.0
 10
-18.56965
 20
5.51039
 30
0.0
 10
-18.56965
 20
5.5142
 30
0.0
 10
-18.56965
 20
5.5142
 30
0.0
 10
-18.56965
 20
5.5142
 30
0.0
 10
-18.56965
 20
5.5142
 30
0.0
 10
-18.56965
 20
5.51801
 30
0.0
 10
-18.56965
 20
5.51801
 30
0.0
 10
-18.56965
 20
5.51801
 30
0.0
 10
-18.56965
 20
5.51801
 30
0.0
 10
-18.56965
 20
5.83325
 30
0.0
 10
-18.56965
 20
5.83325
 30
0.0
 10
-18.56965
 20
5.83325
 30
0.0
 10
-18.56965
 20
5.83325
 30
0.0
 10
-18.56965
 20
5.83706
 30
0.0
 10
-18.56965
 20
5.83706
 30
0.0
 10
-18.56965
 20
5.83706
 30
0.0
 10
-18.56965
 20
5.83706
 30
0.0
 10
-18.56965
 20
5.84087
 30
0.0
 10
-18.56965
 20
5.84087
 30
0.0
 10
-18.56965
 20
5.84087
 30
0.0
 10
-18.56965
 20
5.84087
 30
0.0
 10
-18.57113
 20
5.84087
 30
0.0
 10
-18.57113
 20
5.84087
 30
0.0
 10
-18.57113
 20
5.84087
 30
0.0
 10
-18.57113
 20
5.84087
 30
0.0
 10
-18.56903
 20
6.12407
 30
0.0
 10
-18.56903
 20
6.12407
 30
0.0
 10
-18.56903
 20
6.12407
 30
0.0
 10
-18.56903
 20
6.12407
 30
0.0
 10
-18.5664
 20
6.12523
 30
0.0
 10
-18.5664
 20
6.12523
 30
0.0
 10
-18.5664
 20
6.12523
 30
0.0
 10
-18.5664
 20
6.12523
 30
0.0
 10
-18.56705
 20
6.12825
 30
0.0
 10
-18.56705
 20
6.12825
 30
0.0
 10
-18.56705
 20
6.12825
 30
0.0
 10
-18.56705
 20
6.12825
 30
0.0
 10
-18.56769
 20
6.13125
 30
0.0
 10
-18.56769
 20
6.13125
 30
0.0
 10
-18.56769
 20
6.13125
 30
0.0
 10
-18.56769
 20
6.13125
 30
0.0
 10
-18.5695
 20
6.13984
 30
0.0
 10
-18.5695
 20
6.13984
 30
0.0
 10
-18.5695
 20
6.13984
 30
0.0
 10
-18.5695
 20
6.13984
 30
0.0
 10
-18.56982
 20
6.14135
 30
0.0
 10
-18.56982
 20
6.14135
 30
0.0
 10
-18.56982
 20
6.14135
 30
0.0
 10
-18.56982
 20
6.14135
 30
0.0
 10
-18.56998
 20
6.14214
 30
0.0
 10
-18.56998
 20
6.14214
 30
0.0
 10
-18.56998
 20
6.14214
 30
0.0
 10
-18.56998
 20
6.14214
 30
0.0
 10
-18.57044
 20
6.14433
 30
0.0
 10
-18.57044
 20
6.14433
 30
0.0
 10
-18.57044
 20
6.14433
 30
0.0
 10
-18.57044
 20
6.14433
 30
0.0
 10
-18.57106
 20
6.14732
 30
0.0
 10
-18.57106
 20
6.14732
 30
0.0
 10
-18.57106
 20
6.14732
 30
0.0
 10
-18.57106
 20
6.14732
 30
0.0
 10
-18.57257
 20
6.14735
 30
0.0
 10
-18.57257
 20
6.14735
 30
0.0
 10
-18.57257
 20
6.14735
 30
0.0
 10
-18.57257
 20
6.14735
 30
0.0
 10
-18.57386
 20
6.14737
 30
0.0
 10
-18.57386
 20
6.14737
 30
0.0
 10
-18.57386
 20
6.14737
 30
0.0
 10
-18.57386
 20
6.14737
 30
0.0
 10
-18.58378
 20
6.16989
 30
0.0
 10
-18.58378
 20
6.16989
 30
0.0
 10
-18.58378
 20
6.16989
 30
0.0
 10
-18.62268
 20
6.259
 30
0.0
 10
-18.66055
 20
6.35602
 30
0.0
 10
-18.6972
 20
6.45932
 30
0.0
 10
-18.6972
 20
6.45932
 30
0.0
 10
-18.6972
 20
6.45932
 30
0.0
 10
-18.70053
 20
6.46873
 30
0.0
 10
-18.70053
 20
6.46873
 30
0.0
 10
-18.70053
 20
6.46873
 30
0.0
 10
-18.70053
 20
6.46873
 30
0.0
 10
-18.71511
 20
6.51057
 30
0.0
 10
-18.71511
 20
6.51057
 30
0.0
 10
-18.71511
 20
6.51057
 30
0.0
 10
-18.71511
 20
6.51057
 30
0.0
 10
-18.72337
 20
6.53472
 30
0.0
 10
-18.72337
 20
6.53472
 30
0.0
 10
-18.72337
 20
6.53472
 30
0.0
 10
-18.7502
 20
6.61373
 30
0.0
 10
-18.77633
 20
6.69599
 30
0.0
 10
-18.80173
 20
6.78085
 30
0.0
 10
-18.80173
 20
6.78085
 30
0.0
 10
-18.87929
 20
7.04004
 30
0.0
 10
-18.94989
 20
7.32334
 30
0.0
 10
-19.01173
 20
7.61172
 30
0.0
 10
-19.01173
 20
7.61172
 30
0.0
 10
-19.08047
 20
7.93222
 30
0.0
 10
-19.13849
 20
8.25917
 30
0.0
 10
-19.18338
 20
8.56642
 30
0.0
 10
-19.18338
 20
8.56642
 30
0.0
 10
-19.23047
 20
8.88873
 30
0.0
 10
-19.26312
 20
9.18931
 30
0.0
 10
-19.27858
 20
9.43799
 30
0.0
 10
-19.27858
 20
9.43799
 30
0.0
 10
-19.28083
 20
9.47423
 30
0.0
 10
-19.28278
 20
9.5097
 30
0.0
 10
-19.28439
 20
9.54428
 30
0.0
 10
-19.28439
 20
9.54428
 30
0.0
 10
-19.286
 20
9.57876
 30
0.0
 10
-19.2873
 20
9.61244
 30
0.0
 10
-19.28827
 20
9.64524
 30
0.0
 10
-19.28827
 20
9.64524
 30
0.0
 10
-19.28923
 20
9.67795
 30
0.0
 10
-19.2899
 20
9.70991
 30
0.0
 10
-19.29022
 20
9.741
 30
0.0
 10
-19.29022
 20
9.741
 30
0.0
 10
-19.29054
 20
9.77171
 30
0.0
 10
-19.29056
 20
9.80169
 30
0.0
 10
-19.29026
 20
9.83082
 30
0.0
 10
-19.29026
 20
9.83082
 30
0.0
 10
-19.29026
 20
9.83082
 30
0.0
 10
-19.29015
 20
9.83157
 30
0.0
 10
-19.29015
 20
9.83157
 30
0.0
 10
-19.29015
 20
9.83157
 30
0.0
 10
-19.28539
 20
9.86466
 30
0.0
 10
-19.28348
 20
9.91075
 30
0.0
 10
-19.2833
 20
9.9809
 30
0.0
 10
-19.2833
 20
9.9809
 30
0.0
 10
-19.28312
 20
10.05152
 30
0.0
 10
-19.28469
 20
10.14658
 30
0.0
 10
-19.28686
 20
10.27745
 30
0.0
 10
-19.28686
 20
10.27745
 30
0.0
 10
-19.28686
 20
10.27745
 30
0.0
 10
-19.2872
 20
10.29842
 30
0.0
 10
-19.2872
 20
10.29842
 30
0.0
 10
-19.2872
 20
10.29842
 30
0.0
 10
-19.2872
 20
10.29842
 30
0.0
 10
-19.28721
 20
10.2988
 30
0.0
 10
-19.28721
 20
10.2988
 30
0.0
 10
-19.28721
 20
10.2988
 30
0.0
 10
-19.28721
 20
10.2988
 30
0.0
 10
-19.28723
 20
10.29999
 30
0.0
 10
-19.28723
 20
10.29999
 30
0.0
 10
-19.28723
 20
10.29999
 30
0.0
 10
-19.29212
 20
10.64345
 30
0.0
 10
-19.29895
 20
11.12226
 30
0.0
 10
-19.28672
 20
11.53912
 30
0.0
 10
-19.28672
 20
11.53912
 30
0.0
 10
-19.28612
 20
11.55974
 30
0.0
 10
-19.28419
 20
11.58453
 30
0.0
 10
-19.28109
 20
11.61111
 30
0.0
 10
-19.28109
 20
11.61111
 30
0.0
 10
-19.27814
 20
11.63647
 30
0.0
 10
-19.27408
 20
11.66348
 30
0.0
 10
-19.26909
 20
11.69005
 30
0.0
 10
-19.26909
 20
11.69005
 30
0.0
 10
-19.26457
 20
11.71411
 30
0.0
 10
-19.25926
 20
11.73777
 30
0.0
 10
-19.25331
 20
11.75939
 30
0.0
 10
-19.25331
 20
11.75939
 30
0.0
 10
-19.24785
 20
11.77925
 30
0.0
 10
-19.24179
 20
11.79754
 30
0.0
 10
-19.23526
 20
11.81303
 30
0.0
 10
-19.23526
 20
11.81303
 30
0.0
 10
-19.22046
 20
11.84812
 30
0.0
 10
-19.20246
 20
11.88445
 30
0.0
 10
-19.18142
 20
11.91978
 30
0.0
 10
-19.18142
 20
11.91978
 30
0.0
 10
-19.16247
 20
11.95159
 30
0.0
 10
-19.14103
 20
11.98262
 30
0.0
 10
-19.11721
 20
12.01124
 30
0.0
 10
-19.11721
 20
12.01124
 30
0.0
 10
-19.09569
 20
12.03711
 30
0.0
 10
-19.07214
 20
12.06107
 30
0.0
 10
-19.04669
 20
12.08189
 30
0.0
 10
-19.04669
 20
12.08189
 30
0.0
 10
-19.02318
 20
12.10113
 30
0.0
 10
-18.99803
 20
12.1177
 30
0.0
 10
-18.97139
 20
12.1306
 30
0.0
 10
-18.97139
 20
12.1306
 30
0.0
 10
-18.97139
 20
12.1306
 30
0.0
 10
-18.95629
 20
12.13791
 30
0.0
 10
-18.95629
 20
12.13791
 30
0.0
 10
-18.95629
 20
12.13791
 30
0.0
 10
-18.86491
 20
12.18211
 30
0.0
 10
-18.82672
 20
12.20058
 30
0.0
 10
-18.73088
 20
12.26672
 30
0.0
 10
-18.73088
 20
12.26672
 30
0.0
 10
-18.73088
 20
12.26672
 30
0.0
 10
-18.72774
 20
12.26888
 30
0.0
 10
-18.72774
 20
12.26888
 30
0.0
 10
-18.72774
 20
12.26888
 30
0.0
 10
-18.72774
 20
12.26888
 30
0.0
 10
-18.7246
 20
12.27104
 30
0.0
 10
-18.7246
 20
12.27104
 30
0.0
 10
-18.7246
 20
12.27104
 30
0.0
 10
-18.7246
 20
12.27104
 30
0.0
 10
-18.72677
 20
12.27417
 30
0.0
 10
-18.72677
 20
12.27417
 30
0.0
 10
-18.72677
 20
12.27417
 30
0.0
 10
-18.72677
 20
12.27417
 30
0.0
 10
-18.72894
 20
12.2773
 30
0.0
 10
-18.72894
 20
12.2773
 30
0.0
  0
SPLINE
  5
7D
330
1F
100
AcDbEntity
  8
Master Layer 2
 62
   250
370
     9
100
AcDbSpline
210
0.0
220
0.0
230
1.0
 70
    27
 71
     3
 72
     8
 73
     4
 74
     0
 42
0.000000001
 43
0.0000000001
 40
0.0
 40
0.0
 40
0.0
 40
0.0
 40
1.0
 40
1.0
 40
1.0
 40
1.0
 10
-14.41559
 20
12.13789
 30
0.0
 10
-14.41559
 20
12.13789
 30
0.0
 10
-14.41559
 20
12.13789
 30
0.0
 10
-14.41559
 20
12.13789
 30
0.0
  0
SPLINE
  5
7E
330
1F
100
AcDbEntity
  8
Master Layer 2
 62
   250
370
     9
100
AcDbSpline
210
0.0
220
0.0
230
1.0
 70
    27
 71
     3
 72
     8
 73
     4
 74
     0
 42
0.000000001
 43
0.0000000001
 40
0.0
 40
0.0
 40
0.0
 40
0.0
 40
1.0
 40
1.0
 40
1.0
 40
1.0
 10
-13.32793
 20
9.83157
 30
0.0
 10
-13.32793
 20
9.83157
 30
0.0
 10
-13.32793
 20
9.83157
 30
0.0
 10
-13.32793
 20
9.83157
 30
0.0
  0
SPLINE
  5
7F
330
1F
100
AcDbEntity
  8
Master Layer 2
 62
   250
370
     9
100
AcDbSpline
210
0.0
220
0.0
230
1.0
 70
    27
 71
     3
 72
     8
 73
     4
 74
     0
 42
0.000000001
 43
0.0000000001
 40
0.0
 40
0.0
 40
0.0
 40
0.0
 40
1.0
 40
1.0
 40
1.0
 40
1.0
 10
-13.32498
 20
10.29842
 30
0.0
 10
-13.32498
 20
10.29842
 30
0.0
 10
-13.32498
 20
10.29842
 30
0.0
 10
-13.32498
 20
10.29842
 30
0.0
  0
SPLINE
  5
80
330
1F
100
AcDbEntity
  8
Master Layer 2
 62
   250
370
     9
100
AcDbSpline
210
0.0
220
0.0
230
1.0
 70
    27
 71
     3
 72
     8
 73
     4
 74
     0
 42
0.000000001
 43
0.0000000001
 40
0.0
 40
0.0
 40
0.0
 40
0.0
 40
1.0
 40
1.0
 40
1.0
 40
1.0
 10
-12.99411
 20
12.13789
 30
0.0
 10
-12.99411
 20
12.13789
 30
0.0
 10
-12.99411
 20
12.13789
 30
0.0
 10
-12.99411
 20
12.13789
 30
0.0
  0
SPLINE
  5
81
330
1F
100
AcDbEntity
  8
Master Layer 2
 62
   250
370
     9
100
AcDbSpline
210
0.0
220
0.0
230
1.0
 70
    11
 71
     3
 72
   780
 73
   776
 74
     0
 42
0.000000001
 43
0.0000000001
 40
0.0
 40
0.0
 40
0.0
 40
0.0
 40
0.0051282051282051
 40
0.0051282051282051
 40
0.0051282051282051
 40
0.0051282051282051
 40
0.0102564102564103
 40
0.0102564102564103
 40
0.0102564102564103
 40
0.0102564102564103
 40
0.0153846153846154
 40
0.0153846153846154
 40
0.0153846153846154
 40
0.0153846153846154
 40
0.0205128205128205
 40
0.0205128205128205
 40
0.0205128205128205
 40
0.0205128205128205
 40
0.0256410256410256
 40
0.0256410256410256
 40
0.0256410256410256
 40
0.0256410256410256
 40
0.0307692307692308
 40
0.0307692307692308
 40
0.0307692307692308
 40
0.0307692307692308
 40
0.0358974358974359
 40
0.0358974358974359
 40
0.0358974358974359
 40
0.0358974358974359
 40
0.041025641025641
 40
0.041025641025641
 40
0.041025641025641
 40
0.041025641025641
 40
0.0461538461538462
 40
0.0461538461538462
 40
0.0461538461538462
 40
0.0461538461538462
 40
0.0512820512820513
 40
0.0512820512820513
 40
0.0512820512820513
 40
0.0512820512820513
 40
0.0564102564102564
 40
0.0564102564102564
 40
0.0564102564102564
 40
0.0564102564102564
 40
0.0615384615384615
 40
0.0615384615384615
 40
0.0615384615384615
 40
0.0615384615384615
 40
0.0666666666666667
 40
0.0666666666666667
 40
0.0666666666666667
 40
0.0666666666666667
 40
0.0717948717948718
 40
0.0717948717948718
 40
0.0717948717948718
 40
0.0717948717948718
 40
0.0769230769230769
 40
0.0769230769230769
 40
0.0769230769230769
 40
0.0769230769230769
 40
0.0820512820512821
 40
0.0820512820512821
 40
0.0820512820512821
 40
0.0820512820512821
 40
0.0871794871794872
 40
0.0871794871794872
 40
0.0871794871794872
 40
0.0871794871794872
 40
0.0923076923076923
 40
0.0923076923076923
 40
0.0923076923076923
 40
0.0923076923076923
 40
0.0974358974358974
 40
0.0974358974358974
 40
0.0974358974358974
 40
0.0974358974358974
 40
0.1025641025641026
 40
0.1025641025641026
 40
0.1025641025641026
 40
0.1025641025641026
 40
0.1076923076923077
 40
0.1076923076923077
 40
0.1076923076923077
 40
0.1076923076923077
 40
0.1128205128205128
 40
0.1128205128205128
 40
0.1128205128205128
 40
0.1128205128205128
 40
0.1179487179487179
 40
0.1179487179487179
 40
0.1179487179487179
 40
0.1179487179487179
 40
0.1230769230769231
 40
0.1230769230769231
 40
0.1230769230769231
 40
0.1230769230769231
 40
0.1282051282051282
 40
0.1282051282051282
 40
0.1282051282051282
 40
0.1282051282051282
 40
0.1333333333333333
 40
0.1333333333333333
 40
0.1333333333333333
 40
0.1333333333333333
 40
0.1384615384615385
 40
0.1384615384615385
 40
0.1384615384615385
 40
0.1384615384615385
 40
0.1435897435897436
 40
0.1435897435897436
 40
0.1435897435897436
 40
0.1435897435897436
 40
0.1487179487179487
 40
0.1487179487179487
 40
0.1487179487179487
 40
0.1487179487179487
 40
0.1538461538461539
 40
0.1538461538461539
 40
0.1538461538461539
 40
0.1538461538461539
 40
0.158974358974359
 40
0.158974358974359
 40
0.158974358974359
 40
0.158974358974359
 40
0.1641025641025641
 40
0.1641025641025641
 40
0.1641025641025641
 40
0.1641025641025641
 40
0.1692307692307692
 40
0.1692307692307692
 40
0.1692307692307692
 40
0.1692307692307692
 40
0.1743589743589744
 40
0.1743589743589744
 40
0.1743589743589744
 40
0.1743589743589744
 40
0.1794871794871795
 40
0.1794871794871795
 40
0.1794871794871795
 40
0.1794871794871795
 40
0.1846153846153846
 40
0.1846153846153846
 40
0.1846153846153846
 40
0.1846153846153846
 40
0.1897435897435897
 40
0.1897435897435897
 40
0.1897435897435897
 40
0.1897435897435897
 40
0.1948717948717949
 40
0.1948717948717949
 40
0.1948717948717949
 40
0.1948717948717949
 40
0.2
 40
0.2
 40
0.2
 40
0.2
 40
0.2051282051282051
 40
0.2051282051282051
 40
0.2051282051282051
 40
0.2051282051282051
 40
0.2102564102564103
 40
0.2102564102564103
 40
0.2102564102564103
 40
0.2102564102564103
 40
0.2153846153846154
 40
0.2153846153846154
 40
0.2153846153846154
 40
0.2153846153846154
 40
0.2205128205128205
 40
0.2205128205128205
 40
0.2205128205128205
 40
0.2205128205128205
 40
0.2256410256410256
 40
0.2256410256410256
 40
0.2256410256410256
 40
0.2256410256410256
 40
0.2307692307692308
 40
0.2307692307692308
 40
0.2307692307692308
 40
0.2307692307692308
 40
0.2358974358974359
 40
0.2358974358974359
 40
0.2358974358974359
 40
0.2358974358974359
 40
0.241025641025641
 40
0.241025641025641
 40
0.241025641025641
 40
0.241025641025641
 40
0.2461538461538462
 40
0.2461538461538462
 40
0.2461538461538462
 40
0.2461538461538462
 40
0.2512820512820513
 40
0.2512820512820513
 40
0.2512820512820513
 40
0.2512820512820513
 40
0.2564102564102564
 40
0.2564102564102564
 40
0.2564102564102564
 40
0.2564102564102564
 40
0.2615384615384616
 40
0.2615384615384616
 40
0.2615384615384616
 40
0.2615384615384616
 40
0.2666666666666667
 40
0.2666666666666667
 40
0.2666666666666667
 40
0.2666666666666667
 40
0.2717948717948718
 40
0.2717948717948718
 40
0.2717948717948718
 40
0.2717948717948718
 40
0.2769230769230769
 40
0.2769230769230769
 40
0.2769230769230769
 40
0.2769230769230769
 40
0.282051282051282
 40
0.282051282051282
 40
0.282051282051282
 40
0.282051282051282
 40
0.2871794871794872
 40
0.2871794871794872
 40
0.2871794871794872
 40
0.2871794871794872
 40
0.2923076923076923
 40
0.2923076923076923
 40
0.2923076923076923
 40
0.2923076923076923
 40
0.2974358974358974
 40
0.2974358974358974
 40
0.2974358974358974
 40
0.2974358974358974
 40
0.3025641025641025
 40
0.3025641025641025
 40
0.3025641025641025
 40
0.3025641025641025
 40
0.3076923076923077
 40
0.3076923076923077
 40
0.3076923076923077
 40
0.3076923076923077
 40
0.3128205128205128
 40
0.3128205128205128
 40
0.3128205128205128
 40
0.3128205128205128
 40
0.3179487179487179
 40
0.3179487179487179
 40
0.3179487179487179
 40
0.3179487179487179
 40
0.3230769230769231
 40
0.3230769230769231
 40
0.3230769230769231
 40
0.3230769230769231
 40
0.3282051282051282
 40
0.3282051282051282
 40
0.3282051282051282
 40
0.3282051282051282
 40
0.3333333333333333
 40
0.3333333333333333
 40
0.3333333333333333
 40
0.3333333333333333
 40
0.3384615384615385
 40
0.3384615384615385
 40
0.3384615384615385
 40
0.3384615384615385
 40
0.3435897435897436
 40
0.3435897435897436
 40
0.3435897435897436
 40
0.3435897435897436
 40
0.3487179487179487
 40
0.3487179487179487
 40
0.3487179487179487
 40
0.3487179487179487
 40
0.3538461538461539
 40
0.3538461538461539
 40
0.3538461538461539
 40
0.3538461538461539
 40
0.358974358974359
 40
0.358974358974359
 40
0.358974358974359
 40
0.358974358974359
 40
0.3641025641025641
 40
0.3641025641025641
 40
0.3641025641025641
 40
0.3641025641025641
 40
0.3692307692307693
 40
0.3692307692307693
 40
0.3692307692307693
 40
0.3692307692307693
 40
0.3743589743589744
 40
0.3743589743589744
 40
0.3743589743589744
 40
0.3743589743589744
 40
0.3794871794871795
 40
0.3794871794871795
 40
0.3794871794871795
 40
0.3794871794871795
 40
0.3846153846153846
 40
0.3846153846153846
 40
0.3846153846153846
 40
0.3846153846153846
 40
0.3897435897435897
 40
0.3897435897435897
 40
0.3897435897435897
 40
0.3897435897435897
 40
0.3948717948717949
 40
0.3948717948717949
 40
0.3948717948717949
 40
0.3948717948717949
 40
0.4
 40
0.4
 40
0.4
 40
0.4
 40
0.4051282051282051
 40
0.4051282051282051
 40
0.4051282051282051
 40
0.4051282051282051
 40
0.4102564102564102
 40
0.4102564102564102
 40
0.4102564102564102
 40
0.4102564102564102
 40
0.4153846153846154
 40
0.4153846153846154
 40
0.4153846153846154
 40
0.4153846153846154
 40
0.4205128205128205
 40
0.4205128205128205
 40
0.4205128205128205
 40
0.4205128205128205
 40
0.4256410256410256
 40
0.4256410256410256
 40
0.4256410256410256
 40
0.4256410256410256
 40
0.4307692307692308
 40
0.4307692307692308
 40
0.4307692307692308
 40
0.4307692307692308
 40
0.4358974358974359
 40
0.4358974358974359
 40
0.4358974358974359
 40
0.4358974358974359
 40
0.441025641025641
 40
0.441025641025641
 40
0.441025641025641
 40
0.441025641025641
 40
0.4461538461538462
 40
0.4461538461538462
 40
0.4461538461538462
 40
0.4461538461538462
 40
0.4512820512820513
 40
0.4512820512820513
 40
0.4512820512820513
 40
0.4512820512820513
 40
0.4564102564102564
 40
0.4564102564102564
 40
0.4564102564102564
 40
0.4564102564102564
 40
0.4615384615384616
 40
0.4615384615384616
 40
0.4615384615384616
 40
0.4615384615384616
 40
0.4666666666666667
 40
0.4666666666666667
 40
0.4666666666666667
 40
0.4666666666666667
 40
0.4717948717948718
 40
0.4717948717948718
 40
0.4717948717948718
 40
0.4717948717948718
 40
0.4769230769230769
 40
0.4769230769230769
 40
0.4769230769230769
 40
0.4769230769230769
 40
0.4820512820512821
 40
0.4820512820512821
 40
0.4820512820512821
 40
0.4820512820512821
 40
0.4871794871794872
 40
0.4871794871794872
 40
0.4871794871794872
 40
0.4871794871794872
 40
0.4923076923076923
 40
0.4923076923076923
 40
0.4923076923076923
 40
0.4923076923076923
 40
0.4974358974358974
 40
0.4974358974358974
 40
0.4974358974358974
 40
0.4974358974358974
 40
0.5025641025641026
 40
0.5025641025641026
 40
0.5025641025641026
 40
0.5025641025641026
 40
0.5076923076923077
 40
0.5076923076923077
 40
0.5076923076923077
 40
0.5076923076923077
 40
0.5128205128205128
 40
0.5128205128205128
 40
0.5128205128205128
 40
0.5128205128205128
 40
0.517948717948718
 40
0.517948717948718
 40
0.517948717948718
 40
0.517948717948718
 40
0.5230769230769231
 40
0.5230769230769231
 40
0.5230769230769231
 40
0.5230769230769231
 40
0.5282051282051282
 40
0.5282051282051282
 40
0.5282051282051282
 40
0.5282051282051282
 40
0.5333333333333333
 40
0.5333333333333333
 40
0.5333333333333333
 40
0.5333333333333333
 40
0.5384615384615384
 40
0.5384615384615384
 40
0.5384615384615384
 40
0.5384615384615384
 40
0.5435897435897435
 40
0.5435897435897435
 40
0.5435897435897435
 40
0.5435897435897435
 40
0.5487179487179488
 40
0.5487179487179488
 40
0.5487179487179488
 40
0.5487179487179488
 40
0.5538461538461539
 40
0.5538461538461539
 40
0.5538461538461539
 40
0.5538461538461539
 40
0.558974358974359
 40
0.558974358974359
 40
0.558974358974359
 40
0.558974358974359
 40
0.5641025641025641
 40
0.5641025641025641
 40
0.5641025641025641
 40
0.5641025641025641
 40
0.5692307692307692
 40
0.5692307692307692
 40
0.5692307692307692
 40
0.5692307692307692
 40
0.5743589743589743
 40
0.5743589743589743
 40
0.5743589743589743
 40
0.5743589743589743
 40
0.5794871794871795
 40
0.5794871794871795
 40
0.5794871794871795
 40
0.5794871794871795
 40
0.5846153846153846
 40
0.5846153846153846
 40
0.5846153846153846
 40
0.5846153846153846
 40
0.5897435897435898
 40
0.5897435897435898
 40
0.5897435897435898
 40
0.5897435897435898
 40
0.5948717948717949
 40
0.5948717948717949
 40
0.5948717948717949
 40
0.5948717948717949
 40
0.6
 40
0.6
 40
0.6
 40
0.6
 40
0.6051282051282051
 40
0.6051282051282051
 40
0.6051282051282051
 40
0.6051282051282051
 40
0.6102564102564103
 40
0.6102564102564103
 40
0.6102564102564103
 40
0.6102564102564103
 40
0.6153846153846154
 40
0.6153846153846154
 40
0.6153846153846154
 40
0.6153846153846154
 40
0.6205128205128205
 40
0.6205128205128205
 40
0.6205128205128205
 40
0.6205128205128205
 40
0.6256410256410256
 40
0.6256410256410256
 40
0.6256410256410256
 40
0.6256410256410256
 40
0.6307692307692307
 40
0.6307692307692307
 40
0.6307692307692307
 40
0.6307692307692307
 40
0.6358974358974359
 40
0.6358974358974359
 40
0.6358974358974359
 40
0.6358974358974359
 40
0.6410256410256411
 40
0.6410256410256411
 40
0.6410256410256411
 40
0.6410256410256411
 40
0.6461538461538462
 40
0.6461538461538462
 40
0.6461538461538462
 40
0.6461538461538462
 40
0.6512820512820513
 40
0.6512820512820513
 40
0.6512820512820513
 40
0.6512820512820513
 40
0.6564102564102564
 40
0.6564102564102564
 40
0.6564102564102564
 40
0.6564102564102564
 40
0.6615384615384615
 40
0.6615384615384615
 40
0.6615384615384615
 40
0.6615384615384615
 40
0.6666666666666666
 40
0.6666666666666666
 40
0.6666666666666666
 40
0.6666666666666666
 40
0.6717948717948717
 40
0.6717948717948717
 40
0.6717948717948717
 40
0.6717948717948717
 40
0.676923076923077
 40
0.676923076923077
 40
0.676923076923077
 40
0.676923076923077
 40
0.6820512820512821
 40
0.6820512820512821
 40
0.6820512820512821
 40
0.6820512820512821
 40
0.6871794871794872
 40
0.6871794871794872
 40
0.6871794871794872
 40
0.6871794871794872
 40
0.6923076923076923
 40
0.6923076923076923
 40
0.6923076923076923
 40
0.6923076923076923
 40
0.6974358974358974
 40
0.6974358974358974
 40
0.6974358974358974
 40
0.6974358974358974
 40
0.7025641025641025
 40
0.7025641025641025
 40
0.7025641025641025
 40
0.7025641025641025
 40
0.7076923076923077
 40
0.7076923076923077
 40
0.7076923076923077
 40
0.7076923076923077
 40
0.7128205128205128
 40
0.7128205128205128
 40
0.7128205128205128
 40
0.7128205128205128
 40
0.717948717948718
 40
0.717948717948718
 40
0.717948717948718
 40
0.717948717948718
 40
0.7230769230769231
 40
0.7230769230769231
 40
0.7230769230769231
 40
0.7230769230769231
 40
0.7282051282051282
 40
0.7282051282051282
 40
0.7282051282051282
 40
0.7282051282051282
 40
0.7333333333333333
 40
0.7333333333333333
 40
0.7333333333333333
 40
0.7333333333333333
 40
0.7384615384615385
 40
0.7384615384615385
 40
0.7384615384615385
 40
0.7384615384615385
 40
0.7435897435897436
 40
0.7435897435897436
 40
0.7435897435897436
 40
0.7435897435897436
 40
0.7487179487179487
 40
0.7487179487179487
 40
0.7487179487179487
 40
0.7487179487179487
 40
0.7538461538461538
 40
0.7538461538461538
 40
0.7538461538461538
 40
0.7538461538461538
 40
0.7589743589743589
 40
0.7589743589743589
 40
0.7589743589743589
 40
0.7589743589743589
 40
0.764102564102564
 40
0.764102564102564
 40
0.764102564102564
 40
0.764102564102564
 40
0.7692307692307693
 40
0.7692307692307693
 40
0.7692307692307693
 40
0.7692307692307693
 40
0.7743589743589744
 40
0.7743589743589744
 40
0.7743589743589744
 40
0.7743589743589744
 40
0.7794871794871795
 40
0.7794871794871795
 40
0.7794871794871795
 40
0.7794871794871795
 40
0.7846153846153846
 40
0.7846153846153846
 40
0.7846153846153846
 40
0.7846153846153846
 40
0.7897435897435897
 40
0.7897435897435897
 40
0.7897435897435897
 40
0.7897435897435897
 40
0.7948717948717948
 40
0.7948717948717948
 40
0.7948717948717948
 40
0.7948717948717948
 40
0.8
 40
0.8
 40
0.8
 40
0.8
 40
0.8051282051282052
 40
0.8051282051282052
 40
0.8051282051282052
 40
0.8051282051282052
 40
0.8102564102564103
 40
0.8102564102564103
 40
0.8102564102564103
 40
0.8102564102564103
 40
0.8153846153846154
 40
0.8153846153846154
 40
0.8153846153846154
 40
0.8153846153846154
 40
0.8205128205128205
 40
0.8205128205128205
 40
0.8205128205128205
 40
0.8205128205128205
 40
0.8256410256410256
 40
0.8256410256410256
 40
0.8256410256410256
 40
0.8256410256410256
 40
0.8307692307692308
 40
0.8307692307692308
 40
0.8307692307692308
 40
0.8307692307692308
 40
0.8358974358974359
 40
0.8358974358974359
 40
0.8358974358974359
 40
0.8358974358974359
 40
0.841025641025641
 40
0.841025641025641
 40
0.841025641025641
 40
0.841025641025641
 40
0.8461538461538461
 40
0.8461538461538461
 40
0.8461538461538461
 40
0.8461538461538461
 40
0.8512820512820513
 40
0.8512820512820513
 40
0.8512820512820513
 40
0.8512820512820513
 40
0.8564102564102564
 40
0.8564102564102564
 40
0.8564102564102564
 40
0.8564102564102564
 40
0.8615384615384616
 40
0.8615384615384616
 40
0.8615384615384616
 40
0.8615384615384616
 40
0.8666666666666667
 40
0.8666666666666667
 40
0.8666666666666667
 40
0.8666666666666667
 40
0.8717948717948718
 40
0.8717948717948718
 40
0.8717948717948718
 40
0.8717948717948718
 40
0.8769230769230769
 40
0.8769230769230769
 40
0.8769230769230769
 40
0.8769230769230769
 40
0.882051282051282
 40
0.882051282051282
 40
0.882051282051282
 40
0.882051282051282
 40
0.8871794871794871
 40
0.8871794871794871
 40
0.8871794871794871
 40
0.8871794871794871
 40
0.8923076923076924
 40
0.8923076923076924
 40
0.8923076923076924
 40
0.8923076923076924
 40
0.8974358974358975
 40
0.8974358974358975
 40
0.8974358974358975
 40
0.8974358974358975
 40
0.9025641025641026
 40
0.9025641025641026
 40
0.9025641025641026
 40
0.9025641025641026
 40
0.9076923076923077
 40
0.9076923076923077
 40
0.9076923076923077
 40
0.9076923076923077
 40
0.9128205128205128
 40
0.9128205128205128
 40
0.9128205128205128
 40
0.9128205128205128
 40
0.9179487179487179
 40
0.9179487179487179
 40
0.9179487179487179
 40
0.9179487179487179
 40
0.9230769230769231
 40
0.9230769230769231
 40
0.9230769230769231
 40
0.9230769230769231
 40
0.9282051282051282
 40
0.9282051282051282
 40
0.9282051282051282
 40
0.9282051282051282
 40
0.9333333333333333
 40
0.9333333333333333
 40
0.9333333333333333
 40
0.9333333333333333
 40
0.9384615384615385
 40
0.9384615384615385
 40
0.9384615384615385
 40
0.9384615384615385
 40
0.9435897435897436
 40
0.9435897435897436
 40
0.9435897435897436
 40
0.9435897435897436
 40
0.9487179487179487
 40
0.9487179487179487
 40
0.9487179487179487
 40
0.9487179487179487
 40
0.9538461538461539
 40
0.9538461538461539
 40
0.9538461538461539
 40
0.9538461538461539
 40
0.958974358974359
 40
0.958974358974359
 40
0.958974358974359
 40
0.958974358974359
 40
0.9641025641025641
 40
0.9641025641025641
 40
0.9641025641025641
 40
0.9641025641025641
 40
0.9692307692307692
 40
0.9692307692307692
 40
0.9692307692307692
 40
0.9692307692307692
 40
0.9743589743589743
 40
0.9743589743589743
 40
0.9743589743589743
 40
0.9743589743589743
 40
0.9794871794871794
 40
0.9794871794871794
 40
0.9794871794871794
 40
0.9794871794871794
 40
0.9846153846153847
 40
0.9846153846153847
 40
0.9846153846153847
 40
0.9846153846153847
 40
0.9897435897435898
 40
0.9897435897435898
 40
0.9897435897435898
 40
0.9897435897435898
 40
1.0
 40
1.0
 40
1.0
 40
1.0
 10
-12.76672
 20
12.2773
 30
0.0
 10
-12.7958
 20
12.31943
 30
0.0
 10
-12.82155
 20
12.36293
 30
0.0
 10
-12.84384
 20
12.4075
 30
0.0
 10
-12.84384
 20
12.4075
 30
0.0
 10
-12.84384
 20
12.4075
 30
0.0
 10
-12.8453
 20
12.41042
 30
0.0
 10
-12.8453
 20
12.41042
 30
0.0
 10
-12.8453
 20
12.41042
 30
0.0
 10
-12.85733
 20
12.43464
 30
0.0
 10
-12.86833
 20
12.45919
 30
0.0
 10
-12.87831
 20
12.484
 30
0.0
 10
-12.87831
 20
12.484
 30
0.0
 10
-12.90708
 20
12.55558
 30
0.0
 10
-12.92731
 20
12.62948
 30
0.0
 10
-12.93856
 20
12.70461
 30
0.0
 10
-12.93856
 20
12.70461
 30
0.0
 10
-12.94972
 20
12.77914
 30
0.0
 10
-12.95208
 20
12.85492
 30
0.0
 10
-12.94529
 20
12.93085
 30
0.0
 10
-12.94529
 20
12.93085
 30
0.0
 10
-12.94529
 20
12.93085
 30
0.0
 10
-12.94523
 20
12.93149
 30
0.0
 10
-12.94523
 20
12.93149
 30
0.0
 10
-12.94523
 20
12.93149
 30
0.0
 10
-12.94279
 20
12.95851
 30
0.0
 10
-12.93919
 20
12.98555
 30
0.0
 10
-12.93442
 20
13.01258
 30
0.0
 10
-12.93442
 20
13.01258
 30
0.0
 10
-12.92603
 20
13.06011
 30
0.0
 10
-12.91399
 20
13.10759
 30
0.0
 10
-12.89825
 20
13.15477
 30
0.0
 10
-12.89825
 20
13.15477
 30
0.0
 10
-12.88361
 20
13.19866
 30
0.0
 10
-12.86639
 20
13.2404
 30
0.0
 10
-12.84664
 20
13.28018
 30
0.0
 10
-12.84664
 20
13.28018
 30
0.0
 10
-12.82691
 20
13.31994
 30
0.0
 10
-12.80463
 20
13.35777
 30
0.0
 10
-12.77986
 20
13.39387
 30
0.0
 10
-12.77986
 20
13.39387
 30
0.0
 10
-12.75506
 20
13.43
 30
0.0
 10
-12.72775
 20
13.46443
 30
0.0
 10
-12.69799
 20
13.49733
 30
0.0
 10
-12.69799
 20
13.49733
 30
0.0
 10
-12.66826
 20
13.53021
 30
0.0
 10
-12.63591
 20
13.56175
 30
0.0
 10
-12.60103
 20
13.5921
 30
0.0
 10
-12.60103
 20
13.5921
 30
0.0
 10
-12.60103
 20
13.5921
 30
0.0
 10
-12.59803
 20
13.59471
 30
0.0
 10
-12.59803
 20
13.59471
 30
0.0
 10
-12.59803
 20
13.59471
 30
0.0
 10
-12.59803
 20
13.59471
 30
0.0
 10
-12.59501
 20
13.59732
 30
0.0
 10
-12.59501
 20
13.59732
 30
0.0
 10
-12.59501
 20
13.59732
 30
0.0
 10
-12.59501
 20
13.59732
 30
0.0
 10
-12.59778
 20
13.60021
 30
0.0
 10
-12.59778
 20
13.60021
 30
0.0
 10
-12.59778
 20
13.60021
 30
0.0
 10
-12.59778
 20
13.60021
 30
0.0
 10
-12.60055
 20
13.6031
 30
0.0
 10
-12.60055
 20
13.6031
 30
0.0
 10
-12.60055
 20
13.6031
 30
0.0
 10
-12.62173
 20
13.62513
 30
0.0
 10
-12.64439
 20
13.64709
 30
0.0
 10
-12.66809
 20
13.66858
 30
0.0
 10
-12.66809
 20
13.66858
 30
0.0
 10
-12.69178
 20
13.69006
 30
0.0
 10
-12.71635
 20
13.71094
 30
0.0
 10
-12.74139
 20
13.73082
 30
0.0
 10
-12.74139
 20
13.73082
 30
0.0
 10
-12.76619
 20
13.75052
 30
0.0
 10
-12.79172
 20
13.76947
 30
0.0
 10
-12.81759
 20
13.78733
 30
0.0
 10
-12.81759
 20
13.78733
 30
0.0
 10
-12.84276
 20
13.80469
 30
0.0
 10
-12.86834
 20
13.82108
 30
0.0
 10
-12.89398
 20
13.83613
 30
0.0
 10
-12.89398
 20
13.83613
 30
0.0
 10
-12.91244
 20
13.84758
 30
0.0
 10
-12.93024
 20
13.86031
 30
0.0
 10
-12.94722
 20
13.87413
 30
0.0
 10
-12.94722
 20
13.87413
 30
0.0
 10
-12.96432
 20
13.88805
 30
0.0
 10
-12.98056
 20
13.90308
 30
0.0
 10
-12.9958
 20
13.91905
 30
0.0
 10
-12.9958
 20
13.91905
 30
0.0
 10
-13.01112
 20
13.93511
 30
0.0
 10
-13.02551
 20
13.95217
 30
0.0
 10
-13.0388
 20
13.97007
 30
0.0
 10
-13.0388
 20
13.97007
 30
0.0
 10
-13.0388
 20
13.97007
 30
0.0
 10
-13.04187
 20
13.97424
 30
0.0
 10
-13.04187
 20
13.97424
 30
0.0
 10
-13.04187
 20
13.97424
 30
0.0
 10
-13.04187
 20
13.97424
 30
0.0
 10
-13.04221
 20
13.97471
 30
0.0
 10
-13.04221
 20
13.97471
 30
0.0
 10
-13.04221
 20
13.97471
 30
0.0
 10
-13.05415
 20
13.99117
 30
0.0
 10
-13.06523
 20
14.00836
 30
0.0
 10
-13.07534
 20
14.02616
 30
0.0
 10
-13.07534
 20
14.02616
 30
0.0
 10
-13.08691
 20
14.04655
 30
0.0
 10
-13.09723
 20
14.06775
 30
0.0
 10
-13.10614
 20
14.08957
 30
0.0
 10
-13.10614
 20
14.08957
 30
0.0
 10
-13.11494
 20
14.1111
 30
0.0
 10
-13.12244
 20
14.13341
 30
0.0
 10
-13.1285
 20
14.15628
 30
0.0
 10
-13.1285
 20
14.15628
 30
0.0
 10
-13.13446
 20
14.17875
 30
0.0
 10
-13.13903
 20
14.20175
 30
0.0
 10
-13.14207
 20
14.22511
 30
0.0
 10
-13.14207
 20
14.22511
 30
0.0
 10
-13.14506
 20
14.24802
 30
0.0
 10
-13.14661
 20
14.27137
 30
0.0
 10
-13.14661
 20
14.295
 30
0.0
 10
-13.14661
 20
14.295
 30
0.0
 10
-13.14661
 20
14.295
 30
0.0
 10
-13.14661
 20
14.37417
 30
0.0
 10
-13.14661
 20
14.37417
 30
0.0
 10
-13.14661
 20
14.37417
 30
0.0
 10
-13.14661
 20
14.3889
 30
0.0
 10
-13.14807
 20
14.40332
 30
0.0
 10
-13.15085
 20
14.41725
 30
0.0
 10
-13.15085
 20
14.41725
 30
0.0
 10
-13.1537
 20
14.43153
 30
0.0
 10
-13.15796
 20
14.44539
 30
0.0
 10
-13.16346
 20
14.45862
 30
0.0
 10
-13.16346
 20
14.45862
 30
0.0
 10
-13.16906
 20
14.47208
 30
0.0
 10
-13.17597
 20
14.4849
 30
0.0
 10
-13.184
 20
14.49688
 30
0.0
 10
-13.184
 20
14.49688
 30
0.0
 10
-13.1921
 20
14.50897
 30
0.0
 10
-13.2014
 20
14.52026
 30
0.0
 10
-13.21168
 20
14.53053
 30
0.0
 10
-13.21168
 20
14.53053
 30
0.0
 10
-13.22195
 20
14.54081
 30
0.0
 10
-13.23325
 20
14.5501
 30
0.0
 10
-13.24534
 20
14.55822
 30
0.0
 10
-13.24534
 20
14.55822
 30
0.0
 10
-13.25732
 20
14.56625
 30
0.0
 10
-13.27014
 20
14.57316
 30
0.0
 10
-13.28359
 20
14.57875
 30
0.0
 10
-13.28359
 20
14.57875
 30
0.0
 10
-13.29682
 20
14.58425
 30
0.0
 10
-13.31068
 20
14.58851
 30
0.0
 10
-13.32496
 20
14.59136
 30
0.0
 10
-13.32496
 20
14.59136
 30
0.0
 10
-13.33889
 20
14.59414
 30
0.0
 10
-13.35331
 20
14.5956
 30
0.0
 10
-13.36804
 20
14.5956
 30
0.0
 10
-13.36804
 20
14.5956
 30
0.0
 10
-13.36804
 20
14.5956
 30
0.0
 10
-13.55484
 20
14.5956
 30
0.0
 10
-13.55484
 20
14.5956
 30
0.0
 10
-13.55484
 20
14.5956
 30
0.0
 10
-13.55484
 20
14.5956
 30
0.0
 10
-13.55484
 20
8.21054
 30
0.0
 10
-13.55484
 20
8.21054
 30
0.0
 10
-13.55484
 20
8.21054
 30
0.0
 10
-13.55484
 20
8.21054
 30
0.0
 10
-13.85484
 20
8.21054
 30
0.0
 10
-13.85484
 20
8.21054
 30
0.0
 10
-13.85484
 20
8.21054
 30
0.0
 10
-13.85484
 20
8.21054
 30
0.0
 10
-13.85484
 20
14.5956
 30
0.0
 10
-13.85484
 20
14.5956
 30
0.0
 10
-13.85484
 20
14.5956
 30
0.0
 10
-13.85484
 20
14.5956
 30
0.0
 10
-14.04166
 20
14.5956
 30
0.0
 10
-14.04166
 20
14.5956
 30
0.0
 10
-14.04166
 20
14.5956
 30
0.0
 10
-14.05639
 20
14.5956
 30
0.0
 10
-14.07081
 20
14.59414
 30
0.0
 10
-14.08474
 20
14.59136
 30
0.0
 10
-14.08474
 20
14.59136
 30
0.0
 10
-14.09902
 20
14.58851
 30
0.0
 10
-14.11288
 20
14.58425
 30
0.0
 10
-14.12611
 20
14.57875
 30
0.0
 10
-14.12611
 20
14.57875
 30
0.0
 10
-14.13955
 20
14.57316
 30
0.0
 10
-14.15237
 20
14.56625
 30
0.0
 10
-14.16435
 20
14.55822
 30
0.0
 10
-14.16435
 20
14.55822
 30
0.0
 10
-14.17646
 20
14.55011
 30
0.0
 10
-14.18776
 20
14.5408
 30
0.0
 10
-14.19804
 20
14.53054
 30
0.0
 10
-14.19804
 20
14.53054
 30
0.0
 10
-14.2083
 20
14.52028
 30
0.0
 10
-14.21758
 20
14.50899
 30
0.0
 10
-14.2257
 20
14.49688
 30
0.0
 10
-14.2257
 20
14.49688
 30
0.0
 10
-14.23373
 20
14.48489
 30
0.0
 10
-14.24064
 20
14.47207
 30
0.0
 10
-14.24624
 20
14.45862
 30
0.0
 10
-14.24624
 20
14.45862
 30
0.0
 10
-14.25174
 20
14.44539
 30
0.0
 10
-14.256
 20
14.43153
 30
0.0
 10
-14.25885
 20
14.41725
 30
0.0
 10
-14.25885
 20
14.41725
 30
0.0
 10
-14.26163
 20
14.40332
 30
0.0
 10
-14.26309
 20
14.3889
 30
0.0
 10
-14.26309
 20
14.37417
 30
0.0
 10
-14.26309
 20
14.37417
 30
0.0
 10
-14.26309
 20
14.37417
 30
0.0
 10
-14.26309
 20
14.295
 30
0.0
 10
-14.26309
 20
14.295
 30
0.0
 10
-14.26309
 20
14.295
 30
0.0
 10
-14.26309
 20
14.27137
 30
0.0
 10
-14.26464
 20
14.24802
 30
0.0
 10
-14.26763
 20
14.22511
 30
0.0
 10
-14.26763
 20
14.22511
 30
0.0
 10
-14.27067
 20
14.20175
 30
0.0
 10
-14.27524
 20
14.17875
 30
0.0
 10
-14.2812
 20
14.15628
 30
0.0
 10
-14.2812
 20
14.15628
 30
0.0
 10
-14.28726
 20
14.13341
 30
0.0
 10
-14.29476
 20
14.1111
 30
0.0
 10
-14.30356
 20
14.08957
 30
0.0
 10
-14.30356
 20
14.08957
 30
0.0
 10
-14.31247
 20
14.06775
 30
0.0
 10
-14.32279
 20
14.04655
 30
0.0
 10
-14.33436
 20
14.02616
 30
0.0
 10
-14.33436
 20
14.02616
 30
0.0
 10
-14.34542
 20
14.00668
 30
0.0
 10
-14.35765
 20
13.98792
 30
0.0
 10
-14.3709
 20
13.97007
 30
0.0
 10
-14.3709
 20
13.97007
 30
0.0
 10
-14.38419
 20
13.95217
 30
0.0
 10
-14.39858
 20
13.93511
 30
0.0
 10
-14.4139
 20
13.91905
 30
0.0
 10
-14.4139
 20
13.91905
 30
0.0
 10
-14.42914
 20
13.90308
 30
0.0
 10
-14.44538
 20
13.88805
 30
0.0
 10
-14.46248
 20
13.87413
 30
0.0
 10
-14.46248
 20
13.87413
 30
0.0
 10
-14.47946
 20
13.86031
 30
0.0
 10
-14.49726
 20
13.84758
 30
0.0
 10
-14.51572
 20
13.83613
 30
0.0
 10
-14.51572
 20
13.83613
 30
0.0
 10
-14.54136
 20
13.82108
 30
0.0
 10
-14.56694
 20
13.80469
 30
0.0
 10
-14.59211
 20
13.78733
 30
0.0
 10
-14.59211
 20
13.78733
 30
0.0
 10
-14.61798
 20
13.76947
 30
0.0
 10
-14.64351
 20
13.75052
 30
0.0
 10
-14.66831
 20
13.73082
 30
0.0
 10
-14.66831
 20
13.73082
 30
0.0
 10
-14.69335
 20
13.71094
 30
0.0
 10
-14.71792
 20
13.69006
 30
0.0
 10
-14.74161
 20
13.66858
 30
0.0
 10
-14.74161
 20
13.66858
 30
0.0
 10
-14.76531
 20
13.64709
 30
0.0
 10
-14.78797
 20
13.62513
 30
0.0
 10
-14.80916
 20
13.60309
 30
0.0
 10
-14.80916
 20
13.60309
 30
0.0
 10
-14.80916
 20
13.60309
 30
0.0
 10
-14.81192
 20
13.6002
 30
0.0
 10
-14.81192
 20
13.6002
 30
0.0
 10
-14.81192
 20
13.6002
 30
0.0
 10
-14.81192
 20
13.6002
 30
0.0
 10
-14.81467
 20
13.59732
 30
0.0
 10
-14.81467
 20
13.59732
 30
0.0
 10
-14.81467
 20
13.59732
 30
0.0
 10
-14.81467
 20
13.59732
 30
0.0
 10
-14.81167
 20
13.59471
 30
0.0
 10
-14.81167
 20
13.59471
 30
0.0
 10
-14.81167
 20
13.59471
 30
0.0
 10
-14.81167
 20
13.59471
 30
0.0
 10
-14.80867
 20
13.5921
 30
0.0
 10
-14.80867
 20
13.5921
 30
0.0
 10
-14.80867
 20
13.5921
 30
0.0
 10
-14.77379
 20
13.56175
 30
0.0
 10
-14.74144
 20
13.53021
 30
0.0
 10
-14.71171
 20
13.49733
 30
0.0
 10
-14.71171
 20
13.49733
 30
0.0
 10
-14.68195
 20
13.46443
 30
0.0
 10
-14.65464
 20
13.43
 30
0.0
 10
-14.62984
 20
13.39387
 30
0.0
 10
-14.62984
 20
13.39387
 30
0.0
 10
-14.60508
 20
13.35777
 30
0.0
 10
-14.58279
 20
13.31994
 30
0.0
 10
-14.56307
 20
13.28019
 30
0.0
 10
-14.56307
 20
13.28019
 30
0.0
 10
-14.54333
 20
13.24041
 30
0.0
 10
-14.5261
 20
13.19866
 30
0.0
 10
-14.51145
 20
13.15477
 30
0.0
 10
-14.51145
 20
13.15477
 30
0.0
 10
-14.49661
 20
13.11031
 30
0.0
 10
-14.48507
 20
13.06558
 30
0.0
 10
-14.47677
 20
13.0208
 30
0.0
 10
-14.47677
 20
13.0208
 30
0.0
 10
-14.47121
 20
12.99082
 30
0.0
 10
-14.46709
 20
12.96081
 30
0.0
 10
-14.46441
 20
12.93085
 30
0.0
 10
-14.46441
 20
12.93085
 30
0.0
 10
-14.46197
 20
12.90351
 30
0.0
 10
-14.46071
 20
12.87619
 30
0.0
 10
-14.46062
 20
12.84894
 30
0.0
 10
-14.46062
 20
12.84894
 30
0.0
 10
-14.46046
 20
12.80051
 30
0.0
 10
-14.464
 20
12.7523
 30
0.0
 10
-14.47114
 20
12.70461
 30
0.0
 10
-14.47114
 20
12.70461
 30
0.0
 10
-14.48239
 20
12.62948
 30
0.0
 10
-14.50262
 20
12.55558
 30
0.0
 10
-14.53139
 20
12.484
 30
0.0
 10
-14.53139
 20
12.484
 30
0.0
 10
-14.56014
 20
12.4125
 30
0.0
 10
-14.59747
 20
12.34323
 30
0.0
 10
-14.64298
 20
12.2773
 30
0.0
 10
-14.64298
 20
12.2773
 30
0.0
 10
-14.64298
 20
12.2773
 30
0.0
 10
-14.64514
 20
12.27417
 30
0.0
 10
-14.64514
 20
12.27417
 30
0.0
 10
-14.64514
 20
12.27417
 30
0.0
 10
-14.64514
 20
12.27417
 30
0.0
 10
-14.6473
 20
12.27104
 30
0.0
 10
-14.6473
 20
12.27104
 30
0.0
 10
-14.6473
 20
12.27104
 30
0.0
 10
-14.6473
 20
12.27104
 30
0.0
 10
-14.64417
 20
12.26888
 30
0.0
 10
-14.64417
 20
12.26888
 30
0.0
 10
-14.64417
 20
12.26888
 30
0.0
 10
-14.64417
 20
12.26888
 30
0.0
 10
-14.64104
 20
12.26672
 30
0.0
 10
-14.64104
 20
12.26672
 30
0.0
 10
-14.64104
 20
12.26672
 30
0.0
 10
-14.5452
 20
12.20058
 30
0.0
 10
-14.50701
 20
12.18211
 30
0.0
 10
-14.41559
 20
12.13789
 30
0.0
 10
-14.41559
 20
12.13789
 30
0.0
 10
-14.41559
 20
12.13789
 30
0.0
 10
-14.40053
 20
12.1306
 30
0.0
 10
-14.40053
 20
12.1306
 30
0.0
 10
-14.40053
 20
12.1306
 30
0.0
 10
-14.37389
 20
12.1177
 30
0.0
 10
-14.34874
 20
12.10113
 30
0.0
 10
-14.32523
 20
12.08189
 30
0.0
 10
-14.32523
 20
12.08189
 30
0.0
 10
-14.29978
 20
12.06107
 30
0.0
 10
-14.27623
 20
12.03711
 30
0.0
 10
-14.25471
 20
12.01124
 30
0.0
 10
-14.25471
 20
12.01124
 30
0.0
 10
-14.23089
 20
11.98262
 30
0.0
 10
-14.20945
 20
11.95159
 30
0.0
 10
-14.1905
 20
11.91978
 30
0.0
 10
-14.1905
 20
11.91978
 30
0.0
 10
-14.16946
 20
11.88445
 30
0.0
 10
-14.15146
 20
11.84812
 30
0.0
 10
-14.13666
 20
11.81303
 30
0.0
 10
-14.13666
 20
11.81303
 30
0.0
 10
-14.13013
 20
11.79754
 30
0.0
 10
-14.12407
 20
11.77925
 30
0.0
 10
-14.11861
 20
11.75939
 30
0.0
 10
-14.11861
 20
11.75939
 30
0.0
 10
-14.11266
 20
11.73777
 30
0.0
 10
-14.10735
 20
11.71411
 30
0.0
 10
-14.10283
 20
11.69005
 30
0.0
 10
-14.10283
 20
11.69005
 30
0.0
 10
-14.09784
 20
11.66348
 30
0.0
 10
-14.09378
 20
11.63647
 30
0.0
 10
-14.09083
 20
11.61111
 30
0.0
 10
-14.09083
 20
11.61111
 30
0.0
 10
-14.08773
 20
11.58453
 30
0.0
 10
-14.0858
 20
11.55974
 30
0.0
 10
-14.0852
 20
11.53912
 30
0.0
 10
-14.0852
 20
11.53912
 30
0.0
 10
-14.07297
 20
11.12197
 30
0.0
 10
-14.07981
 20
10.64277
 30
0.0
 10
-14.08471
 20
10.29922
 30
0.0
 10
-14.08471
 20
10.29922
 30
0.0
 10
-14.08471
 20
10.29922
 30
0.0
 10
-14.08472
 20
10.29874
 30
0.0
 10
-14.08472
 20
10.29874
 30
0.0
 10
-14.08472
 20
10.29874
 30
0.0
 10
-14.08472
 20
10.29874
 30
0.0
 10
-14.08472
 20
10.29857
 30
0.0
 10
-14.08472
 20
10.29857
 30
0.0
 10
-14.08472
 20
10.29857
 30
0.0
 10
-14.08472
 20
10.29857
 30
0.0
 10
-14.08471
 20
10.29829
 30
0.0
 10
-14.08471
 20
10.29829
 30
0.0
 10
-14.08471
 20
10.29829
 30
0.0
 10
-14.08471
 20
10.29829
 30
0.0
 10
-14.08506
 20
10.27745
 30
0.0
 10
-14.08506
 20
10.27745
 30
0.0
 10
-14.08506
 20
10.27745
 30
0.0
 10
-14.08723
 20
10.14658
 30
0.0
 10
-14.08881
 20
10.05152
 30
0.0
 10
-14.08863
 20
9.9809
 30
0.0
 10
-14.08863
 20
9.9809
 30
0.0
 10
-14.08845
 20
9.91022
 30
0.0
 10
-14.0865
 20
9.86396
 30
0.0
 10
-14.08166
 20
9.83082
 30
0.0
 10
-14.08166
 20
9.83082
 30
0.0
 10
-14.08136
 20
9.80169
 30
0.0
 10
-14.08138
 20
9.77171
 30
0.0
 10
-14.0817
 20
9.741
 30
0.0
 10
-14.0817
 20
9.741
 30
0.0
 10
-14.08202
 20
9.70991
 30
0.0
 10
-14.08269
 20
9.67795
 30
0.0
 10
-14.08365
 20
9.64524
 30
0.0
 10
-14.08365
 20
9.64524
 30
0.0
 10
-14.08462
 20
9.61244
 30
0.0
 10
-14.08592
 20
9.57876
 30
0.0
 10
-14.08753
 20
9.54428
 30
0.0
 10
-14.08753
 20
9.54428
 30
0.0
 10
-14.08914
 20
9.5097
 30
0.0
 10
-14.09109
 20
9.47423
 30
0.0
 10
-14.09334
 20
9.43799
 30
0.0
 10
-14.09334
 20
9.43799
 30
0.0
 10
-14.1088
 20
9.18931
 30
0.0
 10
-14.14145
 20
8.88873
 30
0.0
 10
-14.18854
 20
8.56642
 30
0.0
 10
-14.18854
 20
8.56642
 30
0.0
 10
-14.23343
 20
8.25917
 30
0.0
 10
-14.29145
 20
7.93222
 30
0.0
 10
-14.36019
 20
7.61172
 30
0.0
 10
-14.36019
 20
7.61172
 30
0.0
 10
-14.42203
 20
7.32334
 30
0.0
 10
-14.49263
 20
7.04004
 30
0.0
 10
-14.57019
 20
6.78085
 30
0.0
 10
-14.57019
 20
6.78085
 30
0.0
 10
-14.64081
 20
6.54484
 30
0.0
 10
-14.71723
 20
6.32888
 30
0.0
 10
-14.79806
 20
6.14737
 30
0.0
 10
-14.79806
 20
6.14737
 30
0.0
 10
-14.79806
 20
6.14737
 30
0.0
 10
-14.80084
 20
6.14732
 30
0.0
 10
-14.80084
 20
6.14732
 30
0.0
 10
-14.80084
 20
6.14732
 30
0.0
 10
-14.80084
 20
6.14732
 30
0.0
 10
-14.80147
 20
6.14434
 30
0.0
 10
-14.80147
 20
6.14434
 30
0.0
 10
-14.80147
 20
6.14434
 30
0.0
 10
-14.80147
 20
6.14434
 30
0.0
 10
-14.8021
 20
6.14135
 30
0.0
 10
-14.8021
 20
6.14135
 30
0.0
 10
-14.8021
 20
6.14135
 30
0.0
 10
-14.8021
 20
6.14135
 30
0.0
 10
-14.80423
 20
6.13123
 30
0.0
 10
-14.80423
 20
6.13123
 30
0.0
 10
-14.80423
 20
6.13123
 30
0.0
 10
-14.80423
 20
6.13123
 30
0.0
 10
-14.80486
 20
6.12823
 30
0.0
 10
-14.80486
 20
6.12823
 30
0.0
 10
-14.80486
 20
6.12823
 30
0.0
 10
-14.80486
 20
6.12823
 30
0.0
 10
-14.80548
 20
6.12523
 30
0.0
 10
-14.80548
 20
6.12523
 30
0.0
 10
-14.80548
 20
6.12523
 30
0.0
 10
-14.80548
 20
6.12523
 30
0.0
 10
-14.80289
 20
6.12408
 30
0.0
 10
-14.80289
 20
6.12408
 30
0.0
 10
-14.80289
 20
6.12408
 30
0.0
 10
-14.80289
 20
6.12408
 30
0.0
 10
-14.80079
 20
5.84087
 30
0.0
 10
-14.80079
 20
5.84087
 30
0.0
 10
-14.80079
 20
5.84087
 30
0.0
 10
-14.80079
 20
5.84087
 30
0.0
 10
-14.80227
 20
5.84087
 30
0.0
 10
-14.80227
 20
5.84087
 30
0.0
 10
-14.80227
 20
5.84087
 30
0.0
 10
-14.80227
 20
5.84087
 30
0.0
 10
-14.80227
 20
5.83706
 30
0.0
 10
-14.80227
 20
5.83706
 30
0.0
 10
-14.80227
 20
5.83706
 30
0.0
 10
-14.80227
 20
5.83706
 30
0.0
 10
-14.80227
 20
5.83325
 30
0.0
 10
-14.80227
 20
5.83325
 30
0.0
 10
-14.80227
 20
5.83325
 30
0.0
 10
-14.80227
 20
5.83325
 30
0.0
 10
-14.80227
 20
5.51801
 30
0.0
 10
-14.80227
 20
5.51801
 30
0.0
 10
-14.80227
 20
5.51801
 30
0.0
 10
-14.80227
 20
5.51801
 30
0.0
 10
-14.80227
 20
5.5142
 30
0.0
 10
-14.80227
 20
5.5142
 30
0.0
 10
-14.80227
 20
5.5142
 30
0.0
 10
-14.80227
 20
5.5142
 30
0.0
 10
-14.80227
 20
5.51039
 30
0.0
 10
-14.80227
 20
5.51039
 30
0.0
 10
-14.80227
 20
5.51039
 30
0.0
 10
-14.80227
 20
5.51039
 30
0.0
 10
-14.79846
 20
5.51039
 30
0.0
 10
-14.79846
 20
5.51039
 30
0.0
 10
-14.79846
 20
5.51039
 30
0.0
 10
-14.79846
 20
5.51039
 30
0.0
 10
-14.79465
 20
5.51039
 30
0.0
 10
-14.79465
 20
5.51039
 30
0.0
 10
-14.79465
 20
5.51039
 30
0.0
 10
-14.79465
 20
5.51039
 30
0.0
 10
-14.07941
 20
5.51039
 30
0.0
 10
-14.07941
 20
5.51039
 30
0.0
 10
-14.07941
 20
5.51039
 30
0.0
 10
-14.07941
 20
5.51039
 30
0.0
 10
-14.0756
 20
5.51039
 30
0.0
 10
-14.0756
 20
5.51039
 30
0.0
 10
-14.0756
 20
5.51039
 30
0.0
 10
-14.0756
 20
5.51039
 30
0.0
 10
-14.07179
 20
5.51039
 30
0.0
 10
-14.07179
 20
5.51039
 30
0.0
 10
-14.07179
 20
5.51039
 30
0.0
 10
-14.07179
 20
5.51039
 30
0.0
 10
-14.07179
 20
5.5142
 30
0.0
 10
-14.07179
 20
5.5142
 30
0.0
 10
-14.07179
 20
5.5142
 30
0.0
 10
-14.07179
 20
5.5142
 30
0.0
 10
-14.07179
 20
5.51801
 30
0.0
 10
-14.07179
 20
5.51801
 30
0.0
 10
-14.07179
 20
5.51801
 30
0.0
 10
-14.07179
 20
5.51801
 30
0.0
 10
-14.07179
 20
5.81446
 30
0.0
 10
-14.07179
 20
5.81446
 30
0.0
 10
-14.07179
 20
5.81446
 30
0.0
 10
-14.07179
 20
5.81446
 30
0.0
 10
-13.70696
 20
5.81446
 30
0.0
 10
-13.70696
 20
5.81446
 30
0.0
 10
-13.70696
 20
5.81446
 30
0.0
 10
-13.70696
 20
5.81446
 30
0.0
 10
-13.70654
 20
5.81446
 30
0.0
 10
-13.70654
 20
5.81446
 30
0.0
 10
-13.70654
 20
5.81446
 30
0.0
 10
-13.70654
 20
5.81446
 30
0.0
 10
-13.70315
 20
5.81446
 30
0.0
 10
-13.70315
 20
5.81446
 30
0.0
 10
-13.70315
 20
5.81446
 30
0.0
 10
-13.70315
 20
5.81446
 30
0.0
 10
-13.70274
 20
5.81446
 30
0.0
 10
-13.70274
 20
5.81446
 30
0.0
 10
-13.70274
 20
5.81446
 30
0.0
 10
-13.70274
 20
5.81446
 30
0.0
 10
-13.33791
 20
5.81446
 30
0.0
 10
-13.33791
 20
5.81446
 30
0.0
 10
-13.33791
 20
5.81446
 30
0.0
 10
-13.33791
 20
5.81446
 30
0.0
 10
-13.33791
 20
5.51801
 30
0.0
 10
-13.33791
 20
5.51801
 30
0.0
 10
-13.33791
 20
5.51801
 30
0.0
 10
-13.33791
 20
5.51801
 30
0.0
 10
-13.33791
 20
5.5142
 30
0.0
 10
-13.33791
 20
5.5142
 30
0.0
 10
-13.33791
 20
5.5142
 30
0.0
 10
-13.33791
 20
5.5142
 30
0.0
 10
-13.33791
 20
5.51039
 30
0.0
 10
-13.33791
 20
5.51039
 30
0.0
 10
-13.33791
 20
5.51039
 30
0.0
 10
-13.33791
 20
5.51039
 30
0.0
 10
-13.3341
 20
5.51039
 30
0.0
 10
-13.3341
 20
5.51039
 30
0.0
 10
-13.3341
 20
5.51039
 30
0.0
 10
-13.3341
 20
5.51039
 30
0.0
 10
-13.33029
 20
5.51039
 30
0.0
 10
-13.33029
 20
5.51039
 30
0.0
 10
-13.33029
 20
5.51039
 30
0.0
 10
-13.33029
 20
5.51039
 30
0.0
 10
-12.61505
 20
5.51039
 30
0.0
 10
-12.61505
 20
5.51039
 30
0.0
 10
-12.61505
 20
5.51039
 30
0.0
 10
-12.61505
 20
5.51039
 30
0.0
 10
-12.61124
 20
5.51039
 30
0.0
 10
-12.61124
 20
5.51039
 30
0.0
 10
-12.61124
 20
5.51039
 30
0.0
 10
-12.61124
 20
5.51039
 30
0.0
 10
-12.60743
 20
5.51039
 30
0.0
 10
-12.60743
 20
5.51039
 30
0.0
 10
-12.60743
 20
5.51039
 30
0.0
 10
-12.60743
 20
5.51039
 30
0.0
 10
-12.60743
 20
5.5142
 30
0.0
 10
-12.60743
 20
5.5142
 30
0.0
 10
-12.60743
 20
5.5142
 30
0.0
 10
-12.60743
 20
5.5142
 30
0.0
 10
-12.60743
 20
5.51801
 30
0.0
 10
-12.60743
 20
5.51801
 30
0.0
 10
-12.60743
 20
5.51801
 30
0.0
 10
-12.60743
 20
5.51801
 30
0.0
 10
-12.60743
 20
5.83325
 30
0.0
 10
-12.60743
 20
5.83325
 30
0.0
 10
-12.60743
 20
5.83325
 30
0.0
 10
-12.60743
 20
5.83325
 30
0.0
 10
-12.60743
 20
5.83706
 30
0.0
 10
-12.60743
 20
5.83706
 30
0.0
 10
-12.60743
 20
5.83706
 30
0.0
 10
-12.60743
 20
5.83706
 30
0.0
 10
-12.60743
 20
5.84087
 30
0.0
 10
-12.60743
 20
5.84087
 30
0.0
 10
-12.60743
 20
5.84087
 30
0.0
 10
-12.60743
 20
5.84087
 30
0.0
 10
-12.60891
 20
5.84087
 30
0.0
 10
-12.60891
 20
5.84087
 30
0.0
 10
-12.60891
 20
5.84087
 30
0.0
 10
-12.60891
 20
5.84087
 30
0.0
 10
-12.60681
 20
6.12407
 30
0.0
 10
-12.60681
 20
6.12407
 30
0.0
 10
-12.60681
 20
6.12407
 30
0.0
 10
-12.60681
 20
6.12407
 30
0.0
 10
-12.60418
 20
6.12523
 30
0.0
 10
-12.60418
 20
6.12523
 30
0.0
 10
-12.60418
 20
6.12523
 30
0.0
 10
-12.60418
 20
6.12523
 30
0.0
 10
-12.60483
 20
6.12825
 30
0.0
 10
-12.60483
 20
6.12825
 30
0.0
 10
-12.60483
 20
6.12825
 30
0.0
 10
-12.60483
 20
6.12825
 30
0.0
 10
-12.60547
 20
6.13125
 30
0.0
 10
-12.60547
 20
6.13125
 30
0.0
 10
-12.60547
 20
6.13125
 30
0.0
 10
-12.60547
 20
6.13125
 30
0.0
 10
-12.60728
 20
6.13984
 30
0.0
 10
-12.60728
 20
6.13984
 30
0.0
 10
-12.60728
 20
6.13984
 30
0.0
 10
-12.60728
 20
6.13984
 30
0.0
 10
-12.6076
 20
6.14135
 30
0.0
 10
-12.6076
 20
6.14135
 30
0.0
 10
-12.6076
 20
6.14135
 30
0.0
 10
-12.6076
 20
6.14135
 30
0.0
 10
-12.60776
 20
6.14214
 30
0.0
 10
-12.60776
 20
6.14214
 30
0.0
 10
-12.60776
 20
6.14214
 30
0.0
 10
-12.60776
 20
6.14214
 30
0.0
 10
-12.60822
 20
6.14433
 30
0.0
 10
-12.60822
 20
6.14433
 30
0.0
 10
-12.60822
 20
6.14433
 30
0.0
 10
-12.60822
 20
6.14433
 30
0.0
 10
-12.60884
 20
6.14732
 30
0.0
 10
-12.60884
 20
6.14732
 30
0.0
 10
-12.60884
 20
6.14732
 30
0.0
 10
-12.60884
 20
6.14732
 30
0.0
 10
-12.61035
 20
6.14735
 30
0.0
 10
-12.61035
 20
6.14735
 30
0.0
 10
-12.61035
 20
6.14735
 30
0.0
 10
-12.61035
 20
6.14735
 30
0.0
 10
-12.61164
 20
6.14737
 30
0.0
 10
-12.61164
 20
6.14737
 30
0.0
 10
-12.61164
 20
6.14737
 30
0.0
 10
-12.61164
 20
6.14737
 30
0.0
 10
-12.62156
 20
6.16989
 30
0.0
 10
-12.62156
 20
6.16989
 30
0.0
 10
-12.62156
 20
6.16989
 30
0.0
 10
-12.66046
 20
6.259
 30
0.0
 10
-12.69833
 20
6.35602
 30
0.0
 10
-12.73498
 20
6.45932
 30
0.0
 10
-12.73498
 20
6.45932
 30
0.0
 10
-12.73498
 20
6.45932
 30
0.0
 10
-12.73831
 20
6.46873
 30
0.0
 10
-12.73831
 20
6.46873
 30
0.0
 10
-12.73831
 20
6.46873
 30
0.0
 10
-12.73831
 20
6.46873
 30
0.0
 10
-12.75289
 20
6.51057
 30
0.0
 10
-12.75289
 20
6.51057
 30
0.0
 10
-12.75289
 20
6.51057
 30
0.0
 10
-12.75289
 20
6.51057
 30
0.0
 10
-12.76115
 20
6.53472
 30
0.0
 10
-12.76115
 20
6.53472
 30
0.0
 10
-12.76115
 20
6.53472
 30
0.0
 10
-12.78798
 20
6.61373
 30
0.0
 10
-12.81411
 20
6.69599
 30
0.0
 10
-12.83951
 20
6.78085
 30
0.0
 10
-12.83951
 20
6.78085
 30
0.0
 10
-12.91707
 20
7.04004
 30
0.0
 10
-12.98767
 20
7.32334
 30
0.0
 10
-13.04951
 20
7.61172
 30
0.0
 10
-13.04951
 20
7.61172
 30
0.0
 10
-13.11825
 20
7.93222
 30
0.0
 10
-13.17627
 20
8.25917
 30
0.0
 10
-13.22116
 20
8.56642
 30
0.0
 10
-13.22116
 20
8.56642
 30
0.0
 10
-13.26825
 20
8.88873
 30
0.0
 10
-13.3009
 20
9.18931
 30
0.0
 10
-13.31636
 20
9.43799
 30
0.0
 10
-13.31636
 20
9.43799
 30
0.0
 10
-13.31861
 20
9.47423
 30
0.0
 10
-13.32056
 20
9.5097
 30
0.0
 10
-13.32217
 20
9.54428
 30
0.0
 10
-13.32217
 20
9.54428
 30
0.0
 10
-13.32378
 20
9.57876
 30
0.0
 10
-13.32508
 20
9.61244
 30
0.0
 10
-13.32605
 20
9.64524
 30
0.0
 10
-13.32605
 20
9.64524
 30
0.0
 10
-13.32701
 20
9.67795
 30
0.0
 10
-13.32768
 20
9.70991
 30
0.0
 10
-13.328
 20
9.741
 30
0.0
 10
-13.328
 20
9.741
 30
0.0
 10
-13.32832
 20
9.77171
 30
0.0
 10
-13.32834
 20
9.80169
 30
0.0
 10
-13.32804
 20
9.83082
 30
0.0
 10
-13.32804
 20
9.83082
 30
0.0
 10
-13.32804
 20
9.83082
 30
0.0
 10
-13.32793
 20
9.83157
 30
0.0
 10
-13.32793
 20
9.83157
 30
0.0
 10
-13.32793
 20
9.83157
 30
0.0
 10
-13.32317
 20
9.86466
 30
0.0
 10
-13.32126
 20
9.91075
 30
0.0
 10
-13.32108
 20
9.9809
 30
0.0
 10
-13.32108
 20
9.9809
 30
0.0
 10
-13.3209
 20
10.05152
 30
0.0
 10
-13.32247
 20
10.14658
 30
0.0
 10
-13.32464
 20
10.27745
 30
0.0
 10
-13.32464
 20
10.27745
 30
0.0
 10
-13.32464
 20
10.27745
 30
0.0
 10
-13.32498
 20
10.29842
 30
0.0
 10
-13.32498
 20
10.29842
 30
0.0
 10
-13.32498
 20
10.29842
 30
0.0
 10
-13.32498
 20
10.29842
 30
0.0
 10
-13.32499
 20
10.2988
 30
0.0
 10
-13.32499
 20
10.2988
 30
0.0
 10
-13.32499
 20
10.2988
 30
0.0
 10
-13.32499
 20
10.2988
 30
0.0
 10
-13.32501
 20
10.29999
 30
0.0
 10
-13.32501
 20
10.29999
 30
0.0
 10
-13.32501
 20
10.29999
 30
0.0
 10
-13.3299
 20
10.64345
 30
0.0
 10
-13.33673
 20
11.12226
 30
0.0
 10
-13.3245
 20
11.53912
 30
0.0
 10
-13.3245
 20
11.53912
 30
0.0
 10
-13.3239
 20
11.55974
 30
0.0
 10
-13.32197
 20
11.58453
 30
0.0
 10
-13.31887
 20
11.61111
 30
0.0
 10
-13.31887
 20
11.61111
 30
0.0
 10
-13.31592
 20
11.63647
 30
0.0
 10
-13.31186
 20
11.66348
 30
0.0
 10
-13.30687
 20
11.69005
 30
0.0
 10
-13.30687
 20
11.69005
 30
0.0
 10
-13.30235
 20
11.71411
 30
0.0
 10
-13.29704
 20
11.73777
 30
0.0
 10
-13.29109
 20
11.75939
 30
0.0
 10
-13.29109
 20
11.75939
 30
0.0
 10
-13.28563
 20
11.77925
 30
0.0
 10
-13.27957
 20
11.79754
 30
0.0
 10
-13.27304
 20
11.81303
 30
0.0
 10
-13.27304
 20
11.81303
 30
0.0
 10
-13.25824
 20
11.84812
 30
0.0
 10
-13.24024
 20
11.88445
 30
0.0
 10
-13.2192
 20
11.91978
 30
0.0
 10
-13.2192
 20
11.91978
 30
0.0
 10
-13.20025
 20
11.95159
 30
0.0
 10
-13.17881
 20
11.98262
 30
0.0
 10
-13.15499
 20
12.01124
 30
0.0
 10
-13.15499
 20
12.01124
 30
0.0
 10
-13.13347
 20
12.03711
 30
0.0
 10
-13.10992
 20
12.06107
 30
0.0
 10
-13.08447
 20
12.08189
 30
0.0
 10
-13.08447
 20
12.08189
 30
0.0
 10
-13.06096
 20
12.10113
 30
0.0
 10
-13.03581
 20
12.1177
 30
0.0
 10
-13.00917
 20
12.1306
 30
0.0
 10
-13.00917
 20
12.1306
 30
0.0
 10
-13.00917
 20
12.1306
 30
0.0
 10
-12.99407
 20
12.13791
 30
0.0
 10
-12.99407
 20
12.13791
 30
0.0
 10
-12.99407
 20
12.13791
 30
0.0
 10
-12.90269
 20
12.18211
 30
0.0
 10
-12.8645
 20
12.20058
 30
0.0
 10
-12.76866
 20
12.26672
 30
0.0
 10
-12.76866
 20
12.26672
 30
0.0
 10
-12.76866
 20
12.26672
 30
0.0
 10
-12.76552
 20
12.26888
 30
0.0
 10
-12.76552
 20
12.26888
 30
0.0
 10
-12.76552
 20
12.26888
 30
0.0
 10
-12.76552
 20
12.26888
 30
0.0
 10
-12.76238
 20
12.27104
 30
0.0
 10
-12.76238
 20
12.27104
 30
0.0
 10
-12.76238
 20
12.27104
 30
0.0
 10
-12.76238
 20
12.27104
 30
0.0
 10
-12.76455
 20
12.27417
 30
0.0
 10
-12.76455
 20
12.27417
 30
0.0
 10
-12.76455
 20
12.27417
 30
0.0
 10
-12.76455
 20
12.27417
 30
0.0
 10
-12.76672
 20
12.2773
 30
0.0
 10
-12.76672
 20
12.2773
 30
0.0
  0
SPLINE
  5
82
330
1F
100
AcDbEntity
  8
Master Layer 2
 62
   250
370
     9
100
AcDbSpline
210
0.0
220
0.0
230
1.0
 70
    11
 71
     3
 72
   220
 73
   216
 74
     0
 42
0.000000001
 43
0.0000000001
 40
0.0
 40
0.0
 40
0.0
 40
0.0
 40
0.0181818181818182
 40
0.0181818181818182
 40
0.0181818181818182
 40
0.0181818181818182
 40
0.0363636363636364
 40
0.0363636363636364
 40
0.0363636363636364
 40
0.0363636363636364
 40
0.0545454545454545
 40
0.0545454545454545
 40
0.0545454545454545
 40
0.0545454545454545
 40
0.0727272727272727
 40
0.0727272727272727
 40
0.0727272727272727
 40
0.0727272727272727
 40
0.0909090909090909
 40
0.0909090909090909
 40
0.0909090909090909
 40
0.0909090909090909
 40
0.1090909090909091
 40
0.1090909090909091
 40
0.1090909090909091
 40
0.1090909090909091
 40
0.1272727272727273
 40
0.1272727272727273
 40
0.1272727272727273
 40
0.1272727272727273
 40
0.1454545454545454
 40
0.1454545454545454
 40
0.1454545454545454
 40
0.1454545454545454
 40
0.1636363636363636
 40
0.1636363636363636
 40
0.1636363636363636
 40
0.1636363636363636
 40
0.1818181818181818
 40
0.1818181818181818
 40
0.1818181818181818
 40
0.1818181818181818
 40
0.2
 40
0.2
 40
0.2
 40
0.2
 40
0.2181818181818182
 40
0.2181818181818182
 40
0.2181818181818182
 40
0.2181818181818182
 40
0.2363636363636364
 40
0.2363636363636364
 40
0.2363636363636364
 40
0.2363636363636364
 40
0.2545454545454545
 40
0.2545454545454545
 40
0.2545454545454545
 40
0.2545454545454545
 40
0.2727272727272727
 40
0.2727272727272727
 40
0.2727272727272727
 40
0.2727272727272727
 40
0.2909090909090909
 40
0.2909090909090909
 40
0.2909090909090909
 40
0.2909090909090909
 40
0.3090909090909091
 40
0.3090909090909091
 40
0.3090909090909091
 40
0.3090909090909091
 40
0.3272727272727273
 40
0.3272727272727273
 40
0.3272727272727273
 40
0.3272727272727273
 40
0.3454545454545455
 40
0.3454545454545455
 40
0.3454545454545455
 40
0.3454545454545455
 40
0.3636363636363636
 40
0.3636363636363636
 40
0.3636363636363636
 40
0.3636363636363636
 40
0.3818181818181818
 40
0.3818181818181818
 40
0.3818181818181818
 40
0.3818181818181818
 40
0.4
 40
0.4
 40
0.4
 40
0.4
 40
0.4181818181818182
 40
0.4181818181818182
 40
0.4181818181818182
 40
0.4181818181818182
 40
0.4363636363636363
 40
0.4363636363636363
 40
0.4363636363636363
 40
0.4363636363636363
 40
0.4545454545454545
 40
0.4545454545454545
 40
0.4545454545454545
 40
0.4545454545454545
 40
0.4727272727272727
 40
0.4727272727272727
 40
0.4727272727272727
 40
0.4727272727272727
 40
0.4909090909090909
 40
0.4909090909090909
 40
0.4909090909090909
 40
0.4909090909090909
 40
0.509090909090909
 40
0.509090909090909
 40
0.509090909090909
 40
0.509090909090909
 40
0.5272727272727272
 40
0.5272727272727272
 40
0.5272727272727272
 40
0.5272727272727272
 40
0.5454545454545454
 40
0.5454545454545454
 40
0.5454545454545454
 40
0.5454545454545454
 40
0.5636363636363636
 40
0.5636363636363636
 40
0.5636363636363636
 40
0.5636363636363636
 40
0.5818181818181818
 40
0.5818181818181818
 40
0.5818181818181818
 40
0.5818181818181818
 40
0.6
 40
0.6
 40
0.6
 40
0.6
 40
0.6181818181818182
 40
0.6181818181818182
 40
0.6181818181818182
 40
0.6181818181818182
 40
0.6363636363636364
 40
0.6363636363636364
 40
0.6363636363636364
 40
0.6363636363636364
 40
0.6545454545454545
 40
0.6545454545454545
 40
0.6545454545454545
 40
0.6545454545454545
 40
0.6727272727272727
 40
0.6727272727272727
 40
0.6727272727272727
 40
0.6727272727272727
 40
0.6909090909090909
 40
0.6909090909090909
 40
0.6909090909090909
 40
0.6909090909090909
 40
0.7090909090909091
 40
0.7090909090909091
 40
0.7090909090909091
 40
0.7090909090909091
 40
0.7272727272727273
 40
0.7272727272727273
 40
0.7272727272727273
 40
0.7272727272727273
 40
0.7454545454545455
 40
0.7454545454545455
 40
0.7454545454545455
 40
0.7454545454545455
 40
0.7636363636363637
 40
0.7636363636363637
 40
0.7636363636363637
 40
0.7636363636363637
 40
0.7818181818181819
 40
0.7818181818181819
 40
0.7818181818181819
 40
0.7818181818181819
 40
0.8
 40
0.8
 40
0.8
 40
0.8
 40
0.8181818181818182
 40
0.8181818181818182
 40
0.8181818181818182
 40
0.8181818181818182
 40
0.8363636363636363
 40
0.8363636363636363
 40
0.8363636363636363
 40
0.8363636363636363
 40
0.8545454545454545
 40
0.8545454545454545
 40
0.8545454545454545
 40
0.8545454545454545
 40
0.8727272727272727
 40
0.8727272727272727
 40
0.8727272727272727
 40
0.8727272727272727
 40
0.8909090909090909
 40
0.8909090909090909
 40
0.8909090909090909
 40
0.8909090909090909
 40
0.9090909090909091
 40
0.9090909090909091
 40
0.9090909090909091
 40
0.9090909090909091
 40
0.9272727272727272
 40
0.9272727272727272
 40
0.9272727272727272
 40
0.9272727272727272
 40
0.9454545454545454
 40
0.9454545454545454
 40
0.9454545454545454
 40
0.9454545454545454
 40
0.9636363636363636
 40
0.9636363636363636
 40
0.9636363636363636
 40
0.9636363636363636
 40
1.0
 40
1.0
 40
1.0
 40
1.0
 10
-15.9299
 20
6.76711
 30
0.0
 10
-15.99727
 20
6.98056
 30
0.0
 10
-16.05964
 20
7.21381
 30
0.0
 10
-16.11594
 20
7.45278
 30
0.0
 10
-16.11594
 20
7.45278
 30
0.0
 10
-16.17741
 20
7.71375
 30
0.0
 10
-16.23169
 20
7.9817
 30
0.0
 10
-16.27734
 20
8.23825
 30
0.0
 10
-16.27734
 20
8.23825
 30
0.0
 10
-16.32755
 20
8.52042
 30
0.0
 10
-16.36734
 20
8.78884
 30
0.0
 10
-16.39485
 20
9.01906
 30
0.0
 10
-16.39485
 20
9.01906
 30
0.0
 10
-16.39485
 20
9.01906
 30
0.0
 10
-16.66754
 20
9.01906
 30
0.0
 10
-16.66754
 20
9.01906
 30
0.0
 10
-16.66754
 20
9.01906
 30
0.0
 10
-16.66754
 20
9.01906
 30
0.0
 10
-16.66767
 20
8.34532
 30
0.0
 10
-16.66767
 20
8.34532
 30
0.0
 10
-16.66767
 20
8.34532
 30
0.0
 10
-16.66767
 20
8.34532
 30
0.0
 10
-16.67147
 20
8.34532
 30
0.0
 10
-16.67147
 20
8.34532
 30
0.0
 10
-16.67147
 20
8.34532
 30
0.0
 10
-16.67147
 20
8.34532
 30
0.0
 10
-16.67147
 20
8.34152
 30
0.0
 10
-16.67147
 20
8.34152
 30
0.0
 10
-16.67147
 20
8.34152
 30
0.0
 10
-16.67147
 20
8.34152
 30
0.0
 10
-16.96968
 20
8.34139
 30
0.0
 10
-16.96968
 20
8.34139
 30
0.0
 10
-16.96968
 20
8.34139
 30
0.0
 10
-16.96968
 20
8.34139
 30
0.0
 10
-16.96968
 20
8.34519
 30
0.0
 10
-16.96968
 20
8.34519
 30
0.0
 10
-16.96968
 20
8.34519
 30
0.0
 10
-16.96968
 20
8.34519
 30
0.0
 10
-16.97348
 20
8.34519
 30
0.0
 10
-16.97348
 20
8.34519
 30
0.0
 10
-16.97348
 20
8.34519
 30
0.0
 10
-16.97348
 20
8.34519
 30
0.0
 10
-16.97344
 20
9.01906
 30
0.0
 10
-16.97344
 20
9.01906
 30
0.0
 10
-16.97344
 20
9.01906
 30
0.0
 10
-16.97344
 20
9.01906
 30
0.0
 10
-17.22111
 20
9.01906
 30
0.0
 10
-17.22111
 20
9.01906
 30
0.0
 10
-17.22111
 20
9.01906
 30
0.0
 10
-17.24881
 20
8.78676
 30
0.0
 10
-17.28805
 20
8.52101
 30
0.0
 10
-17.33732
 20
8.24319
 30
0.0
 10
-17.33732
 20
8.24319
 30
0.0
 10
-17.38238
 20
7.98904
 30
0.0
 10
-17.43586
 20
7.72479
 30
0.0
 10
-17.49658
 20
7.46681
 30
0.0
 10
-17.49658
 20
7.46681
 30
0.0
 10
-17.55277
 20
7.22807
 30
0.0
 10
-17.61524
 20
6.99451
 30
0.0
 10
-17.68305
 20
6.7791
 30
0.0
 10
-17.68305
 20
6.7791
 30
0.0
 10
-17.74492
 20
6.58261
 30
0.0
 10
-17.81126
 20
6.4012
 30
0.0
 10
-17.88136
 20
6.24473
 30
0.0
 10
-17.88136
 20
6.24473
 30
0.0
 10
-17.88136
 20
6.24473
 30
0.0
 10
-17.88165
 20
6.24407
 30
0.0
 10
-17.88165
 20
6.24407
 30
0.0
 10
-17.88165
 20
6.24407
 30
0.0
 10
-17.88165
 20
6.24407
 30
0.0
 10
-17.88165
 20
6.2433
 30
0.0
 10
-17.88165
 20
6.2433
 30
0.0
 10
-17.88165
 20
6.2433
 30
0.0
 10
-17.88165
 20
6.2433
 30
0.0
 10
-17.87943
 20
5.94905
 30
0.0
 10
-17.87943
 20
5.94905
 30
0.0
 10
-17.87943
 20
5.94905
 30
0.0
 10
-17.87943
 20
5.94905
 30
0.0
 10
-17.87562
 20
5.94906
 30
0.0
 10
-17.87562
 20
5.94906
 30
0.0
 10
-17.87562
 20
5.94906
 30
0.0
 10
-17.87562
 20
5.94906
 30
0.0
 10
-17.87562
 20
5.94525
 30
0.0
 10
-17.87562
 20
5.94525
 30
0.0
 10
-17.87562
 20
5.94525
 30
0.0
 10
-17.87562
 20
5.94525
 30
0.0
 10
-17.87562
 20
5.94144
 30
0.0
 10
-17.87562
 20
5.94144
 30
0.0
 10
-17.87562
 20
5.94144
 30
0.0
 10
-17.87562
 20
5.94144
 30
0.0
 10
-17.87562
 20
5.94121
 30
0.0
 10
-17.87562
 20
5.94121
 30
0.0
 10
-17.87562
 20
5.94121
 30
0.0
 10
-17.87562
 20
5.94121
 30
0.0
 10
-17.87562
 20
5.9374
 30
0.0
 10
-17.87562
 20
5.9374
 30
0.0
 10
-17.87562
 20
5.9374
 30
0.0
 10
-17.87562
 20
5.9374
 30
0.0
 10
-17.87562
 20
5.93359
 30
0.0
 10
-17.87562
 20
5.93359
 30
0.0
 10
-17.87562
 20
5.93359
 30
0.0
 10
-17.87562
 20
5.93359
 30
0.0
 10
-17.87943
 20
5.93359
 30
0.0
 10
-17.87943
 20
5.93359
 30
0.0
 10
-17.87943
 20
5.93359
 30
0.0
 10
-17.87943
 20
5.93359
 30
0.0
 10
-17.88092
 20
5.93359
 30
0.0
 10
-17.88092
 20
5.93359
 30
0.0
 10
-17.88092
 20
5.93359
 30
0.0
 10
-17.88092
 20
5.93359
 30
0.0
 10
-17.88092
 20
5.64121
 30
0.0
 10
-17.88092
 20
5.64121
 30
0.0
 10
-17.88092
 20
5.64121
 30
0.0
 10
-17.88092
 20
5.64121
 30
0.0
 10
-17.18854
 20
5.64121
 30
0.0
 10
-17.18854
 20
5.64121
 30
0.0
 10
-17.18854
 20
5.64121
 30
0.0
 10
-17.18854
 20
5.64121
 30
0.0
 10
-17.18854
 20
5.93766
 30
0.0
 10
-17.18854
 20
5.93766
 30
0.0
 10
-17.18854
 20
5.93766
 30
0.0
 10
-17.18854
 20
5.93766
 30
0.0
 10
-17.18854
 20
5.94147
 30
0.0
 10
-17.18854
 20
5.94147
 30
0.0
 10
-17.18854
 20
5.94147
 30
0.0
 10
-17.18854
 20
5.94147
 30
0.0
 10
-17.18854
 20
5.94528
 30
0.0
 10
-17.18854
 20
5.94528
 30
0.0
 10
-17.18854
 20
5.94528
 30
0.0
 10
-17.18854
 20
5.94528
 30
0.0
 10
-17.18473
 20
5.94528
 30
0.0
 10
-17.18473
 20
5.94528
 30
0.0
 10
-17.18473
 20
5.94528
 30
0.0
 10
-17.18473
 20
5.94528
 30
0.0
 10
-17.18092
 20
5.94528
 30
0.0
 10
-17.18092
 20
5.94528
 30
0.0
 10
-17.18092
 20
5.94528
 30
0.0
 10
-17.18092
 20
5.94528
 30
0.0
 10
-16.43604
 20
5.94528
 30
0.0
 10
-16.43604
 20
5.94528
 30
0.0
 10
-16.43604
 20
5.94528
 30
0.0
 10
-16.43604
 20
5.94528
 30
0.0
 10
-16.43223
 20
5.94528
 30
0.0
 10
-16.43223
 20
5.94528
 30
0.0
 10
-16.43223
 20
5.94528
 30
0.0
 10
-16.43223
 20
5.94528
 30
0.0
 10
-16.42842
 20
5.94528
 30
0.0
 10
-16.42842
 20
5.94528
 30
0.0
 10
-16.42842
 20
5.94528
 30
0.0
 10
-16.42842
 20
5.94528
 30
0.0
 10
-16.42842
 20
5.94147
 30
0.0
 10
-16.42842
 20
5.94147
 30
0.0
 10
-16.42842
 20
5.94147
 30
0.0
 10
-16.42842
 20
5.94147
 30
0.0
 10
-16.42842
 20
5.93766
 30
0.0
 10
-16.42842
 20
5.93766
 30
0.0
 10
-16.42842
 20
5.93766
 30
0.0
 10
-16.42842
 20
5.93766
 30
0.0
 10
-16.42842
 20
5.64121
 30
0.0
 10
-16.42842
 20
5.64121
 30
0.0
 10
-16.42842
 20
5.64121
 30
0.0
 10
-16.42842
 20
5.64121
 30
0.0
 10
-15.73604
 20
5.64121
 30
0.0
 10
-15.73604
 20
5.64121
 30
0.0
 10
-15.73604
 20
5.64121
 30
0.0
 10
-15.73604
 20
5.64121
 30
0.0
 10
-15.73604
 20
5.93359
 30
0.0
 10
-15.73604
 20
5.93359
 30
0.0
 10
-15.73604
 20
5.93359
 30
0.0
 10
-15.73604
 20
5.93359
 30
0.0
 10
-15.73653
 20
5.93359
 30
0.0
 10
-15.73653
 20
5.93359
 30
0.0
 10
-15.73653
 20
5.93359
 30
0.0
 10
-15.73653
 20
5.93359
 30
0.0
 10
-15.74034
 20
5.93359
 30
0.0
 10
-15.74034
 20
5.93359
 30
0.0
 10
-15.74034
 20
5.93359
 30
0.0
 10
-15.74034
 20
5.93359
 30
0.0
 10
-15.74034
 20
5.9374
 30
0.0
 10
-15.74034
 20
5.9374
 30
0.0
 10
-15.74034
 20
5.9374
 30
0.0
 10
-15.74034
 20
5.9374
 30
0.0
 10
-15.74034
 20
5.94121
 30
0.0
 10
-15.74034
 20
5.94121
 30
0.0
 10
-15.74034
 20
5.94121
 30
0.0
 10
-15.74034
 20
5.94121
 30
0.0
 10
-15.74034
 20
5.94144
 30
0.0
 10
-15.74034
 20
5.94144
 30
0.0
 10
-15.74034
 20
5.94144
 30
0.0
 10
-15.74034
 20
5.94144
 30
0.0
 10
-15.74034
 20
5.94525
 30
0.0
 10
-15.74034
 20
5.94525
 30
0.0
 10
-15.74034
 20
5.94525
 30
0.0
 10
-15.74034
 20
5.94525
 30
0.0
 10
-15.74034
 20
5.94906
 30
0.0
 10
-15.74034
 20
5.94906
 30
0.0
 10
-15.74034
 20
5.94906
 30
0.0
 10
-15.74034
 20
5.94906
 30
0.0
 10
-15.73649
 20
5.94905
 30
0.0
 10
-15.73649
 20
5.94905
 30
0.0
 10
-15.73649
 20
5.94905
 30
0.0
 10
-15.73649
 20
5.94905
 30
0.0
 10
-15.73431
 20
6.24337
 30
0.0
 10
-15.73431
 20
6.24337
 30
0.0
 10
-15.73431
 20
6.24337
 30
0.0
 10
-15.73431
 20
6.24337
 30
0.0
 10
-15.73431
 20
6.24407
 30
0.0
 10
-15.73431
 20
6.24407
 30
0.0
 10
-15.73431
 20
6.24407
 30
0.0
 10
-15.73431
 20
6.24407
 30
0.0
 10
-15.73458
 20
6.24467
 30
0.0
 10
-15.73458
 20
6.24467
 30
0.0
 10
-15.73458
 20
6.24467
 30
0.0
 10
-15.80331
 20
6.39553
 30
0.0
 10
-15.86869
 20
6.5732
 30
0.0
 10
-15.9299
 20
6.76711
 30
0.0
  0
SPLINE
  5
83
330
1F
100
AcDbEntity
  8
Master Layer 2
 62
   250
370
     9
100
AcDbSpline
210
0.0
220
0.0
230
1.0
 70
    11
 71
     3
 72
    20
 73
    16
 74
     0
 42
0.000000001
 43
0.0000000001
 40
0.0
 40
0.0
 40
0.0
 40
0.0
 40
0.2
 40
0.2
 40
0.2
 40
0.2
 40
0.4
 40
0.4
 40
0.4
 40
0.4
 40
0.6
 40
0.6
 40
0.6
 40
0.6
 40
1.0
 40
1.0
 40
1.0
 40
1.0
 10
-16.59631
 20
14.4488
 30
0.0
 10
-15.65742
 20
14.4488
 30
0.0
 10
-14.89631
 20
13.68768
 30
0.0
 10
-14.89631
 20
12.7488
 30
0.0
 10
-14.89631
 20
12.7488
 30
0.0
 10
-14.89631
 20
11.80992
 30
0.0
 10
-15.65742
 20
11.0488
 30
0.0
 10
-16.59631
 20
11.0488
 30
0.0
 10
-16.59631
 20
11.0488
 30
0.0
 10
-17.5352
 20
11.0488
 30
0.0
 10
-18.29631
 20
11.80992
 30
0.0
 10
-18.29631
 20
12.7488
 30
0.0
 10
-18.29631
 20
12.7488
 30
0.0
 10
-18.29631
 20
13.68768
 30
0.0
 10
-17.5352
 20
14.4488
 30
0.0
 10
-16.59631
 20
14.4488
 30
0.0
  0
SPLINE
  5
84
330
1F
100
AcDbEntity
  8
Master Layer 2
 62
   250
370
     9
100
AcDbSpline
210
0.0
220
0.0
230
1.0
 70
    11
 71
     3
 72
    20
 73
    16
 74
     0
 42
0.000000001
 43
0.0000000001
 40
0.0
 40
0.0
 40
0.0
 40
0.0
 40
0.2
 40
0.2
 40
0.2
 40
0.2
 40
0.4
 40
0.4
 40
0.4
 40
0.4
 40
0.6
 40
0.6
 40
0.6
 40
0.6
 40
1.0
 40
1.0
 40
1.0
 40
1.0
 10
-16.44631
 20
13.8242
 30
0.0
 10
-16.44631
 20
13.8242
 30
0.0
 10
-16.44631
 20
13.1242
 30
0.0
 10
-16.44631
 20
13.1242
 30
0.0
 10
-16.44631
 20
13.1242
 30
0.0
 10
-16.44631
 20
13.1242
 30
0.0
 10
-16.74631
 20
13.1242
 30
0.0
 10
-16.74631
 20
13.1242
 30
0.0
 10
-16.74631
 20
13.1242
 30
0.0
 10
-16.74631
 20
13.1242
 30
0.0
 10
-16.74631
 20
13.8242
 30
0.0
 10
-16.74631
 20
13.8242
 30
0.0
 10
-16.74631
 20
13.8242
 30
0.0
 10
-16.74631
 20
13.8242
 30
0.0
 10
-16.44631
 20
13.8242
 30
0.0
 10
-16.44631
 20
13.8242
 30
0.0
  0
SPLINE
  5
85
330
1F
100
AcDbEntity
  8
Master Layer 2
 62
   250
370
     9
100
AcDbSpline
210
0.0
220
0.0
230
1.0
 70
    11
 71
     3
 72
    20
 73
    16
 74
     0
 42
0.000000001
 43
0.0000000001
 40
0.0
 40
0.0
 40
0.0
 40
0.0
 40
0.2
 40
0.2
 40
0.2
 40
0.2
 40
0.4
 40
0.4
 40
0.4
 40
0.4
 40
0.6
 40
0.6
 40
0.6
 40
0.6
 40
1.0
 40
1.0
 40
1.0
 40
1.0
 10
-15.52091
 20
12.5988
 30
0.0
 10
-15.52091
 20
12.5988
 30
0.0
 10
-16.22091
 20
12.5988
 30
0.0
 10
-16.22091
 20
12.5988
 30
0.0
 10
-16.22091
 20
12.5988
 30
0.0
 10
-16.22091
 20
12.5988
 30
0.0
 10
-16.22091
 20
12.8988
 30
0.0
 10
-16.22091
 20
12.8988
 30
0.0
 10
-16.22091
 20
12.8988
 30
0.0
 10
-16.22091
 20
12.8988
 30
0.0
 10
-15.52091
 20
12.8988
 30
0.0
 10
-15.52091
 20
12.8988
 30
0.0
 10
-15.52091
 20
12.8988
 30
0.0
 10
-15.52091
 20
12.8988
 30
0.0
 10
-15.52091
 20
12.5988
 30
0.0
 10
-15.52091
 20
12.5988
 30
0.0
  0
SPLINE
  5
86
330
1F
100
AcDbEntity
  8
Master Layer 2
 62
   250
370
     9
100
AcDbSpline
210
0.0
220
0.0
230
1.0
 70
    11
 71
     3
 72
    20
 73
    16
 74
     0
 42
0.000000001
 43
0.0000000001
 40
0.0
 40
0.0
 40
0.0
 40
0.0
 40
0.2
 40
0.2
 40
0.2
 40
0.2
 40
0.4
 40
0.4
 40
0.4
 40
0.4
 40
0.6
 40
0.6
 40
0.6
 40
0.6
 40
1.0
 40
1.0
 40
1.0
 40
1.0
 10
-16.74631
 20
11.6734
 30
0.0
 10
-16.74631
 20
11.6734
 30
0.0
 10
-16.74631
 20
12.3734
 30
0.0
 10
-16.74631
 20
12.3734
 30
0.0
 10
-16.74631
 20
12.3734
 30
0.0
 10
-16.74631
 20
12.3734
 30
0.0
 10
-16.44631
 20
12.3734
 30
0.0
 10
-16.44631
 20
12.3734
 30
0.0
 10
-16.44631
 20
12.3734
 30
0.0
 10
-16.44631
 20
12.3734
 30
0.0
 10
-16.44631
 20
11.6734
 30
0.0
 10
-16.44631
 20
11.6734
 30
0.0
 10
-16.44631
 20
11.6734
 30
0.0
 10
-16.44631
 20
11.6734
 30
0.0
 10
-16.74631
 20
11.6734
 30
0.0
 10
-16.74631
 20
11.6734
 30
0.0
  0
SPLINE
  5
87
330
1F
100
AcDbEntity
  8
Master Layer 2
 62
   250
370
     9
100
AcDbSpline
210
0.0
220
0.0
230
1.0
 70
    11
 71
     3
 72
    20
 73
    16
 74
     0
 42
0.000000001
 43
0.0000000001
 40
0.0
 40
0.0
 40
0.0
 40
0.0
 40
0.2
 40
0.2
 40
0.2
 40
0.2
 40
0.4
 40
0.4
 40
0.4
 40
0.4
 40
0.6
 40
0.6
 40
0.6
 40
0.6
 40
1.0
 40
1.0
 40
1.0
 40
1.0
 10
-17.67171
 20
12.8988
 30
0.0
 10
-17.67171
 20
12.8988
 30
0.0
 10
-16.97171
 20
12.8988
 30
0.0
 10
-16.97171
 20
12.8988
 30
0.0
 10
-16.97171
 20
12.8988
 30
0.0
 10
-16.97171
 20
12.8988
 30
0.0
 10
-16.97171
 20
12.5988
 30
0.0
 10
-16.97171
 20
12.5988
 30
0.0
 10
-16.97171
 20
12.5988
 30
0.0
 10
-16.97171
 20
12.5988
 30
0.0
 10
-17.67171
 20
12.5988
 30
0.0
 10
-17.67171
 20
12.5988
 30
0.0
 10
-17.67171
 20
12.5988
 30
0.0
 10
-17.67171
 20
12.5988
 30
0.0
 10
-17.67171
 20
12.8988
 30
0.0
 10
-17.67171
 20
12.8988
 30
0.0
  0
SPLINE
  5
89
330
1F
100
AcDbEntity
  8
Layer 1
 62
   250
370
     9
100
AcDbSpline
210
0.0
220
0.0
230
1.0
 70
    11
 71
     3
 72
    20
 73
    16
 74
     0
 42
0.000000001
 43
0.0000000001
 40
0.0
 40
0.0
 40
0.0
 40
0.0
 40
0.2
 40
0.2
 40
0.2
 40
0.2
 40
0.4
 40
0.4
 40
0.4
 40
0.4
 40
0.6
 40
0.6
 40
0.6
 40
0.6
 40
1.0
 40
1.0
 40
1.0
 40
1.0
 10
-10.6298
 20
14.63138
 30
0.0
 10
-9.69091
 20
14.63138
 30
0.0
 10
-8.9298
 20
13.87026
 30
0.0
 10
-8.9298
 20
12.93138
 30
0.0
 10
-8.9298
 20
12.93138
 30
0.0
 10
-8.9298
 20
11.9925
 30
0.0
 10
-9.69091
 20
11.23138
 30
0.0
 10
-10.6298
 20
11.23138
 30
0.0
 10
-10.6298
 20
11.23138
 30
0.0
 10
-11.56869
 20
11.23138
 30
0.0
 10
-12.3298
 20
11.9925
 30
0.0
 10
-12.3298
 20
12.93138
 30
0.0
 10
-12.3298
 20
12.93138
 30
0.0
 10
-12.3298
 20
13.87026
 30
0.0
 10
-11.56869
 20
14.63138
 30
0.0
 10
-10.6298
 20
14.63138
 30
0.0
  0
SPLINE
  5
8A
330
1F
100
AcDbEntity
  8
Layer 1
 62
   250
370
     9
100
AcDbSpline
210
0.0
220
0.0
230
1.0
 70
    11
 71
     3
 72
    20
 73
    16
 74
     0
 42
0.000000001
 43
0.0000000001
 40
0.0
 40
0.0
 40
0.0
 40
0.0
 40
0.2
 40
0.2
 40
0.2
 40
0.2
 40
0.4
 40
0.4
 40
0.4
 40
0.4
 40
0.6
 40
0.6
 40
0.6
 40
0.6
 40
1.0
 40
1.0
 40
1.0
 40
1.0
 10
-10.4798
 20
14.00678
 30
0.0
 10
-10.4798
 20
14.00678
 30
0.0
 10
-10.4798
 20
13.30678
 30
0.0
 10
-10.4798
 20
13.30678
 30
0.0
 10
-10.4798
 20
13.30678
 30
0.0
 10
-10.4798
 20
13.30678
 30
0.0
 10
-10.7798
 20
13.30678
 30
0.0
 10
-10.7798
 20
13.30678
 30
0.0
 10
-10.7798
 20
13.30678
 30
0.0
 10
-10.7798
 20
13.30678
 30
0.0
 10
-10.7798
 20
14.00678
 30
0.0
 10
-10.7798
 20
14.00678
 30
0.0
 10
-10.7798
 20
14.00678
 30
0.0
 10
-10.7798
 20
14.00678
 30
0.0
 10
-10.4798
 20
14.00678
 30
0.0
 10
-10.4798
 20
14.00678
 30
0.0
  0
SPLINE
  5
8B
330
1F
100
AcDbEntity
  8
Layer 1
 62
   250
370
     9
100
AcDbSpline
210
0.0
220
0.0
230
1.0
 70
    11
 71
     3
 72
    20
 73
    16
 74
     0
 42
0.000000001
 43
0.0000000001
 40
0.0
 40
0.0
 40
0.0
 40
0.0
 40
0.2
 40
0.2
 40
0.2
 40
0.2
 40
0.4
 40
0.4
 40
0.4
 40
0.4
 40
0.6
 40
0.6
 40
0.6
 40
0.6
 40
1.0
 40
1.0
 40
1.0
 40
1.0
 10
-9.5544
 20
12.78138
 30
0.0
 10
-9.5544
 20
12.78138
 30
0.0
 10
-10.2544
 20
12.78138
 30
0.0
 10
-10.2544
 20
12.78138
 30
0.0
 10
-10.2544
 20
12.78138
 30
0.0
 10
-10.2544
 20
12.78138
 30
0.0
 10
-10.2544
 20
13.08138
 30
0.0
 10
-10.2544
 20
13.08138
 30
0.0
 10
-10.2544
 20
13.08138
 30
0.0
 10
-10.2544
 20
13.08138
 30
0.0
 10
-9.5544
 20
13.08138
 30
0.0
 10
-9.5544
 20
13.08138
 30
0.0
 10
-9.5544
 20
13.08138
 30
0.0
 10
-9.5544
 20
13.08138
 30
0.0
 10
-9.5544
 20
12.78138
 30
0.0
 10
-9.5544
 20
12.78138
 30
0.0
  0
SPLINE
  5
8C
330
1F
100
AcDbEntity
  8
Layer 1
 62
   250
370
     9
100
AcDbSpline
210
0.0
220
0.0
230
1.0
 70
    11
 71
     3
 72
    20
 73
    16
 74
     0
 42
0.000000001
 43
0.0000000001
 40
0.0
 40
0.0
 40
0.0
 40
0.0
 40
0.2
 40
0.2
 40
0.2
 40
0.2
 40
0.4
 40
0.4
 40
0.4
 40
0.4
 40
0.6
 40
0.6
 40
0.6
 40
0.6
 40
1.0
 40
1.0
 40
1.0
 40
1.0
 10
-10.7798
 20
11.85598
 30
0.0
 10
-10.7798
 20
11.85598
 30
0.0
 10
-10.7798
 20
12.55598
 30
0.0
 10
-10.7798
 20
12.55598
 30
0.0
 10
-10.7798
 20
12.55598
 30
0.0
 10
-10.7798
 20
12.55598
 30
0.0
 10
-10.4798
 20
12.55598
 30
0.0
 10
-10.4798
 20
12.55598
 30
0.0
 10
-10.4798
 20
12.55598
 30
0.0
 10
-10.4798
 20
12.55598
 30
0.0
 10
-10.4798
 20
11.85598
 30
0.0
 10
-10.4798
 20
11.85598
 30
0.0
 10
-10.4798
 20
11.85598
 30
0.0
 10
-10.4798
 20
11.85598
 30
0.0
 10
-10.7798
 20
11.85598
 30
0.0
 10
-10.7798
 20
11.85598
 30
0.0
  0
SPLINE
  5
8D
330
1F
100
AcDbEntity
  8
Layer 1
 62
   250
370
     9
100
AcDbSpline
210
0.0
220
0.0
230
1.0
 70
    11
 71
     3
 72
    20
 73
    16
 74
     0
 42
0.000000001
 43
0.0000000001
 40
0.0
 40
0.0
 40
0.0
 40
0.0
 40
0.2
 40
0.2
 40
0.2
 40
0.2
 40
0.4
 40
0.4
 40
0.4
 40
0.4
 40
0.6
 40
0.6
 40
0.6
 40
0.6
 40
1.0
 40
1.0
 40
1.0
 40
1.0
 10
-11.7052
 20
13.08138
 30
0.0
 10
-11.7052
 20
13.08138
 30
0.0
 10
-11.0052
 20
13.08138
 30
0.0
 10
-11.0052
 20
13.08138
 30
0.0
 10
-11.0052
 20
13.08138
 30
0.0
 10
-11.0052
 20
13.08138
 30
0.0
 10
-11.0052
 20
12.78138
 30
0.0
 10
-11.0052
 20
12.78138
 30
0.0
 10
-11.0052
 20
12.78138
 30
0.0
 10
-11.0052
 20
12.78138
 30
0.0
 10
-11.7052
 20
12.78138
 30
0.0
 10
-11.7052
 20
12.78138
 30
0.0
 10
-11.7052
 20
12.78138
 30
0.0
 10
-11.7052
 20
12.78138
 30
0.0
 10
-11.7052
 20
13.08138
 30
0.0
 10
-11.7052
 20
13.08138
 30
0.0
  0
ENDSEC
  0
SECTION
  2
OBJECTS
  0
DICTIONARY
  5
C
330
0
100
AcDbDictionary
281
     1
  3
ACAD_DETAILVIEWSTYLE
350
C9
  3
ACAD_GROUP
350
D
  3
ACAD_LAYOUT
350
1A
  3
ACAD_MATERIAL
350
43
  3
ACAD_MLEADERSTYLE
350
6B
  3
ACAD_MLINESTYLE
350
17
  3
ACAD_PLOTSETTINGS
350
19
  3
ACAD_PLOTSTYLENAME
350
E
  3
ACAD_SCALELIST
350
47
  3
ACAD_SECTIONVIEWSTYLE
350
CA
  3
ACAD_TABLESTYLE
350
69
  3
ACAD_VISUALSTYLE
350
2A
  3
ACDB_RECOMPOSE_DATA
350
C6
  3
AcDbVariableDictionary
350
8E
  0
SUN
  5
6D
330
29
100
AcDbSun
 90
        1
290
     0
 63
     7
421
 16777215
 40
1.0
291
     1
 91
  2455826
 92
 54000000
292
     0
 70
     2
 71
   256
280
     1
  0
DICTIONARY
  5
C9
102
{ACAD_REACTORS
330
C
102
}
330
C
100
AcDbDictionary
281
     1
  0
DICTIONARY
  5
D
102
{ACAD_REACTORS
330
C
102
}
330
C
100
AcDbDictionary
281
     1
  0
DICTIONARY
  5
1A
102
{ACAD_REACTORS
330
C
102
}
330
C
100
AcDbDictionary
281
     1
  3
Layout1
350
1E
  3
Layout2
350
26
  3
Model
350
22
  0
DICTIONARY
  5
43
102
{ACAD_REACTORS
330
C
102
}
330
C
100
AcDbDictionary
281
     1
  3
ByBlock
350
45
  3
ByLayer
350
44
  3
Global
350
46
  0
DICTIONARY
  5
6B
102
{ACAD_REACTORS
330
C
102
}
330
C
100
AcDbDictionary
281
     1
  3
Standard
350
6C
  0
DICTIONARY
  5
17
102
{ACAD_REACTORS
330
C
102
}
330
C
100
AcDbDictionary
281
     1
  3
Standard
350
18
  0
DICTIONARY
  5
19
102
{ACAD_REACTORS
330
C
102
}
330
C
100
AcDbDictionary
281
     1
  0
ACDBDICTIONARYWDFLT
  5
E
102
{ACAD_REACTORS
330
C
102
}
330
C
100
AcDbDictionary
281
     1
  3
Normal
350
F
100
AcDbDictionaryWithDefault
340
F
  0
DICTIONARY
  5
47
102
{ACAD_REACTORS
330
C
102
}
330
C
100
AcDbDictionary
281
     1
  3
A0
350
48
  3
A1
350
49
  3
A2
350
4A
  3
A3
350
4B
  3
A4
350
4C
  3
A5
350
4D
  3
A6
350
4E
  3
A7
350
4F
  3
A8
350
50
  3
A9
350
51
  3
B0
350
52
  3
B1
350
53
  3
B2
350
54
  3
B3
350
55
  3
B4
350
56
  3
B5
350
57
  3
B6
350
58
  3
B7
350
59
  3
B8
350
5A
  3
B9
350
5B
  3
C0
350
5C
  3
C1
350
5D
  3
C2
350
5E
  3
C3
350
5F
  3
C4
350
60
  3
C5
350
61
  3
C6
350
62
  3
C7
350
63
  3
C8
350
64
  3
C9
350
65
  3
D0
350
66
  3
D1
350
67
  3
D2
350
68
  0
DICTIONARY
  5
CA
102
{ACAD_REACTORS
330
C
102
}
330
C
100
AcDbDictionary
281
     1
  0
DICTIONARY
  5
69
102
{ACAD_REACTORS
330
C
102
}
330
C
100
AcDbDictionary
281
     1
  3
Standard
350
6A
  0
DICTIONARY
  5
2A
102
{ACAD_REACTORS
330
C
102
}
330
C
100
AcDbDictionary
281
     1
  3
2dWireframe
350
2F
  3
Basic
350
32
  3
Brighten
350
36
  3
ColorChange
350
3A
  3
Conceptual
350
34
  3
Dim
350
35
  3
EdgeColorOff
350
3D
  3
Facepattern
350
39
  3
Flat
350
2B
  3
FlatWithEdges
350
2C
  3
Gouraud
350
2D
  3
GouraudWithEdges
350
2E
  3
Hidden
350
31
  3
JitterOff
350
3B
  3
Linepattern
350
38
  3
OverhangOff
350
3C
  3
Realistic
350
33
  3
Shaded
350
42
  3
Shaded with edges
350
41
  3
Shades of Gray
350
3E
  3
Sketchy
350
3F
  3
Thicken
350
37
  3
Wireframe
350
30
  3
X-Ray
350
40
  0
XRECORD
  5
C6
102
{ACAD_REACTORS
330
C
102
}
330
C
100
AcDbXrecord
280
     1
 90
        1
330
6A
  0
DICTIONARY
  5
8E
102
{ACAD_REACTORS
330
C
102
}
330
C
100
AcDbDictionary
281
     1
  3
CANNOSCALE
350
8F
  3
CMLEADERSTYLE
350
C8
  3
CTABLESTYLE
350
C7
  3
XCLIPFRAME
350
90
  0
LAYOUT
  5
1E
102
{ACAD_REACTORS
330
1A
102
}
330
1A
100
AcDbPlotSettings
  1

  2
none_device
  4

  6

 40
0.0
 41
0.0
 42
0.0
 43
0.0
 44
0.0
 45
0.0
 46
0.0
 47
0.0
 48
0.0
 49
0.0
140
0.0
141
0.0
142
1.0
143
1.0
 70
   688
 72
     0
 73
     0
 74
     5
  7

 75
    16
 76
     0
 77
     2
 78
   300
147
1.0
148
0.0
149
0.0
100
AcDbLayout
  1
Layout1
 70
     1
 71
     1
 10
0.0
 20
0.0
 11
12.0
 21
9.0
 12
0.0
 22
0.0
 32
0.0
 14
1.000000000000000E+20
 24
1.000000000000000E+20
 34
1.000000000000000E+20
 15
-1.000000000000000E+20
 25
-1.000000000000000E+20
 35
-1.000000000000000E+20
146
0.0
 13
0.0
 23
0.0
 33
0.0
 16
1.0
 26
0.0
 36
0.0
 17
0.0
 27
1.0
 37
0.0
 76
     0
330
1B
  0
LAYOUT
  5
26
102
{ACAD_REACTORS
330
1A
102
}
330
1A
100
AcDbPlotSettings
  1

  2
none_device
  4

  6

 40
0.0
 41
0.0
 42
0.0
 43
0.0
 44
0.0
 45
0.0
 46
0.0
 47
0.0
 48
0.0
 49
0.0
140
0.0
141
0.0
142
1.0
143
1.0
 70
   688
 72
     0
 73
     0
 74
     5
  7

 75
    16
 76
     0
 77
     2
 78
   300
147
1.0
148
0.0
149
0.0
100
AcDbLayout
  1
Layout2
 70
     1
 71
     2
 10
0.0
 20
0.0
 11
0.0
 21
0.0
 12
0.0
 22
0.0
 32
0.0
 14
0.0
 24
0.0
 34
0.0
 15
0.0
 25
0.0
 35
0.0
146
0.0
 13
0.0
 23
0.0
 33
0.0
 16
1.0
 26
0.0
 36
0.0
 17
0.0
 27
1.0
 37
0.0
 76
     0
330
23
  0
LAYOUT
  5
22
102
{ACAD_REACTORS
330
1A
102
}
330
1A
100
AcDbPlotSettings
  1

  2
none_device
  4
Letter_(8.50_x_11.00_Inches)
  6

 40
6.35
 41
6.35
 42
6.35000508
 43
6.35000508
 44
215.9
 45
279.4
 46
0.0
 47
0.0
 48
0.0
 49
0.0
140
0.0
141
0.0
142
1.0
143
1.0
 70
  1712
 72
     0
 73
     0
 74
     0
  7

 75
     0
 76
     0
 77
     2
 78
   300
147
1.0
148
0.0
149
0.0
100
AcDbLayout
  1
Model
 70
     1
 71
     0
 10
0.0
 20
0.0
 11
12.0
 21
9.0
 12
0.0
 22
0.0
 32
0.0
 14
-29.77813
 24
5.43561
 34
0.0
 15
-8.92599
 25
14.74087
 35
0.0
146
0.0
 13
0.0
 23
0.0
 33
0.0
 16
1.0
 26
0.0
 36
0.0
 17
0.0
 27
1.0
 37
0.0
 76
     0
330
1F
331
29
  0
MATERIAL
  5
45
102
{ACAD_REACTORS
330
43
102
}
330
43
100
AcDbMaterial
  1
ByBlock
 72
     1
 94
      127
  0
MATERIAL
  5
44
102
{ACAD_REACTORS
330
43
102
}
330
43
100
AcDbMaterial
  1
ByLayer
 72
     1
 94
      127
  0
MATERIAL
  5
46
102
{ACAD_REACTORS
330
43
102
}
330
43
100
AcDbMaterial
  1
Global
 72
     1
 94
      127
  0
MLEADERSTYLE
  5
6C
102
{ACAD_REACTORS
330
6B
102
}
102
{ACAD_XDICTIONARY
360
C4
102
}
330
6B
100
AcDbMLeaderStyle
170
     2
171
     1
172
     0
 90
        2
 40
0.0
 41
0.0
173
     1
 91
-1056964608
340
14
 92
       -2
290
     1
 42
0.09
291
     1
 43
0.36
  3
Standard
341
0
 44
0.18
300

342
11
174
     1
178
     6
175
     1
176
     0
 93
-1056964608
 45
0.18
292
     0
297
     0
 46
0.18
343
0
 94
-1056964608
 47
1.0
 49
1.0
140
1.0
293
     1
141
0.0
294
     1
177
     0
142
1.0
295
     0
296
     0
143
0.125
1001
ACAD_MLEADERVER
1070
     2
  0
MLINESTYLE
  5
18
102
{ACAD_REACTORS
330
17
102
}
330
17
100
AcDbMlineStyle
  2
Standard
 70
     0
  3

 62
   256
 51
90.0
 52
90.0
 71
     2
 49
0.5
 62
   256
  6
BYLAYER
 49
-0.5
 62
   256
  6
BYLAYER
  0
ACDBPLACEHOLDER
  5
F
102
{ACAD_REACTORS
330
E
102
}
330
E
  0
SCALE
  5
48
102
{ACAD_REACTORS
330
47
102
}
330
47
100
AcDbScale
 70
     0
300
1:1
140
1.0
141
1.0
290
     1
  0
SCALE
  5
49
102
{ACAD_REACTORS
330
47
102
}
330
47
100
AcDbScale
 70
     0
300
1:2
140
1.0
141
2.0
290
     0
  0
SCALE
  5
4A
102
{ACAD_REACTORS
330
47
102
}
330
47
100
AcDbScale
 70
     0
300
1:4
140
1.0
141
4.0
290
     0
  0
SCALE
  5
4B
102
{ACAD_REACTORS
330
47
102
}
330
47
100
AcDbScale
 70
     0
300
1:5
140
1.0
141
5.0
290
     0
  0
SCALE
  5
4C
102
{ACAD_REACTORS
330
47
102
}
330
47
100
AcDbScale
 70
     0
300
1:8
140
1.0
141
8.0
290
     0
  0
SCALE
  5
4D
102
{ACAD_REACTORS
330
47
102
}
330
47
100
AcDbScale
 70
     0
300
1:10
140
1.0
141
10.0
290
     0
  0
SCALE
  5
4E
102
{ACAD_REACTORS
330
47
102
}
330
47
100
AcDbScale
 70
     0
300
1:16
140
1.0
141
16.0
290
     0
  0
SCALE
  5
4F
102
{ACAD_REACTORS
330
47
102
}
330
47
100
AcDbScale
 70
     0
300
1:20
140
1.0
141
20.0
290
     0
  0
SCALE
  5
50
102
{ACAD_REACTORS
330
47
102
}
330
47
100
AcDbScale
 70
     0
300
1:30
140
1.0
141
30.0
290
     0
  0
SCALE
  5
51
102
{ACAD_REACTORS
330
47
102
}
330
47
100
AcDbScale
 70
     0
300
1:40
140
1.0
141
40.0
290
     0
  0
SCALE
  5
52
102
{ACAD_REACTORS
330
47
102
}
330
47
100
AcDbScale
 70
     0
300
1:50
140
1.0
141
50.0
290
     0
  0
SCALE
  5
53
102
{ACAD_REACTORS
330
47
102
}
330
47
100
AcDbScale
 70
     0
300
1:100
140
1.0
141
100.0
290
     0
  0
SCALE
  5
54
102
{ACAD_REACTORS
330
47
102
}
330
47
100
AcDbScale
 70
     0
300
2:1
140
2.0
141
1.0
290
     0
  0
SCALE
  5
55
102
{ACAD_REACTORS
330
47
102
}
330
47
100
AcDbScale
 70
     0
300
4:1
140
4.0
141
1.0
290
     0
  0
SCALE
  5
56
102
{ACAD_REACTORS
330
47
102
}
330
47
100
AcDbScale
 70
     0
300
8:1
140
8.0
141
1.0
290
     0
  0
SCALE
  5
57
102
{ACAD_REACTORS
330
47
102
}
330
47
100
AcDbScale
 70
     0
300
10:1
140
10.0
141
1.0
290
     0
  0
SCALE
  5
58
102
{ACAD_REACTORS
330
47
102
}
330
47
100
AcDbScale
 70
     0
300
100:1
140
100.0
141
1.0
290
     0
  0
SCALE
  5
59
102
{ACAD_REACTORS
330
47
102
}
330
47
100
AcDbScale
 70
     0
300
1/128" = 1'-0"
140
0.0078125
141
12.0
290
     0
  0
SCALE
  5
5A
102
{ACAD_REACTORS
330
47
102
}
330
47
100
AcDbScale
 70
     0
300
1/64" = 1'-0"
140
0.015625
141
12.0
290
     0
  0
SCALE
  5
5B
102
{ACAD_REACTORS
330
47
102
}
330
47
100
AcDbScale
 70
     0
300
1/32" = 1'-0"
140
0.03125
141
12.0
290
     0
  0
SCALE
  5
5C
102
{ACAD_REACTORS
330
47
102
}
330
47
100
AcDbScale
 70
     0
300
1/16" = 1'-0"
140
0.0625
141
12.0
290
     0
  0
SCALE
  5
5D
102
{ACAD_REACTORS
330
47
102
}
330
47
100
AcDbScale
 70
     0
300
3/32" = 1'-0"
140
0.09375
141
12.0
290
     0
  0
SCALE
  5
5E
102
{ACAD_REACTORS
330
47
102
}
330
47
100
AcDbScale
 70
     0
300
1/8" = 1'-0"
140
0.125
141
12.0
290
     0
  0
SCALE
  5
5F
102
{ACAD_REACTORS
330
47
102
}
330
47
100
AcDbScale
 70
     0
300
3/16" = 1'-0"
140
0.1875
141
12.0
290
     0
  0
SCALE
  5
60
102
{ACAD_REACTORS
330
47
102
}
330
47
100
AcDbScale
 70
     0
300
1/4" = 1'-0"
140
0.25
141
12.0
290
     0
  0
SCALE
  5
61
102
{ACAD_REACTORS
330
47
102
}
330
47
100
AcDbScale
 70
     0
300
3/8" = 1'-0"
140
0.375
141
12.0
290
     0
  0
SCALE
  5
62
102
{ACAD_REACTORS
330
47
102
}
330
47
100
AcDbScale
 70
     0
300
1/2" = 1'-0"
140
0.5
141
12.0
290
     0
  0
SCALE
  5
63
102
{ACAD_REACTORS
330
47
102
}
330
47
100
AcDbScale
 70
     0
300
3/4" = 1'-0"
140
0.75
141
12.0
290
     0
  0
SCALE
  5
64
102
{ACAD_REACTORS
330
47
102
}
330
47
100
AcDbScale
 70
     0
300
1" = 1'-0"
140
1.0
141
12.0
290
     0
  0
SCALE
  5
65
102
{ACAD_REACTORS
330
47
102
}
330
47
100
AcDbScale
 70
     0
300
1-1/2" = 1'-0"
140
1.5
141
12.0
290
     0
  0
SCALE
  5
66
102
{ACAD_REACTORS
330
47
102
}
330
47
100
AcDbScale
 70
     0
300
3" = 1'-0"
140
3.0
141
12.0
290
     0
  0
SCALE
  5
67
102
{ACAD_REACTORS
330
47
102
}
330
47
100
AcDbScale
 70
     0
300
6" = 1'-0"
140
6.0
141
12.0
290
     0
  0
SCALE
  5
68
102
{ACAD_REACTORS
330
47
102
}
330
47
100
AcDbScale
 70
     0
300
1'-0" = 1'-0"
140
12.0
141
12.0
290
     0
  0
TABLESTYLE
  5
6A
102
{ACAD_REACTORS
330
69
102
}
102
{ACAD_XDICTIONARY
360
C1
102
}
330
69
100
AcDbTableStyle
  3
Standard
 70
     0
 71
     0
 40
0.06
 41
0.06
280
     0
281
     0
  7
Standard
140
0.18
170
     2
 62
     0
 63
   257
283
     0
 90
        4
 91
        0
  1

274
    -2
284
     1
 64
     0
275
    -2
285
     1
 65
     0
276
    -2
286
     1
 66
     0
277
    -2
287
     1
 67
     0
278
    -2
288
     1
 68
     0
279
    -2
289
     1
 69
     0
  7
Standard
140
0.25
170
     5
 62
     0
 63
   257
283
     0
 90
        4
 91
        0
  1

274
    -2
284
     1
 64
     0
275
    -2
285
     1
 65
     0
276
    -2
286
     1
 66
     0
277
    -2
287
     1
 67
     0
278
    -2
288
     1
 68
     0
279
    -2
289
     1
 69
     0
  7
Standard
140
0.18
170
     5
 62
     0
 63
   257
283
     0
 90
        4
 91
        0
  1

274
    -2
284
     1
 64
     0
275
    -2
285
     1
 65
     0
276
    -2
286
     1
 66
     0
277
    -2
287
     1
 67
     0
278
    -2
288
     1
 68
     0
279
    -2
289
     1
 69
     0
  0
VISUALSTYLE
  5
2F
102
{ACAD_REACTORS
330
2A
102
}
102
{ACAD_XDICTIONARY
360
99
102
}
330
2A
100
AcDbVisualStyle
  2
2dWireframe
 70
     4
 71
     0
 72
     2
 73
     0
 90
        0
 40
0.6
 41
30.0
 62
     5
 63
     7
421
 16777215
 74
     1
 91
        4
 64
     7
 65
   257
 75
     1
175
     1
 42
1.0
 92
        0
 66
   257
 43
1.0
 76
     1
 77
     6
 78
     2
 67
     7
 79
     5
170
     0
171
     0
290
     0
174
     0
 93
        1
 44
0.0
173
     0
291
     0
 45
0.0
  0
VISUALSTYLE
  5
32
102
{ACAD_REACTORS
330
2A
102
}
102
{ACAD_XDICTIONARY
360
9F
102
}
330
2A
100
AcDbVisualStyle
  2
Basic
 70
     7
 71
     1
 72
     0
 73
     1
 90
        0
 40
0.6
 41
30.0
 62
     5
 63
     7
421
 16777215
 74
     0
 91
        4
 64
     7
 65
   257
 75
     1
175
     1
 42
1.0
 92
        8
 66
     7
 43
1.0
 76
     1
 77
     6
 78
     2
 67
     7
 79
     5
170
     0
171
     0
290
     0
174
     0
 93
        1
 44
0.0
173
     0
291
     1
 45
0.0
  0
VISUALSTYLE
  5
36
102
{ACAD_REACTORS
330
2A
102
}
102
{ACAD_XDICTIONARY
360
A7
102
}
330
2A
100
AcDbVisualStyle
  2
Brighten
 70
    12
 71
     2
 72
     2
 73
     0
 90
        0
 40
0.6
 41
30.0
 62
     5
 63
     7
421
 16777215
 74
     1
 91
        4
 64
     7
 65
   257
 75
     1
175
     1
 42
1.0
 92
        8
 66
     7
 43
1.0
 76
     1
 77
     6
 78
     2
 67
     7
 79
     5
170
     0
171
     0
290
     0
174
     0
 93
        1
 44
50.0
173
     0
291
     1
 45
0.0
  0
VISUALSTYLE
  5
3A
102
{ACAD_REACTORS
330
2A
102
}
102
{ACAD_XDICTIONARY
360
AF
102
}
330
2A
100
AcDbVisualStyle
  2
ColorChange
 70
    16
 71
     2
 72
     2
 73
     3
 90
        0
 40
0.6
 41
30.0
 62
     5
 63
     8
421
  8421504
 74
     1
 91
        4
 64
     7
 65
   257
 75
     1
175
     1
 42
1.0
 92
        8
 66
     8
424
  8421504
 43
1.0
 76
     1
 77
     6
 78
     2
 67
     7
 79
     5
170
     0
171
     0
290
     0
174
     0
 93
        1
 44
0.0
173
     0
291
     1
 45
0.0
  0
VISUALSTYLE
  5
34
102
{ACAD_REACTORS
330
2A
102
}
102
{ACAD_XDICTIONARY
360
A3
102
}
330
2A
100
AcDbVisualStyle
  2
Conceptual
 70
     9
 71
     3
 72
     2
 73
     0
 90
        0
 40
0.6
 41
30.0
 62
     5
 63
     7
421
 16777215
 74
     2
 91
        2
 64
     7
 65
   257
 75
     1
175
     1
 42
179.0
 92
        8
 66
     7
 43
1.0
 76
     1
 77
     6
 78
     2
 67
     7
 79
     3
170
     0
171
     0
290
     0
174
     0
 93
        1
 44
0.0
173
     0
291
     0
 45
0.0
  0
VISUALSTYLE
  5
35
102
{ACAD_REACTORS
330
2A
102
}
102
{ACAD_XDICTIONARY
360
A5
102
}
330
2A
100
AcDbVisualStyle
  2
Dim
 70
    11
 71
     2
 72
     2
 73
     0
 90
        0
 40
0.6
 41
30.0
 62
     5
 63
     7
421
 16777215
 74
     1
 91
        4
 64
     7
 65
   257
 75
     1
175
     1
 42
1.0
 92
        8
 66
     7
 43
1.0
 76
     1
 77
     6
 78
     2
 67
     7
 79
     5
170
     0
171
     0
290
     0
174
     0
 93
        1
 44
-50.0
173
     0
291
     1
 45
0.0
  0
VISUALSTYLE
  5
3D
102
{ACAD_REACTORS
330
2A
102
}
102
{ACAD_XDICTIONARY
360
B5
102
}
330
2A
100
AcDbVisualStyle
  2
EdgeColorOff
 70
    22
 71
     2
 72
     2
 73
     0
 90
        0
 40
0.6
 41
30.0
 62
     5
 63
     7
421
 16777215
 74
     1
 91
        4
 64
     7
 65
   257
 75
     1
175
     1
 42
1.0
 92
        8
 66
     7
 43
1.0
 76
     1
 77
     6
 78
     2
 67
     7
 79
     5
170
     0
171
     0
290
     0
174
     0
 93
        1
 44
0.0
173
     0
291
     1
 45
0.0
  0
VISUALSTYLE
  5
39
102
{ACAD_REACTORS
330
2A
102
}
102
{ACAD_XDICTIONARY
360
AD
102
}
330
2A
100
AcDbVisualStyle
  2
Facepattern
 70
    15
 71
     2
 72
     2
 73
     0
 90
        0
 40
0.6
 41
30.0
 62
     5
 63
     7
421
 16777215
 74
     1
 91
        4
 64
     7
 65
   257
 75
     1
175
     1
 42
1.0
 92
        8
 66
     7
 43
1.0
 76
     1
 77
     6
 78
     2
 67
     7
 79
     5
170
     0
171
     0
290
     0
174
     0
 93
        1
 44
0.0
173
     0
291
     1
 45
0.0
  0
VISUALSTYLE
  5
2B
102
{ACAD_REACTORS
330
2A
102
}
102
{ACAD_XDICTIONARY
360
91
102
}
330
2A
100
AcDbVisualStyle
  2
Flat
 70
     0
 71
     2
 72
     1
 73
     1
 90
        2
 40
0.6
 41
30.0
 62
     5
 63
     7
421
 16777215
 74
     0
 91
        0
 64
     7
 65
   257
 75
     1
175
     1
 42
1.0
 92
        8
 66
     7
 43
1.0
 76
     1
 77
     6
 78
     2
 67
     7
 79
     5
170
     0
171
     0
290
     0
174
     0
 93
       13
 44
0.0
173
     0
291
     1
 45
0.0
  0
VISUALSTYLE
  5
2C
102
{ACAD_REACTORS
330
2A
102
}
102
{ACAD_XDICTIONARY
360
93
102
}
330
2A
100
AcDbVisualStyle
  2
FlatWithEdges
 70
     1
 71
     2
 72
     1
 73
     1
 90
        2
 40
0.6
 41
30.0
 62
     5
 63
     7
421
 16777215
 74
     1
 91
        0
 64
     7
 65
   257
 75
     1
175
     1
 42
1.0
 92
        0
 66
   257
 43
1.0
 76
     1
 77
     6
 78
     2
 67
     7
 79
     5
170
     0
171
     0
290
     0
174
     0
 93
       13
 44
0.0
173
     0
291
     1
 45
0.0
  0
VISUALSTYLE
  5
2D
102
{ACAD_REACTORS
330
2A
102
}
102
{ACAD_XDICTIONARY
360
95
102
}
330
2A
100
AcDbVisualStyle
  2
Gouraud
 70
     2
 71
     2
 72
     2
 73
     1
 90
        2
 40
0.6
 41
30.0
 62
     5
 63
     7
421
 16777215
 74
     0
 91
        0
 64
     7
 65
   257
 75
     1
175
     1
 42
1.0
 92
        0
 66
     7
 43
1.0
 76
     1
 77
     6
 78
     2
 67
     7
 79
     5
170
     0
171
     0
290
     0
174
     0
 93
       13
 44
0.0
173
     0
291
     1
 45
0.0
  0
VISUALSTYLE
  5
2E
102
{ACAD_REACTORS
330
2A
102
}
102
{ACAD_XDICTIONARY
360
97
102
}
330
2A
100
AcDbVisualStyle
  2
GouraudWithEdges
 70
     3
 71
     2
 72
     2
 73
     1
 90
        2
 40
0.6
 41
30.0
 62
     5
 63
     7
421
 16777215
 74
     1
 91
        0
 64
     7
 65
   257
 75
     1
175
     1
 42
1.0
 92
        0
 66
   257
 43
1.0
 76
     1
 77
     6
 78
     2
 67
     7
 79
     5
170
     0
171
     0
290
     0
174
     0
 93
       13
 44
0.0
173
     0
291
     1
 45
0.0
  0
VISUALSTYLE
  5
31
102
{ACAD_REACTORS
330
2A
102
}
102
{ACAD_XDICTIONARY
360
9D
102
}
330
2A
100
AcDbVisualStyle
  2
Hidden
 70
     6
 71
     1
 72
     2
 73
     2
 90
        0
 40
0.6
 41
30.0
 62
     5
 63
     7
421
 16777215
 74
     2
 91
        2
 64
     7
 65
   257
 75
     2
175
     1
 42
40.0
 92
        0
 66
   257
 43
1.0
 76
     1
 77
     6
 78
     2
 67
     7
 79
     3
170
     0
171
     0
290
     0
174
     0
 93
        1
 44
0.0
173
     0
291
     0
 45
0.0
  0
VISUALSTYLE
  5
3B
102
{ACAD_REACTORS
330
2A
102
}
102
{ACAD_XDICTIONARY
360
B1
102
}
330
2A
100
AcDbVisualStyle
  2
JitterOff
 70
    20
 71
     2
 72
     2
 73
     0
 90
        0
 40
0.6
 41
30.0
 62
     5
 63
     7
421
 16777215
 74
     1
 91
        4
 64
     7
 65
   257
 75
     1
175
     1
 42
1.0
 92
       10
 66
     7
 43
1.0
 76
     1
 77
     6
 78
     2
 67
     7
 79
     5
170
     0
171
     0
290
     0
174
     0
 93
        1
 44
0.0
173
     0
291
     1
 45
0.0
  0
VISUALSTYLE
  5
38
102
{ACAD_REACTORS
330
2A
102
}
102
{ACAD_XDICTIONARY
360
AB
102
}
330
2A
100
AcDbVisualStyle
  2
Linepattern
 70
    14
 71
     2
 72
     2
 73
     0
 90
        0
 40
0.6
 41
30.0
 62
     5
 63
     7
421
 16777215
 74
     1
 91
        4
 64
     7
 65
   257
 75
     7
175
     7
 42
1.0
 92
        8
 66
     7
 43
1.0
 76
     1
 77
     6
 78
     2
 67
     7
 79
     5
170
     0
171
     0
290
     0
174
     0
 93
        1
 44
0.0
173
     0
291
     1
 45
0.0
  0
VISUALSTYLE
  5
3C
102
{ACAD_REACTORS
330
2A
102
}
102
{ACAD_XDICTIONARY
360
B3
102
}
330
2A
100
AcDbVisualStyle
  2
OverhangOff
 70
    21
 71
     2
 72
     2
 73
     0
 90
        0
 40
0.6
 41
30.0
 62
     5
 63
     7
421
 16777215
 74
     1
 91
        4
 64
     7
 65
   257
 75
     1
175
     1
 42
1.0
 92
        9
 66
     7
 43
1.0
 76
     1
 77
     6
 78
     2
 67
     7
 79
     5
170
     0
171
     0
290
     0
174
     0
 93
        1
 44
0.0
173
     0
291
     1
 45
0.0
  0
VISUALSTYLE
  5
33
102
{ACAD_REACTORS
330
2A
102
}
102
{ACAD_XDICTIONARY
360
A1
102
}
330
2A
100
AcDbVisualStyle
  2
Realistic
 70
     8
 71
     2
 72
     3
 73
     0
 90
        2
 40
0.6
 41
30.0
 62
     5
 63
     7
421
 16777215
 74
     0
 91
        0
 64
     7
 65
   257
 75
     1
175
     1
 42
1.0
 92
        8
 66
   257
 43
1.0
 76
     1
 77
     6
 78
     2
 67
     7
 79
     3
170
     0
171
     0
290
     0
174
     0
 93
       13
 44
0.0
173
     0
291
     0
 45
0.0
  0
VISUALSTYLE
  5
42
102
{ACAD_REACTORS
330
2A
102
}
102
{ACAD_XDICTIONARY
360
BF
102
}
330
2A
100
AcDbVisualStyle
  2
Shaded
 70
    27
 71
     2
 72
     2
 73
     1
 90
        2
 40
0.6
 41
30.0
 62
     5
 63
     7
421
 16777215
 74
     0
 91
        4
 64
     7
 65
   257
 75
     1
175
     1
 42
1.0
 92
        8
 66
   257
 43
1.0
 76
     1
 77
     6
 78
     2
 67
     8
425
  7895160
 79
     3
170
     0
171
     0
290
     0
174
     0
 93
        5
 44
0.0
173
     0
291
     0
 45
0.0
  0
VISUALSTYLE
  5
41
102
{ACAD_REACTORS
330
2A
102
}
102
{ACAD_XDICTIONARY
360
BD
102
}
330
2A
100
AcDbVisualStyle
  2
Shaded with edges
 70
    26
 71
     2
 72
     2
 73
     1
 90
        2
 40
0.6
 41
30.0
 62
     5
 63
     7
421
 16777215
 74
     1
 91
       10
 64
     7
 65
   257
 75
     2
175
     1
 42
1.0
 92
        8
 66
   257
 43
1.0
 76
     1
 77
     6
 78
     2
 67
     7
 79
     3
170
     0
171
     0
290
     0
174
     0
 93
        5
 44
0.0
173
     0
291
     0
 45
0.0
  0
VISUALSTYLE
  5
3E
102
{ACAD_REACTORS
330
2A
102
}
102
{ACAD_XDICTIONARY
360
B7
102
}
330
2A
100
AcDbVisualStyle
  2
Shades of Gray
 70
    23
 71
     2
 72
     2
 73
     3
 90
        0
 40
0.6
 41
30.0
 62
     5
 63
     7
421
 16777215
 74
     2
 91
        2
 64
     7
 65
     7
 75
     1
175
     1
 42
40.0
 92
        8
 66
     7
 43
1.0
 76
     1
 77
     6
 78
     2
 67
     7
 79
     3
170
     0
171
     0
290
     0
174
     0
 93
        1
 44
0.0
173
     0
291
     0
 45
0.0
  0
VISUALSTYLE
  5
3F
102
{ACAD_REACTORS
330
2A
102
}
102
{ACAD_XDICTIONARY
360
B9
102
}
330
2A
100
AcDbVisualStyle
  2
Sketchy
 70
    24
 71
     1
 72
     2
 73
     2
 90
        0
 40
0.6
 41
30.0
 62
     5
 63
     7
421
 16777215
 74
     2
 91
        2
 64
     7
 65
     7
 75
     1
175
     1
 42
40.0
 92
       11
 66
     7
 43
1.0
 76
     1
 77
     6
 78
     2
 67
     7
 79
     6
170
     0
171
     0
290
     0
174
     0
 93
        1
 44
0.0
173
     0
291
     0
 45
0.0
  0
VISUALSTYLE
  5
37
102
{ACAD_REACTORS
330
2A
102
}
102
{ACAD_XDICTIONARY
360
A9
102
}
330
2A
100
AcDbVisualStyle
  2
Thicken
 70
    13
 71
     2
 72
     2
 73
     0
 90
        0
 40
0.6
 41
30.0
 62
     5
 63
     7
421
 16777215
 74
     1
 91
        4
 64
     7
 65
   257
 75
     1
175
     1
 42
1.0
 92
       12
 66
     7
 43
1.0
 76
     1
 77
     6
 78
     2
 67
     7
 79
     5
170
     0
171
     0
290
     0
174
     0
 93
        1
 44
0.0
173
     0
291
     1
 45
0.0
  0
VISUALSTYLE
  5
30
102
{ACAD_REACTORS
330
2A
102
}
102
{ACAD_XDICTIONARY
360
9B
102
}
330
2A
100
AcDbVisualStyle
  2
Wireframe
 70
     5
 71
     0
 72
     2
 73
     0
 90
        0
 40
0.6
 41
30.0
 62
     5
 63
     7
421
 16777215
 74
     1
 91
        4
 64
     7
 65
   257
 75
     1
175
     1
 42
1.0
 92
        0
 66
   257
 43
1.0
 76
     1
 77
     6
 78
     2
 67
     7
 79
     3
170
     0
171
     0
290
     0
174
     0
 93
        1
 44
0.0
173
     0
291
     0
 45
0.0
  0
VISUALSTYLE
  5
40
102
{ACAD_REACTORS
330
2A
102
}
102
{ACAD_XDICTIONARY
360
BB
102
}
330
2A
100
AcDbVisualStyle
  2
X-Ray
 70
    25
 71
     2
 72
     2
 73
     1
 90
        1
 40
0.5
 41
30.0
 62
     5
 63
     7
421
 16777215
 74
     1
 91
        0
 64
     7
 65
   257
 75
     1
175
     1
 42
1.0
 92
        8
 66
     7
 43
1.0
 76
     1
 77
     6
 78
     2
 67
     7
 79
     3
170
     0
171
     0
290
     0
174
     0
 93
       13
 44
0.0
173
     0
291
     0
 45
0.0
  0
DICTIONARYVAR
  5
8F
102
{ACAD_REACTORS
330
8E
102
}
330
8E
100
DictionaryVariables
280
     0
  1
1:1
  0
DICTIONARYVAR
  5
C8
102
{ACAD_REACTORS
330
8E
102
}
330
8E
100
DictionaryVariables
280
     0
  1
Standard
  0
DICTIONARYVAR
  5
C7
102
{ACAD_REACTORS
330
8E
102
}
330
8E
100
DictionaryVariables
280
     0
  1
Standard
  0
DICTIONARYVAR
  5
90
102
{ACAD_REACTORS
330
8E
102
}
330
8E
100
DictionaryVariables
280
     0
  1
2
  0
DICTIONARY
  5
C4
330
6C
100
AcDbDictionary
280
     1
281
     1
  3
ACAD_XREC_ROUNDTRIP
360
C5
  0
DICTIONARY
  5
C1
330
6A
100
AcDbDictionary
280
     1
281
     1
  3
ACAD_ROUNDTRIP_2008_TABLESTYLE_CELLSTYLEMAP
360
C2
  0
DICTIONARY
  5
99
330
2F
100
AcDbDictionary
280
     1
281
     1
  3
ACAD_XREC_ROUNDTRIP
360
9A
  0
DICTIONARY
  5
9F
330
32
100
AcDbDictionary
280
     1
281
     1
  3
ACAD_XREC_ROUNDTRIP
360
A0
  0
DICTIONARY
  5
A7
330
36
100
AcDbDictionary
280
     1
281
     1
  3
ACAD_XREC_ROUNDTRIP
360
A8
  0
DICTIONARY
  5
AF
330
3A
100
AcDbDictionary
280
     1
281
     1
  3
ACAD_XREC_ROUNDTRIP
360
B0
  0
DICTIONARY
  5
A3
330
34
100
AcDbDictionary
280
     1
281
     1
  3
ACAD_XREC_ROUNDTRIP
360
A4
  0
DICTIONARY
  5
A5
330
35
100
AcDbDictionary
280
     1
281
     1
  3
ACAD_XREC_ROUNDTRIP
360
A6
  0
DICTIONARY
  5
B5
330
3D
100
AcDbDictionary
280
     1
281
     1
  3
ACAD_XREC_ROUNDTRIP
360
B6
  0
DICTIONARY
  5
AD
330
39
100
AcDbDictionary
280
     1
281
     1
  3
ACAD_XREC_ROUNDTRIP
360
AE
  0
DICTIONARY
  5
91
330
2B
100
AcDbDictionary
280
     1
281
     1
  3
ACAD_XREC_ROUNDTRIP
360
92
  0
DICTIONARY
  5
93
330
2C
100
AcDbDictionary
280
     1
281
     1
  3
ACAD_XREC_ROUNDTRIP
360
94
  0
DICTIONARY
  5
95
330
2D
100
AcDbDictionary
280
     1
281
     1
  3
ACAD_XREC_ROUNDTRIP
360
96
  0
DICTIONARY
  5
97
330
2E
100
AcDbDictionary
280
     1
281
     1
  3
ACAD_XREC_ROUNDTRIP
360
98
  0
DICTIONARY
  5
9D
330
31
100
AcDbDictionary
280
     1
281
     1
  3
ACAD_XREC_ROUNDTRIP
360
9E
  0
DICTIONARY
  5
B1
330
3B
100
AcDbDictionary
280
     1
281
     1
  3
ACAD_XREC_ROUNDTRIP
360
B2
  0
DICTIONARY
  5
AB
330
38
100
AcDbDictionary
280
     1
281
     1
  3
ACAD_XREC_ROUNDTRIP
360
AC
  0
DICTIONARY
  5
B3
330
3C
100
AcDbDictionary
280
     1
281
     1
  3
ACAD_XREC_ROUNDTRIP
360
B4
  0
DICTIONARY
  5
A1
330
33
100
AcDbDictionary
280
     1
281
     1
  3
ACAD_XREC_ROUNDTRIP
360
A2
  0
DICTIONARY
  5
BF
330
42
100
AcDbDictionary
280
     1
281
     1
  3
ACAD_XREC_ROUNDTRIP
360
C0
  0
DICTIONARY
  5
BD
330
41
100
AcDbDictionary
280
     1
281
     1
  3
ACAD_XREC_ROUNDTRIP
360
BE
  0
DICTIONARY
  5
B7
330
3E
100
AcDbDictionary
280
     1
281
     1
  3
ACAD_XREC_ROUNDTRIP
360
B8
  0
DICTIONARY
  5
B9
330
3F
100
AcDbDictionary
280
     1
281
     1
  3
ACAD_XREC_ROUNDTRIP
360
BA
  0
DICTIONARY
  5
A9
330
37
100
AcDbDictionary
280
     1
281
     1
  3
ACAD_XREC_ROUNDTRIP
360
AA
  0
DICTIONARY
  5
9B
330
30
100
AcDbDictionary
280
     1
281
     1
  3
ACAD_XREC_ROUNDTRIP
360
9C
  0
DICTIONARY
  5
BB
330
40
100
AcDbDictionary
280
     1
281
     1
  3
ACAD_XREC_ROUNDTRIP
360
BC
  0
XRECORD
  5
C5
102
{ACAD_REACTORS
330
C4
102
}
330
C4
100
AcDbXrecord
280
     1
102
ACAD_ROUNDTRIP_2010_MLEADER_STYLE
  0
CELLSTYLEMAP
  5
C2
102
{ACAD_REACTORS
330
C1
102
}
330
C1
100
AcDbCellStyleMap
 90
        3
300
CELLSTYLE
  1
TABLEFORMAT_BEGIN
 90
        5
170
     1
 91
        0
 92
    32768
 62
   257
 93
        1
300
CONTENTFORMAT
  1
CONTENTFORMAT_BEGIN
 90
        0
 91
        0
 92
        4
 93
        0
300

 40
0.0
140
1.0
 94
        5
 62
     0
340
11
144
0.25
309
CONTENTFORMAT_END
171
     1
301
MARGIN
  1
CELLMARGIN_BEGIN
 40
0.06
 40
0.06
 40
0.06
 40
0.06
 40
0.06
 40
0.06
309
CELLMARGIN_END
 94
        6
 95
        1
302
GRIDFORMAT
  1
GRIDFORMAT_BEGIN
 90
        0
 91
        1
 62
     0
 92
       -2
340
14
 93
        0
 40
0.045
309
GRIDFORMAT_END
 95
        2
302
GRIDFORMAT
  1
GRIDFORMAT_BEGIN
 90
        0
 91
        1
 62
     0
 92
       -2
340
14
 93
        0
 40
0.045
309
GRIDFORMAT_END
 95
        4
302
GRIDFORMAT
  1
GRIDFORMAT_BEGIN
 90
        0
 91
        1
 62
     0
 92
       -2
340
14
 93
        0
 40
0.045
309
GRIDFORMAT_END
 95
        8
302
GRIDFORMAT
  1
GRIDFORMAT_BEGIN
 90
        0
 91
        1
 62
     0
 92
       -2
340
14
 93
        0
 40
0.045
309
GRIDFORMAT_END
 95
       16
302
GRIDFORMAT
  1
GRIDFORMAT_BEGIN
 90
        0
 91
        1
 62
     0
 92
       -2
340
14
 93
        0
 40
0.045
309
GRIDFORMAT_END
 95
       32
302
GRIDFORMAT
  1
GRIDFORMAT_BEGIN
 90
        0
 91
        1
 62
     0
 92
       -2
340
14
 93
        0
 40
0.045
309
GRIDFORMAT_END
309
TABLEFORMAT_END
  1
CELLSTYLE_BEGIN
 90
        1
 91
        1
300
_TITLE
309
CELLSTYLE_END
300
CELLSTYLE
  1
TABLEFORMAT_BEGIN
 90
        5
170
     1
 91
        0
 92
        0
 62
   257
 93
        1
300
CONTENTFORMAT
  1
CONTENTFORMAT_BEGIN
 90
        0
 91
        0
 92
        4
 93
        0
300

 40
0.0
140
1.0
 94
        5
 62
     0
340
11
144
0.18
309
CONTENTFORMAT_END
171
     1
301
MARGIN
  1
CELLMARGIN_BEGIN
 40
0.06
 40
0.06
 40
0.06
 40
0.06
 40
0.06
 40
0.06
309
CELLMARGIN_END
 94
        6
 95
        1
302
GRIDFORMAT
  1
GRIDFORMAT_BEGIN
 90
        0
 91
        1
 62
     0
 92
       -2
340
14
 93
        0
 40
0.045
309
GRIDFORMAT_END
 95
        2
302
GRIDFORMAT
  1
GRIDFORMAT_BEGIN
 90
        0
 91
        1
 62
     0
 92
       -2
340
14
 93
        0
 40
0.045
309
GRIDFORMAT_END
 95
        4
302
GRIDFORMAT
  1
GRIDFORMAT_BEGIN
 90
        0
 91
        1
 62
     0
 92
       -2
340
14
 93
        0
 40
0.045
309
GRIDFORMAT_END
 95
        8
302
GRIDFORMAT
  1
GRIDFORMAT_BEGIN
 90
        0
 91
        1
 62
     0
 92
       -2
340
14
 93
        0
 40
0.045
309
GRIDFORMAT_END
 95
       16
302
GRIDFORMAT
  1
GRIDFORMAT_BEGIN
 90
        0
 91
        1
 62
     0
 92
       -2
340
14
 93
        0
 40
0.045
309
GRIDFORMAT_END
 95
       32
302
GRIDFORMAT
  1
GRIDFORMAT_BEGIN
 90
        0
 91
        1
 62
     0
 92
       -2
340
14
 93
        0
 40
0.045
309
GRIDFORMAT_END
309
TABLEFORMAT_END
  1
CELLSTYLE_BEGIN
 90
        2
 91
        1
300
_HEADER
309
CELLSTYLE_END
300
CELLSTYLE
  1
TABLEFORMAT_BEGIN
 90
        5
170
     1
 91
        0
 92
        0
 62
   257
 93
        1
300
CONTENTFORMAT
  1
CONTENTFORMAT_BEGIN
 90
        0
 91
        0
 92
        4
 93
        0
300

 40
0.0
140
1.0
 94
        2
 62
     0
340
11
144
0.18
309
CONTENTFORMAT_END
171
     1
301
MARGIN
  1
CELLMARGIN_BEGIN
 40
0.06
 40
0.06
 40
0.06
 40
0.06
 40
0.06
 40
0.06
309
CELLMARGIN_END
 94
        6
 95
        1
302
GRIDFORMAT
  1
GRIDFORMAT_BEGIN
 90
        0
 91
        1
 62
     0
 92
       -2
340
14
 93
        0
 40
0.045
309
GRIDFORMAT_END
 95
        2
302
GRIDFORMAT
  1
GRIDFORMAT_BEGIN
 90
        0
 91
        1
 62
     0
 92
       -2
340
14
 93
        0
 40
0.045
309
GRIDFORMAT_END
 95
        4
302
GRIDFORMAT
  1
GRIDFORMAT_BEGIN
 90
        0
 91
        1
 62
     0
 92
       -2
340
14
 93
        0
 40
0.045
309
GRIDFORMAT_END
 95
        8
302
GRIDFORMAT
  1
GRIDFORMAT_BEGIN
 90
        0
 91
        1
 62
     0
 92
       -2
340
14
 93
        0
 40
0.045
309
GRIDFORMAT_END
 95
       16
302
GRIDFORMAT
  1
GRIDFORMAT_BEGIN
 90
        0
 91
        1
 62
     0
 92
       -2
340
14
 93
        0
 40
0.045
309
GRIDFORMAT_END
 95
       32
302
GRIDFORMAT
  1
GRIDFORMAT_BEGIN
 90
        0
 91
        1
 62
     0
 92
       -2
340
14
 93
        0
 40
0.045
309
GRIDFORMAT_END
309
TABLEFORMAT_END
  1
CELLSTYLE_BEGIN
 90
        3
 91
        2
300
_DATA
309
CELLSTYLE_END
  0
XRECORD
  5
9A
102
{ACAD_REACTORS
330
99
102
}
330
99
100
AcDbXrecord
280
     1
102
RTVSPropertyOp0
 70
     1
102
RTVSPropertyOp1
 70
     1
102
RTVSPropertyOp2
 70
     1
102
RTVSPropertyOp3
 70
     1
102
RTVSPropertyOp4
 70
     1
102
RTVSPropertyOp5
 70
     1
102
RTVSPropertyOp6
 70
     1
102
RTVSPropertyOp7
 70
     1
102
RTVSPropertyOp8
 70
     1
102
RTVSPropertyOp9
 70
     1
102
RTVSPropertyOp10
 70
     1
102
RTVSPropertyOp11
 70
     1
102
RTVSPropertyOp12
 70
     1
102
RTVSPropertyOp13
 70
     1
102
RTVSPropertyOp14
 70
     1
102
RTVSPropertyOp15
 70
     1
102
RTVSPropertyOp16
 70
     1
102
RTVSPropertyOp17
 70
     1
102
RTVSPropertyOp18
 70
     1
102
RTVSPropertyOp19
 70
     1
102
RTVSPropertyOp20
 70
     1
102
RTVSPropertyOp21
 70
     1
102
RTVSPropertyOp22
 70
     1
102
RTVSPropertyOp23
 70
     1
102
RTVSPropertyOp24
 70
     1
102
RTVSPropertyOp25
 70
     1
102
RTVSPropertyOp26
 70
     1
102
RTVSPropertyOp27
 70
     1
102
RTVSPropertyOp28
 70
     1
102
RTVSPropertyOp29
 70
     1
102
RTVSPropertyOp30
 70
     1
102
RTVSPropertyOp31
 70
     1
102
RTVSPropertyOp32
 70
     1
102
RTVSPropertyOp33
 70
     1
102
RTVSPropertyOp34
 70
     1
102
RTVSPropertyOp35
 70
     1
102
RTVSPropertyOp36
 70
     1
102
RTVSPropertyOp37
 70
     1
102
RTVSPropertyOp38
 70
     1
102
RTVSPropertyOp39
 70
     1
102
RTVSPropertyOp40
 70
     1
102
RTVSPropertyOp41
 70
     1
102
RTVSPropertyOp42
 70
     1
102
RTVSPropertyOp43
 70
     1
102
RTVSPropertyOp44
 70
     1
102
RTVSPropertyOp45
 70
     1
102
RTVSPropertyOp46
 70
     1
102
RTVSPropertyOp47
 70
     1
102
RTVSPropertyOp48
 70
     1
102
RTVSPropertyOp49
 70
     1
102
RTVSPropertyOp50
 70
     1
102
RTVSPropertyOp51
 70
     0
102
RTVSPropertyOp52
 70
     0
102
RTVSPropertyOp53
 70
     1
102
RTVSPropertyOp54
 70
     1
102
RTVSPropertyOp55
 70
     1
102
RTVSPropertyOp56
 70
     1
102
RTVSPropertyOp57
 70
     1
102
RTVSPost2010Prop28
280
     1
102
RTVSPost2010PropOp28
 70
     1
102
RTVSPost2010Prop29
280
     1
102
RTVSPost2010PropOp29
 70
     1
102
RTVSPost2010Prop30
280
     0
102
RTVSPost2010PropOp30
 70
     1
102
RTVSPost2010Prop31
280
     0
102
RTVSPost2010PropOp31
 70
     1
102
RTVSPost2010Prop32
280
     0
102
RTVSPost2010PropOp32
 70
     1
102
RTVSPost2010Prop33
280
     0
102
RTVSPost2010PropOp33
 70
     1
102
RTVSPost2010Prop34
280
     0
102
RTVSPost2010PropOp34
 70
     1
102
RTVSPost2010Prop35
280
     0
102
RTVSPost2010PropOp35
 70
     1
102
RTVSPost2010Prop36
280
     0
102
RTVSPost2010PropOp36
 70
     1
102
RTVSPost2010Prop37
 90
       50
102
RTVSPost2010PropOp37
 70
     1
102
RTVSPost2010Prop38
140
0.0
102
RTVSPost2010PropOp38
 70
     1
102
RTVSPost2010Prop39
140
1.0
102
RTVSPost2010PropOp39
 70
     1
102
RTVSPost2010Prop40
 90
        0
102
RTVSPost2010PropOp40
 70
     1
102
RTVSPost2010Prop41ColorIndex
 90
       18
102
RTVSPost2010Prop41ColorRGB
 90
        0
102
RTVSPost2010PropOp41
 70
     1
102
RTVSPost2010Prop42
 90
       50
102
RTVSPost2010PropOp42
 70
     1
102
RTVSPost2010Prop43
 90
        3
102
RTVSPost2010PropOp43
 70
     1
102
RTVSPost2010Prop44ColorIndex
 90
        5
102
RTVSPost2010Prop44ColorRGB
 90
      255
102
RTVSPost2010PropOp44
 70
     1
102
RTVSPost2010Prop45
280
     0
102
RTVSPost2010PropOp45
 70
     1
102
RTVSPost2010Prop46
 90
       50
102
RTVSPost2010PropOp46
 70
     1
102
RTVSPost2010Prop47
 90
       50
102
RTVSPost2010PropOp47
 70
     1
102
RTVSPost2010Prop48
 90
       50
102
RTVSPost2010PropOp48
 70
     1
102
RTVSPost2010Prop49
280
     0
102
RTVSPost2010PropOp49
 70
     1
102
RTVSPost2010Prop50
 90
       50
102
RTVSPost2010PropOp50
 70
     1
102
RTVSPost2010Prop51ColorIndex
 90
      256
102
RTVSPost2010Prop51ColorRGB
 90
-16777216
102
RTVSPost2010PropOp51
 70
     0
102
RTVSPost2010Prop52
140
1.0
102
RTVSPost2010PropOp52
 70
     0
102
RTVSPost2010Prop53
 90
        2
102
RTVSPost2010PropOp53
 70
     1
102
RTVSPost2010Prop54
  1
strokes_ogs.tif
102
RTVSPost2010PropOp54
 70
     1
102
RTVSPost2010Prop55
280
     0
102
RTVSPost2010PropOp55
 70
     1
102
RTVSPost2010Prop56
140
1.0
102
RTVSPost2010PropOp56
 70
     1
102
RTVSPost2010Prop57
140
1.0
102
RTVSPost2010PropOp57
 70
     1
  0
XRECORD
  5
A0
102
{ACAD_REACTORS
330
9F
102
}
330
9F
100
AcDbXrecord
280
     1
102
RTVSPropertyOp0
 70
     1
102
RTVSPropertyOp1
 70
     1
102
RTVSPropertyOp2
 70
     1
102
RTVSPropertyOp3
 70
     1
102
RTVSPropertyOp4
 70
     1
102
RTVSPropertyOp5
 70
     1
102
RTVSPropertyOp6
 70
     1
102
RTVSPropertyOp7
 70
     1
102
RTVSPropertyOp8
 70
     1
102
RTVSPropertyOp9
 70
     1
102
RTVSPropertyOp10
 70
     1
102
RTVSPropertyOp11
 70
     1
102
RTVSPropertyOp12
 70
     1
102
RTVSPropertyOp13
 70
     1
102
RTVSPropertyOp14
 70
     1
102
RTVSPropertyOp15
 70
     1
102
RTVSPropertyOp16
 70
     1
102
RTVSPropertyOp17
 70
     1
102
RTVSPropertyOp18
 70
     1
102
RTVSPropertyOp19
 70
     1
102
RTVSPropertyOp20
 70
     1
102
RTVSPropertyOp21
 70
     1
102
RTVSPropertyOp22
 70
     1
102
RTVSPropertyOp23
 70
     1
102
RTVSPropertyOp24
 70
     1
102
RTVSPropertyOp25
 70
     1
102
RTVSPropertyOp26
 70
     1
102
RTVSPropertyOp27
 70
     1
102
RTVSPropertyOp28
 70
     1
102
RTVSPropertyOp29
 70
     1
102
RTVSPropertyOp30
 70
     1
102
RTVSPropertyOp31
 70
     1
102
RTVSPropertyOp32
 70
     1
102
RTVSPropertyOp33
 70
     1
102
RTVSPropertyOp34
 70
     1
102
RTVSPropertyOp35
 70
     1
102
RTVSPropertyOp36
 70
     1
102
RTVSPropertyOp37
 70
     1
102
RTVSPropertyOp38
 70
     1
102
RTVSPropertyOp39
 70
     1
102
RTVSPropertyOp40
 70
     1
102
RTVSPropertyOp41
 70
     1
102
RTVSPropertyOp42
 70
     1
102
RTVSPropertyOp43
 70
     1
102
RTVSPropertyOp44
 70
     1
102
RTVSPropertyOp45
 70
     1
102
RTVSPropertyOp46
 70
     1
102
RTVSPropertyOp47
 70
     1
102
RTVSPropertyOp48
 70
     1
102
RTVSPropertyOp49
 70
     1
102
RTVSPropertyOp50
 70
     1
102
RTVSPropertyOp51
 70
     0
102
RTVSPropertyOp52
 70
     0
102
RTVSPropertyOp53
 70
     1
102
RTVSPropertyOp54
 70
     1
102
RTVSPropertyOp55
 70
     1
102
RTVSPropertyOp56
 70
     1
102
RTVSPropertyOp57
 70
     1
102
RTVSPost2010Prop28
280
     0
102
RTVSPost2010PropOp28
 70
     1
102
RTVSPost2010Prop29
280
     1
102
RTVSPost2010PropOp29
 70
     1
102
RTVSPost2010Prop30
280
     1
102
RTVSPost2010PropOp30
 70
     1
102
RTVSPost2010Prop31
280
     0
102
RTVSPost2010PropOp31
 70
     1
102
RTVSPost2010Prop32
280
     0
102
RTVSPost2010PropOp32
 70
     1
102
RTVSPost2010Prop33
280
     0
102
RTVSPost2010PropOp33
 70
     1
102
RTVSPost2010Prop34
280
     0
102
RTVSPost2010PropOp34
 70
     1
102
RTVSPost2010Prop35
280
     0
102
RTVSPost2010PropOp35
 70
     1
102
RTVSPost2010Prop36
280
     0
102
RTVSPost2010PropOp36
 70
     1
102
RTVSPost2010Prop37
 90
       50
102
RTVSPost2010PropOp37
 70
     1
102
RTVSPost2010Prop38
140
0.0
102
RTVSPost2010PropOp38
 70
     1
102
RTVSPost2010Prop39
140
1.0
102
RTVSPost2010PropOp39
 70
     1
102
RTVSPost2010Prop40
 90
        0
102
RTVSPost2010PropOp40
 70
     1
102
RTVSPost2010Prop41ColorIndex
 90
       18
102
RTVSPost2010Prop41ColorRGB
 90
        0
102
RTVSPost2010PropOp41
 70
     1
102
RTVSPost2010Prop42
 90
       50
102
RTVSPost2010PropOp42
 70
     1
102
RTVSPost2010Prop43
 90
        3
102
RTVSPost2010PropOp43
 70
     1
102
RTVSPost2010Prop44ColorIndex
 90
        5
102
RTVSPost2010Prop44ColorRGB
 90
      255
102
RTVSPost2010PropOp44
 70
     1
102
RTVSPost2010Prop45
280
     0
102
RTVSPost2010PropOp45
 70
     1
102
RTVSPost2010Prop46
 90
       50
102
RTVSPost2010PropOp46
 70
     1
102
RTVSPost2010Prop47
 90
       50
102
RTVSPost2010PropOp47
 70
     1
102
RTVSPost2010Prop48
 90
       50
102
RTVSPost2010PropOp48
 70
     1
102
RTVSPost2010Prop49
280
     0
102
RTVSPost2010PropOp49
 70
     1
102
RTVSPost2010Prop50
 90
       50
102
RTVSPost2010PropOp50
 70
     1
102
RTVSPost2010Prop51ColorIndex
 90
      256
102
RTVSPost2010Prop51ColorRGB
 90
-16777216
102
RTVSPost2010PropOp51
 70
     0
102
RTVSPost2010Prop52
140
1.0
102
RTVSPost2010PropOp52
 70
     0
102
RTVSPost2010Prop53
 90
        2
102
RTVSPost2010PropOp53
 70
     1
102
RTVSPost2010Prop54
  1
strokes_ogs.tif
102
RTVSPost2010PropOp54
 70
     1
102
RTVSPost2010Prop55
280
     0
102
RTVSPost2010PropOp55
 70
     1
102
RTVSPost2010Prop56
140
1.0
102
RTVSPost2010PropOp56
 70
     1
102
RTVSPost2010Prop57
140
1.0
102
RTVSPost2010PropOp57
 70
     1
  0
XRECORD
  5
A8
102
{ACAD_REACTORS
330
A7
102
}
330
A7
100
AcDbXrecord
280
     1
102
RTVSPropertyOp0
 70
     1
102
RTVSPropertyOp1
 70
     1
102
RTVSPropertyOp2
 70
     1
102
RTVSPropertyOp3
 70
     1
102
RTVSPropertyOp4
 70
     1
102
RTVSPropertyOp5
 70
     1
102
RTVSPropertyOp6
 70
     1
102
RTVSPropertyOp7
 70
     1
102
RTVSPropertyOp8
 70
     1
102
RTVSPropertyOp9
 70
     1
102
RTVSPropertyOp10
 70
     1
102
RTVSPropertyOp11
 70
     1
102
RTVSPropertyOp12
 70
     1
102
RTVSPropertyOp13
 70
     1
102
RTVSPropertyOp14
 70
     1
102
RTVSPropertyOp15
 70
     1
102
RTVSPropertyOp16
 70
     1
102
RTVSPropertyOp17
 70
     1
102
RTVSPropertyOp18
 70
     1
102
RTVSPropertyOp19
 70
     1
102
RTVSPropertyOp20
 70
     1
102
RTVSPropertyOp21
 70
     1
102
RTVSPropertyOp22
 70
     1
102
RTVSPropertyOp23
 70
     1
102
RTVSPropertyOp24
 70
     1
102
RTVSPropertyOp25
 70
     1
102
RTVSPropertyOp26
 70
     1
102
RTVSPropertyOp27
 70
     1
102
RTVSPropertyOp28
 70
     1
102
RTVSPropertyOp29
 70
     1
102
RTVSPropertyOp30
 70
     1
102
RTVSPropertyOp31
 70
     1
102
RTVSPropertyOp32
 70
     1
102
RTVSPropertyOp33
 70
     1
102
RTVSPropertyOp34
 70
     1
102
RTVSPropertyOp35
 70
     1
102
RTVSPropertyOp36
 70
     1
102
RTVSPropertyOp37
 70
     1
102
RTVSPropertyOp38
 70
     1
102
RTVSPropertyOp39
 70
     1
102
RTVSPropertyOp40
 70
     1
102
RTVSPropertyOp41
 70
     1
102
RTVSPropertyOp42
 70
     1
102
RTVSPropertyOp43
 70
     1
102
RTVSPropertyOp44
 70
     1
102
RTVSPropertyOp45
 70
     1
102
RTVSPropertyOp46
 70
     1
102
RTVSPropertyOp47
 70
     1
102
RTVSPropertyOp48
 70
     1
102
RTVSPropertyOp49
 70
     1
102
RTVSPropertyOp50
 70
     1
102
RTVSPropertyOp51
 70
     0
102
RTVSPropertyOp52
 70
     0
102
RTVSPropertyOp53
 70
     1
102
RTVSPropertyOp54
 70
     1
102
RTVSPropertyOp55
 70
     1
102
RTVSPropertyOp56
 70
     1
102
RTVSPropertyOp57
 70
     1
102
RTVSPost2010Prop28
280
     0
102
RTVSPost2010PropOp28
 70
     1
102
RTVSPost2010Prop29
280
     1
102
RTVSPost2010PropOp29
 70
     1
102
RTVSPost2010Prop30
280
     1
102
RTVSPost2010PropOp30
 70
     1
102
RTVSPost2010Prop31
280
     0
102
RTVSPost2010PropOp31
 70
     1
102
RTVSPost2010Prop32
280
     0
102
RTVSPost2010PropOp32
 70
     1
102
RTVSPost2010Prop33
280
     0
102
RTVSPost2010PropOp33
 70
     1
102
RTVSPost2010Prop34
280
     0
102
RTVSPost2010PropOp34
 70
     1
102
RTVSPost2010Prop35
280
     0
102
RTVSPost2010PropOp35
 70
     1
102
RTVSPost2010Prop36
280
     0
102
RTVSPost2010PropOp36
 70
     1
102
RTVSPost2010Prop37
 90
       50
102
RTVSPost2010PropOp37
 70
     1
102
RTVSPost2010Prop38
140
0.0
102
RTVSPost2010PropOp38
 70
     1
102
RTVSPost2010Prop39
140
1.0
102
RTVSPost2010PropOp39
 70
     1
102
RTVSPost2010Prop40
 90
        0
102
RTVSPost2010PropOp40
 70
     1
102
RTVSPost2010Prop41ColorIndex
 90
       18
102
RTVSPost2010Prop41ColorRGB
 90
        0
102
RTVSPost2010PropOp41
 70
     1
102
RTVSPost2010Prop42
 90
       50
102
RTVSPost2010PropOp42
 70
     1
102
RTVSPost2010Prop43
 90
        3
102
RTVSPost2010PropOp43
 70
     1
102
RTVSPost2010Prop44ColorIndex
 90
        5
102
RTVSPost2010Prop44ColorRGB
 90
      255
102
RTVSPost2010PropOp44
 70
     1
102
RTVSPost2010Prop45
280
     0
102
RTVSPost2010PropOp45
 70
     1
102
RTVSPost2010Prop46
 90
       50
102
RTVSPost2010PropOp46
 70
     1
102
RTVSPost2010Prop47
 90
       50
102
RTVSPost2010PropOp47
 70
     1
102
RTVSPost2010Prop48
 90
       50
102
RTVSPost2010PropOp48
 70
     1
102
RTVSPost2010Prop49
280
     0
102
RTVSPost2010PropOp49
 70
     1
102
RTVSPost2010Prop50
 90
       50
102
RTVSPost2010PropOp50
 70
     1
102
RTVSPost2010Prop51ColorIndex
 90
      256
102
RTVSPost2010Prop51ColorRGB
 90
-16777216
102
RTVSPost2010PropOp51
 70
     0
102
RTVSPost2010Prop52
140
1.0
102
RTVSPost2010PropOp52
 70
     0
102
RTVSPost2010Prop53
 90
        2
102
RTVSPost2010PropOp53
 70
     1
102
RTVSPost2010Prop54
  1
strokes_ogs.tif
102
RTVSPost2010PropOp54
 70
     1
102
RTVSPost2010Prop55
280
     0
102
RTVSPost2010PropOp55
 70
     1
102
RTVSPost2010Prop56
140
1.0
102
RTVSPost2010PropOp56
 70
     1
102
RTVSPost2010Prop57
140
1.0
102
RTVSPost2010PropOp57
 70
     1
  0
XRECORD
  5
B0
102
{ACAD_REACTORS
330
AF
102
}
330
AF
100
AcDbXrecord
280
     1
102
RTVSPropertyOp0
 70
     1
102
RTVSPropertyOp1
 70
     1
102
RTVSPropertyOp2
 70
     1
102
RTVSPropertyOp3
 70
     1
102
RTVSPropertyOp4
 70
     1
102
RTVSPropertyOp5
 70
     1
102
RTVSPropertyOp6
 70
     1
102
RTVSPropertyOp7
 70
     1
102
RTVSPropertyOp8
 70
     1
102
RTVSPropertyOp9
 70
     1
102
RTVSPropertyOp10
 70
     1
102
RTVSPropertyOp11
 70
     1
102
RTVSPropertyOp12
 70
     1
102
RTVSPropertyOp13
 70
     1
102
RTVSPropertyOp14
 70
     1
102
RTVSPropertyOp15
 70
     1
102
RTVSPropertyOp16
 70
     1
102
RTVSPropertyOp17
 70
     1
102
RTVSPropertyOp18
 70
     1
102
RTVSPropertyOp19
 70
     1
102
RTVSPropertyOp20
 70
     1
102
RTVSPropertyOp21
 70
     1
102
RTVSPropertyOp22
 70
     1
102
RTVSPropertyOp23
 70
     1
102
RTVSPropertyOp24
 70
     1
102
RTVSPropertyOp25
 70
     1
102
RTVSPropertyOp26
 70
     1
102
RTVSPropertyOp27
 70
     1
102
RTVSPropertyOp28
 70
     1
102
RTVSPropertyOp29
 70
     1
102
RTVSPropertyOp30
 70
     1
102
RTVSPropertyOp31
 70
     1
102
RTVSPropertyOp32
 70
     1
102
RTVSPropertyOp33
 70
     1
102
RTVSPropertyOp34
 70
     1
102
RTVSPropertyOp35
 70
     1
102
RTVSPropertyOp36
 70
     1
102
RTVSPropertyOp37
 70
     1
102
RTVSPropertyOp38
 70
     1
102
RTVSPropertyOp39
 70
     1
102
RTVSPropertyOp40
 70
     1
102
RTVSPropertyOp41
 70
     1
102
RTVSPropertyOp42
 70
     1
102
RTVSPropertyOp43
 70
     1
102
RTVSPropertyOp44
 70
     1
102
RTVSPropertyOp45
 70
     1
102
RTVSPropertyOp46
 70
     1
102
RTVSPropertyOp47
 70
     1
102
RTVSPropertyOp48
 70
     1
102
RTVSPropertyOp49
 70
     1
102
RTVSPropertyOp50
 70
     1
102
RTVSPropertyOp51
 70
     0
102
RTVSPropertyOp52
 70
     0
102
RTVSPropertyOp53
 70
     1
102
RTVSPropertyOp54
 70
     1
102
RTVSPropertyOp55
 70
     1
102
RTVSPropertyOp56
 70
     1
102
RTVSPropertyOp57
 70
     1
102
RTVSPost2010Prop28
280
     0
102
RTVSPost2010PropOp28
 70
     1
102
RTVSPost2010Prop29
280
     1
102
RTVSPost2010PropOp29
 70
     1
102
RTVSPost2010Prop30
280
     1
102
RTVSPost2010PropOp30
 70
     1
102
RTVSPost2010Prop31
280
     0
102
RTVSPost2010PropOp31
 70
     1
102
RTVSPost2010Prop32
280
     0
102
RTVSPost2010PropOp32
 70
     1
102
RTVSPost2010Prop33
280
     0
102
RTVSPost2010PropOp33
 70
     1
102
RTVSPost2010Prop34
280
     0
102
RTVSPost2010PropOp34
 70
     1
102
RTVSPost2010Prop35
280
     0
102
RTVSPost2010PropOp35
 70
     1
102
RTVSPost2010Prop36
280
     0
102
RTVSPost2010PropOp36
 70
     1
102
RTVSPost2010Prop37
 90
       50
102
RTVSPost2010PropOp37
 70
     1
102
RTVSPost2010Prop38
140
0.0
102
RTVSPost2010PropOp38
 70
     1
102
RTVSPost2010Prop39
140
1.0
102
RTVSPost2010PropOp39
 70
     1
102
RTVSPost2010Prop40
 90
        0
102
RTVSPost2010PropOp40
 70
     1
102
RTVSPost2010Prop41ColorIndex
 90
       18
102
RTVSPost2010Prop41ColorRGB
 90
        0
102
RTVSPost2010PropOp41
 70
     1
102
RTVSPost2010Prop42
 90
       50
102
RTVSPost2010PropOp42
 70
     1
102
RTVSPost2010Prop43
 90
        3
102
RTVSPost2010PropOp43
 70
     1
102
RTVSPost2010Prop44ColorIndex
 90
        5
102
RTVSPost2010Prop44ColorRGB
 90
      255
102
RTVSPost2010PropOp44
 70
     1
102
RTVSPost2010Prop45
280
     0
102
RTVSPost2010PropOp45
 70
     1
102
RTVSPost2010Prop46
 90
       50
102
RTVSPost2010PropOp46
 70
     1
102
RTVSPost2010Prop47
 90
       50
102
RTVSPost2010PropOp47
 70
     1
102
RTVSPost2010Prop48
 90
       50
102
RTVSPost2010PropOp48
 70
     1
102
RTVSPost2010Prop49
280
     0
102
RTVSPost2010PropOp49
 70
     1
102
RTVSPost2010Prop50
 90
       50
102
RTVSPost2010PropOp50
 70
     1
102
RTVSPost2010Prop51ColorIndex
 90
      256
102
RTVSPost2010Prop51ColorRGB
 90
-16777216
102
RTVSPost2010PropOp51
 70
     0
102
RTVSPost2010Prop52
140
1.0
102
RTVSPost2010PropOp52
 70
     0
102
RTVSPost2010Prop53
 90
        2
102
RTVSPost2010PropOp53
 70
     1
102
RTVSPost2010Prop54
  1
strokes_ogs.tif
102
RTVSPost2010PropOp54
 70
     1
102
RTVSPost2010Prop55
280
     0
102
RTVSPost2010PropOp55
 70
     1
102
RTVSPost2010Prop56
140
1.0
102
RTVSPost2010PropOp56
 70
     1
102
RTVSPost2010Prop57
140
1.0
102
RTVSPost2010PropOp57
 70
     1
  0
XRECORD
  5
A4
102
{ACAD_REACTORS
330
A3
102
}
330
A3
100
AcDbXrecord
280
     1
102
RTVSPropertyOp0
 70
     1
102
RTVSPropertyOp1
 70
     1
102
RTVSPropertyOp2
 70
     1
102
RTVSPropertyOp3
 70
     1
102
RTVSPropertyOp4
 70
     1
102
RTVSPropertyOp5
 70
     1
102
RTVSPropertyOp6
 70
     1
102
RTVSPropertyOp7
 70
     1
102
RTVSPropertyOp8
 70
     1
102
RTVSPropertyOp9
 70
     1
102
RTVSPropertyOp10
 70
     1
102
RTVSPropertyOp11
 70
     1
102
RTVSPropertyOp12
 70
     1
102
RTVSPropertyOp13
 70
     1
102
RTVSPropertyOp14
 70
     1
102
RTVSPropertyOp15
 70
     1
102
RTVSPropertyOp16
 70
     1
102
RTVSPropertyOp17
 70
     1
102
RTVSPropertyOp18
 70
     1
102
RTVSPropertyOp19
 70
     1
102
RTVSPropertyOp20
 70
     1
102
RTVSPropertyOp21
 70
     1
102
RTVSPropertyOp22
 70
     1
102
RTVSPropertyOp23
 70
     1
102
RTVSPropertyOp24
 70
     1
102
RTVSPropertyOp25
 70
     1
102
RTVSPropertyOp26
 70
     1
102
RTVSPropertyOp27
 70
     1
102
RTVSPropertyOp28
 70
     1
102
RTVSPropertyOp29
 70
     1
102
RTVSPropertyOp30
 70
     1
102
RTVSPropertyOp31
 70
     1
102
RTVSPropertyOp32
 70
     1
102
RTVSPropertyOp33
 70
     1
102
RTVSPropertyOp34
 70
     1
102
RTVSPropertyOp35
 70
     1
102
RTVSPropertyOp36
 70
     1
102
RTVSPropertyOp37
 70
     1
102
RTVSPropertyOp38
 70
     1
102
RTVSPropertyOp39
 70
     1
102
RTVSPropertyOp40
 70
     1
102
RTVSPropertyOp41
 70
     1
102
RTVSPropertyOp42
 70
     1
102
RTVSPropertyOp43
 70
     1
102
RTVSPropertyOp44
 70
     1
102
RTVSPropertyOp45
 70
     1
102
RTVSPropertyOp46
 70
     1
102
RTVSPropertyOp47
 70
     1
102
RTVSPropertyOp48
 70
     1
102
RTVSPropertyOp49
 70
     1
102
RTVSPropertyOp50
 70
     1
102
RTVSPropertyOp51
 70
     0
102
RTVSPropertyOp52
 70
     0
102
RTVSPropertyOp53
 70
     1
102
RTVSPropertyOp54
 70
     1
102
RTVSPropertyOp55
 70
     1
102
RTVSPropertyOp56
 70
     1
102
RTVSPropertyOp57
 70
     1
102
RTVSPost2010Prop28
280
     0
102
RTVSPost2010PropOp28
 70
     1
102
RTVSPost2010Prop29
280
     1
102
RTVSPost2010PropOp29
 70
     1
102
RTVSPost2010Prop30
280
     1
102
RTVSPost2010PropOp30
 70
     1
102
RTVSPost2010Prop31
280
     0
102
RTVSPost2010PropOp31
 70
     1
102
RTVSPost2010Prop32
280
     0
102
RTVSPost2010PropOp32
 70
     1
102
RTVSPost2010Prop33
280
     0
102
RTVSPost2010PropOp33
 70
     1
102
RTVSPost2010Prop34
280
     0
102
RTVSPost2010PropOp34
 70
     1
102
RTVSPost2010Prop35
280
     0
102
RTVSPost2010PropOp35
 70
     1
102
RTVSPost2010Prop36
280
     0
102
RTVSPost2010PropOp36
 70
     1
102
RTVSPost2010Prop37
 90
       50
102
RTVSPost2010PropOp37
 70
     1
102
RTVSPost2010Prop38
140
0.0
102
RTVSPost2010PropOp38
 70
     1
102
RTVSPost2010Prop39
140
1.0
102
RTVSPost2010PropOp39
 70
     1
102
RTVSPost2010Prop40
 90
        0
102
RTVSPost2010PropOp40
 70
     1
102
RTVSPost2010Prop41ColorIndex
 90
       18
102
RTVSPost2010Prop41ColorRGB
 90
        0
102
RTVSPost2010PropOp41
 70
     1
102
RTVSPost2010Prop42
 90
       50
102
RTVSPost2010PropOp42
 70
     1
102
RTVSPost2010Prop43
 90
        3
102
RTVSPost2010PropOp43
 70
     1
102
RTVSPost2010Prop44ColorIndex
 90
        5
102
RTVSPost2010Prop44ColorRGB
 90
      255
102
RTVSPost2010PropOp44
 70
     1
102
RTVSPost2010Prop45
280
     0
102
RTVSPost2010PropOp45
 70
     1
102
RTVSPost2010Prop46
 90
       50
102
RTVSPost2010PropOp46
 70
     1
102
RTVSPost2010Prop47
 90
       50
102
RTVSPost2010PropOp47
 70
     1
102
RTVSPost2010Prop48
 90
       50
102
RTVSPost2010PropOp48
 70
     1
102
RTVSPost2010Prop49
280
     0
102
RTVSPost2010PropOp49
 70
     1
102
RTVSPost2010Prop50
 90
       50
102
RTVSPost2010PropOp50
 70
     1
102
RTVSPost2010Prop51ColorIndex
 90
      256
102
RTVSPost2010Prop51ColorRGB
 90
-16777216
102
RTVSPost2010PropOp51
 70
     0
102
RTVSPost2010Prop52
140
1.0
102
RTVSPost2010PropOp52
 70
     0
102
RTVSPost2010Prop53
 90
        2
102
RTVSPost2010PropOp53
 70
     1
102
RTVSPost2010Prop54
  1
strokes_ogs.tif
102
RTVSPost2010PropOp54
 70
     1
102
RTVSPost2010Prop55
280
     0
102
RTVSPost2010PropOp55
 70
     1
102
RTVSPost2010Prop56
140
1.0
102
RTVSPost2010PropOp56
 70
     1
102
RTVSPost2010Prop57
140
1.0
102
RTVSPost2010PropOp57
 70
     1
  0
XRECORD
  5
A6
102
{ACAD_REACTORS
330
A5
102
}
330
A5
100
AcDbXrecord
280
     1
102
RTVSPropertyOp0
 70
     1
102
RTVSPropertyOp1
 70
     1
102
RTVSPropertyOp2
 70
     1
102
RTVSPropertyOp3
 70
     1
102
RTVSPropertyOp4
 70
     1
102
RTVSPropertyOp5
 70
     1
102
RTVSPropertyOp6
 70
     1
102
RTVSPropertyOp7
 70
     1
102
RTVSPropertyOp8
 70
     1
102
RTVSPropertyOp9
 70
     1
102
RTVSPropertyOp10
 70
     1
102
RTVSPropertyOp11
 70
     1
102
RTVSPropertyOp12
 70
     1
102
RTVSPropertyOp13
 70
     1
102
RTVSPropertyOp14
 70
     1
102
RTVSPropertyOp15
 70
     1
102
RTVSPropertyOp16
 70
     1
102
RTVSPropertyOp17
 70
     1
102
RTVSPropertyOp18
 70
     1
102
RTVSPropertyOp19
 70
     1
102
RTVSPropertyOp20
 70
     1
102
RTVSPropertyOp21
 70
     1
102
RTVSPropertyOp22
 70
     1
102
RTVSPropertyOp23
 70
     1
102
RTVSPropertyOp24
 70
     1
102
RTVSPropertyOp25
 70
     1
102
RTVSPropertyOp26
 70
     1
102
RTVSPropertyOp27
 70
     1
102
RTVSPropertyOp28
 70
     1
102
RTVSPropertyOp29
 70
     1
102
RTVSPropertyOp30
 70
     1
102
RTVSPropertyOp31
 70
     1
102
RTVSPropertyOp32
 70
     1
102
RTVSPropertyOp33
 70
     1
102
RTVSPropertyOp34
 70
     1
102
RTVSPropertyOp35
 70
     1
102
RTVSPropertyOp36
 70
     1
102
RTVSPropertyOp37
 70
     1
102
RTVSPropertyOp38
 70
     1
102
RTVSPropertyOp39
 70
     1
102
RTVSPropertyOp40
 70
     1
102
RTVSPropertyOp41
 70
     1
102
RTVSPropertyOp42
 70
     1
102
RTVSPropertyOp43
 70
     1
102
RTVSPropertyOp44
 70
     1
102
RTVSPropertyOp45
 70
     1
102
RTVSPropertyOp46
 70
     1
102
RTVSPropertyOp47
 70
     1
102
RTVSPropertyOp48
 70
     1
102
RTVSPropertyOp49
 70
     1
102
RTVSPropertyOp50
 70
     1
102
RTVSPropertyOp51
 70
     0
102
RTVSPropertyOp52
 70
     0
102
RTVSPropertyOp53
 70
     1
102
RTVSPropertyOp54
 70
     1
102
RTVSPropertyOp55
 70
     1
102
RTVSPropertyOp56
 70
     1
102
RTVSPropertyOp57
 70
     1
102
RTVSPost2010Prop28
280
     0
102
RTVSPost2010PropOp28
 70
     1
102
RTVSPost2010Prop29
280
     1
102
RTVSPost2010PropOp29
 70
     1
102
RTVSPost2010Prop30
280
     1
102
RTVSPost2010PropOp30
 70
     1
102
RTVSPost2010Prop31
280
     0
102
RTVSPost2010PropOp31
 70
     1
102
RTVSPost2010Prop32
280
     0
102
RTVSPost2010PropOp32
 70
     1
102
RTVSPost2010Prop33
280
     0
102
RTVSPost2010PropOp33
 70
     1
102
RTVSPost2010Prop34
280
     0
102
RTVSPost2010PropOp34
 70
     1
102
RTVSPost2010Prop35
280
     0
102
RTVSPost2010PropOp35
 70
     1
102
RTVSPost2010Prop36
280
     0
102
RTVSPost2010PropOp36
 70
     1
102
RTVSPost2010Prop37
 90
       50
102
RTVSPost2010PropOp37
 70
     1
102
RTVSPost2010Prop38
140
0.0
102
RTVSPost2010PropOp38
 70
     1
102
RTVSPost2010Prop39
140
1.0
102
RTVSPost2010PropOp39
 70
     1
102
RTVSPost2010Prop40
 90
        0
102
RTVSPost2010PropOp40
 70
     1
102
RTVSPost2010Prop41ColorIndex
 90
       18
102
RTVSPost2010Prop41ColorRGB
 90
        0
102
RTVSPost2010PropOp41
 70
     1
102
RTVSPost2010Prop42
 90
       50
102
RTVSPost2010PropOp42
 70
     1
102
RTVSPost2010Prop43
 90
        3
102
RTVSPost2010PropOp43
 70
     1
102
RTVSPost2010Prop44ColorIndex
 90
        5
102
RTVSPost2010Prop44ColorRGB
 90
      255
102
RTVSPost2010PropOp44
 70
     1
102
RTVSPost2010Prop45
280
     0
102
RTVSPost2010PropOp45
 70
     1
102
RTVSPost2010Prop46
 90
       50
102
RTVSPost2010PropOp46
 70
     1
102
RTVSPost2010Prop47
 90
       50
102
RTVSPost2010PropOp47
 70
     1
102
RTVSPost2010Prop48
 90
       50
102
RTVSPost2010PropOp48
 70
     1
102
RTVSPost2010Prop49
280
     0
102
RTVSPost2010PropOp49
 70
     1
102
RTVSPost2010Prop50
 90
       50
102
RTVSPost2010PropOp50
 70
     1
102
RTVSPost2010Prop51ColorIndex
 90
      256
102
RTVSPost2010Prop51ColorRGB
 90
-16777216
102
RTVSPost2010PropOp51
 70
     0
102
RTVSPost2010Prop52
140
1.0
102
RTVSPost2010PropOp52
 70
     0
102
RTVSPost2010Prop53
 90
        2
102
RTVSPost2010PropOp53
 70
     1
102
RTVSPost2010Prop54
  1
strokes_ogs.tif
102
RTVSPost2010PropOp54
 70
     1
102
RTVSPost2010Prop55
280
     0
102
RTVSPost2010PropOp55
 70
     1
102
RTVSPost2010Prop56
140
1.0
102
RTVSPost2010PropOp56
 70
     1
102
RTVSPost2010Prop57
140
1.0
102
RTVSPost2010PropOp57
 70
     1
  0
XRECORD
  5
B6
102
{ACAD_REACTORS
330
B5
102
}
330
B5
100
AcDbXrecord
280
     1
102
RTVSPropertyOp0
 70
     0
102
RTVSPropertyOp1
 70
     0
102
RTVSPropertyOp2
 70
     0
102
RTVSPropertyOp3
 70
     0
102
RTVSPropertyOp4
 70
     0
102
RTVSPropertyOp5
 70
     0
102
RTVSPropertyOp6
 70
     0
102
RTVSPropertyOp7
 70
     0
102
RTVSPropertyOp8
 70
     0
102
RTVSPropertyOp9
 70
     0
102
RTVSPropertyOp10
 70
     0
102
RTVSPropertyOp11
 70
     0
102
RTVSPropertyOp12
 70
     0
102
RTVSPropertyOp13
 70
     0
102
RTVSPropertyOp14
 70
     2
102
RTVSPropertyOp15
 70
     0
102
RTVSPropertyOp16
 70
     0
102
RTVSPropertyOp17
 70
     0
102
RTVSPropertyOp18
 70
     0
102
RTVSPropertyOp19
 70
     0
102
RTVSPropertyOp20
 70
     0
102
RTVSPropertyOp21
 70
     0
102
RTVSPropertyOp22
 70
     0
102
RTVSPropertyOp23
 70
     0
102
RTVSPropertyOp24
 70
     0
102
RTVSPropertyOp25
 70
     0
102
RTVSPropertyOp26
 70
     0
102
RTVSPropertyOp27
 70
     0
102
RTVSPropertyOp28
 70
     0
102
RTVSPropertyOp29
 70
     0
102
RTVSPropertyOp30
 70
     0
102
RTVSPropertyOp31
 70
     0
102
RTVSPropertyOp32
 70
     0
102
RTVSPropertyOp33
 70
     0
102
RTVSPropertyOp34
 70
     0
102
RTVSPropertyOp35
 70
     0
102
RTVSPropertyOp36
 70
     0
102
RTVSPropertyOp37
 70
     0
102
RTVSPropertyOp38
 70
     0
102
RTVSPropertyOp39
 70
     0
102
RTVSPropertyOp40
 70
     0
102
RTVSPropertyOp41
 70
     0
102
RTVSPropertyOp42
 70
     0
102
RTVSPropertyOp43
 70
     0
102
RTVSPropertyOp44
 70
     0
102
RTVSPropertyOp45
 70
     0
102
RTVSPropertyOp46
 70
     0
102
RTVSPropertyOp47
 70
     0
102
RTVSPropertyOp48
 70
     0
102
RTVSPropertyOp49
 70
     0
102
RTVSPropertyOp50
 70
     0
102
RTVSPropertyOp51
 70
     0
102
RTVSPropertyOp52
 70
     0
102
RTVSPropertyOp53
 70
     0
102
RTVSPropertyOp54
 70
     0
102
RTVSPropertyOp55
 70
     0
102
RTVSPropertyOp56
 70
     0
102
RTVSPropertyOp57
 70
     0
102
RTVSPost2010Prop28
280
     0
102
RTVSPost2010PropOp28
 70
     0
102
RTVSPost2010Prop29
280
     1
102
RTVSPost2010PropOp29
 70
     0
102
RTVSPost2010Prop30
280
     1
102
RTVSPost2010PropOp30
 70
     0
102
RTVSPost2010Prop31
280
     0
102
RTVSPost2010PropOp31
 70
     0
102
RTVSPost2010Prop32
280
     0
102
RTVSPost2010PropOp32
 70
     0
102
RTVSPost2010Prop33
280
     0
102
RTVSPost2010PropOp33
 70
     0
102
RTVSPost2010Prop34
280
     0
102
RTVSPost2010PropOp34
 70
     0
102
RTVSPost2010Prop35
280
     0
102
RTVSPost2010PropOp35
 70
     0
102
RTVSPost2010Prop36
280
     0
102
RTVSPost2010PropOp36
 70
     0
102
RTVSPost2010Prop37
 90
       50
102
RTVSPost2010PropOp37
 70
     0
102
RTVSPost2010Prop38
140
0.0
102
RTVSPost2010PropOp38
 70
     0
102
RTVSPost2010Prop39
140
1.0
102
RTVSPost2010PropOp39
 70
     0
102
RTVSPost2010Prop40
 90
        0
102
RTVSPost2010PropOp40
 70
     0
102
RTVSPost2010Prop41ColorIndex
 90
       18
102
RTVSPost2010Prop41ColorRGB
 90
        0
102
RTVSPost2010PropOp41
 70
     0
102
RTVSPost2010Prop42
 90
       50
102
RTVSPost2010PropOp42
 70
     0
102
RTVSPost2010Prop43
 90
        3
102
RTVSPost2010PropOp43
 70
     0
102
RTVSPost2010Prop44ColorIndex
 90
        5
102
RTVSPost2010Prop44ColorRGB
 90
      255
102
RTVSPost2010PropOp44
 70
     0
102
RTVSPost2010Prop45
280
     0
102
RTVSPost2010PropOp45
 70
     0
102
RTVSPost2010Prop46
 90
       50
102
RTVSPost2010PropOp46
 70
     0
102
RTVSPost2010Prop47
 90
       50
102
RTVSPost2010PropOp47
 70
     0
102
RTVSPost2010Prop48
 90
       50
102
RTVSPost2010PropOp48
 70
     0
102
RTVSPost2010Prop49
280
     0
102
RTVSPost2010PropOp49
 70
     0
102
RTVSPost2010Prop50
 90
       50
102
RTVSPost2010PropOp50
 70
     0
102
RTVSPost2010Prop51ColorIndex
 90
      256
102
RTVSPost2010Prop51ColorRGB
 90
-16777216
102
RTVSPost2010PropOp51
 70
     0
102
RTVSPost2010Prop52
140
1.0
102
RTVSPost2010PropOp52
 70
     0
102
RTVSPost2010Prop53
 90
        2
102
RTVSPost2010PropOp53
 70
     0
102
RTVSPost2010Prop54
  1
strokes_ogs.tif
102
RTVSPost2010PropOp54
 70
     0
102
RTVSPost2010Prop55
280
     0
102
RTVSPost2010PropOp55
 70
     0
102
RTVSPost2010Prop56
140
1.0
102
RTVSPost2010PropOp56
 70
     0
102
RTVSPost2010Prop57
140
1.0
102
RTVSPost2010PropOp57
 70
     0
  0
XRECORD
  5
AE
102
{ACAD_REACTORS
330
AD
102
}
330
AD
100
AcDbXrecord
280
     1
102
RTVSPropertyOp0
 70
     1
102
RTVSPropertyOp1
 70
     1
102
RTVSPropertyOp2
 70
     1
102
RTVSPropertyOp3
 70
     1
102
RTVSPropertyOp4
 70
     1
102
RTVSPropertyOp5
 70
     1
102
RTVSPropertyOp6
 70
     1
102
RTVSPropertyOp7
 70
     1
102
RTVSPropertyOp8
 70
     1
102
RTVSPropertyOp9
 70
     1
102
RTVSPropertyOp10
 70
     1
102
RTVSPropertyOp11
 70
     1
102
RTVSPropertyOp12
 70
     1
102
RTVSPropertyOp13
 70
     1
102
RTVSPropertyOp14
 70
     1
102
RTVSPropertyOp15
 70
     1
102
RTVSPropertyOp16
 70
     1
102
RTVSPropertyOp17
 70
     1
102
RTVSPropertyOp18
 70
     1
102
RTVSPropertyOp19
 70
     1
102
RTVSPropertyOp20
 70
     1
102
RTVSPropertyOp21
 70
     1
102
RTVSPropertyOp22
 70
     1
102
RTVSPropertyOp23
 70
     1
102
RTVSPropertyOp24
 70
     1
102
RTVSPropertyOp25
 70
     1
102
RTVSPropertyOp26
 70
     1
102
RTVSPropertyOp27
 70
     1
102
RTVSPropertyOp28
 70
     1
102
RTVSPropertyOp29
 70
     1
102
RTVSPropertyOp30
 70
     1
102
RTVSPropertyOp31
 70
     1
102
RTVSPropertyOp32
 70
     1
102
RTVSPropertyOp33
 70
     1
102
RTVSPropertyOp34
 70
     1
102
RTVSPropertyOp35
 70
     1
102
RTVSPropertyOp36
 70
     1
102
RTVSPropertyOp37
 70
     1
102
RTVSPropertyOp38
 70
     1
102
RTVSPropertyOp39
 70
     1
102
RTVSPropertyOp40
 70
     1
102
RTVSPropertyOp41
 70
     1
102
RTVSPropertyOp42
 70
     1
102
RTVSPropertyOp43
 70
     1
102
RTVSPropertyOp44
 70
     1
102
RTVSPropertyOp45
 70
     1
102
RTVSPropertyOp46
 70
     1
102
RTVSPropertyOp47
 70
     1
102
RTVSPropertyOp48
 70
     1
102
RTVSPropertyOp49
 70
     1
102
RTVSPropertyOp50
 70
     1
102
RTVSPropertyOp51
 70
     0
102
RTVSPropertyOp52
 70
     0
102
RTVSPropertyOp53
 70
     1
102
RTVSPropertyOp54
 70
     1
102
RTVSPropertyOp55
 70
     1
102
RTVSPropertyOp56
 70
     1
102
RTVSPropertyOp57
 70
     1
102
RTVSPost2010Prop28
280
     0
102
RTVSPost2010PropOp28
 70
     1
102
RTVSPost2010Prop29
280
     1
102
RTVSPost2010PropOp29
 70
     1
102
RTVSPost2010Prop30
280
     1
102
RTVSPost2010PropOp30
 70
     1
102
RTVSPost2010Prop31
280
     0
102
RTVSPost2010PropOp31
 70
     1
102
RTVSPost2010Prop32
280
     0
102
RTVSPost2010PropOp32
 70
     1
102
RTVSPost2010Prop33
280
     0
102
RTVSPost2010PropOp33
 70
     1
102
RTVSPost2010Prop34
280
     0
102
RTVSPost2010PropOp34
 70
     1
102
RTVSPost2010Prop35
280
     0
102
RTVSPost2010PropOp35
 70
     1
102
RTVSPost2010Prop36
280
     0
102
RTVSPost2010PropOp36
 70
     1
102
RTVSPost2010Prop37
 90
       50
102
RTVSPost2010PropOp37
 70
     1
102
RTVSPost2010Prop38
140
0.0
102
RTVSPost2010PropOp38
 70
     1
102
RTVSPost2010Prop39
140
1.0
102
RTVSPost2010PropOp39
 70
     1
102
RTVSPost2010Prop40
 90
        0
102
RTVSPost2010PropOp40
 70
     1
102
RTVSPost2010Prop41ColorIndex
 90
       18
102
RTVSPost2010Prop41ColorRGB
 90
        0
102
RTVSPost2010PropOp41
 70
     1
102
RTVSPost2010Prop42
 90
       50
102
RTVSPost2010PropOp42
 70
     1
102
RTVSPost2010Prop43
 90
        3
102
RTVSPost2010PropOp43
 70
     1
102
RTVSPost2010Prop44ColorIndex
 90
        5
102
RTVSPost2010Prop44ColorRGB
 90
      255
102
RTVSPost2010PropOp44
 70
     1
102
RTVSPost2010Prop45
280
     0
102
RTVSPost2010PropOp45
 70
     1
102
RTVSPost2010Prop46
 90
       50
102
RTVSPost2010PropOp46
 70
     1
102
RTVSPost2010Prop47
 90
       50
102
RTVSPost2010PropOp47
 70
     1
102
RTVSPost2010Prop48
 90
       50
102
RTVSPost2010PropOp48
 70
     1
102
RTVSPost2010Prop49
280
     0
102
RTVSPost2010PropOp49
 70
     1
102
RTVSPost2010Prop50
 90
       50
102
RTVSPost2010PropOp50
 70
     1
102
RTVSPost2010Prop51ColorIndex
 90
      256
102
RTVSPost2010Prop51ColorRGB
 90
-16777216
102
RTVSPost2010PropOp51
 70
     0
102
RTVSPost2010Prop52
140
1.0
102
RTVSPost2010PropOp52
 70
     0
102
RTVSPost2010Prop53
 90
        2
102
RTVSPost2010PropOp53
 70
     1
102
RTVSPost2010Prop54
  1
strokes_ogs.tif
102
RTVSPost2010PropOp54
 70
     1
102
RTVSPost2010Prop55
280
     0
102
RTVSPost2010PropOp55
 70
     1
102
RTVSPost2010Prop56
140
1.0
102
RTVSPost2010PropOp56
 70
     1
102
RTVSPost2010Prop57
140
1.0
102
RTVSPost2010PropOp57
 70
     1
  0
XRECORD
  5
92
102
{ACAD_REACTORS
330
91
102
}
330
91
100
AcDbXrecord
280
     1
102
RTVSPropertyOp0
 70
     1
102
RTVSPropertyOp1
 70
     1
102
RTVSPropertyOp2
 70
     1
102
RTVSPropertyOp3
 70
     1
102
RTVSPropertyOp4
 70
     1
102
RTVSPropertyOp5
 70
     1
102
RTVSPropertyOp6
 70
     1
102
RTVSPropertyOp7
 70
     1
102
RTVSPropertyOp8
 70
     1
102
RTVSPropertyOp9
 70
     1
102
RTVSPropertyOp10
 70
     1
102
RTVSPropertyOp11
 70
     1
102
RTVSPropertyOp12
 70
     1
102
RTVSPropertyOp13
 70
     1
102
RTVSPropertyOp14
 70
     1
102
RTVSPropertyOp15
 70
     1
102
RTVSPropertyOp16
 70
     1
102
RTVSPropertyOp17
 70
     1
102
RTVSPropertyOp18
 70
     1
102
RTVSPropertyOp19
 70
     1
102
RTVSPropertyOp20
 70
     1
102
RTVSPropertyOp21
 70
     1
102
RTVSPropertyOp22
 70
     1
102
RTVSPropertyOp23
 70
     1
102
RTVSPropertyOp24
 70
     1
102
RTVSPropertyOp25
 70
     1
102
RTVSPropertyOp26
 70
     1
102
RTVSPropertyOp27
 70
     1
102
RTVSPropertyOp28
 70
     1
102
RTVSPropertyOp29
 70
     1
102
RTVSPropertyOp30
 70
     1
102
RTVSPropertyOp31
 70
     1
102
RTVSPropertyOp32
 70
     1
102
RTVSPropertyOp33
 70
     1
102
RTVSPropertyOp34
 70
     1
102
RTVSPropertyOp35
 70
     1
102
RTVSPropertyOp36
 70
     1
102
RTVSPropertyOp37
 70
     1
102
RTVSPropertyOp38
 70
     1
102
RTVSPropertyOp39
 70
     1
102
RTVSPropertyOp40
 70
     1
102
RTVSPropertyOp41
 70
     1
102
RTVSPropertyOp42
 70
     1
102
RTVSPropertyOp43
 70
     1
102
RTVSPropertyOp44
 70
     1
102
RTVSPropertyOp45
 70
     1
102
RTVSPropertyOp46
 70
     1
102
RTVSPropertyOp47
 70
     1
102
RTVSPropertyOp48
 70
     1
102
RTVSPropertyOp49
 70
     1
102
RTVSPropertyOp50
 70
     1
102
RTVSPropertyOp51
 70
     0
102
RTVSPropertyOp52
 70
     0
102
RTVSPropertyOp53
 70
     1
102
RTVSPropertyOp54
 70
     1
102
RTVSPropertyOp55
 70
     1
102
RTVSPropertyOp56
 70
     1
102
RTVSPropertyOp57
 70
     1
102
RTVSPost2010Prop28
280
     0
102
RTVSPost2010PropOp28
 70
     1
102
RTVSPost2010Prop29
280
     1
102
RTVSPost2010PropOp29
 70
     1
102
RTVSPost2010Prop30
280
     1
102
RTVSPost2010PropOp30
 70
     1
102
RTVSPost2010Prop31
280
     0
102
RTVSPost2010PropOp31
 70
     1
102
RTVSPost2010Prop32
280
     0
102
RTVSPost2010PropOp32
 70
     1
102
RTVSPost2010Prop33
280
     0
102
RTVSPost2010PropOp33
 70
     1
102
RTVSPost2010Prop34
280
     0
102
RTVSPost2010PropOp34
 70
     1
102
RTVSPost2010Prop35
280
     0
102
RTVSPost2010PropOp35
 70
     1
102
RTVSPost2010Prop36
280
     0
102
RTVSPost2010PropOp36
 70
     1
102
RTVSPost2010Prop37
 90
       50
102
RTVSPost2010PropOp37
 70
     1
102
RTVSPost2010Prop38
140
0.0
102
RTVSPost2010PropOp38
 70
     1
102
RTVSPost2010Prop39
140
1.0
102
RTVSPost2010PropOp39
 70
     1
102
RTVSPost2010Prop40
 90
        0
102
RTVSPost2010PropOp40
 70
     1
102
RTVSPost2010Prop41ColorIndex
 90
       18
102
RTVSPost2010Prop41ColorRGB
 90
        0
102
RTVSPost2010PropOp41
 70
     1
102
RTVSPost2010Prop42
 90
       50
102
RTVSPost2010PropOp42
 70
     1
102
RTVSPost2010Prop43
 90
        3
102
RTVSPost2010PropOp43
 70
     1
102
RTVSPost2010Prop44ColorIndex
 90
        5
102
RTVSPost2010Prop44ColorRGB
 90
      255
102
RTVSPost2010PropOp44
 70
     1
102
RTVSPost2010Prop45
280
     0
102
RTVSPost2010PropOp45
 70
     1
102
RTVSPost2010Prop46
 90
       50
102
RTVSPost2010PropOp46
 70
     1
102
RTVSPost2010Prop47
 90
       50
102
RTVSPost2010PropOp47
 70
     1
102
RTVSPost2010Prop48
 90
       50
102
RTVSPost2010PropOp48
 70
     1
102
RTVSPost2010Prop49
280
     0
102
RTVSPost2010PropOp49
 70
     1
102
RTVSPost2010Prop50
 90
       50
102
RTVSPost2010PropOp50
 70
     1
102
RTVSPost2010Prop51ColorIndex
 90
      256
102
RTVSPost2010Prop51ColorRGB
 90
-16777216
102
RTVSPost2010PropOp51
 70
     0
102
RTVSPost2010Prop52
140
1.0
102
RTVSPost2010PropOp52
 70
     0
102
RTVSPost2010Prop53
 90
        2
102
RTVSPost2010PropOp53
 70
     1
102
RTVSPost2010Prop54
  1
strokes_ogs.tif
102
RTVSPost2010PropOp54
 70
     1
102
RTVSPost2010Prop55
280
     0
102
RTVSPost2010PropOp55
 70
     1
102
RTVSPost2010Prop56
140
1.0
102
RTVSPost2010PropOp56
 70
     1
102
RTVSPost2010Prop57
140
1.0
102
RTVSPost2010PropOp57
 70
     1
  0
XRECORD
  5
94
102
{ACAD_REACTORS
330
93
102
}
330
93
100
AcDbXrecord
280
     1
102
RTVSPropertyOp0
 70
     1
102
RTVSPropertyOp1
 70
     1
102
RTVSPropertyOp2
 70
     1
102
RTVSPropertyOp3
 70
     1
102
RTVSPropertyOp4
 70
     1
102
RTVSPropertyOp5
 70
     1
102
RTVSPropertyOp6
 70
     1
102
RTVSPropertyOp7
 70
     1
102
RTVSPropertyOp8
 70
     1
102
RTVSPropertyOp9
 70
     1
102
RTVSPropertyOp10
 70
     1
102
RTVSPropertyOp11
 70
     1
102
RTVSPropertyOp12
 70
     1
102
RTVSPropertyOp13
 70
     1
102
RTVSPropertyOp14
 70
     1
102
RTVSPropertyOp15
 70
     1
102
RTVSPropertyOp16
 70
     1
102
RTVSPropertyOp17
 70
     1
102
RTVSPropertyOp18
 70
     1
102
RTVSPropertyOp19
 70
     1
102
RTVSPropertyOp20
 70
     1
102
RTVSPropertyOp21
 70
     1
102
RTVSPropertyOp22
 70
     1
102
RTVSPropertyOp23
 70
     1
102
RTVSPropertyOp24
 70
     1
102
RTVSPropertyOp25
 70
     1
102
RTVSPropertyOp26
 70
     1
102
RTVSPropertyOp27
 70
     1
102
RTVSPropertyOp28
 70
     1
102
RTVSPropertyOp29
 70
     1
102
RTVSPropertyOp30
 70
     1
102
RTVSPropertyOp31
 70
     1
102
RTVSPropertyOp32
 70
     1
102
RTVSPropertyOp33
 70
     1
102
RTVSPropertyOp34
 70
     1
102
RTVSPropertyOp35
 70
     1
102
RTVSPropertyOp36
 70
     1
102
RTVSPropertyOp37
 70
     1
102
RTVSPropertyOp38
 70
     1
102
RTVSPropertyOp39
 70
     1
102
RTVSPropertyOp40
 70
     1
102
RTVSPropertyOp41
 70
     1
102
RTVSPropertyOp42
 70
     1
102
RTVSPropertyOp43
 70
     1
102
RTVSPropertyOp44
 70
     1
102
RTVSPropertyOp45
 70
     1
102
RTVSPropertyOp46
 70
     1
102
RTVSPropertyOp47
 70
     1
102
RTVSPropertyOp48
 70
     1
102
RTVSPropertyOp49
 70
     1
102
RTVSPropertyOp50
 70
     1
102
RTVSPropertyOp51
 70
     0
102
RTVSPropertyOp52
 70
     0
102
RTVSPropertyOp53
 70
     1
102
RTVSPropertyOp54
 70
     1
102
RTVSPropertyOp55
 70
     1
102
RTVSPropertyOp56
 70
     1
102
RTVSPropertyOp57
 70
     1
102
RTVSPost2010Prop28
280
     0
102
RTVSPost2010PropOp28
 70
     1
102
RTVSPost2010Prop29
280
     1
102
RTVSPost2010PropOp29
 70
     1
102
RTVSPost2010Prop30
280
     1
102
RTVSPost2010PropOp30
 70
     1
102
RTVSPost2010Prop31
280
     0
102
RTVSPost2010PropOp31
 70
     1
102
RTVSPost2010Prop32
280
     0
102
RTVSPost2010PropOp32
 70
     1
102
RTVSPost2010Prop33
280
     0
102
RTVSPost2010PropOp33
 70
     1
102
RTVSPost2010Prop34
280
     0
102
RTVSPost2010PropOp34
 70
     1
102
RTVSPost2010Prop35
280
     0
102
RTVSPost2010PropOp35
 70
     1
102
RTVSPost2010Prop36
280
     0
102
RTVSPost2010PropOp36
 70
     1
102
RTVSPost2010Prop37
 90
       50
102
RTVSPost2010PropOp37
 70
     1
102
RTVSPost2010Prop38
140
0.0
102
RTVSPost2010PropOp38
 70
     1
102
RTVSPost2010Prop39
140
1.0
102
RTVSPost2010PropOp39
 70
     1
102
RTVSPost2010Prop40
 90
        0
102
RTVSPost2010PropOp40
 70
     1
102
RTVSPost2010Prop41ColorIndex
 90
       18
102
RTVSPost2010Prop41ColorRGB
 90
        0
102
RTVSPost2010PropOp41
 70
     1
102
RTVSPost2010Prop42
 90
       50
102
RTVSPost2010PropOp42
 70
     1
102
RTVSPost2010Prop43
 90
        3
102
RTVSPost2010PropOp43
 70
     1
102
RTVSPost2010Prop44ColorIndex
 90
        5
102
RTVSPost2010Prop44ColorRGB
 90
      255
102
RTVSPost2010PropOp44
 70
     1
102
RTVSPost2010Prop45
280
     0
102
RTVSPost2010PropOp45
 70
     1
102
RTVSPost2010Prop46
 90
       50
102
RTVSPost2010PropOp46
 70
     1
102
RTVSPost2010Prop47
 90
       50
102
RTVSPost2010PropOp47
 70
     1
102
RTVSPost2010Prop48
 90
       50
102
RTVSPost2010PropOp48
 70
     1
102
RTVSPost2010Prop49
280
     0
102
RTVSPost2010PropOp49
 70
     1
102
RTVSPost2010Prop50
 90
       50
102
RTVSPost2010PropOp50
 70
     1
102
RTVSPost2010Prop51ColorIndex
 90
      256
102
RTVSPost2010Prop51ColorRGB
 90
-16777216
102
RTVSPost2010PropOp51
 70
     0
102
RTVSPost2010Prop52
140
1.0
102
RTVSPost2010PropOp52
 70
     0
102
RTVSPost2010Prop53
 90
        2
102
RTVSPost2010PropOp53
 70
     1
102
RTVSPost2010Prop54
  1
strokes_ogs.tif
102
RTVSPost2010PropOp54
 70
     1
102
RTVSPost2010Prop55
280
     0
102
RTVSPost2010PropOp55
 70
     1
102
RTVSPost2010Prop56
140
1.0
102
RTVSPost2010PropOp56
 70
     1
102
RTVSPost2010Prop57
140
1.0
102
RTVSPost2010PropOp57
 70
     1
  0
XRECORD
  5
96
102
{ACAD_REACTORS
330
95
102
}
330
95
100
AcDbXrecord
280
     1
102
RTVSPropertyOp0
 70
     1
102
RTVSPropertyOp1
 70
     1
102
RTVSPropertyOp2
 70
     1
102
RTVSPropertyOp3
 70
     1
102
RTVSPropertyOp4
 70
     1
102
RTVSPropertyOp5
 70
     1
102
RTVSPropertyOp6
 70
     1
102
RTVSPropertyOp7
 70
     1
102
RTVSPropertyOp8
 70
     1
102
RTVSPropertyOp9
 70
     1
102
RTVSPropertyOp10
 70
     1
102
RTVSPropertyOp11
 70
     1
102
RTVSPropertyOp12
 70
     1
102
RTVSPropertyOp13
 70
     1
102
RTVSPropertyOp14
 70
     1
102
RTVSPropertyOp15
 70
     1
102
RTVSPropertyOp16
 70
     1
102
RTVSPropertyOp17
 70
     1
102
RTVSPropertyOp18
 70
     1
102
RTVSPropertyOp19
 70
     1
102
RTVSPropertyOp20
 70
     1
102
RTVSPropertyOp21
 70
     1
102
RTVSPropertyOp22
 70
     1
102
RTVSPropertyOp23
 70
     1
102
RTVSPropertyOp24
 70
     1
102
RTVSPropertyOp25
 70
     1
102
RTVSPropertyOp26
 70
     1
102
RTVSPropertyOp27
 70
     1
102
RTVSPropertyOp28
 70
     1
102
RTVSPropertyOp29
 70
     1
102
RTVSPropertyOp30
 70
     1
102
RTVSPropertyOp31
 70
     1
102
RTVSPropertyOp32
 70
     1
102
RTVSPropertyOp33
 70
     1
102
RTVSPropertyOp34
 70
     1
102
RTVSPropertyOp35
 70
     1
102
RTVSPropertyOp36
 70
     1
102
RTVSPropertyOp37
 70
     1
102
RTVSPropertyOp38
 70
     1
102
RTVSPropertyOp39
 70
     1
102
RTVSPropertyOp40
 70
     1
102
RTVSPropertyOp41
 70
     1
102
RTVSPropertyOp42
 70
     1
102
RTVSPropertyOp43
 70
     1
102
RTVSPropertyOp44
 70
     1
102
RTVSPropertyOp45
 70
     1
102
RTVSPropertyOp46
 70
     1
102
RTVSPropertyOp47
 70
     1
102
RTVSPropertyOp48
 70
     1
102
RTVSPropertyOp49
 70
     1
102
RTVSPropertyOp50
 70
     1
102
RTVSPropertyOp51
 70
     0
102
RTVSPropertyOp52
 70
     0
102
RTVSPropertyOp53
 70
     1
102
RTVSPropertyOp54
 70
     1
102
RTVSPropertyOp55
 70
     1
102
RTVSPropertyOp56
 70
     1
102
RTVSPropertyOp57
 70
     1
102
RTVSPost2010Prop28
280
     0
102
RTVSPost2010PropOp28
 70
     1
102
RTVSPost2010Prop29
280
     1
102
RTVSPost2010PropOp29
 70
     1
102
RTVSPost2010Prop30
280
     1
102
RTVSPost2010PropOp30
 70
     1
102
RTVSPost2010Prop31
280
     0
102
RTVSPost2010PropOp31
 70
     1
102
RTVSPost2010Prop32
280
     0
102
RTVSPost2010PropOp32
 70
     1
102
RTVSPost2010Prop33
280
     0
102
RTVSPost2010PropOp33
 70
     1
102
RTVSPost2010Prop34
280
     0
102
RTVSPost2010PropOp34
 70
     1
102
RTVSPost2010Prop35
280
     0
102
RTVSPost2010PropOp35
 70
     1
102
RTVSPost2010Prop36
280
     0
102
RTVSPost2010PropOp36
 70
     1
102
RTVSPost2010Prop37
 90
       50
102
RTVSPost2010PropOp37
 70
     1
102
RTVSPost2010Prop38
140
0.0
102
RTVSPost2010PropOp38
 70
     1
102
RTVSPost2010Prop39
140
1.0
102
RTVSPost2010PropOp39
 70
     1
102
RTVSPost2010Prop40
 90
        0
102
RTVSPost2010PropOp40
 70
     1
102
RTVSPost2010Prop41ColorIndex
 90
       18
102
RTVSPost2010Prop41ColorRGB
 90
        0
102
RTVSPost2010PropOp41
 70
     1
102
RTVSPost2010Prop42
 90
       50
102
RTVSPost2010PropOp42
 70
     1
102
RTVSPost2010Prop43
 90
        3
102
RTVSPost2010PropOp43
 70
     1
102
RTVSPost2010Prop44ColorIndex
 90
        5
102
RTVSPost2010Prop44ColorRGB
 90
      255
102
RTVSPost2010PropOp44
 70
     1
102
RTVSPost2010Prop45
280
     0
102
RTVSPost2010PropOp45
 70
     1
102
RTVSPost2010Prop46
 90
       50
102
RTVSPost2010PropOp46
 70
     1
102
RTVSPost2010Prop47
 90
       50
102
RTVSPost2010PropOp47
 70
     1
102
RTVSPost2010Prop48
 90
       50
102
RTVSPost2010PropOp48
 70
     1
102
RTVSPost2010Prop49
280
     0
102
RTVSPost2010PropOp49
 70
     1
102
RTVSPost2010Prop50
 90
       50
102
RTVSPost2010PropOp50
 70
     1
102
RTVSPost2010Prop51ColorIndex
 90
      256
102
RTVSPost2010Prop51ColorRGB
 90
-16777216
102
RTVSPost2010PropOp51
 70
     0
102
RTVSPost2010Prop52
140
1.0
102
RTVSPost2010PropOp52
 70
     0
102
RTVSPost2010Prop53
 90
        2
102
RTVSPost2010PropOp53
 70
     1
102
RTVSPost2010Prop54
  1
strokes_ogs.tif
102
RTVSPost2010PropOp54
 70
     1
102
RTVSPost2010Prop55
280
     0
102
RTVSPost2010PropOp55
 70
     1
102
RTVSPost2010Prop56
140
1.0
102
RTVSPost2010PropOp56
 70
     1
102
RTVSPost2010Prop57
140
1.0
102
RTVSPost2010PropOp57
 70
     1
  0
XRECORD
  5
98
102
{ACAD_REACTORS
330
97
102
}
330
97
100
AcDbXrecord
280
     1
102
RTVSPropertyOp0
 70
     1
102
RTVSPropertyOp1
 70
     1
102
RTVSPropertyOp2
 70
     1
102
RTVSPropertyOp3
 70
     1
102
RTVSPropertyOp4
 70
     1
102
RTVSPropertyOp5
 70
     1
102
RTVSPropertyOp6
 70
     1
102
RTVSPropertyOp7
 70
     1
102
RTVSPropertyOp8
 70
     1
102
RTVSPropertyOp9
 70
     1
102
RTVSPropertyOp10
 70
     1
102
RTVSPropertyOp11
 70
     1
102
RTVSPropertyOp12
 70
     1
102
RTVSPropertyOp13
 70
     1
102
RTVSPropertyOp14
 70
     1
102
RTVSPropertyOp15
 70
     1
102
RTVSPropertyOp16
 70
     1
102
RTVSPropertyOp17
 70
     1
102
RTVSPropertyOp18
 70
     1
102
RTVSPropertyOp19
 70
     1
102
RTVSPropertyOp20
 70
     1
102
RTVSPropertyOp21
 70
     1
102
RTVSPropertyOp22
 70
     1
102
RTVSPropertyOp23
 70
     1
102
RTVSPropertyOp24
 70
     1
102
RTVSPropertyOp25
 70
     1
102
RTVSPropertyOp26
 70
     1
102
RTVSPropertyOp27
 70
     1
102
RTVSPropertyOp28
 70
     1
102
RTVSPropertyOp29
 70
     1
102
RTVSPropertyOp30
 70
     1
102
RTVSPropertyOp31
 70
     1
102
RTVSPropertyOp32
 70
     1
102
RTVSPropertyOp33
 70
     1
102
RTVSPropertyOp34
 70
     1
102
RTVSPropertyOp35
 70
     1
102
RTVSPropertyOp36
 70
     1
102
RTVSPropertyOp37
 70
     1
102
RTVSPropertyOp38
 70
     1
102
RTVSPropertyOp39
 70
     1
102
RTVSPropertyOp40
 70
     1
102
RTVSPropertyOp41
 70
     1
102
RTVSPropertyOp42
 70
     1
102
RTVSPropertyOp43
 70
     1
102
RTVSPropertyOp44
 70
     1
102
RTVSPropertyOp45
 70
     1
102
RTVSPropertyOp46
 70
     1
102
RTVSPropertyOp47
 70
     1
102
RTVSPropertyOp48
 70
     1
102
RTVSPropertyOp49
 70
     1
102
RTVSPropertyOp50
 70
     1
102
RTVSPropertyOp51
 70
     0
102
RTVSPropertyOp52
 70
     0
102
RTVSPropertyOp53
 70
     1
102
RTVSPropertyOp54
 70
     1
102
RTVSPropertyOp55
 70
     1
102
RTVSPropertyOp56
 70
     1
102
RTVSPropertyOp57
 70
     1
102
RTVSPost2010Prop28
280
     0
102
RTVSPost2010PropOp28
 70
     1
102
RTVSPost2010Prop29
280
     1
102
RTVSPost2010PropOp29
 70
     1
102
RTVSPost2010Prop30
280
     1
102
RTVSPost2010PropOp30
 70
     1
102
RTVSPost2010Prop31
280
     0
102
RTVSPost2010PropOp31
 70
     1
102
RTVSPost2010Prop32
280
     0
102
RTVSPost2010PropOp32
 70
     1
102
RTVSPost2010Prop33
280
     0
102
RTVSPost2010PropOp33
 70
     1
102
RTVSPost2010Prop34
280
     0
102
RTVSPost2010PropOp34
 70
     1
102
RTVSPost2010Prop35
280
     0
102
RTVSPost2010PropOp35
 70
     1
102
RTVSPost2010Prop36
280
     0
102
RTVSPost2010PropOp36
 70
     1
102
RTVSPost2010Prop37
 90
       50
102
RTVSPost2010PropOp37
 70
     1
102
RTVSPost2010Prop38
140
0.0
102
RTVSPost2010PropOp38
 70
     1
102
RTVSPost2010Prop39
140
1.0
102
RTVSPost2010PropOp39
 70
     1
102
RTVSPost2010Prop40
 90
        0
102
RTVSPost2010PropOp40
 70
     1
102
RTVSPost2010Prop41ColorIndex
 90
       18
102
RTVSPost2010Prop41ColorRGB
 90
        0
102
RTVSPost2010PropOp41
 70
     1
102
RTVSPost2010Prop42
 90
       50
102
RTVSPost2010PropOp42
 70
     1
102
RTVSPost2010Prop43
 90
        3
102
RTVSPost2010PropOp43
 70
     1
102
RTVSPost2010Prop44ColorIndex
 90
        5
102
RTVSPost2010Prop44ColorRGB
 90
      255
102
RTVSPost2010PropOp44
 70
     1
102
RTVSPost2010Prop45
280
     0
102
RTVSPost2010PropOp45
 70
     1
102
RTVSPost2010Prop46
 90
       50
102
RTVSPost2010PropOp46
 70
     1
102
RTVSPost2010Prop47
 90
       50
102
RTVSPost2010PropOp47
 70
     1
102
RTVSPost2010Prop48
 90
       50
102
RTVSPost2010PropOp48
 70
     1
102
RTVSPost2010Prop49
280
     0
102
RTVSPost2010PropOp49
 70
     1
102
RTVSPost2010Prop50
 90
       50
102
RTVSPost2010PropOp50
 70
     1
102
RTVSPost2010Prop51ColorIndex
 90
      256
102
RTVSPost2010Prop51ColorRGB
 90
-16777216
102
RTVSPost2010PropOp51
 70
     0
102
RTVSPost2010Prop52
140
1.0
102
RTVSPost2010PropOp52
 70
     0
102
RTVSPost2010Prop53
 90
        2
102
RTVSPost2010PropOp53
 70
     1
102
RTVSPost2010Prop54
  1
strokes_ogs.tif
102
RTVSPost2010PropOp54
 70
     1
102
RTVSPost2010Prop55
280
     0
102
RTVSPost2010PropOp55
 70
     1
102
RTVSPost2010Prop56
140
1.0
102
RTVSPost2010PropOp56
 70
     1
102
RTVSPost2010Prop57
140
1.0
102
RTVSPost2010PropOp57
 70
     1
  0
XRECORD
  5
9E
102
{ACAD_REACTORS
330
9D
102
}
330
9D
100
AcDbXrecord
280
     1
102
RTVSPropertyOp0
 70
     1
102
RTVSPropertyOp1
 70
     1
102
RTVSPropertyOp2
 70
     1
102
RTVSPropertyOp3
 70
     1
102
RTVSPropertyOp4
 70
     1
102
RTVSPropertyOp5
 70
     1
102
RTVSPropertyOp6
 70
     1
102
RTVSPropertyOp7
 70
     1
102
RTVSPropertyOp8
 70
     1
102
RTVSPropertyOp9
 70
     1
102
RTVSPropertyOp10
 70
     1
102
RTVSPropertyOp11
 70
     1
102
RTVSPropertyOp12
 70
     1
102
RTVSPropertyOp13
 70
     1
102
RTVSPropertyOp14
 70
     1
102
RTVSPropertyOp15
 70
     1
102
RTVSPropertyOp16
 70
     1
102
RTVSPropertyOp17
 70
     1
102
RTVSPropertyOp18
 70
     1
102
RTVSPropertyOp19
 70
     1
102
RTVSPropertyOp20
 70
     1
102
RTVSPropertyOp21
 70
     1
102
RTVSPropertyOp22
 70
     1
102
RTVSPropertyOp23
 70
     1
102
RTVSPropertyOp24
 70
     1
102
RTVSPropertyOp25
 70
     1
102
RTVSPropertyOp26
 70
     1
102
RTVSPropertyOp27
 70
     1
102
RTVSPropertyOp28
 70
     1
102
RTVSPropertyOp29
 70
     1
102
RTVSPropertyOp30
 70
     1
102
RTVSPropertyOp31
 70
     1
102
RTVSPropertyOp32
 70
     1
102
RTVSPropertyOp33
 70
     1
102
RTVSPropertyOp34
 70
     1
102
RTVSPropertyOp35
 70
     1
102
RTVSPropertyOp36
 70
     1
102
RTVSPropertyOp37
 70
     1
102
RTVSPropertyOp38
 70
     1
102
RTVSPropertyOp39
 70
     1
102
RTVSPropertyOp40
 70
     1
102
RTVSPropertyOp41
 70
     1
102
RTVSPropertyOp42
 70
     1
102
RTVSPropertyOp43
 70
     1
102
RTVSPropertyOp44
 70
     1
102
RTVSPropertyOp45
 70
     1
102
RTVSPropertyOp46
 70
     1
102
RTVSPropertyOp47
 70
     1
102
RTVSPropertyOp48
 70
     1
102
RTVSPropertyOp49
 70
     1
102
RTVSPropertyOp50
 70
     1
102
RTVSPropertyOp51
 70
     0
102
RTVSPropertyOp52
 70
     0
102
RTVSPropertyOp53
 70
     1
102
RTVSPropertyOp54
 70
     1
102
RTVSPropertyOp55
 70
     1
102
RTVSPropertyOp56
 70
     1
102
RTVSPropertyOp57
 70
     1
102
RTVSPost2010Prop28
280
     0
102
RTVSPost2010PropOp28
 70
     1
102
RTVSPost2010Prop29
280
     1
102
RTVSPost2010PropOp29
 70
     1
102
RTVSPost2010Prop30
280
     1
102
RTVSPost2010PropOp30
 70
     1
102
RTVSPost2010Prop31
280
     0
102
RTVSPost2010PropOp31
 70
     1
102
RTVSPost2010Prop32
280
     0
102
RTVSPost2010PropOp32
 70
     1
102
RTVSPost2010Prop33
280
     0
102
RTVSPost2010PropOp33
 70
     1
102
RTVSPost2010Prop34
280
     0
102
RTVSPost2010PropOp34
 70
     1
102
RTVSPost2010Prop35
280
     0
102
RTVSPost2010PropOp35
 70
     1
102
RTVSPost2010Prop36
280
     0
102
RTVSPost2010PropOp36
 70
     1
102
RTVSPost2010Prop37
 90
       50
102
RTVSPost2010PropOp37
 70
     1
102
RTVSPost2010Prop38
140
0.0
102
RTVSPost2010PropOp38
 70
     1
102
RTVSPost2010Prop39
140
1.0
102
RTVSPost2010PropOp39
 70
     1
102
RTVSPost2010Prop40
 90
        0
102
RTVSPost2010PropOp40
 70
     1
102
RTVSPost2010Prop41ColorIndex
 90
       18
102
RTVSPost2010Prop41ColorRGB
 90
        0
102
RTVSPost2010PropOp41
 70
     1
102
RTVSPost2010Prop42
 90
       50
102
RTVSPost2010PropOp42
 70
     1
102
RTVSPost2010Prop43
 90
        3
102
RTVSPost2010PropOp43
 70
     1
102
RTVSPost2010Prop44ColorIndex
 90
        5
102
RTVSPost2010Prop44ColorRGB
 90
      255
102
RTVSPost2010PropOp44
 70
     1
102
RTVSPost2010Prop45
280
     0
102
RTVSPost2010PropOp45
 70
     1
102
RTVSPost2010Prop46
 90
       50
102
RTVSPost2010PropOp46
 70
     1
102
RTVSPost2010Prop47
 90
       50
102
RTVSPost2010PropOp47
 70
     1
102
RTVSPost2010Prop48
 90
       50
102
RTVSPost2010PropOp48
 70
     1
102
RTVSPost2010Prop49
280
     0
102
RTVSPost2010PropOp49
 70
     1
102
RTVSPost2010Prop50
 90
       50
102
RTVSPost2010PropOp50
 70
     1
102
RTVSPost2010Prop51ColorIndex
 90
      256
102
RTVSPost2010Prop51ColorRGB
 90
-16777216
102
RTVSPost2010PropOp51
 70
     0
102
RTVSPost2010Prop52
140
1.0
102
RTVSPost2010PropOp52
 70
     0
102
RTVSPost2010Prop53
 90
        2
102
RTVSPost2010PropOp53
 70
     1
102
RTVSPost2010Prop54
  1
strokes_ogs.tif
102
RTVSPost2010PropOp54
 70
     1
102
RTVSPost2010Prop55
280
     0
102
RTVSPost2010PropOp55
 70
     1
102
RTVSPost2010Prop56
140
1.0
102
RTVSPost2010PropOp56
 70
     1
102
RTVSPost2010Prop57
140
1.0
102
RTVSPost2010PropOp57
 70
     1
  0
XRECORD
  5
B2
102
{ACAD_REACTORS
330
B1
102
}
330
B1
100
AcDbXrecord
280
     1
102
RTVSPropertyOp0
 70
     0
102
RTVSPropertyOp1
 70
     0
102
RTVSPropertyOp2
 70
     0
102
RTVSPropertyOp3
 70
     0
102
RTVSPropertyOp4
 70
     0
102
RTVSPropertyOp5
 70
     0
102
RTVSPropertyOp6
 70
     0
102
RTVSPropertyOp7
 70
     0
102
RTVSPropertyOp8
 70
     0
102
RTVSPropertyOp9
 70
     0
102
RTVSPropertyOp10
 70
     0
102
RTVSPropertyOp11
 70
     0
102
RTVSPropertyOp12
 70
     0
102
RTVSPropertyOp13
 70
     0
102
RTVSPropertyOp14
 70
     2
102
RTVSPropertyOp15
 70
     0
102
RTVSPropertyOp16
 70
     0
102
RTVSPropertyOp17
 70
     0
102
RTVSPropertyOp18
 70
     0
102
RTVSPropertyOp19
 70
     0
102
RTVSPropertyOp20
 70
     0
102
RTVSPropertyOp21
 70
     0
102
RTVSPropertyOp22
 70
     0
102
RTVSPropertyOp23
 70
     0
102
RTVSPropertyOp24
 70
     0
102
RTVSPropertyOp25
 70
     0
102
RTVSPropertyOp26
 70
     0
102
RTVSPropertyOp27
 70
     0
102
RTVSPropertyOp28
 70
     0
102
RTVSPropertyOp29
 70
     0
102
RTVSPropertyOp30
 70
     0
102
RTVSPropertyOp31
 70
     0
102
RTVSPropertyOp32
 70
     0
102
RTVSPropertyOp33
 70
     0
102
RTVSPropertyOp34
 70
     0
102
RTVSPropertyOp35
 70
     0
102
RTVSPropertyOp36
 70
     0
102
RTVSPropertyOp37
 70
     0
102
RTVSPropertyOp38
 70
     0
102
RTVSPropertyOp39
 70
     0
102
RTVSPropertyOp40
 70
     0
102
RTVSPropertyOp41
 70
     0
102
RTVSPropertyOp42
 70
     0
102
RTVSPropertyOp43
 70
     0
102
RTVSPropertyOp44
 70
     0
102
RTVSPropertyOp45
 70
     0
102
RTVSPropertyOp46
 70
     0
102
RTVSPropertyOp47
 70
     0
102
RTVSPropertyOp48
 70
     0
102
RTVSPropertyOp49
 70
     0
102
RTVSPropertyOp50
 70
     0
102
RTVSPropertyOp51
 70
     0
102
RTVSPropertyOp52
 70
     0
102
RTVSPropertyOp53
 70
     0
102
RTVSPropertyOp54
 70
     0
102
RTVSPropertyOp55
 70
     0
102
RTVSPropertyOp56
 70
     0
102
RTVSPropertyOp57
 70
     0
102
RTVSPost2010Prop28
280
     0
102
RTVSPost2010PropOp28
 70
     0
102
RTVSPost2010Prop29
280
     1
102
RTVSPost2010PropOp29
 70
     0
102
RTVSPost2010Prop30
280
     1
102
RTVSPost2010PropOp30
 70
     0
102
RTVSPost2010Prop31
280
     0
102
RTVSPost2010PropOp31
 70
     0
102
RTVSPost2010Prop32
280
     0
102
RTVSPost2010PropOp32
 70
     0
102
RTVSPost2010Prop33
280
     0
102
RTVSPost2010PropOp33
 70
     0
102
RTVSPost2010Prop34
280
     0
102
RTVSPost2010PropOp34
 70
     0
102
RTVSPost2010Prop35
280
     0
102
RTVSPost2010PropOp35
 70
     0
102
RTVSPost2010Prop36
280
     0
102
RTVSPost2010PropOp36
 70
     0
102
RTVSPost2010Prop37
 90
       50
102
RTVSPost2010PropOp37
 70
     0
102
RTVSPost2010Prop38
140
0.0
102
RTVSPost2010PropOp38
 70
     0
102
RTVSPost2010Prop39
140
1.0
102
RTVSPost2010PropOp39
 70
     0
102
RTVSPost2010Prop40
 90
        0
102
RTVSPost2010PropOp40
 70
     0
102
RTVSPost2010Prop41ColorIndex
 90
       18
102
RTVSPost2010Prop41ColorRGB
 90
        0
102
RTVSPost2010PropOp41
 70
     0
102
RTVSPost2010Prop42
 90
       50
102
RTVSPost2010PropOp42
 70
     0
102
RTVSPost2010Prop43
 90
        3
102
RTVSPost2010PropOp43
 70
     0
102
RTVSPost2010Prop44ColorIndex
 90
        5
102
RTVSPost2010Prop44ColorRGB
 90
      255
102
RTVSPost2010PropOp44
 70
     0
102
RTVSPost2010Prop45
280
     0
102
RTVSPost2010PropOp45
 70
     0
102
RTVSPost2010Prop46
 90
       50
102
RTVSPost2010PropOp46
 70
     0
102
RTVSPost2010Prop47
 90
       50
102
RTVSPost2010PropOp47
 70
     0
102
RTVSPost2010Prop48
 90
       50
102
RTVSPost2010PropOp48
 70
     0
102
RTVSPost2010Prop49
280
     0
102
RTVSPost2010PropOp49
 70
     0
102
RTVSPost2010Prop50
 90
       50
102
RTVSPost2010PropOp50
 70
     0
102
RTVSPost2010Prop51ColorIndex
 90
      256
102
RTVSPost2010Prop51ColorRGB
 90
-16777216
102
RTVSPost2010PropOp51
 70
     0
102
RTVSPost2010Prop52
140
1.0
102
RTVSPost2010PropOp52
 70
     0
102
RTVSPost2010Prop53
 90
        2
102
RTVSPost2010PropOp53
 70
     0
102
RTVSPost2010Prop54
  1
strokes_ogs.tif
102
RTVSPost2010PropOp54
 70
     0
102
RTVSPost2010Prop55
280
     0
102
RTVSPost2010PropOp55
 70
     0
102
RTVSPost2010Prop56
140
1.0
102
RTVSPost2010PropOp56
 70
     0
102
RTVSPost2010Prop57
140
1.0
102
RTVSPost2010PropOp57
 70
     0
  0
XRECORD
  5
AC
102
{ACAD_REACTORS
330
AB
102
}
330
AB
100
AcDbXrecord
280
     1
102
RTVSPropertyOp0
 70
     1
102
RTVSPropertyOp1
 70
     1
102
RTVSPropertyOp2
 70
     1
102
RTVSPropertyOp3
 70
     1
102
RTVSPropertyOp4
 70
     1
102
RTVSPropertyOp5
 70
     1
102
RTVSPropertyOp6
 70
     1
102
RTVSPropertyOp7
 70
     1
102
RTVSPropertyOp8
 70
     1
102
RTVSPropertyOp9
 70
     1
102
RTVSPropertyOp10
 70
     1
102
RTVSPropertyOp11
 70
     1
102
RTVSPropertyOp12
 70
     1
102
RTVSPropertyOp13
 70
     1
102
RTVSPropertyOp14
 70
     1
102
RTVSPropertyOp15
 70
     1
102
RTVSPropertyOp16
 70
     1
102
RTVSPropertyOp17
 70
     1
102
RTVSPropertyOp18
 70
     1
102
RTVSPropertyOp19
 70
     1
102
RTVSPropertyOp20
 70
     1
102
RTVSPropertyOp21
 70
     1
102
RTVSPropertyOp22
 70
     1
102
RTVSPropertyOp23
 70
     1
102
RTVSPropertyOp24
 70
     1
102
RTVSPropertyOp25
 70
     1
102
RTVSPropertyOp26
 70
     1
102
RTVSPropertyOp27
 70
     1
102
RTVSPropertyOp28
 70
     1
102
RTVSPropertyOp29
 70
     1
102
RTVSPropertyOp30
 70
     1
102
RTVSPropertyOp31
 70
     1
102
RTVSPropertyOp32
 70
     1
102
RTVSPropertyOp33
 70
     1
102
RTVSPropertyOp34
 70
     1
102
RTVSPropertyOp35
 70
     1
102
RTVSPropertyOp36
 70
     1
102
RTVSPropertyOp37
 70
     1
102
RTVSPropertyOp38
 70
     1
102
RTVSPropertyOp39
 70
     1
102
RTVSPropertyOp40
 70
     1
102
RTVSPropertyOp41
 70
     1
102
RTVSPropertyOp42
 70
     1
102
RTVSPropertyOp43
 70
     1
102
RTVSPropertyOp44
 70
     1
102
RTVSPropertyOp45
 70
     1
102
RTVSPropertyOp46
 70
     1
102
RTVSPropertyOp47
 70
     1
102
RTVSPropertyOp48
 70
     1
102
RTVSPropertyOp49
 70
     1
102
RTVSPropertyOp50
 70
     1
102
RTVSPropertyOp51
 70
     0
102
RTVSPropertyOp52
 70
     0
102
RTVSPropertyOp53
 70
     1
102
RTVSPropertyOp54
 70
     1
102
RTVSPropertyOp55
 70
     1
102
RTVSPropertyOp56
 70
     1
102
RTVSPropertyOp57
 70
     1
102
RTVSPost2010Prop28
280
     0
102
RTVSPost2010PropOp28
 70
     1
102
RTVSPost2010Prop29
280
     1
102
RTVSPost2010PropOp29
 70
     1
102
RTVSPost2010Prop30
280
     1
102
RTVSPost2010PropOp30
 70
     1
102
RTVSPost2010Prop31
280
     0
102
RTVSPost2010PropOp31
 70
     1
102
RTVSPost2010Prop32
280
     0
102
RTVSPost2010PropOp32
 70
     1
102
RTVSPost2010Prop33
280
     0
102
RTVSPost2010PropOp33
 70
     1
102
RTVSPost2010Prop34
280
     0
102
RTVSPost2010PropOp34
 70
     1
102
RTVSPost2010Prop35
280
     0
102
RTVSPost2010PropOp35
 70
     1
102
RTVSPost2010Prop36
280
     0
102
RTVSPost2010PropOp36
 70
     1
102
RTVSPost2010Prop37
 90
       50
102
RTVSPost2010PropOp37
 70
     1
102
RTVSPost2010Prop38
140
0.0
102
RTVSPost2010PropOp38
 70
     1
102
RTVSPost2010Prop39
140
1.0
102
RTVSPost2010PropOp39
 70
     1
102
RTVSPost2010Prop40
 90
        0
102
RTVSPost2010PropOp40
 70
     1
102
RTVSPost2010Prop41ColorIndex
 90
       18
102
RTVSPost2010Prop41ColorRGB
 90
        0
102
RTVSPost2010PropOp41
 70
     1
102
RTVSPost2010Prop42
 90
       50
102
RTVSPost2010PropOp42
 70
     1
102
RTVSPost2010Prop43
 90
        3
102
RTVSPost2010PropOp43
 70
     1
102
RTVSPost2010Prop44ColorIndex
 90
        5
102
RTVSPost2010Prop44ColorRGB
 90
      255
102
RTVSPost2010PropOp44
 70
     1
102
RTVSPost2010Prop45
280
     0
102
RTVSPost2010PropOp45
 70
     1
102
RTVSPost2010Prop46
 90
       50
102
RTVSPost2010PropOp46
 70
     1
102
RTVSPost2010Prop47
 90
       50
102
RTVSPost2010PropOp47
 70
     1
102
RTVSPost2010Prop48
 90
       50
102
RTVSPost2010PropOp48
 70
     1
102
RTVSPost2010Prop49
280
     0
102
RTVSPost2010PropOp49
 70
     1
102
RTVSPost2010Prop50
 90
       50
102
RTVSPost2010PropOp50
 70
     1
102
RTVSPost2010Prop51ColorIndex
 90
      256
102
RTVSPost2010Prop51ColorRGB
 90
-16777216
102
RTVSPost2010PropOp51
 70
     0
102
RTVSPost2010Prop52
140
1.0
102
RTVSPost2010PropOp52
 70
     0
102
RTVSPost2010Prop53
 90
        2
102
RTVSPost2010PropOp53
 70
     1
102
RTVSPost2010Prop54
  1
strokes_ogs.tif
102
RTVSPost2010PropOp54
 70
     1
102
RTVSPost2010Prop55
280
     0
102
RTVSPost2010PropOp55
 70
     1
102
RTVSPost2010Prop56
140
1.0
102
RTVSPost2010PropOp56
 70
     1
102
RTVSPost2010Prop57
140
1.0
102
RTVSPost2010PropOp57
 70
     1
  0
XRECORD
  5
B4
102
{ACAD_REACTORS
330
B3
102
}
330
B3
100
AcDbXrecord
280
     1
102
RTVSPropertyOp0
 70
     0
102
RTVSPropertyOp1
 70
     0
102
RTVSPropertyOp2
 70
     0
102
RTVSPropertyOp3
 70
     0
102
RTVSPropertyOp4
 70
     0
102
RTVSPropertyOp5
 70
     0
102
RTVSPropertyOp6
 70
     0
102
RTVSPropertyOp7
 70
     0
102
RTVSPropertyOp8
 70
     0
102
RTVSPropertyOp9
 70
     0
102
RTVSPropertyOp10
 70
     0
102
RTVSPropertyOp11
 70
     0
102
RTVSPropertyOp12
 70
     0
102
RTVSPropertyOp13
 70
     0
102
RTVSPropertyOp14
 70
     2
102
RTVSPropertyOp15
 70
     0
102
RTVSPropertyOp16
 70
     0
102
RTVSPropertyOp17
 70
     0
102
RTVSPropertyOp18
 70
     0
102
RTVSPropertyOp19
 70
     0
102
RTVSPropertyOp20
 70
     0
102
RTVSPropertyOp21
 70
     0
102
RTVSPropertyOp22
 70
     0
102
RTVSPropertyOp23
 70
     0
102
RTVSPropertyOp24
 70
     0
102
RTVSPropertyOp25
 70
     0
102
RTVSPropertyOp26
 70
     0
102
RTVSPropertyOp27
 70
     0
102
RTVSPropertyOp28
 70
     0
102
RTVSPropertyOp29
 70
     0
102
RTVSPropertyOp30
 70
     0
102
RTVSPropertyOp31
 70
     0
102
RTVSPropertyOp32
 70
     0
102
RTVSPropertyOp33
 70
     0
102
RTVSPropertyOp34
 70
     0
102
RTVSPropertyOp35
 70
     0
102
RTVSPropertyOp36
 70
     0
102
RTVSPropertyOp37
 70
     0
102
RTVSPropertyOp38
 70
     0
102
RTVSPropertyOp39
 70
     0
102
RTVSPropertyOp40
 70
     0
102
RTVSPropertyOp41
 70
     0
102
RTVSPropertyOp42
 70
     0
102
RTVSPropertyOp43
 70
     0
102
RTVSPropertyOp44
 70
     0
102
RTVSPropertyOp45
 70
     0
102
RTVSPropertyOp46
 70
     0
102
RTVSPropertyOp47
 70
     0
102
RTVSPropertyOp48
 70
     0
102
RTVSPropertyOp49
 70
     0
102
RTVSPropertyOp50
 70
     0
102
RTVSPropertyOp51
 70
     0
102
RTVSPropertyOp52
 70
     0
102
RTVSPropertyOp53
 70
     0
102
RTVSPropertyOp54
 70
     0
102
RTVSPropertyOp55
 70
     0
102
RTVSPropertyOp56
 70
     0
102
RTVSPropertyOp57
 70
     0
102
RTVSPost2010Prop28
280
     0
102
RTVSPost2010PropOp28
 70
     0
102
RTVSPost2010Prop29
280
     1
102
RTVSPost2010PropOp29
 70
     0
102
RTVSPost2010Prop30
280
     1
102
RTVSPost2010PropOp30
 70
     0
102
RTVSPost2010Prop31
280
     0
102
RTVSPost2010PropOp31
 70
     0
102
RTVSPost2010Prop32
280
     0
102
RTVSPost2010PropOp32
 70
     0
102
RTVSPost2010Prop33
280
     0
102
RTVSPost2010PropOp33
 70
     0
102
RTVSPost2010Prop34
280
     0
102
RTVSPost2010PropOp34
 70
     0
102
RTVSPost2010Prop35
280
     0
102
RTVSPost2010PropOp35
 70
     0
102
RTVSPost2010Prop36
280
     0
102
RTVSPost2010PropOp36
 70
     0
102
RTVSPost2010Prop37
 90
       50
102
RTVSPost2010PropOp37
 70
     0
102
RTVSPost2010Prop38
140
0.0
102
RTVSPost2010PropOp38
 70
     0
102
RTVSPost2010Prop39
140
1.0
102
RTVSPost2010PropOp39
 70
     0
102
RTVSPost2010Prop40
 90
        0
102
RTVSPost2010PropOp40
 70
     0
102
RTVSPost2010Prop41ColorIndex
 90
       18
102
RTVSPost2010Prop41ColorRGB
 90
        0
102
RTVSPost2010PropOp41
 70
     0
102
RTVSPost2010Prop42
 90
       50
102
RTVSPost2010PropOp42
 70
     0
102
RTVSPost2010Prop43
 90
        3
102
RTVSPost2010PropOp43
 70
     0
102
RTVSPost2010Prop44ColorIndex
 90
        5
102
RTVSPost2010Prop44ColorRGB
 90
      255
102
RTVSPost2010PropOp44
 70
     0
102
RTVSPost2010Prop45
280
     0
102
RTVSPost2010PropOp45
 70
     0
102
RTVSPost2010Prop46
 90
       50
102
RTVSPost2010PropOp46
 70
     0
102
RTVSPost2010Prop47
 90
       50
102
RTVSPost2010PropOp47
 70
     0
102
RTVSPost2010Prop48
 90
       50
102
RTVSPost2010PropOp48
 70
     0
102
RTVSPost2010Prop49
280
     0
102
RTVSPost2010PropOp49
 70
     0
102
RTVSPost2010Prop50
 90
       50
102
RTVSPost2010PropOp50
 70
     0
102
RTVSPost2010Prop51ColorIndex
 90
      256
102
RTVSPost2010Prop51ColorRGB
 90
-16777216
102
RTVSPost2010PropOp51
 70
     0
102
RTVSPost2010Prop52
140
1.0
102
RTVSPost2010PropOp52
 70
     0
102
RTVSPost2010Prop53
 90
        2
102
RTVSPost2010PropOp53
 70
     0
102
RTVSPost2010Prop54
  1
strokes_ogs.tif
102
RTVSPost2010PropOp54
 70
     0
102
RTVSPost2010Prop55
280
     0
102
RTVSPost2010PropOp55
 70
     0
102
RTVSPost2010Prop56
140
1.0
102
RTVSPost2010PropOp56
 70
     0
102
RTVSPost2010Prop57
140
1.0
102
RTVSPost2010PropOp57
 70
     0
  0
XRECORD
  5
A2
102
{ACAD_REACTORS
330
A1
102
}
330
A1
100
AcDbXrecord
280
     1
102
RTVSPropertyOp0
 70
     1
102
RTVSPropertyOp1
 70
     1
102
RTVSPropertyOp2
 70
     1
102
RTVSPropertyOp3
 70
     1
102
RTVSPropertyOp4
 70
     1
102
RTVSPropertyOp5
 70
     1
102
RTVSPropertyOp6
 70
     1
102
RTVSPropertyOp7
 70
     1
102
RTVSPropertyOp8
 70
     1
102
RTVSPropertyOp9
 70
     1
102
RTVSPropertyOp10
 70
     1
102
RTVSPropertyOp11
 70
     1
102
RTVSPropertyOp12
 70
     1
102
RTVSPropertyOp13
 70
     1
102
RTVSPropertyOp14
 70
     1
102
RTVSPropertyOp15
 70
     1
102
RTVSPropertyOp16
 70
     1
102
RTVSPropertyOp17
 70
     1
102
RTVSPropertyOp18
 70
     1
102
RTVSPropertyOp19
 70
     1
102
RTVSPropertyOp20
 70
     1
102
RTVSPropertyOp21
 70
     1
102
RTVSPropertyOp22
 70
     1
102
RTVSPropertyOp23
 70
     1
102
RTVSPropertyOp24
 70
     1
102
RTVSPropertyOp25
 70
     1
102
RTVSPropertyOp26
 70
     1
102
RTVSPropertyOp27
 70
     1
102
RTVSPropertyOp28
 70
     1
102
RTVSPropertyOp29
 70
     1
102
RTVSPropertyOp30
 70
     1
102
RTVSPropertyOp31
 70
     1
102
RTVSPropertyOp32
 70
     1
102
RTVSPropertyOp33
 70
     1
102
RTVSPropertyOp34
 70
     1
102
RTVSPropertyOp35
 70
     1
102
RTVSPropertyOp36
 70
     1
102
RTVSPropertyOp37
 70
     1
102
RTVSPropertyOp38
 70
     1
102
RTVSPropertyOp39
 70
     1
102
RTVSPropertyOp40
 70
     1
102
RTVSPropertyOp41
 70
     1
102
RTVSPropertyOp42
 70
     1
102
RTVSPropertyOp43
 70
     1
102
RTVSPropertyOp44
 70
     1
102
RTVSPropertyOp45
 70
     1
102
RTVSPropertyOp46
 70
     1
102
RTVSPropertyOp47
 70
     1
102
RTVSPropertyOp48
 70
     1
102
RTVSPropertyOp49
 70
     1
102
RTVSPropertyOp50
 70
     1
102
RTVSPropertyOp51
 70
     0
102
RTVSPropertyOp52
 70
     0
102
RTVSPropertyOp53
 70
     1
102
RTVSPropertyOp54
 70
     1
102
RTVSPropertyOp55
 70
     1
102
RTVSPropertyOp56
 70
     1
102
RTVSPropertyOp57
 70
     1
102
RTVSPost2010Prop28
280
     0
102
RTVSPost2010PropOp28
 70
     1
102
RTVSPost2010Prop29
280
     1
102
RTVSPost2010PropOp29
 70
     1
102
RTVSPost2010Prop30
280
     1
102
RTVSPost2010PropOp30
 70
     1
102
RTVSPost2010Prop31
280
     0
102
RTVSPost2010PropOp31
 70
     1
102
RTVSPost2010Prop32
280
     0
102
RTVSPost2010PropOp32
 70
     1
102
RTVSPost2010Prop33
280
     0
102
RTVSPost2010PropOp33
 70
     1
102
RTVSPost2010Prop34
280
     0
102
RTVSPost2010PropOp34
 70
     1
102
RTVSPost2010Prop35
280
     0
102
RTVSPost2010PropOp35
 70
     1
102
RTVSPost2010Prop36
280
     0
102
RTVSPost2010PropOp36
 70
     1
102
RTVSPost2010Prop37
 90
       50
102
RTVSPost2010PropOp37
 70
     1
102
RTVSPost2010Prop38
140
0.0
102
RTVSPost2010PropOp38
 70
     1
102
RTVSPost2010Prop39
140
1.0
102
RTVSPost2010PropOp39
 70
     1
102
RTVSPost2010Prop40
 90
        0
102
RTVSPost2010PropOp40
 70
     1
102
RTVSPost2010Prop41ColorIndex
 90
       18
102
RTVSPost2010Prop41ColorRGB
 90
        0
102
RTVSPost2010PropOp41
 70
     1
102
RTVSPost2010Prop42
 90
       50
102
RTVSPost2010PropOp42
 70
     1
102
RTVSPost2010Prop43
 90
        3
102
RTVSPost2010PropOp43
 70
     1
102
RTVSPost2010Prop44ColorIndex
 90
        5
102
RTVSPost2010Prop44ColorRGB
 90
      255
102
RTVSPost2010PropOp44
 70
     1
102
RTVSPost2010Prop45
280
     0
102
RTVSPost2010PropOp45
 70
     1
102
RTVSPost2010Prop46
 90
       50
102
RTVSPost2010PropOp46
 70
     1
102
RTVSPost2010Prop47
 90
       50
102
RTVSPost2010PropOp47
 70
     1
102
RTVSPost2010Prop48
 90
       50
102
RTVSPost2010PropOp48
 70
     1
102
RTVSPost2010Prop49
280
     0
102
RTVSPost2010PropOp49
 70
     1
102
RTVSPost2010Prop50
 90
       50
102
RTVSPost2010PropOp50
 70
     1
102
RTVSPost2010Prop51ColorIndex
 90
      256
102
RTVSPost2010Prop51ColorRGB
 90
-16777216
102
RTVSPost2010PropOp51
 70
     0
102
RTVSPost2010Prop52
140
1.0
102
RTVSPost2010PropOp52
 70
     0
102
RTVSPost2010Prop53
 90
        2
102
RTVSPost2010PropOp53
 70
     1
102
RTVSPost2010Prop54
  1
strokes_ogs.tif
102
RTVSPost2010PropOp54
 70
     1
102
RTVSPost2010Prop55
280
     0
102
RTVSPost2010PropOp55
 70
     1
102
RTVSPost2010Prop56
140
1.0
102
RTVSPost2010PropOp56
 70
     1
102
RTVSPost2010Prop57
140
1.0
102
RTVSPost2010PropOp57
 70
     1
  0
XRECORD
  5
C0
102
{ACAD_REACTORS
330
BF
102
}
330
BF
100
AcDbXrecord
280
     1
102
RTVSPropertyOp0
 70
     1
102
RTVSPropertyOp1
 70
     1
102
RTVSPropertyOp2
 70
     1
102
RTVSPropertyOp3
 70
     1
102
RTVSPropertyOp4
 70
     1
102
RTVSPropertyOp5
 70
     1
102
RTVSPropertyOp6
 70
     1
102
RTVSPropertyOp7
 70
     1
102
RTVSPropertyOp8
 70
     1
102
RTVSPropertyOp9
 70
     1
102
RTVSPropertyOp10
 70
     1
102
RTVSPropertyOp11
 70
     1
102
RTVSPropertyOp12
 70
     1
102
RTVSPropertyOp13
 70
     1
102
RTVSPropertyOp14
 70
     1
102
RTVSPropertyOp15
 70
     1
102
RTVSPropertyOp16
 70
     1
102
RTVSPropertyOp17
 70
     1
102
RTVSPropertyOp18
 70
     1
102
RTVSPropertyOp19
 70
     1
102
RTVSPropertyOp20
 70
     1
102
RTVSPropertyOp21
 70
     1
102
RTVSPropertyOp22
 70
     1
102
RTVSPropertyOp23
 70
     1
102
RTVSPropertyOp24
 70
     1
102
RTVSPropertyOp25
 70
     1
102
RTVSPropertyOp26
 70
     1
102
RTVSPropertyOp27
 70
     1
102
RTVSPropertyOp28
 70
     1
102
RTVSPropertyOp29
 70
     1
102
RTVSPropertyOp30
 70
     1
102
RTVSPropertyOp31
 70
     1
102
RTVSPropertyOp32
 70
     1
102
RTVSPropertyOp33
 70
     1
102
RTVSPropertyOp34
 70
     1
102
RTVSPropertyOp35
 70
     1
102
RTVSPropertyOp36
 70
     1
102
RTVSPropertyOp37
 70
     1
102
RTVSPropertyOp38
 70
     1
102
RTVSPropertyOp39
 70
     1
102
RTVSPropertyOp40
 70
     1
102
RTVSPropertyOp41
 70
     1
102
RTVSPropertyOp42
 70
     1
102
RTVSPropertyOp43
 70
     1
102
RTVSPropertyOp44
 70
     1
102
RTVSPropertyOp45
 70
     1
102
RTVSPropertyOp46
 70
     1
102
RTVSPropertyOp47
 70
     1
102
RTVSPropertyOp48
 70
     1
102
RTVSPropertyOp49
 70
     1
102
RTVSPropertyOp50
 70
     1
102
RTVSPropertyOp51
 70
     0
102
RTVSPropertyOp52
 70
     0
102
RTVSPropertyOp53
 70
     1
102
RTVSPropertyOp54
 70
     1
102
RTVSPropertyOp55
 70
     1
102
RTVSPropertyOp56
 70
     1
102
RTVSPropertyOp57
 70
     1
102
RTVSPost2010Prop28
280
     0
102
RTVSPost2010PropOp28
 70
     1
102
RTVSPost2010Prop29
280
     1
102
RTVSPost2010PropOp29
 70
     1
102
RTVSPost2010Prop30
280
     1
102
RTVSPost2010PropOp30
 70
     1
102
RTVSPost2010Prop31
280
     0
102
RTVSPost2010PropOp31
 70
     1
102
RTVSPost2010Prop32
280
     0
102
RTVSPost2010PropOp32
 70
     1
102
RTVSPost2010Prop33
280
     0
102
RTVSPost2010PropOp33
 70
     1
102
RTVSPost2010Prop34
280
     0
102
RTVSPost2010PropOp34
 70
     1
102
RTVSPost2010Prop35
280
     0
102
RTVSPost2010PropOp35
 70
     1
102
RTVSPost2010Prop36
280
     0
102
RTVSPost2010PropOp36
 70
     1
102
RTVSPost2010Prop37
 90
       50
102
RTVSPost2010PropOp37
 70
     1
102
RTVSPost2010Prop38
140
0.0
102
RTVSPost2010PropOp38
 70
     1
102
RTVSPost2010Prop39
140
1.0
102
RTVSPost2010PropOp39
 70
     1
102
RTVSPost2010Prop40
 90
        0
102
RTVSPost2010PropOp40
 70
     1
102
RTVSPost2010Prop41ColorIndex
 90
       18
102
RTVSPost2010Prop41ColorRGB
 90
        0
102
RTVSPost2010PropOp41
 70
     1
102
RTVSPost2010Prop42
 90
       50
102
RTVSPost2010PropOp42
 70
     1
102
RTVSPost2010Prop43
 90
        3
102
RTVSPost2010PropOp43
 70
     1
102
RTVSPost2010Prop44ColorIndex
 90
        5
102
RTVSPost2010Prop44ColorRGB
 90
      255
102
RTVSPost2010PropOp44
 70
     1
102
RTVSPost2010Prop45
280
     0
102
RTVSPost2010PropOp45
 70
     1
102
RTVSPost2010Prop46
 90
       50
102
RTVSPost2010PropOp46
 70
     1
102
RTVSPost2010Prop47
 90
       50
102
RTVSPost2010PropOp47
 70
     1
102
RTVSPost2010Prop48
 90
       50
102
RTVSPost2010PropOp48
 70
     1
102
RTVSPost2010Prop49
280
     0
102
RTVSPost2010PropOp49
 70
     1
102
RTVSPost2010Prop50
 90
       50
102
RTVSPost2010PropOp50
 70
     1
102
RTVSPost2010Prop51ColorIndex
 90
      256
102
RTVSPost2010Prop51ColorRGB
 90
-16777216
102
RTVSPost2010PropOp51
 70
     0
102
RTVSPost2010Prop52
140
1.0
102
RTVSPost2010PropOp52
 70
     0
102
RTVSPost2010Prop53
 90
        2
102
RTVSPost2010PropOp53
 70
     1
102
RTVSPost2010Prop54
  1
strokes_ogs.tif
102
RTVSPost2010PropOp54
 70
     1
102
RTVSPost2010Prop55
280
     0
102
RTVSPost2010PropOp55
 70
     1
102
RTVSPost2010Prop56
140
1.0
102
RTVSPost2010PropOp56
 70
     1
102
RTVSPost2010Prop57
140
1.0
102
RTVSPost2010PropOp57
 70
     1
  0
XRECORD
  5
BE
102
{ACAD_REACTORS
330
BD
102
}
330
BD
100
AcDbXrecord
280
     1
102
RTVSPropertyOp0
 70
     1
102
RTVSPropertyOp1
 70
     1
102
RTVSPropertyOp2
 70
     1
102
RTVSPropertyOp3
 70
     1
102
RTVSPropertyOp4
 70
     1
102
RTVSPropertyOp5
 70
     1
102
RTVSPropertyOp6
 70
     1
102
RTVSPropertyOp7
 70
     1
102
RTVSPropertyOp8
 70
     1
102
RTVSPropertyOp9
 70
     1
102
RTVSPropertyOp10
 70
     1
102
RTVSPropertyOp11
 70
     1
102
RTVSPropertyOp12
 70
     1
102
RTVSPropertyOp13
 70
     1
102
RTVSPropertyOp14
 70
     1
102
RTVSPropertyOp15
 70
     1
102
RTVSPropertyOp16
 70
     1
102
RTVSPropertyOp17
 70
     1
102
RTVSPropertyOp18
 70
     1
102
RTVSPropertyOp19
 70
     1
102
RTVSPropertyOp20
 70
     1
102
RTVSPropertyOp21
 70
     1
102
RTVSPropertyOp22
 70
     1
102
RTVSPropertyOp23
 70
     1
102
RTVSPropertyOp24
 70
     1
102
RTVSPropertyOp25
 70
     1
102
RTVSPropertyOp26
 70
     1
102
RTVSPropertyOp27
 70
     1
102
RTVSPropertyOp28
 70
     1
102
RTVSPropertyOp29
 70
     1
102
RTVSPropertyOp30
 70
     1
102
RTVSPropertyOp31
 70
     1
102
RTVSPropertyOp32
 70
     1
102
RTVSPropertyOp33
 70
     1
102
RTVSPropertyOp34
 70
     1
102
RTVSPropertyOp35
 70
     1
102
RTVSPropertyOp36
 70
     1
102
RTVSPropertyOp37
 70
     1
102
RTVSPropertyOp38
 70
     1
102
RTVSPropertyOp39
 70
     1
102
RTVSPropertyOp40
 70
     1
102
RTVSPropertyOp41
 70
     1
102
RTVSPropertyOp42
 70
     1
102
RTVSPropertyOp43
 70
     1
102
RTVSPropertyOp44
 70
     1
102
RTVSPropertyOp45
 70
     1
102
RTVSPropertyOp46
 70
     1
102
RTVSPropertyOp47
 70
     1
102
RTVSPropertyOp48
 70
     1
102
RTVSPropertyOp49
 70
     1
102
RTVSPropertyOp50
 70
     1
102
RTVSPropertyOp51
 70
     0
102
RTVSPropertyOp52
 70
     0
102
RTVSPropertyOp53
 70
     1
102
RTVSPropertyOp54
 70
     1
102
RTVSPropertyOp55
 70
     1
102
RTVSPropertyOp56
 70
     1
102
RTVSPropertyOp57
 70
     1
102
RTVSPost2010Prop28
280
     0
102
RTVSPost2010PropOp28
 70
     1
102
RTVSPost2010Prop29
280
     1
102
RTVSPost2010PropOp29
 70
     1
102
RTVSPost2010Prop30
280
     1
102
RTVSPost2010PropOp30
 70
     1
102
RTVSPost2010Prop31
280
     0
102
RTVSPost2010PropOp31
 70
     1
102
RTVSPost2010Prop32
280
     0
102
RTVSPost2010PropOp32
 70
     1
102
RTVSPost2010Prop33
280
     0
102
RTVSPost2010PropOp33
 70
     1
102
RTVSPost2010Prop34
280
     0
102
RTVSPost2010PropOp34
 70
     1
102
RTVSPost2010Prop35
280
     0
102
RTVSPost2010PropOp35
 70
     1
102
RTVSPost2010Prop36
280
     0
102
RTVSPost2010PropOp36
 70
     1
102
RTVSPost2010Prop37
 90
       50
102
RTVSPost2010PropOp37
 70
     1
102
RTVSPost2010Prop38
140
0.0
102
RTVSPost2010PropOp38
 70
     1
102
RTVSPost2010Prop39
140
1.0
102
RTVSPost2010PropOp39
 70
     1
102
RTVSPost2010Prop40
 90
        0
102
RTVSPost2010PropOp40
 70
     1
102
RTVSPost2010Prop41ColorIndex
 90
       18
102
RTVSPost2010Prop41ColorRGB
 90
        0
102
RTVSPost2010PropOp41
 70
     1
102
RTVSPost2010Prop42
 90
       50
102
RTVSPost2010PropOp42
 70
     1
102
RTVSPost2010Prop43
 90
        3
102
RTVSPost2010PropOp43
 70
     1
102
RTVSPost2010Prop44ColorIndex
 90
        5
102
RTVSPost2010Prop44ColorRGB
 90
      255
102
RTVSPost2010PropOp44
 70
     1
102
RTVSPost2010Prop45
280
     0
102
RTVSPost2010PropOp45
 70
     1
102
RTVSPost2010Prop46
 90
       50
102
RTVSPost2010PropOp46
 70
     1
102
RTVSPost2010Prop47
 90
       50
102
RTVSPost2010PropOp47
 70
     1
102
RTVSPost2010Prop48
 90
       50
102
RTVSPost2010PropOp48
 70
     1
102
RTVSPost2010Prop49
280
     0
102
RTVSPost2010PropOp49
 70
     1
102
RTVSPost2010Prop50
 90
       50
102
RTVSPost2010PropOp50
 70
     1
102
RTVSPost2010Prop51ColorIndex
 90
      256
102
RTVSPost2010Prop51ColorRGB
 90
-16777216
102
RTVSPost2010PropOp51
 70
     0
102
RTVSPost2010Prop52
140
1.0
102
RTVSPost2010PropOp52
 70
     0
102
RTVSPost2010Prop53
 90
        2
102
RTVSPost2010PropOp53
 70
     1
102
RTVSPost2010Prop54
  1
strokes_ogs.tif
102
RTVSPost2010PropOp54
 70
     1
102
RTVSPost2010Prop55
280
     0
102
RTVSPost2010PropOp55
 70
     1
102
RTVSPost2010Prop56
140
1.0
102
RTVSPost2010PropOp56
 70
     1
102
RTVSPost2010Prop57
140
1.0
102
RTVSPost2010PropOp57
 70
     1
  0
XRECORD
  5
B8
102
{ACAD_REACTORS
330
B7
102
}
330
B7
100
AcDbXrecord
280
     1
102
RTVSPropertyOp0
 70
     1
102
RTVSPropertyOp1
 70
     1
102
RTVSPropertyOp2
 70
     1
102
RTVSPropertyOp3
 70
     1
102
RTVSPropertyOp4
 70
     1
102
RTVSPropertyOp5
 70
     1
102
RTVSPropertyOp6
 70
     1
102
RTVSPropertyOp7
 70
     1
102
RTVSPropertyOp8
 70
     1
102
RTVSPropertyOp9
 70
     1
102
RTVSPropertyOp10
 70
     1
102
RTVSPropertyOp11
 70
     1
102
RTVSPropertyOp12
 70
     1
102
RTVSPropertyOp13
 70
     1
102
RTVSPropertyOp14
 70
     1
102
RTVSPropertyOp15
 70
     1
102
RTVSPropertyOp16
 70
     1
102
RTVSPropertyOp17
 70
     1
102
RTVSPropertyOp18
 70
     1
102
RTVSPropertyOp19
 70
     1
102
RTVSPropertyOp20
 70
     1
102
RTVSPropertyOp21
 70
     1
102
RTVSPropertyOp22
 70
     1
102
RTVSPropertyOp23
 70
     1
102
RTVSPropertyOp24
 70
     1
102
RTVSPropertyOp25
 70
     1
102
RTVSPropertyOp26
 70
     1
102
RTVSPropertyOp27
 70
     1
102
RTVSPropertyOp28
 70
     1
102
RTVSPropertyOp29
 70
     1
102
RTVSPropertyOp30
 70
     1
102
RTVSPropertyOp31
 70
     1
102
RTVSPropertyOp32
 70
     1
102
RTVSPropertyOp33
 70
     1
102
RTVSPropertyOp34
 70
     1
102
RTVSPropertyOp35
 70
     1
102
RTVSPropertyOp36
 70
     1
102
RTVSPropertyOp37
 70
     1
102
RTVSPropertyOp38
 70
     1
102
RTVSPropertyOp39
 70
     1
102
RTVSPropertyOp40
 70
     1
102
RTVSPropertyOp41
 70
     1
102
RTVSPropertyOp42
 70
     1
102
RTVSPropertyOp43
 70
     1
102
RTVSPropertyOp44
 70
     1
102
RTVSPropertyOp45
 70
     1
102
RTVSPropertyOp46
 70
     1
102
RTVSPropertyOp47
 70
     1
102
RTVSPropertyOp48
 70
     1
102
RTVSPropertyOp49
 70
     1
102
RTVSPropertyOp50
 70
     1
102
RTVSPropertyOp51
 70
     0
102
RTVSPropertyOp52
 70
     0
102
RTVSPropertyOp53
 70
     1
102
RTVSPropertyOp54
 70
     1
102
RTVSPropertyOp55
 70
     1
102
RTVSPropertyOp56
 70
     1
102
RTVSPropertyOp57
 70
     1
102
RTVSPost2010Prop28
280
     0
102
RTVSPost2010PropOp28
 70
     1
102
RTVSPost2010Prop29
280
     1
102
RTVSPost2010PropOp29
 70
     1
102
RTVSPost2010Prop30
280
     1
102
RTVSPost2010PropOp30
 70
     1
102
RTVSPost2010Prop31
280
     0
102
RTVSPost2010PropOp31
 70
     1
102
RTVSPost2010Prop32
280
     0
102
RTVSPost2010PropOp32
 70
     1
102
RTVSPost2010Prop33
280
     0
102
RTVSPost2010PropOp33
 70
     1
102
RTVSPost2010Prop34
280
     0
102
RTVSPost2010PropOp34
 70
     1
102
RTVSPost2010Prop35
280
     0
102
RTVSPost2010PropOp35
 70
     1
102
RTVSPost2010Prop36
280
     0
102
RTVSPost2010PropOp36
 70
     1
102
RTVSPost2010Prop37
 90
       50
102
RTVSPost2010PropOp37
 70
     1
102
RTVSPost2010Prop38
140
0.0
102
RTVSPost2010PropOp38
 70
     1
102
RTVSPost2010Prop39
140
1.0
102
RTVSPost2010PropOp39
 70
     1
102
RTVSPost2010Prop40
 90
        0
102
RTVSPost2010PropOp40
 70
     1
102
RTVSPost2010Prop41ColorIndex
 90
       18
102
RTVSPost2010Prop41ColorRGB
 90
        0
102
RTVSPost2010PropOp41
 70
     1
102
RTVSPost2010Prop42
 90
       50
102
RTVSPost2010PropOp42
 70
     1
102
RTVSPost2010Prop43
 90
        3
102
RTVSPost2010PropOp43
 70
     1
102
RTVSPost2010Prop44ColorIndex
 90
        5
102
RTVSPost2010Prop44ColorRGB
 90
      255
102
RTVSPost2010PropOp44
 70
     1
102
RTVSPost2010Prop45
280
     0
102
RTVSPost2010PropOp45
 70
     1
102
RTVSPost2010Prop46
 90
       50
102
RTVSPost2010PropOp46
 70
     1
102
RTVSPost2010Prop47
 90
       50
102
RTVSPost2010PropOp47
 70
     1
102
RTVSPost2010Prop48
 90
       50
102
RTVSPost2010PropOp48
 70
     1
102
RTVSPost2010Prop49
280
     0
102
RTVSPost2010PropOp49
 70
     1
102
RTVSPost2010Prop50
 90
       50
102
RTVSPost2010PropOp50
 70
     1
102
RTVSPost2010Prop51ColorIndex
 90
      256
102
RTVSPost2010Prop51ColorRGB
 90
-16777216
102
RTVSPost2010PropOp51
 70
     0
102
RTVSPost2010Prop52
140
1.0
102
RTVSPost2010PropOp52
 70
     0
102
RTVSPost2010Prop53
 90
        2
102
RTVSPost2010PropOp53
 70
     1
102
RTVSPost2010Prop54
  1
strokes_ogs.tif
102
RTVSPost2010PropOp54
 70
     1
102
RTVSPost2010Prop55
280
     0
102
RTVSPost2010PropOp55
 70
     1
102
RTVSPost2010Prop56
140
1.0
102
RTVSPost2010PropOp56
 70
     1
102
RTVSPost2010Prop57
140
1.0
102
RTVSPost2010PropOp57
 70
     1
  0
XRECORD
  5
BA
102
{ACAD_REACTORS
330
B9
102
}
330
B9
100
AcDbXrecord
280
     1
102
RTVSPropertyOp0
 70
     1
102
RTVSPropertyOp1
 70
     1
102
RTVSPropertyOp2
 70
     1
102
RTVSPropertyOp3
 70
     1
102
RTVSPropertyOp4
 70
     1
102
RTVSPropertyOp5
 70
     1
102
RTVSPropertyOp6
 70
     1
102
RTVSPropertyOp7
 70
     1
102
RTVSPropertyOp8
 70
     1
102
RTVSPropertyOp9
 70
     1
102
RTVSPropertyOp10
 70
     1
102
RTVSPropertyOp11
 70
     1
102
RTVSPropertyOp12
 70
     1
102
RTVSPropertyOp13
 70
     1
102
RTVSPropertyOp14
 70
     1
102
RTVSPropertyOp15
 70
     1
102
RTVSPropertyOp16
 70
     1
102
RTVSPropertyOp17
 70
     1
102
RTVSPropertyOp18
 70
     1
102
RTVSPropertyOp19
 70
     1
102
RTVSPropertyOp20
 70
     1
102
RTVSPropertyOp21
 70
     1
102
RTVSPropertyOp22
 70
     1
102
RTVSPropertyOp23
 70
     1
102
RTVSPropertyOp24
 70
     1
102
RTVSPropertyOp25
 70
     1
102
RTVSPropertyOp26
 70
     1
102
RTVSPropertyOp27
 70
     1
102
RTVSPropertyOp28
 70
     1
102
RTVSPropertyOp29
 70
     1
102
RTVSPropertyOp30
 70
     1
102
RTVSPropertyOp31
 70
     1
102
RTVSPropertyOp32
 70
     1
102
RTVSPropertyOp33
 70
     1
102
RTVSPropertyOp34
 70
     1
102
RTVSPropertyOp35
 70
     1
102
RTVSPropertyOp36
 70
     1
102
RTVSPropertyOp37
 70
     1
102
RTVSPropertyOp38
 70
     1
102
RTVSPropertyOp39
 70
     1
102
RTVSPropertyOp40
 70
     1
102
RTVSPropertyOp41
 70
     1
102
RTVSPropertyOp42
 70
     1
102
RTVSPropertyOp43
 70
     1
102
RTVSPropertyOp44
 70
     1
102
RTVSPropertyOp45
 70
     1
102
RTVSPropertyOp46
 70
     1
102
RTVSPropertyOp47
 70
     1
102
RTVSPropertyOp48
 70
     1
102
RTVSPropertyOp49
 70
     1
102
RTVSPropertyOp50
 70
     1
102
RTVSPropertyOp51
 70
     0
102
RTVSPropertyOp52
 70
     0
102
RTVSPropertyOp53
 70
     1
102
RTVSPropertyOp54
 70
     1
102
RTVSPropertyOp55
 70
     1
102
RTVSPropertyOp56
 70
     1
102
RTVSPropertyOp57
 70
     1
102
RTVSPost2010Prop28
280
     0
102
RTVSPost2010PropOp28
 70
     1
102
RTVSPost2010Prop29
280
     1
102
RTVSPost2010PropOp29
 70
     1
102
RTVSPost2010Prop30
280
     1
102
RTVSPost2010PropOp30
 70
     1
102
RTVSPost2010Prop31
280
     0
102
RTVSPost2010PropOp31
 70
     1
102
RTVSPost2010Prop32
280
     0
102
RTVSPost2010PropOp32
 70
     1
102
RTVSPost2010Prop33
280
     0
102
RTVSPost2010PropOp33
 70
     1
102
RTVSPost2010Prop34
280
     0
102
RTVSPost2010PropOp34
 70
     1
102
RTVSPost2010Prop35
280
     0
102
RTVSPost2010PropOp35
 70
     1
102
RTVSPost2010Prop36
280
     0
102
RTVSPost2010PropOp36
 70
     1
102
RTVSPost2010Prop37
 90
       50
102
RTVSPost2010PropOp37
 70
     1
102
RTVSPost2010Prop38
140
0.0
102
RTVSPost2010PropOp38
 70
     1
102
RTVSPost2010Prop39
140
1.0
102
RTVSPost2010PropOp39
 70
     1
102
RTVSPost2010Prop40
 90
        0
102
RTVSPost2010PropOp40
 70
     1
102
RTVSPost2010Prop41ColorIndex
 90
       18
102
RTVSPost2010Prop41ColorRGB
 90
        0
102
RTVSPost2010PropOp41
 70
     1
102
RTVSPost2010Prop42
 90
       50
102
RTVSPost2010PropOp42
 70
     1
102
RTVSPost2010Prop43
 90
        3
102
RTVSPost2010PropOp43
 70
     1
102
RTVSPost2010Prop44ColorIndex
 90
        5
102
RTVSPost2010Prop44ColorRGB
 90
      255
102
RTVSPost2010PropOp44
 70
     1
102
RTVSPost2010Prop45
280
     0
102
RTVSPost2010PropOp45
 70
     1
102
RTVSPost2010Prop46
 90
       50
102
RTVSPost2010PropOp46
 70
     1
102
RTVSPost2010Prop47
 90
       50
102
RTVSPost2010PropOp47
 70
     1
102
RTVSPost2010Prop48
 90
       50
102
RTVSPost2010PropOp48
 70
     1
102
RTVSPost2010Prop49
280
     0
102
RTVSPost2010PropOp49
 70
     1
102
RTVSPost2010Prop50
 90
       50
102
RTVSPost2010PropOp50
 70
     1
102
RTVSPost2010Prop51ColorIndex
 90
      256
102
RTVSPost2010Prop51ColorRGB
 90
-16777216
102
RTVSPost2010PropOp51
 70
     0
102
RTVSPost2010Prop52
140
1.0
102
RTVSPost2010PropOp52
 70
     0
102
RTVSPost2010Prop53
 90
        2
102
RTVSPost2010PropOp53
 70
     1
102
RTVSPost2010Prop54
  1
strokes_ogs.tif
102
RTVSPost2010PropOp54
 70
     1
102
RTVSPost2010Prop55
280
     0
102
RTVSPost2010PropOp55
 70
     1
102
RTVSPost2010Prop56
140
1.0
102
RTVSPost2010PropOp56
 70
     1
102
RTVSPost2010Prop57
140
1.0
102
RTVSPost2010PropOp57
 70
     1
  0
XRECORD
  5
AA
102
{ACAD_REACTORS
330
A9
102
}
330
A9
100
AcDbXrecord
280
     1
102
RTVSPropertyOp0
 70
     1
102
RTVSPropertyOp1
 70
     1
102
RTVSPropertyOp2
 70
     1
102
RTVSPropertyOp3
 70
     1
102
RTVSPropertyOp4
 70
     1
102
RTVSPropertyOp5
 70
     1
102
RTVSPropertyOp6
 70
     1
102
RTVSPropertyOp7
 70
     1
102
RTVSPropertyOp8
 70
     1
102
RTVSPropertyOp9
 70
     1
102
RTVSPropertyOp10
 70
     1
102
RTVSPropertyOp11
 70
     1
102
RTVSPropertyOp12
 70
     1
102
RTVSPropertyOp13
 70
     1
102
RTVSPropertyOp14
 70
     1
102
RTVSPropertyOp15
 70
     1
102
RTVSPropertyOp16
 70
     1
102
RTVSPropertyOp17
 70
     1
102
RTVSPropertyOp18
 70
     1
102
RTVSPropertyOp19
 70
     1
102
RTVSPropertyOp20
 70
     1
102
RTVSPropertyOp21
 70
     1
102
RTVSPropertyOp22
 70
     1
102
RTVSPropertyOp23
 70
     1
102
RTVSPropertyOp24
 70
     1
102
RTVSPropertyOp25
 70
     1
102
RTVSPropertyOp26
 70
     1
102
RTVSPropertyOp27
 70
     1
102
RTVSPropertyOp28
 70
     1
102
RTVSPropertyOp29
 70
     1
102
RTVSPropertyOp30
 70
     1
102
RTVSPropertyOp31
 70
     1
102
RTVSPropertyOp32
 70
     1
102
RTVSPropertyOp33
 70
     1
102
RTVSPropertyOp34
 70
     1
102
RTVSPropertyOp35
 70
     1
102
RTVSPropertyOp36
 70
     1
102
RTVSPropertyOp37
 70
     1
102
RTVSPropertyOp38
 70
     1
102
RTVSPropertyOp39
 70
     1
102
RTVSPropertyOp40
 70
     1
102
RTVSPropertyOp41
 70
     1
102
RTVSPropertyOp42
 70
     1
102
RTVSPropertyOp43
 70
     1
102
RTVSPropertyOp44
 70
     1
102
RTVSPropertyOp45
 70
     1
102
RTVSPropertyOp46
 70
     1
102
RTVSPropertyOp47
 70
     1
102
RTVSPropertyOp48
 70
     1
102
RTVSPropertyOp49
 70
     1
102
RTVSPropertyOp50
 70
     1
102
RTVSPropertyOp51
 70
     0
102
RTVSPropertyOp52
 70
     0
102
RTVSPropertyOp53
 70
     1
102
RTVSPropertyOp54
 70
     1
102
RTVSPropertyOp55
 70
     1
102
RTVSPropertyOp56
 70
     1
102
RTVSPropertyOp57
 70
     1
102
RTVSPost2010Prop28
280
     0
102
RTVSPost2010PropOp28
 70
     1
102
RTVSPost2010Prop29
280
     1
102
RTVSPost2010PropOp29
 70
     1
102
RTVSPost2010Prop30
280
     1
102
RTVSPost2010PropOp30
 70
     1
102
RTVSPost2010Prop31
280
     0
102
RTVSPost2010PropOp31
 70
     1
102
RTVSPost2010Prop32
280
     0
102
RTVSPost2010PropOp32
 70
     1
102
RTVSPost2010Prop33
280
     0
102
RTVSPost2010PropOp33
 70
     1
102
RTVSPost2010Prop34
280
     0
102
RTVSPost2010PropOp34
 70
     1
102
RTVSPost2010Prop35
280
     0
102
RTVSPost2010PropOp35
 70
     1
102
RTVSPost2010Prop36
280
     0
102
RTVSPost2010PropOp36
 70
     1
102
RTVSPost2010Prop37
 90
       50
102
RTVSPost2010PropOp37
 70
     1
102
RTVSPost2010Prop38
140
0.0
102
RTVSPost2010PropOp38
 70
     1
102
RTVSPost2010Prop39
140
1.0
102
RTVSPost2010PropOp39
 70
     1
102
RTVSPost2010Prop40
 90
        0
102
RTVSPost2010PropOp40
 70
     1
102
RTVSPost2010Prop41ColorIndex
 90
       18
102
RTVSPost2010Prop41ColorRGB
 90
        0
102
RTVSPost2010PropOp41
 70
     1
102
RTVSPost2010Prop42
 90
       50
102
RTVSPost2010PropOp42
 70
     1
102
RTVSPost2010Prop43
 90
        3
102
RTVSPost2010PropOp43
 70
     1
102
RTVSPost2010Prop44ColorIndex
 90
        5
102
RTVSPost2010Prop44ColorRGB
 90
      255
102
RTVSPost2010PropOp44
 70
     1
102
RTVSPost2010Prop45
280
     0
102
RTVSPost2010PropOp45
 70
     1
102
RTVSPost2010Prop46
 90
       50
102
RTVSPost2010PropOp46
 70
     1
102
RTVSPost2010Prop47
 90
       50
102
RTVSPost2010PropOp47
 70
     1
102
RTVSPost2010Prop48
 90
       50
102
RTVSPost2010PropOp48
 70
     1
102
RTVSPost2010Prop49
280
     0
102
RTVSPost2010PropOp49
 70
     1
102
RTVSPost2010Prop50
 90
       50
102
RTVSPost2010PropOp50
 70
     1
102
RTVSPost2010Prop51ColorIndex
 90
      256
102
RTVSPost2010Prop51ColorRGB
 90
-16777216
102
RTVSPost2010PropOp51
 70
     0
102
RTVSPost2010Prop52
140
1.0
102
RTVSPost2010PropOp52
 70
     0
102
RTVSPost2010Prop53
 90
        2
102
RTVSPost2010PropOp53
 70
     1
102
RTVSPost2010Prop54
  1
strokes_ogs.tif
102
RTVSPost2010PropOp54
 70
     1
102
RTVSPost2010Prop55
280
     0
102
RTVSPost2010PropOp55
 70
     1
102
RTVSPost2010Prop56
140
1.0
102
RTVSPost2010PropOp56
 70
     1
102
RTVSPost2010Prop57
140
1.0
102
RTVSPost2010PropOp57
 70
     1
  0
XRECORD
  5
9C
102
{ACAD_REACTORS
330
9B
102
}
330
9B
100
AcDbXrecord
280
     1
102
RTVSPropertyOp0
 70
     1
102
RTVSPropertyOp1
 70
     1
102
RTVSPropertyOp2
 70
     1
102
RTVSPropertyOp3
 70
     1
102
RTVSPropertyOp4
 70
     1
102
RTVSPropertyOp5
 70
     1
102
RTVSPropertyOp6
 70
     1
102
RTVSPropertyOp7
 70
     1
102
RTVSPropertyOp8
 70
     1
102
RTVSPropertyOp9
 70
     1
102
RTVSPropertyOp10
 70
     1
102
RTVSPropertyOp11
 70
     1
102
RTVSPropertyOp12
 70
     1
102
RTVSPropertyOp13
 70
     1
102
RTVSPropertyOp14
 70
     1
102
RTVSPropertyOp15
 70
     1
102
RTVSPropertyOp16
 70
     1
102
RTVSPropertyOp17
 70
     1
102
RTVSPropertyOp18
 70
     1
102
RTVSPropertyOp19
 70
     1
102
RTVSPropertyOp20
 70
     1
102
RTVSPropertyOp21
 70
     1
102
RTVSPropertyOp22
 70
     1
102
RTVSPropertyOp23
 70
     1
102
RTVSPropertyOp24
 70
     1
102
RTVSPropertyOp25
 70
     1
102
RTVSPropertyOp26
 70
     1
102
RTVSPropertyOp27
 70
     1
102
RTVSPropertyOp28
 70
     1
102
RTVSPropertyOp29
 70
     1
102
RTVSPropertyOp30
 70
     1
102
RTVSPropertyOp31
 70
     1
102
RTVSPropertyOp32
 70
     1
102
RTVSPropertyOp33
 70
     1
102
RTVSPropertyOp34
 70
     1
102
RTVSPropertyOp35
 70
     1
102
RTVSPropertyOp36
 70
     1
102
RTVSPropertyOp37
 70
     1
102
RTVSPropertyOp38
 70
     1
102
RTVSPropertyOp39
 70
     1
102
RTVSPropertyOp40
 70
     1
102
RTVSPropertyOp41
 70
     1
102
RTVSPropertyOp42
 70
     1
102
RTVSPropertyOp43
 70
     1
102
RTVSPropertyOp44
 70
     1
102
RTVSPropertyOp45
 70
     1
102
RTVSPropertyOp46
 70
     1
102
RTVSPropertyOp47
 70
     1
102
RTVSPropertyOp48
 70
     1
102
RTVSPropertyOp49
 70
     1
102
RTVSPropertyOp50
 70
     1
102
RTVSPropertyOp51
 70
     0
102
RTVSPropertyOp52
 70
     0
102
RTVSPropertyOp53
 70
     1
102
RTVSPropertyOp54
 70
     1
102
RTVSPropertyOp55
 70
     1
102
RTVSPropertyOp56
 70
     1
102
RTVSPropertyOp57
 70
     1
102
RTVSPost2010Prop28
280
     0
102
RTVSPost2010PropOp28
 70
     1
102
RTVSPost2010Prop29
280
     1
102
RTVSPost2010PropOp29
 70
     1
102
RTVSPost2010Prop30
280
     1
102
RTVSPost2010PropOp30
 70
     1
102
RTVSPost2010Prop31
280
     0
102
RTVSPost2010PropOp31
 70
     1
102
RTVSPost2010Prop32
280
     0
102
RTVSPost2010PropOp32
 70
     1
102
RTVSPost2010Prop33
280
     0
102
RTVSPost2010PropOp33
 70
     1
102
RTVSPost2010Prop34
280
     0
102
RTVSPost2010PropOp34
 70
     1
102
RTVSPost2010Prop35
280
     0
102
RTVSPost2010PropOp35
 70
     1
102
RTVSPost2010Prop36
280
     0
102
RTVSPost2010PropOp36
 70
     1
102
RTVSPost2010Prop37
 90
       50
102
RTVSPost2010PropOp37
 70
     1
102
RTVSPost2010Prop38
140
0.0
102
RTVSPost2010PropOp38
 70
     1
102
RTVSPost2010Prop39
140
1.0
102
RTVSPost2010PropOp39
 70
     1
102
RTVSPost2010Prop40
 90
        0
102
RTVSPost2010PropOp40
 70
     1
102
RTVSPost2010Prop41ColorIndex
 90
       18
102
RTVSPost2010Prop41ColorRGB
 90
        0
102
RTVSPost2010PropOp41
 70
     1
102
RTVSPost2010Prop42
 90
       50
102
RTVSPost2010PropOp42
 70
     1
102
RTVSPost2010Prop43
 90
        3
102
RTVSPost2010PropOp43
 70
     1
102
RTVSPost2010Prop44ColorIndex
 90
        5
102
RTVSPost2010Prop44ColorRGB
 90
      255
102
RTVSPost2010PropOp44
 70
     1
102
RTVSPost2010Prop45
280
     0
102
RTVSPost2010PropOp45
 70
     1
102
RTVSPost2010Prop46
 90
       50
102
RTVSPost2010PropOp46
 70
     1
102
RTVSPost2010Prop47
 90
       50
102
RTVSPost2010PropOp47
 70
     1
102
RTVSPost2010Prop48
 90
       50
102
RTVSPost2010PropOp48
 70
     1
102
RTVSPost2010Prop49
280
     0
102
RTVSPost2010PropOp49
 70
     1
102
RTVSPost2010Prop50
 90
       50
102
RTVSPost2010PropOp50
 70
     1
102
RTVSPost2010Prop51ColorIndex
 90
      256
102
RTVSPost2010Prop51ColorRGB
 90
-16777216
102
RTVSPost2010PropOp51
 70
     0
102
RTVSPost2010Prop52
140
1.0
102
RTVSPost2010PropOp52
 70
     0
102
RTVSPost2010Prop53
 90
        2
102
RTVSPost2010PropOp53
 70
     1
102
RTVSPost2010Prop54
  1
strokes_ogs.tif
102
RTVSPost2010PropOp54
 70
     1
102
RTVSPost2010Prop55
280
     0
102
RTVSPost2010PropOp55
 70
     1
102
RTVSPost2010Prop56
140
1.0
102
RTVSPost2010PropOp56
 70
     1
102
RTVSPost2010Prop57
140
1.0
102
RTVSPost2010PropOp57
 70
     1
  0
XRECORD
  5
BC
102
{ACAD_REACTORS
330
BB
102
}
330
BB
100
AcDbXrecord
280
     1
102
RTVSPropertyOp0
 70
     1
102
RTVSPropertyOp1
 70
     1
102
RTVSPropertyOp2
 70
     1
102
RTVSPropertyOp3
 70
     1
102
RTVSPropertyOp4
 70
     1
102
RTVSPropertyOp5
 70
     1
102
RTVSPropertyOp6
 70
     1
102
RTVSPropertyOp7
 70
     1
102
RTVSPropertyOp8
 70
     1
102
RTVSPropertyOp9
 70
     1
102
RTVSPropertyOp10
 70
     1
102
RTVSPropertyOp11
 70
     1
102
RTVSPropertyOp12
 70
     1
102
RTVSPropertyOp13
 70
     1
102
RTVSPropertyOp14
 70
     1
102
RTVSPropertyOp15
 70
     1
102
RTVSPropertyOp16
 70
     1
102
RTVSPropertyOp17
 70
     1
102
RTVSPropertyOp18
 70
     1
102
RTVSPropertyOp19
 70
     1
102
RTVSPropertyOp20
 70
     1
102
RTVSPropertyOp21
 70
     1
102
RTVSPropertyOp22
 70
     1
102
RTVSPropertyOp23
 70
     1
102
RTVSPropertyOp24
 70
     1
102
RTVSPropertyOp25
 70
     1
102
RTVSPropertyOp26
 70
     1
102
RTVSPropertyOp27
 70
     1
102
RTVSPropertyOp28
 70
     1
102
RTVSPropertyOp29
 70
     1
102
RTVSPropertyOp30
 70
     1
102
RTVSPropertyOp31
 70
     1
102
RTVSPropertyOp32
 70
     1
102
RTVSPropertyOp33
 70
     1
102
RTVSPropertyOp34
 70
     1
102
RTVSPropertyOp35
 70
     1
102
RTVSPropertyOp36
 70
     1
102
RTVSPropertyOp37
 70
     1
102
RTVSPropertyOp38
 70
     1
102
RTVSPropertyOp39
 70
     1
102
RTVSPropertyOp40
 70
     1
102
RTVSPropertyOp41
 70
     1
102
RTVSPropertyOp42
 70
     1
102
RTVSPropertyOp43
 70
     1
102
RTVSPropertyOp44
 70
     1
102
RTVSPropertyOp45
 70
     1
102
RTVSPropertyOp46
 70
     1
102
RTVSPropertyOp47
 70
     1
102
RTVSPropertyOp48
 70
     1
102
RTVSPropertyOp49
 70
     1
102
RTVSPropertyOp50
 70
     1
102
RTVSPropertyOp51
 70
     0
102
RTVSPropertyOp52
 70
     0
102
RTVSPropertyOp53
 70
     1
102
RTVSPropertyOp54
 70
     1
102
RTVSPropertyOp55
 70
     1
102
RTVSPropertyOp56
 70
     1
102
RTVSPropertyOp57
 70
     1
102
RTVSPost2010Prop28
280
     0
102
RTVSPost2010PropOp28
 70
     1
102
RTVSPost2010Prop29
280
     1
102
RTVSPost2010PropOp29
 70
     1
102
RTVSPost2010Prop30
280
     1
102
RTVSPost2010PropOp30
 70
     1
102
RTVSPost2010Prop31
280
     0
102
RTVSPost2010PropOp31
 70
     1
102
RTVSPost2010Prop32
280
     0
102
RTVSPost2010PropOp32
 70
     1
102
RTVSPost2010Prop33
280
     0
102
RTVSPost2010PropOp33
 70
     1
102
RTVSPost2010Prop34
280
     0
102
RTVSPost2010PropOp34
 70
     1
102
RTVSPost2010Prop35
280
     0
102
RTVSPost2010PropOp35
 70
     1
102
RTVSPost2010Prop36
280
     0
102
RTVSPost2010PropOp36
 70
     1
102
RTVSPost2010Prop37
 90
       50
102
RTVSPost2010PropOp37
 70
     1
102
RTVSPost2010Prop38
140
0.0
102
RTVSPost2010PropOp38
 70
     1
102
RTVSPost2010Prop39
140
1.0
102
RTVSPost2010PropOp39
 70
     1
102
RTVSPost2010Prop40
 90
        0
102
RTVSPost2010PropOp40
 70
     1
102
RTVSPost2010Prop41ColorIndex
 90
       18
102
RTVSPost2010Prop41ColorRGB
 90
        0
102
RTVSPost2010PropOp41
 70
     1
102
RTVSPost2010Prop42
 90
       50
102
RTVSPost2010PropOp42
 70
     1
102
RTVSPost2010Prop43
 90
        3
102
RTVSPost2010PropOp43
 70
     1
102
RTVSPost2010Prop44ColorIndex
 90
        5
102
RTVSPost2010Prop44ColorRGB
 90
      255
102
RTVSPost2010PropOp44
 70
     1
102
RTVSPost2010Prop45
280
     0
102
RTVSPost2010PropOp45
 70
     1
102
RTVSPost2010Prop46
 90
       50
102
RTVSPost2010PropOp46
 70
     1
102
RTVSPost2010Prop47
 90
       50
102
RTVSPost2010PropOp47
 70
     1
102
RTVSPost2010Prop48
 90
       50
102
RTVSPost2010PropOp48
 70
     1
102
RTVSPost2010Prop49
280
     0
102
RTVSPost2010PropOp49
 70
     1
102
RTVSPost2010Prop50
 90
       50
102
RTVSPost2010PropOp50
 70
     1
102
RTVSPost2010Prop51ColorIndex
 90
      256
102
RTVSPost2010Prop51ColorRGB
 90
-16777216
102
RTVSPost2010PropOp51
 70
     0
102
RTVSPost2010Prop52
140
1.0
102
RTVSPost2010PropOp52
 70
     0
102
RTVSPost2010Prop53
 90
        2
102
RTVSPost2010PropOp53
 70
     1
102
RTVSPost2010Prop54
  1
strokes_ogs.tif
102
RTVSPost2010PropOp54
 70
     1
102
RTVSPost2010Prop55
280
     0
102
RTVSPost2010PropOp55
 70
     1
102
RTVSPost2010Prop56
140
1.0
102
RTVSPost2010PropOp56
 70
     1
102
RTVSPost2010Prop57
140
1.0
102
RTVSPost2010PropOp57
 70
     1
  0
ENDSEC
  0
EOF
