0
SECTION
2
HEADER
9
$INSUNITS
70
4
9
$ACADVER
1
AC1014
9
$HANDSEED
5
FFFF
0
ENDSEC
0
SECTION
2
TABLES
0
TABLE
2
VPORT
5
8
100
AcDbSymbolTable
0
ENDTAB
0
TABLE
2
LTYPE
5
5
100
AcDbSymbolTable
0
LTYPE
5
14
100
AcDbSymbolTableRecord
100
AcDbLinetypeTableRecord
2
BYBLOCK
70
0
0
LTYPE
5
15
100
AcDbSymbolTableRecord
100
AcDbLinetypeTableRecord
2
BYLAYER
70
0
0
ENDTAB
0
TABLE
2
LAYER
5
2
100
AcDbSymbolTable
70
2
0
LAYER
5
50
100
AcDbSymbolTableRecord
100
AcDbLayerTableRecord
2
0
70
0
6
CONTINUOUS
0
ENDTAB
0
TABLE
2
STYLE
5
3
100
AcDbSymbolTable
70
1
0
STYLE
5
11
100
AcDbSymbolTableRecord
100
AcDbTextStyleTableRecord
2
STANDARD
70
0
0
ENDTAB
0
TABLE
2
VIEW
5
6
100
AcDbSymbolTable
70
0
0
ENDTAB
0
TABLE
2
UCS
5
7
100
AcDbSymbolTable
70
0
0
ENDTAB
0
TABLE
2
APPID
5
9
100
AcDbSymbolTable
70
2
0
APPID
5
12
100
AcDbSymbolTableRecord
100
AcDbRegAppTableRecord
2
ACAD
70
0
0
ENDTAB
0
TABLE
2
DIMSTYLE
5
A
100
AcDbSymbolTable
70
1
0
ENDTAB
0
TABLE
2
BLOCK_RECORD
5
1
100
AcDbSymbolTable
70
1
0
BLOCK_RECORD
5
1F
100
AcDbSymbolTableRecord
100
AcDbBlockTableRecord
2
*MODEL_SPACE
0
BLOCK_RECORD
5
1B
100
AcDbSymbolTableRecord
100
AcDbBlockTableRecord
2
*PAPER_SPACE
0
ENDTAB
0
ENDSEC
0
SECTION
2
BLOCKS
0
BLOCK
5
20
100
AcDbEntity
100
AcDbBlockBegin
2
*MODEL_SPACE
0
ENDBLK
5
21
100
AcDbEntity
100
AcDbBlockEnd
0
BLOCK
5
1C
100
AcDbEntity
100
AcDbBlockBegin
2
*PAPER_SPACE
0
ENDBLK
5
1D
100
AcDbEntity
100
AcDbBlockEnd
0
ENDSEC
0
SECTION
2
ENTITIES
0
LWPOLYLINE
5
100
100
AcDbEntity
8
0
100
AcDbPolyline
90
4
70
1
43
0.0
10
389.22778182515879
20
52.681082620536117
10
-30.772218174841228
20
52.681082620536124
10
-30.772218174841228
20
-244.3189173794639
10
389.22778182515879
20
-244.3189173794639
0
LWPOLYLINE
5
101
100
AcDbEntity
8
0
100
AcDbPolyline
90
4
70
1
43
0.0
10
-35.772218174841228
20
362.68108262053607
10
-35.772218174841228
20
65.681082620536102
10
384.22778182515879
20
65.681082620536102
10
384.22778182515879
20
362.68108262053607
0
LWPOLYLINE
5
102
100
AcDbEntity
8
0
100
AcDbPolyline
90
4
70
1
43
0.0
10
464.22778182515879
20
362.68108262053607
10
464.22778182515879
20
65.681082620536102
10
884.2277818251589
20
65.681082620536102
10
884.2277818251589
20
362.68108262053607
0
LWPOLYLINE
5
103
100
AcDbEntity
8
0
100
AcDbPolyline
90
24
70
1
43
0.0
10
280.19999999999993
20
45
10
329.79999999999995
20
45
10
360.19999999999993
20
45
10
371.39999999999998
20
45
10
371.39999999999998
20
24.735999999999994
10
374
20
24.735999999999994
10
374
20
45
10
380
20
45
10
380
20
-45.26400000000001
10
360.19999999999993
20
-45.26400000000001
10
360.19999999999993
20
-48.664000000000001
10
329.79999999999995
20
-48.664000000000001
10
329.80000000000007
20
-45.26400000000001
10
280.20000000000005
20
-45.26400000000001
10
280.20000000000005
20
-48.664000000000001
10
249.80000000000001
20
-48.664000000000001
10
249.79999999999995
20
-45.26400000000001
10
230
20
-45.26400000000001
10
230
20
45
10
236
20
45
10
236
20
24.735999999999994
10
238.59999999999999
20
24.735999999999994
10
238.59999999999999
20
45
10
249.79999999999995
20
45
0
LWPOLYLINE
5
104
100
AcDbEntity
8
0
100
AcDbPolyline
90
4
70
1
43
0.0
10
374
20
4.7359999999999935
10
374
20
-25.264000000000006
10
371.39999999999998
20
-25.264000000000006
10
371.39999999999998
20
4.7359999999999935
0
LWPOLYLINE
5
105
100
AcDbEntity
8
0
100
AcDbPolyline
90
4
70
1
43
0.0
10
238.59999999999999
20
-25.264000000000006
10
236
20
-25.264000000000006
10
236
20
4.7359999999999935
10
238.59999999999999
20
4.7359999999999935
0
LINE
5
106
100
AcDbEntity
8
0
100
AcDbLine
10
249.80000000000001
20
-48.664000000000001
30
0
11
280.20000000000005
21
-48.664000000000001
31
0
0
LINE
5
107
100
AcDbEntity
8
0
100
AcDbLine
10
249.79999999999995
20
-45.26400000000001
30
0
11
249.80000000000001
21
-48.664000000000001
31
0
0
LINE
5
108
100
AcDbEntity
8
0
100
AcDbLine
10
280.20000000000005
20
-48.664000000000001
30
0
11
280.20000000000005
21
-45.26400000000001
31
0
0
LWPOLYLINE
5
109
100
AcDbEntity
8
0
100
AcDbPolyline
90
12
70
1
43
0.0
10
236
20
-60
10
236
20
-90
10
230
20
-90
10
230
20
-52.439999999999998
10
380
20
-52.439999999999998
10
380
20
-90
10
373.89999999999998
20
-90
10
373.89999999999998
20
-60
10
371.39999999999998
20
-60
10
371.39999999999998
20
-90
10
238.5
20
-90
10
238.5
20
-60
0
LWPOLYLINE
5
110
100
AcDbEntity
8
0
100
AcDbPolyline
90
4
70
1
43
0.0
10
361.74381086504866
20
-98.22475653980527
10
361.74381086504866
20
-100.82475653980526
10
341.74381086504866
20
-100.82475653980526
10
341.74381086504866
20
-98.22475653980527
0
LWPOLYLINE
5
111
100
AcDbEntity
8
0
100
AcDbPolyline
90
4
70
1
43
0.0
10
321.74381086504866
20
-242.2247565398053
10
321.74381086504866
20
-92.22475653980527
10
381.74381086504866
20
-92.22475653980527
10
381.74381086504866
20
-242.2247565398053
0
CIRCLE
5
112
100
AcDbEntity
8
0
100
AcDbCircle
10
351.74381086504866
20
-152.22475653980527
30
0
40
7.5000000000000071
0
CIRCLE
5
113
100
AcDbEntity
8
0
100
AcDbCircle
10
351.74381086504866
20
-182.2247565398053
30
0
40
7.5000000000000071
0
LWPOLYLINE
5
114
100
AcDbEntity
8
0
100
AcDbPolyline
90
4
70
1
43
0.0
10
341.74381086504866
20
-236.2247565398053
10
341.74381086504866
20
-233.62475653980533
10
361.74381086504866
20
-233.62475653980533
10
361.74381086504866
20
-236.2247565398053
0
SPLINE
5
115
100
AcDbEntity
8
0
100
AcDbSpline
70
1064
71
5
72
12
73
6
74
0
42
0.000000001
43
0.0000000001
44
0.0000000001
40
0.99989655735855687
40
0.99989655735855687
40
0.99989655735855687
40
0.99989655735855687
40
0.99989655735855687
40
0.99989655735855687
40
1
40
1
40
1
40
1
40
1
40
1
10
423.7578433820529
20
77.924275096445314
30
0
10
423.75623400850441
20
77.923148455527581
30
0
10
423.75462465288371
20
77.922021763519851
30
0
10
423.75301531519074
20
77.92089502042208
30
0
10
423.75140599542544
20
77.919768226234268
30
0
10
423.74979669358794
20
77.918641380956359
30
0
0
ARC
5
116
100
AcDbEntity
8
0
100
AcDbCircle
10
791.07295616902729
20
205.7956065225942
30
0
40
15.148039408779926
100
AcDbArc
50
45.269217329121169
51
184.73078267087854
0
ARC
5
117
100
AcDbEntity
8
0
100
AcDbCircle
10
727.63141107646175
20
176.21232820074522
30
0
40
15.148039408779976
100
AcDbArc
50
45.269217329121311
51
184.73078267087831
0
LINE
5
118
100
AcDbEntity
8
0
100
AcDbLine
10
488.81933355096925
20
91.001036472794524
30
0
11
511.26020629932333
21
101.58020578137963
31
0
0
SPLINE
5
119
100
AcDbEntity
8
0
100
AcDbSpline
70
1064
71
5
72
26
73
20
74
0
42
0.000000001
43
0.0000000001
44
0.0000000001
40
0
40
0
40
0
40
0
40
0
40
0
40
0.066666666666666666
40
0.13333333333333333
40
0.20000000000000001
40
0.26666666666666666
40
0.33333333333333331
40
0.40000000000000002
40
0.46666666666666662
40
0.53333333333333333
40
0.59999999999999998
40
0.66666666666666663
40
0.73333333333333306
40
0.79999999999999982
40
0.8666666666666667
40
0.93333333333333324
40
1
40
1
40
1
40
1
40
1
40
1
10
801.35802140624082
20
232.93254385723816
30
0
10
802.04799124962176
20
232.76890405759784
30
0
10
803.3744341262643
20
232.51047666022811
30
0
10
805.20362277633478
20
232.3293776447986
30
0
10
807.31912740612916
20
232.504126018644
30
0
10
809.42601194041163
20
233.42284414642452
30
0
10
811.02261723933236
20
235.0319421190041
30
0
10
812.18845572869998
20
237.28120506597361
30
0
10
813.06406303689778
20
240.07321164923812
30
0
10
813.82071328712914
20
243.29368494690615
30
0
10
814.64046452240382
20
246.83149340633292
30
0
10
815.69261727285698
20
250.60168221543165
30
0
10
817.11298686512214
20
254.56497443596652
30
0
10
819.01106384618856
20
258.71648157330702
30
0
10
821.47444526772131
20
263.07603806049002
30
0
10
824.57207898463139
20
267.67809569292513
30
0
10
827.59882585659341
20
271.58491999391515
30
0
10
830.19259391460332
20
274.65646246702283
30
0
10
832.06735138832619
20
276.76903233050552
30
0
10
833.04112519625573
20
277.84153619615159
30
0
0
ARC
5
120
100
AcDbEntity
8
0
100
AcDbCircle
10
695.91063853017909
20
161.42068903982067
30
0
40
15.148039408779928
100
AcDbArc
50
45.269217329121844
51
184.73078267087831
0
ARC
5
121
100
AcDbEntity
8
0
100
AcDbCircle
10
759.35218362274452
20
191.00396736166974
30
0
40
15.148039408779926
100
AcDbArc
50
45.269217329121169
51
184.73078267087854
0
LINE
5
122
100
AcDbEntity
8
0
100
AcDbLine
10
700.23219852869147
20
185.77679821221093
30
0
11
706.19570376739262
21
188.55762637446472
31
0
0
LINE
5
123
100
AcDbEntity
8
0
100
AcDbLine
10
803.82440467798108
20
223.17124687020399
30
0
11
805.9858885415731
21
218.5399116005286
31
0
0
LINE
5
124
100
AcDbEntity
8
0
100
AcDbLine
10
740.5294310701571
20
193.53392715912423
30
0
11
742.64252237886058
21
189.00238822394104
31
0
0
LINE
5
125
100
AcDbEntity
8
0
100
AcDbLine
10
740.10486057515789
20
187.81905709106707
30
0
11
738.29224500108455
21
186.97382056758559
31
0
0
SPLINE
5
126
100
AcDbEntity
8
0
100
AcDbSpline
70
1064
71
5
72
16
73
10
74
0
42
0.000000001
43
0.0000000001
44
0.0000000001
40
0
40
0
40
0
40
0
40
0
40
0
40
0.20000000000000001
40
0.40000000000000002
40
0.60000000000000009
40
0.80000000000000004
40
1
40
1
40
1
40
1
40
1
40
1
10
541.62833579727771
20
111.8186024075885
30
0
10
540.1538687484026
20
111.9973134079241
30
0
10
537.20585655712296
20
112.34912788762179
30
0
10
532.78660282680551
20
112.86003411706707
30
0
10
526.90017786178282
20
113.50527436037736
30
0
10
519.55682381120789
20
114.22255046917874
30
0
10
513.70128092966968
20
114.67994960704372
30
0
10
509.32579814316489
20
114.92461789059617
30
0
10
506.4171485746615
20
115.0370081559729
30
0
10
504.96491040646112
20
115.08051139027791
30
0
0
ARC
5
127
100
AcDbEntity
8
0
100
AcDbCircle
10
632.46909343761376
20
131.83741071797175
30
0
40
15.148039408780027
100
AcDbArc
50
45.269217329121844
51
184.73078267087826
0
LINE
5
128
100
AcDbEntity
8
0
100
AcDbLine
10
803.4467118111495
20
217.35584740412452
30
0
11
801.7337900936501
21
216.55709888943451
31
0
0
LINE
5
129
100
AcDbEntity
8
0
100
AcDbLine
10
644.77600255439495
20
143.36322553591759
30
0
11
643.13126329977661
21
142.5960381675944
31
0
0
LINE
5
130
100
AcDbEntity
8
0
100
AcDbLine
10
769.5131539620354
20
207.04925910544947
30
0
11
771.62624527073899
21
202.51772017026622
31
0
0
LINE
5
131
100
AcDbEntity
8
0
100
AcDbLine
10
710.72236211942982
20
174.11777304543352
30
0
11
712.53497769350315
21
174.963009568915
31
0
0
ARC
5
132
100
AcDbEntity
8
0
100
AcDbCircle
10
629.3876107007859
20
138.44567177252972
30
0
40
19.229954616558814
100
AcDbArc
50
67.357840952921663
51
162.64215904707859
0
ARC
5
133
100
AcDbEntity
8
0
100
AcDbCircle
10
724.54992833963399
20
182.82058925530319
30
0
40
19.229954616558867
100
AcDbArc
50
67.357840952921009
51
162.64215904707837
0
LINE
5
134
100
AcDbEntity
8
0
100
AcDbLine
10
771.62624527073899
20
202.51772017026622
30
0
11
770.01301754736733
21
201.76545972851005
31
0
0
LINE
5
135
100
AcDbEntity
8
0
100
AcDbLine
10
708.60577433257095
20
178.64957040995708
30
0
11
710.72236211942982
21
174.11777304543352
31
0
0
LINE
5
136
100
AcDbEntity
8
0
100
AcDbLine
10
636.79065343612592
20
156.19351989036193
30
0
11
642.75415867482695
21
158.97434805261571
31
0
0
LINE
5
137
100
AcDbEntity
8
0
100
AcDbLine
10
763.6737436212569
20
215.36007653405977
30
0
11
769.63724885995805
21
218.14090469631364
31
0
0
SPLINE
5
138
100
AcDbEntity
8
0
100
AcDbSpline
70
1064
71
5
72
16
73
10
74
0
42
0.000000001
43
0.0000000001
44
0.0000000001
40
0
40
0
40
0
40
0
40
0
40
0
40
0.20000000000000001
40
0.40000000000000002
40
0.60000000000000009
40
0.80000000000000004
40
1
40
1
40
1
40
1
40
1
40
1
10
547.96760972338814
20
98.223985602038709
30
0
10
546.48596880027878
20
98.405306051007585
30
0
10
543.5242383529411
20
98.762474632515932
30
0
10
539.08629492178375
20
99.281817457774281
30
0
10
533.17898807971858
20
99.939173731757535
30
0
10
525.81955347834332
20
100.67374739456993
30
0
10
519.96421549785043
20
101.14779165374307
30
0
10
515.59993050754792
20
101.40731587239314
30
0
10
512.70444010826589
20
101.5308330653115
30
0
10
511.26020629932333
20
101.58020578137963
30
0
0
ARC
5
139
100
AcDbEntity
8
0
100
AcDbCircle
10
787.99147343219954
20
212.40386757715217
30
0
40
19.22995461655875
100
AcDbArc
50
67.357840952921279
51
162.64215904707865
0
LINE
5
140
100
AcDbEntity
8
0
100
AcDbLine
10
861.10782237998353
20
326.74790538030044
30
0
11
857.36004614414412
21
325.00028889795306
31
0
0
ARC
5
141
100
AcDbEntity
8
0
100
AcDbCircle
10
661.10838324706856
20
153.23731093345427
30
0
40
19.22995461655875
100
AcDbArc
50
67.357840952921251
51
162.64215904707885
0
LINE
5
142
100
AcDbEntity
8
0
100
AcDbLine
10
737.99176926645441
20
192.35059602625032
30
0
11
740.10486057515789
21
187.81905709106707
31
0
0
LINE
5
143
100
AcDbEntity
8
0
100
AcDbLine
10
862.19817735307504
20
324.40963122343715
30
0
11
861.10782237998353
21
326.74790538030044
31
0
0
LINE
5
144
100
AcDbEntity
8
0
100
AcDbLine
10
774.16390721199537
20
203.70105136728253
30
0
11
775.9765227860687
21
204.54628789076392
31
0
0
LINE
5
145
100
AcDbEntity
8
0
100
AcDbLine
10
708.18469984092235
20
172.93444169115449
30
0
11
706.57147245480178
21
172.18218140666113
31
0
0
LINE
5
146
100
AcDbEntity
8
0
100
AcDbLine
10
674.55025974398848
20
162.76725677421257
30
0
11
676.66335070038417
21
158.23571767474544
31
0
0
SPLINE
5
147
100
AcDbEntity
8
0
100
AcDbSpline
70
1064
71
5
72
16
73
10
74
0
42
0.000000001
43
0.0000000001
44
0.0000000001
40
0
40
0
40
0
40
0
40
0
40
0
40
0.20000000000000001
40
0.40000000000000002
40
0.60000000000000009
40
0.80000000000000004
40
1
40
1
40
1
40
1
40
1
40
1
10
857.36004614414412
20
325.00028889795306
30
0
10
857.27795028199057
20
325.48756300855473
30
0
10
857.08636902328362
20
326.46469596788961
30
0
10
856.71690244984416
20
327.9381426456971
30
0
10
856.08274062762894
20
329.91609525667053
30
0
10
855.13301212100771
20
332.40335451546622
30
0
10
854.29616665508081
20
334.40043429135858
30
0
10
853.63942495706453
20
335.90099099435395
30
0
10
853.18950103137024
20
336.90250363578713
30
0
10
852.96151376482101
20
337.4035454530628
30
0
0
LINE
5
148
100
AcDbEntity
8
0
100
AcDbLine
10
482.07006110584479
20
105.47474441034403
30
0
11
488.81933355096925
21
91.001036472794524
31
0
0
SPLINE
5
149
100
AcDbEntity
8
0
100
AcDbSpline
70
1064
71
5
72
21
73
15
74
0
42
0.000000001
43
0.0000000001
44
0.0000000001
40
0
40
0
40
0
40
0
40
0
40
0
40
0.10000000000000001
40
0.20000000000000001
40
0.30000000000000004
40
0.40000000000000002
40
0.5
40
0.59999999999999998
40
0.69999999999999996
40
0.79999999999999982
40
0.8999999999999998
40
1
40
1
40
1
40
1
40
1
40
1
10
825.74787723799113
20
241.96027441216867
30
0
10
826.37859863782569
20
243.96893417822741
30
0
10
827.91040326667417
20
247.89325184120293
30
0
10
831.01912181086664
20
253.50074842788445
30
0
10
836.60711876707194
20
260.48220948204403
30
0
10
845.00128894381169
20
268.73311109278757
30
0
10
853.55210078846108
20
276.94770165063949
30
0
10
861.01179438521979
20
285.56391762742913
30
0
10
866.39719140248064
20
294.92646817410753
30
0
10
869.27589022393829
20
305.18577106784397
30
0
10
869.55104820336396
20
316.3741910282489
30
0
10
867.74524119499074
20
326.04710633277301
30
0
10
865.30161182528775
20
333.68993548668703
30
0
10
863.19630433627083
20
338.95484756873714
30
0
10
862.02459163518756
20
341.62972807046981
30
0
0
LINE
5
150
100
AcDbEntity
8
0
100
AcDbLine
10
769.5131539620354
20
207.04925910544947
30
0
11
772.05081590329178
21
208.23259030246578
31
0
0
SPLINE
5
151
100
AcDbEntity
8
0
100
AcDbSpline
70
1064
71
5
72
21
73
15
74
0
42
0.000000001
43
0.0000000001
44
0.0000000001
40
0
40
0
40
0
40
0
40
0
40
0
40
0.10000000000000001
40
0.20000000000000001
40
0.30000000000000004
40
0.40000000000000002
40
0.5
40
0.59999999999999998
40
0.69999999999999996
40
0.79999999999999982
40
0.8999999999999998
40
1
40
1
40
1
40
1
40
1
40
1
10
807.69728512802703
20
219.33794893493231
30
0
10
808.30780151042882
20
219.1529864187753
30
0
10
809.5052074510096
20
218.84342081319869
30
0
10
811.23043520108479
20
218.56015244300767
30
0
10
813.38665002457117
20
218.55056492195015
30
0
10
815.82755927844221
20
219.18839193433786
30
0
10
817.99801891173604
20
220.51713635050515
30
0
10
819.88835321126714
20
222.5615167061562
30
0
10
821.51061615127992
20
225.29073872400306
30
0
10
822.88889738642081
20
228.64326058483744
30
0
10
824.04888040270089
20
232.55346870991065
30
0
10
824.81952559386878
20
236.08359468853055
30
0
10
825.31519063855296
20
238.94148906151929
30
0
10
825.6096465398947
20
240.93868911322292
30
0
10
825.74787723799113
20
241.96027441216867
30
0
0
LINE
5
152
100
AcDbEntity
8
0
100
AcDbLine
10
801.28713249365444
20
221.98708019588179
30
0
11
803.4467118111495
21
217.35584740412452
31
0
0
ARC
5
153
100
AcDbEntity
8
0
100
AcDbCircle
10
692.82915579335122
20
168.02895009437873
30
0
40
19.229954616558867
100
AcDbArc
50
67.357840952921009
51
162.64215904707874
0
LINE
5
154
100
AcDbEntity
8
0
100
AcDbLine
10
772.05081590329178
20
208.23259030246578
30
0
11
774.16390721199537
21
203.70105136728253
31
0
0
LINE
5
155
100
AcDbEntity
8
0
100
AcDbLine
10
801.28713249365444
20
221.98708019588179
30
0
11
803.82440467798108
21
223.17124687020399
31
0
0
LINE
5
156
100
AcDbEntity
8
0
100
AcDbLine
10
731.95297107497424
20
200.5684373731354
30
0
11
737.91647631367539
21
203.34926553538918
31
0
0
LINE
5
157
100
AcDbEntity
8
0
100
AcDbLine
10
504.96491040646112
20
115.08051139027791
30
0
11
482.07006110584479
21
105.47474441034403
31
0
0
SPLINE
5
158
100
AcDbEntity
8
0
100
AcDbSpline
70
1064
71
5
72
21
73
15
74
0
42
0.000000001
43
0.0000000001
44
0.0000000001
40
0
40
0
40
0
40
0
40
0
40
0
40
0.10000000000000001
40
0.20000000000000001
40
0.30000000000000004
40
0.40000000000000002
40
0.5
40
0.59999999999999998
40
0.69999999999999996
40
0.79999999999999982
40
0.8999999999999998
40
1
40
1
40
1
40
1
40
1
40
1
10
833.04112519625573
20
277.84153619615159
30
0
10
833.79687373897355
20
278.69697132393264
30
0
10
835.28949035141079
20
280.37002833509513
30
0
10
837.47177821325511
20
282.76618916413372
30
0
10
840.27456900475966
20
285.77056042971014
30
0
10
843.6235131850741
20
289.4052701222526
30
0
10
846.82781979642482
20
293.15437644950885
30
0
10
849.86371238360744
20
297.22825857997373
30
0
10
852.65333940741982
20
301.74463064032858
30
0
10
855.04582657896322
20
306.65788237925869
30
0
10
856.84956494824348
20
311.83180666764213
30
0
10
857.66259152725991
20
316.04457868010127
30
0
10
857.84397178318397
20
319.18001914152921
30
0
10
857.76414020076641
20
321.25048115942604
30
0
10
857.67403340700059
20
322.28075330136494
30
0
0
LINE
5
159
100
AcDbEntity
8
0
100
AcDbLine
10
805.9858885415731
20
218.5399116005286
30
0
11
807.69728512802703
21
219.33794893493231
31
0
0
ARC
5
160
100
AcDbEntity
8
0
100
AcDbCircle
10
856.43650704565266
20
341.78240622935789
30
0
40
5.5901699437494035
100
AcDbArc
50
-1.5650511770775626
51
231.56505117707647
0
LINE
5
161
100
AcDbEntity
8
0
100
AcDbLine
10
645.19660077139008
20
149.07838932533426
30
0
11
647.31180681226692
21
144.55053456865829
31
0
0
LINE
5
162
100
AcDbEntity
8
0
100
AcDbLine
10
668.5114259824087
20
170.98515905128639
30
0
11
674.47493122110973
21
173.76598721354017
31
0
0
LINE
5
163
100
AcDbEntity
8
0
100
AcDbLine
10
857.67403340700059
20
322.28075330136494
30
0
11
862.19817735307504
21
324.40963122343715
31
0
0
LINE
5
164
100
AcDbEntity
8
0
100
AcDbLine
10
676.66335070038417
20
158.23571767474544
30
0
11
674.85042053073812
21
157.3903379296998
31
0
0
LINE
5
165
100
AcDbEntity
8
0
100
AcDbLine
10
674.55025974398848
20
162.76725677421257
30
0
11
677.08792163969008
21
163.95058770979421
31
0
0
LINE
5
166
100
AcDbEntity
8
0
100
AcDbLine
10
610.92485068863357
20
133.08958855703938
30
0
11
613.04056934665778
21
128.55927570249091
31
0
0
LINE
5
167
100
AcDbEntity
8
0
100
AcDbLine
10
647.31180681226692
20
144.55053456865829
30
0
11
649.12442238634026
21
145.39577109213977
31
0
0
LINE
5
168
100
AcDbEntity
8
0
100
AcDbLine
10
573.34910834356037
20
126.61024156851295
30
0
11
579.31261358226163
21
129.39106973076679
31
0
0
LINE
5
169
100
AcDbEntity
8
0
100
AcDbLine
10
550.20479579246035
20
104.78409219357799
30
0
11
552.07882329591985
21
100.76522724318627
31
0
0
LINE
5
170
100
AcDbEntity
8
0
100
AcDbLine
10
547.667133988758
20
103.60076106070336
30
0
11
550.20479579246035
21
104.78409219357799
31
0
0
ARC
5
171
100
AcDbEntity
8
0
100
AcDbCircle
10
597.66683815450301
20
123.65403261160529
30
0
40
19.229954616558732
100
AcDbArc
50
67.357840952921251
51
162.64215904707845
0
LINE
5
172
100
AcDbEntity
8
0
100
AcDbLine
10
581.34515310000256
20
113.76673709560583
30
0
11
579.70057249799868
21
112.99939423752923
31
0
0
LINE
5
173
100
AcDbEntity
8
0
100
AcDbLine
10
642.65976206636321
20
147.89329465203653
30
0
11
644.77600255439495
21
143.36322553591759
31
0
0
ARC
5
174
100
AcDbEntity
8
0
100
AcDbCircle
10
565.94606560822035
20
108.86239345068083
30
0
40
19.229954616558707
100
AcDbArc
50
67.357840952921549
51
162.64215904707871
0
LINE
5
175
100
AcDbEntity
8
0
100
AcDbLine
10
613.04056934665778
20
128.55927570249091
30
0
11
611.41323682832297
21
127.80012501622369
31
0
0
LINE
5
176
100
AcDbEntity
8
0
100
AcDbLine
10
677.08792163969008
20
163.95058770979421
30
0
11
679.20098281343542
21
159.41911247943989
31
0
0
LINE
5
177
100
AcDbEntity
8
0
100
AcDbLine
10
642.65976206636321
20
147.89329465203653
30
0
11
645.19660077139008
21
149.07838932533426
31
0
0
LINE
5
178
100
AcDbEntity
8
0
100
AcDbLine
10
549.78022529746227
20
99.069222125521094
30
0
11
547.96760972338814
21
98.223985602038709
31
0
0
ARC
5
179
100
AcDbEntity
8
0
100
AcDbCircle
10
600.76471371249386
20
117.0531665456633
30
0
40
15.129050231798978
100
AcDbArc
50
45.263601946296525
51
184.6961548562702
0
LINE
5
180
100
AcDbEntity
8
0
100
AcDbLine
10
737.99176926645441
20
192.35059602625032
30
0
11
740.5294310701571
21
193.53392715912423
31
0
0
LINE
5
181
100
AcDbEntity
8
0
100
AcDbLine
10
547.667133988758
20
103.60076106070336
30
0
11
549.78022529746227
21
99.069222125521094
31
0
0
LINE
5
182
100
AcDbEntity
8
0
100
AcDbLine
10
706.06883687587913
20
177.46468714953284
30
0
11
708.18469984092235
21
172.93444169115449
31
0
0
LINE
5
183
100
AcDbEntity
8
0
100
AcDbLine
10
742.64252237886058
20
189.00238822394104
30
0
11
744.45513795293391
21
189.84762474742243
31
0
0
ARC
5
184
100
AcDbEntity
8
0
100
AcDbCircle
10
756.27070088591677
20
197.61222841622771
30
0
40
19.229954616558686
100
AcDbArc
50
67.357840952921165
51
162.64215904707854
0
LINE
5
185
100
AcDbEntity
8
0
100
AcDbLine
10
795.39451616753968
20
230.15171569498432
30
0
11
801.35802140624082
21
232.93254385723816
31
0
0
LINE
5
186
100
AcDbEntity
8
0
100
AcDbLine
10
706.06883687587913
20
177.46468714953284
30
0
11
708.60577433257095
21
178.64957040995708
31
0
0
LINE
5
187
100
AcDbEntity
8
0
100
AcDbLine
10
581.76623847762994
20
119.48186501234935
30
0
11
583.87383789076455
21
114.96929011476168
31
0
0
LINE
5
188
100
AcDbEntity
8
0
100
AcDbLine
10
552.07882329591985
20
100.76522724318627
30
0
11
553.89349599796401
21
101.60603815204487
31
0
0
LINE
5
189
100
AcDbEntity
8
0
100
AcDbLine
10
615.57538757357224
20
129.74869679736184
30
0
11
617.38807513015433
21
130.59377893669082
31
0
0
LINE
5
190
100
AcDbEntity
8
0
100
AcDbLine
10
583.87383789076455
20
114.96929011476168
30
0
11
585.68645346483777
21
115.81452663824307
31
0
0
LINE
5
191
100
AcDbEntity
8
0
100
AcDbLine
10
579.2292987640177
20
118.29698658419835
30
0
11
581.34515310000256
21
113.76673709560583
31
0
0
LINE
5
192
100
AcDbEntity
8
0
100
AcDbLine
10
610.92485068863357
20
133.08958855703938
30
0
11
613.46182588718068
21
134.27439100553318
31
0
0
LINE
5
193
100
AcDbEntity
8
0
100
AcDbLine
10
613.46182588718068
20
134.27439100553318
30
0
11
615.57538757357224
21
129.74869679736184
31
0
0
ARC
5
194
100
AcDbEntity
8
0
100
AcDbCircle
10
569.02643971320595
20
102.25289268721239
30
0
40
15.146762237466756
100
AcDbArc
50
45.193570787521331
51
182.44760622956753
0
LINE
5
195
100
AcDbEntity
8
0
100
AcDbLine
10
541.62833579727771
20
111.8186024075885
30
0
11
547.59184103597886
21
114.59943056984228
31
0
0
LINE
5
196
100
AcDbEntity
8
0
100
AcDbLine
10
579.2292987640177
20
118.29698658419835
30
0
11
581.76623847762994
21
119.48186501234935
31
0
0
LINE
5
197
100
AcDbEntity
8
0
100
AcDbLine
10
679.20098281343542
20
159.41911247943989
30
0
11
680.8138974104595
21
160.1712269079822
31
0
0
LINE
5
198
100
AcDbEntity
8
0
100
AcDbLine
10
605.06988088984315
20
141.40188072943741
30
0
11
611.03338612854429
21
144.18270889169125
31
0
0
ARC
5
199
100
AcDbEntity
8
0
100
AcDbCircle
10
664.20656408021705
20
146.63342794494244
30
0
40
15.132838218902387
100
AcDbArc
50
45.302672810157951
51
184.69124214520437
0
LWPOLYLINE
5
200
100
AcDbEntity
8
0
100
AcDbPolyline
90
24
70
1
43
0.0
10
574.99999992111327
20
337.40000012502242
42
-0.4567519328107178
10
612.39999999999998
20
305.00000040485696
10
612.39999999999998
20
275.00000040485696
10
616.30000000000007
20
275.00000041664316
10
616.30000000000007
20
280.10000000000002
10
619.09999999999991
20
280.10000000000002
10
619.09999999999991
20
275.00000042430423
10
625
20
275.00000044198356
10
625
20
305
42
0.44536240470737115
10
575
20
350
10
551.10000113248827
20
350
10
551.10000113248827
20
344.90000104308132
10
548.30000113248832
20
344.90000104308132
10
548.30000113248832
20
350
10
525
20
350
42
0.44536240470737115
10
475
20
305
10
475
20
275.00000000065381
10
480.90000000000003
20
275.00000001738465
10
480.90000000000003
20
280.10000000000002
10
483.70000000000005
20
280.10000000000002
10
483.69999999999999
20
275.00000104308128
10
487.59999999999997
20
275
10
487.59999999999997
20
305.00000004489124
42
-0.45675192865829384
10
524.99999997512498
20
337.40000012502242
0
LWPOLYLINE
5
201
100
AcDbEntity
8
0
100
AcDbPolyline
90
24
70
1
43
0.0
10
569.09999999999991
20
335.00000042430429
10
575
20
335.00000044198362
10
575
20
329.90000086628783
10
577.79999999999995
20
329.90000086628783
10
577.79999999999995
20
335.00000044964463
10
581.69999999999993
20
335.00000046143089
10
581.70000000000005
20
305.00000046143089
42
0.45675193281071647
10
619.10000007888675
20
272.60000074126538
10
669.10000002487504
20
272.60000074126538
42
0.45675192865829317
10
706.5
20
305.00000082139655
10
706.5
20
335.00000086628779
10
710.39999999999986
20
334.99999982320651
10
710.39999999999986
20
329.90000086628783
10
713.19999999999993
20
329.90000086628783
10
713.19999999999993
20
335.00000084890314
10
719.09999999999991
20
335.00000086563404
10
719.10000000000014
20
305.00000086628779
42
-0.4453624047073716
10
669.09999999999991
20
260.00000086628779
10
645.79999886751182
20
260.00000086628779
10
645.79999886751182
20
265.09999982320653
10
642.99999886751175
20
265.09999982320653
10
642.99999886751175
20
260.00000086628779
10
619.09999999999991
20
260.00000086628779
42
-0.4453624047073706
10
569.10000000000002
20
305.00000086628779
0
LWPOLYLINE
5
202
100
AcDbEntity
8
0
100
AcDbPolyline
90
24
70
1
43
0.0
10
779.52776918084896
20
276.0155230649496
10
773.62776918084887
20
276.01552304727028
10
773.62776918084887
20
281.11552262296607
10
770.82776918084892
20
281.11552262296607
10
770.82776918084892
20
276.01552303960921
10
766.92776918084905
20
276.01552302782295
10
766.92776918084905
20
306.01552302782295
42
0.45675193281071913
10
729.52776910196224
20
338.41552274798835
10
679.52776915597394
20
338.41552274798835
42
0.45675192865829328
10
642.12776918084899
20
306.01552266785723
10
642.12776918084899
20
276.01552262296599
10
638.22776918084901
20
276.01552366604727
10
638.22776918084912
20
281.11552262296607
10
635.42776918084905
20
281.11552262296607
10
635.42776918084905
20
276.0155226403507
10
629.52776918084908
20
276.01552262361986
10
629.52776918084896
20
306.01552262296599
42
-0.44536240470736688
10
679.5277691808484
20
351.01552262296599
10
702.8277703133374
20
351.01552262296599
10
702.8277703133374
20
345.91552366604725
10
705.62777031333724
20
345.91552366604725
10
705.62777031333724
20
351.01552262296599
10
729.52776918084965
20
351.01552262296599
42
-0.44536240470736688
10
779.52776918084896
20
306.01552262296599
0
LWPOLYLINE
5
203
100
AcDbEntity
8
0
100
AcDbPolyline
90
24
70
1
43
0.0
10
471.19887297399038
20
172.32678731732341
10
476.54608891003505
20
174.82023507761639
10
478.70144186559395
20
170.19806574827982
10
481.23910366929647
20
171.38139688115371
10
479.08375071049988
20
176.00356621743367
10
482.61835107496177
20
177.65177744890428
10
495.29689892718272
20
150.46254383780484
42
0.45675193281071857
10
542.88564179598472
20
136.90409481387474
10
588.201031098866
20
158.03500787808329
42
0.45675192865829328
10
608.40411059722885
20
203.20530322928397
10
595.72556272603583
20
230.39453688106875
10
599.26016353630405
20
232.04274715650479
10
601.41551623035627
20
227.42057838797052
10
603.95317803405896
20
228.60390952084452
10
601.79782490652838
20
233.22607921897546
10
607.14504084297391
20
235.71952697840908
10
619.8235886949185
20
208.53029336790226
42
-0.44536240470736349
10
593.52602112141881
20
146.61552986421827
10
572.40904865708069
20
136.76852388704918
10
570.25369596302835
20
141.39069265558339
10
567.71603415932577
20
140.2073615227095
10
569.87138685337811
20
135.58519275417527
10
548.21063176958535
20
125.48461677718282
42
-0.44536240470737293
10
483.87742063942113
20
145.13755410679698
0
LWPOLYLINE
5
204
100
AcDbEntity
8
0
100
AcDbPolyline
90
24
70
1
43
0.0
10
680.8064431493674
20
203.98138851659115
10
675.45922721332295
20
201.4879407562982
10
673.30387425776394
20
206.11011008563477
10
670.76621245406136
20
204.92677895276091
10
672.92156541285772
20
200.30460961648106
10
669.38696504839584
20
198.65639838501042
10
656.70841719617499
20
225.84563199610966
42
0.45675193281071746
10
609.11967432737322
20
239.40408102003983
10
563.80428502449195
20
218.27316795583118
42
0.45675192865829362
10
543.60120552612921
20
173.10287260463087
10
556.279753397322
20
145.91363895284613
10
552.74515258705389
20
144.26542867741003
10
550.58979989300167
20
148.88759744594421
10
548.05213808929898
20
147.70426631307021
10
550.20749121682934
20
143.08209661493916
10
544.86027528038403
20
140.5886488555056
10
532.18172742843922
20
167.77788246601284
42
-0.44536240470736604
10
558.4792950019397
20
229.69264596969654
10
579.59626746627714
20
239.53965194686535
10
581.75162016032959
20
234.91748317833117
10
584.28928196403217
20
236.10081431120503
10
582.13392926997972
20
240.72298307973935
10
603.79468435377112
20
250.8235590567308
42
-0.44536240470738392
10
668.12789548393675
20
231.17062172711752
0
LWPOLYLINE
5
205
100
AcDbEntity
8
0
100
AcDbPolyline
90
24
70
1
43
0.0
10
614.34458996864419
20
232.44616210060184
10
619.4541398421328
20
235.39616211591263
10
622.00413962998061
20
230.97943292407021
10
624.42901076057706
20
232.37943292407022
10
621.87901096889857
20
236.79616212254726
10
625.25651003776466
20
238.74616213275442
10
640.25651003776466
20
212.76540001922126
42
0.45675193281071935
10
688.84586006770348
20
203.40617721839263
10
732.14713021014973
20
228.40617719138675
42
0.45675192865829689
10
748.33648025007972
20
275.16540033096072
10
733.33648022763441
20
301.1461624833708
10
736.7139798239341
20
303.09616158003587
10
739.2639793023933
20
298.67943292407011
10
741.68885043298997
20
300.07943292407015
10
739.13885044168228
20
304.49616246831516
10
744.24840031564497
20
307.4461624828046
10
759.24840031531835
20
281.46540036983754
42
-0.44536240470737321
10
738.44713012609577
20
217.49425719953766
10
718.26873723715516
20
205.84425663329381
10
715.71873775869585
20
210.26098528925954
10
713.29386662809952
20
208.86098528925953
10
715.84386610655883
20
204.4442566332938
10
695.14585993687456
20
192.49425719953814
42
-0.44536240470737343
10
629.34458974765244
20
206.46540036983762
0
LWPOLYLINE
5
206
100
AcDbEntity
8
0
100
AcDbPolyline
90
24
70
1
43
0.0
10
805.21677569657982
20
66.810658955345929
10
805.21677567890049
20
72.710658955345821
10
810.31677525459622
20
72.710658955345963
10
810.31677525459622
20
75.510658955345974
10
805.21677567123947
20
75.510658955345832
10
805.21677565945322
20
79.410658955345838
10
835.21677565945322
20
79.410658955345838
42
0.4567519328107178
10
867.61677537961862
20
116.81065903423261
10
867.61677537961862
20
166.81065898022086
42
0.45675192865829461
10
835.21677529948749
20
204.21065895534599
10
805.2167752545962
20
204.21065895534585
10
805.21677629767748
20
208.11065895534585
10
810.31677525459611
20
208.11065895534557
10
810.31677525459611
20
210.91065895534558
10
805.21677527198085
20
210.91065895534572
10
805.2167752552499
20
216.8106589553459
10
835.2167752545962
20
216.81065895534584
42
-0.44536240470737065
10
880.2167752545962
20
166.8106589553459
10
880.2167752545962
20
143.51065782285761
10
875.11677629767746
20
143.51065782285761
10
875.11677629767746
20
140.7106578228576
10
880.2167752545962
20
140.71065782285774
10
880.21677525459631
20
116.81065895534604
42
-0.4453624047073716
10
835.2167752545962
20
66.810658955345787
0
LWPOLYLINE
5
207
100
AcDbEntity
8
0
100
AcDbPolyline
90
24
70
1
43
0.0
10
831.53309975390744
20
171.33350881680599
10
834.16423909210812
20
172.29116521811778
10
832.4199363670931
20
177.08359756778975
10
837.96412282400809
20
179.10151642913317
10
848.22472712355432
20
150.91073780617012
42
-0.44536240470737104
10
816.63100253391406
20
91.523562704520813
10
794.73616340541162
20
83.554492977698942
10
792.99186103120542
20
88.346924363531343
10
790.36072169300485
20
87.38926796221952
10
792.10502406721105
20
82.596836576387062
10
769.64637149461873
20
74.422555538237219
42
-0.4453624047073706
10
707.27083400566812
20
99.607716307319819
10
697.0102298570655
20
127.79849451556828
10
702.55441631365545
20
129.81641337780283
10
704.29871889949584
20
125.02398141051034
10
706.92985823769664
20
125.98163781182221
10
705.18555564923577
20
130.77406978631387
10
708.85035686626998
20
132.10794835635932
10
719.11096116603983
20
103.9171697327821
42
0.4567519328107173
10
765.33691780560457
20
86.262682469638037
10
812.32154879414554
20
103.36368961744844
42
0.45675192865829528
10
836.38460011700568
20
146.60128395808275
10
826.12399580188162
20
174.79206262384395
10
829.78879737970158
20
176.12594020263828
0
LWPOLYLINE
5
208
100
AcDbEntity
8
0
100
AcDbPolyline
90
24
70
1
43
0.0
10
695.80432903363828
20
77.345543246014202
10
693.17318969543771
20
76.387886844702336
10
694.91749242045239
20
71.595454495030239
10
689.37330596353775
20
69.577535633687035
10
679.1127016639914
20
97.76831425664993
42
-0.44536240470737282
10
710.70642625363178
20
157.15548935829921
10
732.6012653821341
20
165.12455908512109
10
734.34556775634007
20
160.33212769928861
10
736.97670709454087
20
161.28978410060051
10
735.23240472033444
20
166.082215486433
10
757.69105729292664
20
174.25649652458299
42
-0.44536240470737137
10
820.0665947818776
20
149.07133575550026
10
830.32719893048022
20
120.88055754725153
10
824.78301247389027
20
118.86263868501715
10
823.03870988804965
20
123.65507065230952
10
820.4075705498492
20
122.69741425099761
10
822.15187313830984
20
117.90498227650616
10
818.48707192127586
20
116.5711037064606
10
808.22646762150589
20
144.76188233003788
42
0.45675193281071869
10
762.00051098194092
20
162.416369593182
10
715.01587999340018
20
145.31536244537162
42
0.456751928658295
10
690.95282867053993
20
102.07776810473726
10
701.21343298566387
20
73.886989438976073
10
697.54863140784391
20
72.553111860181801
0
LINE
5
209
100
AcDbEntity
8
0
100
AcDbLine
10
278.97828849055293
20
344.49747468305827
30
0
11
278.97828849055293
21
359.49747468305827
31
0
0
LINE
5
210
100
AcDbEntity
8
0
100
AcDbLine
10
1.4782884905529614
20
344.49747468305827
30
0
11
-1.0217115094470364
21
344.49747468305827
31
0
0
LINE
5
211
100
AcDbEntity
8
0
100
AcDbLine
10
141.47828849055296
20
344.49747468305827
30
0
11
138.97828849055296
21
344.49747468305827
31
0
0
LINE
5
212
100
AcDbEntity
8
0
100
AcDbLine
10
-31.121711509447039
20
352.33735451127347
30
0
11
-31.121711509447039
21
359.49747468305827
31
0
0
LINE
5
213
100
AcDbEntity
8
0
100
AcDbLine
10
1.4782884905529614
20
359.49747468305827
30
0
11
33.97828849055297
21
359.49747468305827
31
0
0
LINE
5
214
100
AcDbEntity
8
0
100
AcDbLine
10
246.4782884905529
20
359.49747468305827
30
0
11
246.4782884905529
21
344.49747468305827
31
0
0
LINE
5
215
100
AcDbEntity
8
0
100
AcDbLine
10
33.97828849055297
20
344.49747468305827
30
0
11
33.97828849055297
21
359.49747468305827
31
0
0
LINE
5
216
100
AcDbEntity
8
0
100
AcDbLine
10
303.27747468305836
20
319.29747468305828
30
0
11
303.27747468305836
21
339.69747468305832
31
0
0
LINE
5
217
100
AcDbEntity
8
0
100
AcDbLine
10
106.47828849055294
20
344.49747468305827
30
0
11
103.97828849055294
21
344.49747468305827
31
0
0
LINE
5
218
100
AcDbEntity
8
0
100
AcDbLine
10
-31.121711509447039
20
359.49747468305827
30
0
11
-1.0217115094470364
21
359.49747468305827
31
0
0
LINE
5
219
100
AcDbEntity
8
0
100
AcDbLine
10
211.4782884905529
20
344.49747468305827
30
0
11
208.9782884905529
21
344.49747468305827
31
0
0
LINE
5
220
100
AcDbEntity
8
0
100
AcDbLine
10
106.47828849055294
20
359.49747468305827
30
0
11
106.47828849055294
21
344.49747468305827
31
0
0
LINE
5
221
100
AcDbEntity
8
0
100
AcDbLine
10
281.47828849055293
20
344.49747468305827
30
0
11
278.97828849055293
21
344.49747468305827
31
0
0
LINE
5
222
100
AcDbEntity
8
0
100
AcDbLine
10
-34.521711509447037
20
352.33735451127347
30
0
11
-31.121711509447039
21
352.33735451127347
31
0
0
LINE
5
223
100
AcDbEntity
8
0
100
AcDbLine
10
281.47828849055293
20
359.49747468305827
30
0
11
281.47828849055293
21
344.49747468305827
31
0
0
LINE
5
224
100
AcDbEntity
8
0
100
AcDbLine
10
3.6817346845940713
20
261.48571851993256
30
0
11
-3.7026838492747016
21
272.03176113002689
31
0
0
LINE
5
225
100
AcDbEntity
8
0
100
AcDbLine
10
299.87747468305838
20
299.50070226193509
30
0
11
299.87747468305838
21
319.29747468305828
31
0
0
LINE
5
226
100
AcDbEntity
8
0
100
AcDbLine
10
-1.0217115094470364
20
344.49747468305827
30
0
11
-1.0217115094470364
21
359.49747468305827
31
0
0
LINE
5
227
100
AcDbEntity
8
0
100
AcDbLine
10
71.478288490552984
20
359.49747468305827
30
0
11
71.478288490552984
21
344.49747468305827
31
0
0
LINE
5
228
100
AcDbEntity
8
0
100
AcDbLine
10
281.47828849055293
20
359.49747468305827
30
0
11
299.87747468305838
21
359.49747468305827
31
0
0
LINE
5
229
100
AcDbEntity
8
0
100
AcDbLine
10
208.9782884905529
20
344.49747468305827
30
0
11
208.9782884905529
21
359.49747468305827
31
0
0
LINE
5
230
100
AcDbEntity
8
0
100
AcDbLine
10
1.4782884905529614
20
359.49747468305827
30
0
11
1.4782884905529614
21
344.49747468305827
31
0
0
LINE
5
231
100
AcDbEntity
8
0
100
AcDbLine
10
106.47828849055294
20
344.49747468305827
30
0
11
103.97828849055294
21
344.49747468305827
31
0
0
LINE
5
232
100
AcDbEntity
8
0
100
AcDbLine
10
246.4782884905529
20
344.49747468305827
30
0
11
243.9782884905529
21
344.49747468305827
31
0
0
LINE
5
233
100
AcDbEntity
8
0
100
AcDbLine
10
284.678641373971
20
281.96338824163837
30
0
11
282.68457597704861
21
284.20475014744397
31
0
0
LINE
5
234
100
AcDbEntity
8
0
100
AcDbLine
10
103.97828849055294
20
344.49747468305827
30
0
11
103.97828849055294
21
359.49747468305827
31
0
0
LINE
5
235
100
AcDbEntity
8
0
100
AcDbLine
10
-16.687239020749523
20
290.90618775249067
30
0
11
-34.521711509447037
21
316.37645408852103
31
0
0
LINE
5
236
100
AcDbEntity
8
0
100
AcDbLine
10
262.26502231591508
20
262.02273427241374
30
0
11
260.27095691899268
21
264.2640961782194
31
0
0
LINE
5
237
100
AcDbEntity
8
0
100
AcDbLine
10
299.87747468305838
20
339.69747468305832
30
0
11
299.87747468305838
21
359.49747468305827
31
0
0
LINE
5
238
100
AcDbEntity
8
0
100
AcDbLine
10
303.27747468305836
20
339.69747468305832
30
0
11
299.87747468305838
21
339.69747468305832
31
0
0
LINE
5
239
100
AcDbEntity
8
0
100
AcDbLine
10
71.478288490552984
20
344.49747468305827
30
0
11
68.978288490552984
21
344.49747468305827
31
0
0
LINE
5
240
100
AcDbEntity
8
0
100
AcDbLine
10
211.4782884905529
20
359.49747468305827
30
0
11
243.9782884905529
21
359.49747468305827
31
0
0
LINE
5
241
100
AcDbEntity
8
0
100
AcDbLine
10
27.431734684594069
20
258.4857185199325
30
0
11
12.431734684594069
21
258.4857185199325
31
0
0
LINE
5
242
100
AcDbEntity
8
0
100
AcDbLine
10
125.8246280087389
20
240.98571851993253
30
0
11
192.62173468459409
21
240.98571851993253
31
0
0
LINE
5
243
100
AcDbEntity
8
0
100
AcDbLine
10
141.47828849055296
20
359.49747468305827
30
0
11
173.97828849055293
21
359.49747468305827
31
0
0
LINE
5
244
100
AcDbEntity
8
0
100
AcDbLine
10
192.62173468459409
20
237.99999988079071
30
0
11
192.62173468459409
21
240.99999988079074
31
0
0
LINE
5
245
100
AcDbEntity
8
0
100
AcDbLine
10
-14.074470474656771
20
292.73566798406205
30
0
11
-19.300007566842282
21
289.07670752091929
31
0
0
LINE
5
246
100
AcDbEntity
8
0
100
AcDbLine
10
106.47828849055294
20
359.49747468305827
30
0
11
138.97828849055296
21
359.49747468305827
31
0
0
LINE
5
247
100
AcDbEntity
8
0
100
AcDbLine
10
-3.7026838492747016
20
272.03176113002689
30
0
11
-6.1601399821416791
21
270.31103182097377
31
0
0
LINE
5
248
100
AcDbEntity
8
0
100
AcDbLine
10
71.478288490552984
20
359.49747468305827
30
0
11
103.97828849055294
21
359.49747468305827
31
0
0
LINE
5
249
100
AcDbEntity
8
0
100
AcDbLine
10
211.4782884905529
20
359.49747468305827
30
0
11
211.4782884905529
21
344.49747468305827
31
0
0
LINE
5
250
100
AcDbEntity
8
0
100
AcDbLine
10
-6.1601399821416791
20
270.31103182097377
30
0
11
-19.300007566842282
21
289.07670752091929
31
0
0
LINE
5
251
100
AcDbEntity
8
0
100
AcDbLine
10
262.26502231591508
20
262.02273427241374
30
0
11
284.678641373971
21
281.96338824163837
31
0
0
LINE
5
252
100
AcDbEntity
8
0
100
AcDbLine
10
234.12173468459412
20
240.99999988079071
30
0
11
260.27095691899268
21
264.2640961782194
31
0
0
LINE
5
253
100
AcDbEntity
8
0
100
AcDbLine
10
282.68457597704861
20
284.20475014744397
30
0
11
299.87747468305838
21
299.50070226193509
31
0
0
LINE
5
254
100
AcDbEntity
8
0
100
AcDbLine
10
173.97828849055293
20
344.49747468305827
30
0
11
173.97828849055293
21
359.49747468305827
31
0
0
LINE
5
255
100
AcDbEntity
8
0
100
AcDbLine
10
3.6817346845940713
20
261.48571851993256
30
0
11
12.431734684594069
21
261.48571851993256
31
0
0
LINE
5
256
100
AcDbEntity
8
0
100
AcDbLine
10
120.17173468459407
20
240.98571851993256
30
0
11
123.92173468459407
21
240.98571851993256
31
0
0
LINE
5
257
100
AcDbEntity
8
0
100
AcDbLine
10
90.171734684594071
20
240.98571851993253
30
0
11
90.171734684594071
21
237.9857185199325
31
0
0
LINE
5
258
100
AcDbEntity
8
0
100
AcDbLine
10
176.47828849055293
20
359.49747468305827
30
0
11
176.47828849055293
21
344.49747468305827
31
0
0
LINE
5
259
100
AcDbEntity
8
0
100
AcDbLine
10
36.478288490552963
20
359.49747468305827
30
0
11
68.978288490552984
21
359.49747468305827
31
0
0
LINE
5
260
100
AcDbEntity
8
0
100
AcDbLine
10
90.171734684594071
20
237.9857185199325
30
0
11
120.17173468459407
21
237.98571851993256
31
0
0
LINE
5
261
100
AcDbEntity
8
0
100
AcDbLine
10
103.97828849055294
20
344.49747468305827
30
0
11
103.97828849055294
21
359.49747468305827
31
0
0
LINE
5
262
100
AcDbEntity
8
0
100
AcDbLine
10
120.17173468459407
20
237.98571851993256
30
0
11
120.17173468459407
21
240.98571851993256
31
0
0
LINE
5
263
100
AcDbEntity
8
0
100
AcDbLine
10
246.4782884905529
20
359.49747468305827
30
0
11
278.97828849055293
21
359.49747468305827
31
0
0
LINE
5
264
100
AcDbEntity
8
0
100
AcDbLine
10
36.478288490552963
20
344.49747468305827
30
0
11
33.97828849055297
21
344.49747468305827
31
0
0
LINE
5
265
100
AcDbEntity
8
0
100
AcDbLine
10
176.47828849055293
20
359.49747468305827
30
0
11
208.9782884905529
21
359.49747468305827
31
0
0
LINE
5
266
100
AcDbEntity
8
0
100
AcDbLine
10
141.47828849055296
20
359.49747468305827
30
0
11
141.47828849055296
21
344.49747468305827
31
0
0
LINE
5
267
100
AcDbEntity
8
0
100
AcDbLine
10
138.97828849055296
20
344.49747468305827
30
0
11
138.97828849055296
21
359.49747468305827
31
0
0
LINE
5
268
100
AcDbEntity
8
0
100
AcDbLine
10
299.87747468305838
20
319.29747468305828
30
0
11
303.27747468305836
21
319.29747468305828
31
0
0
LINE
5
269
100
AcDbEntity
8
0
100
AcDbLine
10
222.62173468459409
20
240.99999988079071
30
0
11
222.62173468459409
21
237.99999988079068
31
0
0
LINE
5
270
100
AcDbEntity
8
0
100
AcDbLine
10
-34.521711509447037
20
321.93735451127344
30
0
11
-34.521711509447037
21
352.33735451127347
31
0
0
LINE
5
271
100
AcDbEntity
8
0
100
AcDbLine
10
222.62173468459409
20
237.99999988079068
30
0
11
192.62173468459409
21
237.99999988079071
31
0
0
LINE
5
272
100
AcDbEntity
8
0
100
AcDbLine
10
176.47828849055293
20
344.49747468305827
30
0
11
173.97828849055293
21
344.49747468305827
31
0
0
LINE
5
273
100
AcDbEntity
8
0
100
AcDbLine
10
-34.521711509447037
20
321.93735451127344
30
0
11
-34.521711509447037
21
316.37645408852103
31
0
0
LINE
5
274
100
AcDbEntity
8
0
100
AcDbLine
10
68.978288490552984
20
344.49747468305827
30
0
11
68.978288490552984
21
359.49747468305827
31
0
0
LINE
5
275
100
AcDbEntity
8
0
100
AcDbLine
10
27.431734684594069
20
261.48571851993256
30
0
11
27.431734684594069
21
258.4857185199325
31
0
0
LINE
5
276
100
AcDbEntity
8
0
100
AcDbLine
10
123.92173468459407
20
240.98571851993256
30
0
11
125.8246280087389
21
240.98571851993253
31
0
0
LINE
5
277
100
AcDbEntity
8
0
100
AcDbLine
10
222.62173468459409
20
240.99999988079071
30
0
11
234.12173468459412
21
240.99999988079071
31
0
0
LINE
5
278
100
AcDbEntity
8
0
100
AcDbLine
10
42.181734684594083
20
240.98571851993253
30
0
11
90.171734684594071
21
240.98571851993253
31
0
0
LINE
5
279
100
AcDbEntity
8
0
100
AcDbLine
10
42.181734684594083
20
240.98571851993253
30
0
11
42.181734684594083
21
261.48571851993256
31
0
0
LINE
5
280
100
AcDbEntity
8
0
100
AcDbLine
10
36.478288490552963
20
359.49747468305827
30
0
11
36.478288490552963
21
344.49747468305827
31
0
0
LINE
5
281
100
AcDbEntity
8
0
100
AcDbLine
10
106.47828849055294
20
359.49747468305827
30
0
11
106.47828849055294
21
344.49747468305827
31
0
0
LINE
5
282
100
AcDbEntity
8
0
100
AcDbLine
10
27.431734684594069
20
261.48571851993256
30
0
11
42.181734684594083
21
261.48571851993256
31
0
0
LINE
5
283
100
AcDbEntity
8
0
100
AcDbLine
10
243.9782884905529
20
344.49747468305827
30
0
11
243.9782884905529
21
359.49747468305827
31
0
0
LINE
5
284
100
AcDbEntity
8
0
100
AcDbLine
10
12.431734684594069
20
258.4857185199325
30
0
11
12.431734684594069
21
261.48571851993256
31
0
0
LINE
5
285
100
AcDbEntity
8
0
100
AcDbLine
10
1.4782884905529614
20
189.4974746830583
30
0
11
33.97828849055297
21
189.4974746830583
31
0
0
LINE
5
286
100
AcDbEntity
8
0
100
AcDbLine
10
27.431734684594069
20
91.485718519932533
30
0
11
27.431734684594069
21
88.485718519932533
31
0
0
LINE
5
287
100
AcDbEntity
8
0
100
AcDbLine
10
42.181734684594083
20
70.985718519932533
30
0
11
42.181734684594083
21
91.485718519932533
31
0
0
LINE
5
288
100
AcDbEntity
8
0
100
AcDbLine
10
125.8246280087389
20
70.985718519932547
30
0
11
192.62173468459409
21
70.985718519932547
31
0
0
LINE
5
289
100
AcDbEntity
8
0
100
AcDbLine
10
106.47828849055294
20
189.4974746830583
30
0
11
106.47828849055294
21
174.4974746830583
31
0
0
LINE
5
290
100
AcDbEntity
8
0
100
AcDbLine
10
262.26502231591508
20
92.022734272413786
30
0
11
260.27095691899268
21
94.26409617821939
31
0
0
LINE
5
291
100
AcDbEntity
8
0
100
AcDbLine
10
27.431734684594069
20
91.485718519932533
30
0
11
42.181734684594083
21
91.485718519932533
31
0
0
LINE
5
292
100
AcDbEntity
8
0
100
AcDbLine
10
-1.0217115094470364
20
174.4974746830583
30
0
11
-1.0217115094470364
21
189.4974746830583
31
0
0
LINE
5
293
100
AcDbEntity
8
0
100
AcDbLine
10
42.181734684594083
20
70.985718519932533
30
0
11
90.171734684594071
21
70.985718519932533
31
0
0
LINE
5
294
100
AcDbEntity
8
0
100
AcDbLine
10
192.62173468459409
20
67.99999988079071
30
0
11
192.62173468459409
21
70.99999988079071
31
0
0
LINE
5
295
100
AcDbEntity
8
0
100
AcDbLine
10
-16.687239020749523
20
120.90618775249067
30
0
11
-34.521711509447037
21
146.37645408852106
31
0
0
LINE
5
296
100
AcDbEntity
8
0
100
AcDbLine
10
1.4782884905529614
20
174.4974746830583
30
0
11
-1.0217115094470364
21
174.4974746830583
31
0
0
LINE
5
297
100
AcDbEntity
8
0
100
AcDbLine
10
246.4782884905529
20
189.4974746830583
30
0
11
278.97828849055293
21
189.4974746830583
31
0
0
LINE
5
298
100
AcDbEntity
8
0
100
AcDbLine
10
3.6817346845940713
20
91.485718519932533
30
0
11
-3.7026838492747016
21
102.03176113002691
31
0
0
LINE
5
299
100
AcDbEntity
8
0
100
AcDbLine
10
120.17173468459407
20
67.985718519932533
30
0
11
120.17173468459407
21
70.985718519932547
31
0
0
LINE
5
300
100
AcDbEntity
8
0
100
AcDbLine
10
90.171734684594071
20
67.985718519932533
30
0
11
120.17173468459407
21
67.985718519932533
31
0
0
LINE
5
301
100
AcDbEntity
8
0
100
AcDbLine
10
120.17173468459407
20
70.985718519932547
30
0
11
123.92173468459407
21
70.985718519932547
31
0
0
LINE
5
302
100
AcDbEntity
8
0
100
AcDbLine
10
90.171734684594071
20
70.985718519932533
30
0
11
90.171734684594071
21
67.985718519932533
31
0
0
LINE
5
303
100
AcDbEntity
8
0
100
AcDbLine
10
-34.521711509447037
20
151.93735451127344
30
0
11
-34.521711509447037
21
146.37645408852106
31
0
0
LINE
5
304
100
AcDbEntity
8
0
100
AcDbLine
10
71.478288490552984
20
189.4974746830583
30
0
11
71.478288490552984
21
174.4974746830583
31
0
0
LINE
5
305
100
AcDbEntity
8
0
100
AcDbLine
10
-34.521711509447037
20
182.33735451127345
30
0
11
-31.121711509447039
21
182.33735451127345
31
0
0
LINE
5
306
100
AcDbEntity
8
0
100
AcDbLine
10
246.4782884905529
20
174.4974746830583
30
0
11
243.9782884905529
21
174.4974746830583
31
0
0
LINE
5
307
100
AcDbEntity
8
0
100
AcDbLine
10
106.47828849055294
20
174.4974746830583
30
0
11
103.97828849055294
21
174.4974746830583
31
0
0
LINE
5
308
100
AcDbEntity
8
0
100
AcDbLine
10
103.97828849055294
20
174.4974746830583
30
0
11
103.97828849055294
21
189.4974746830583
31
0
0
LINE
5
309
100
AcDbEntity
8
0
100
AcDbLine
10
141.47828849055296
20
189.4974746830583
30
0
11
173.97828849055293
21
189.4974746830583
31
0
0
LINE
5
310
100
AcDbEntity
8
0
100
AcDbLine
10
71.478288490552984
20
174.4974746830583
30
0
11
68.978288490552984
21
174.4974746830583
31
0
0
LINE
5
311
100
AcDbEntity
8
0
100
AcDbLine
10
281.47828849055293
20
189.4974746830583
30
0
11
299.87747468305838
21
189.4974746830583
31
0
0
LINE
5
312
100
AcDbEntity
8
0
100
AcDbLine
10
36.478288490552963
20
189.4974746830583
30
0
11
68.978288490552984
21
189.4974746830583
31
0
0
LINE
5
313
100
AcDbEntity
8
0
100
AcDbLine
10
3.6817346845940713
20
91.485718519932533
30
0
11
12.431734684594069
21
91.485718519932533
31
0
0
LINE
5
314
100
AcDbEntity
8
0
100
AcDbLine
10
299.87747468305838
20
129.50070226193509
30
0
11
299.87747468305838
21
149.29747468305831
31
0
0
LINE
5
315
100
AcDbEntity
8
0
100
AcDbLine
10
222.62173468459409
20
70.99999988079071
30
0
11
222.62173468459409
21
67.99999988079071
31
0
0
LINE
5
316
100
AcDbEntity
8
0
100
AcDbLine
10
262.26502231591508
20
92.022734272413786
30
0
11
284.678641373971
21
111.96338824163838
31
0
0
LINE
5
317
100
AcDbEntity
8
0
100
AcDbLine
10
282.68457597704861
20
114.20475014744397
30
0
11
299.87747468305838
21
129.50070226193509
31
0
0
LINE
5
318
100
AcDbEntity
8
0
100
AcDbLine
10
103.97828849055294
20
174.4974746830583
30
0
11
103.97828849055294
21
189.4974746830583
31
0
0
LINE
5
319
100
AcDbEntity
8
0
100
AcDbLine
10
211.4782884905529
20
174.4974746830583
30
0
11
208.9782884905529
21
174.4974746830583
31
0
0
LINE
5
320
100
AcDbEntity
8
0
100
AcDbLine
10
234.12173468459412
20
70.99999988079071
30
0
11
260.27095691899268
21
94.26409617821939
31
0
0
LINE
5
321
100
AcDbEntity
8
0
100
AcDbLine
10
208.9782884905529
20
174.4974746830583
30
0
11
208.9782884905529
21
189.4974746830583
31
0
0
LINE
5
322
100
AcDbEntity
8
0
100
AcDbLine
10
141.47828849055296
20
174.4974746830583
30
0
11
138.97828849055296
21
174.4974746830583
31
0
0
LINE
5
323
100
AcDbEntity
8
0
100
AcDbLine
10
-14.074470474656771
20
122.73566798406205
30
0
11
-19.300007566842282
21
119.0767075209193
31
0
0
LINE
5
324
100
AcDbEntity
8
0
100
AcDbLine
10
173.97828849055293
20
174.4974746830583
30
0
11
173.97828849055293
21
189.4974746830583
31
0
0
LINE
5
325
100
AcDbEntity
8
0
100
AcDbLine
10
106.47828849055294
20
189.4974746830583
30
0
11
106.47828849055294
21
174.4974746830583
31
0
0
LINE
5
326
100
AcDbEntity
8
0
100
AcDbLine
10
27.431734684594069
20
88.485718519932533
30
0
11
12.431734684594069
21
88.485718519932533
31
0
0
LINE
5
327
100
AcDbEntity
8
0
100
AcDbLine
10
12.431734684594069
20
88.485718519932533
30
0
11
12.431734684594069
21
91.485718519932533
31
0
0
LINE
5
328
100
AcDbEntity
8
0
100
AcDbLine
10
284.678641373971
20
111.96338824163838
30
0
11
282.68457597704861
21
114.20475014744397
31
0
0
LINE
5
329
100
AcDbEntity
8
0
100
AcDbLine
10
33.97828849055297
20
174.4974746830583
30
0
11
33.97828849055297
21
189.4974746830583
31
0
0
LINE
5
330
100
AcDbEntity
8
0
100
AcDbLine
10
-6.1601399821416791
20
100.3110318209738
30
0
11
-19.300007566842282
21
119.0767075209193
31
0
0
LINE
5
331
100
AcDbEntity
8
0
100
AcDbLine
10
106.47828849055294
20
189.4974746830583
30
0
11
138.97828849055296
21
189.4974746830583
31
0
0
LINE
5
332
100
AcDbEntity
8
0
100
AcDbLine
10
281.47828849055293
20
174.4974746830583
30
0
11
278.97828849055293
21
174.4974746830583
31
0
0
LINE
5
333
100
AcDbEntity
8
0
100
AcDbLine
10
-31.121711509447039
20
189.4974746830583
30
0
11
-1.0217115094470364
21
189.4974746830583
31
0
0
LINE
5
334
100
AcDbEntity
8
0
100
AcDbLine
10
106.47828849055294
20
174.4974746830583
30
0
11
103.97828849055294
21
174.4974746830583
31
0
0
LINE
5
335
100
AcDbEntity
8
0
100
AcDbLine
10
243.9782884905529
20
174.4974746830583
30
0
11
243.9782884905529
21
189.4974746830583
31
0
0
LINE
5
336
100
AcDbEntity
8
0
100
AcDbLine
10
299.87747468305838
20
169.69747468305832
30
0
11
299.87747468305838
21
189.4974746830583
31
0
0
LINE
5
337
100
AcDbEntity
8
0
100
AcDbLine
10
-3.7026838492747016
20
102.03176113002691
30
0
11
-6.1601399821416791
21
100.3110318209738
31
0
0
LINE
5
338
100
AcDbEntity
8
0
100
AcDbLine
10
36.478288490552963
20
189.4974746830583
30
0
11
36.478288490552963
21
174.4974746830583
31
0
0
LINE
5
339
100
AcDbEntity
8
0
100
AcDbLine
10
176.47828849055293
20
189.4974746830583
30
0
11
208.9782884905529
21
189.4974746830583
31
0
0
LINE
5
340
100
AcDbEntity
8
0
100
AcDbLine
10
1.4782884905529614
20
189.4974746830583
30
0
11
1.4782884905529614
21
174.4974746830583
31
0
0
LINE
5
341
100
AcDbEntity
8
0
100
AcDbLine
10
-31.121711509447039
20
182.33735451127345
30
0
11
-31.121711509447039
21
189.4974746830583
31
0
0
LINE
5
342
100
AcDbEntity
8
0
100
AcDbLine
10
303.27747468305836
20
169.69747468305832
30
0
11
299.87747468305838
21
169.69747468305832
31
0
0
LINE
5
343
100
AcDbEntity
8
0
100
AcDbLine
10
138.97828849055296
20
174.4974746830583
30
0
11
138.97828849055296
21
189.4974746830583
31
0
0
LINE
5
344
100
AcDbEntity
8
0
100
AcDbLine
10
222.62173468459409
20
67.99999988079071
30
0
11
192.62173468459409
21
67.99999988079071
31
0
0
LINE
5
345
100
AcDbEntity
8
0
100
AcDbLine
10
303.27747468305836
20
149.29747468305831
30
0
11
303.27747468305836
21
169.69747468305832
31
0
0
LINE
5
346
100
AcDbEntity
8
0
100
AcDbLine
10
123.92173468459407
20
70.985718519932547
30
0
11
125.8246280087389
21
70.985718519932547
31
0
0
LINE
5
347
100
AcDbEntity
8
0
100
AcDbLine
10
176.47828849055293
20
174.4974746830583
30
0
11
173.97828849055293
21
174.4974746830583
31
0
0
LINE
5
348
100
AcDbEntity
8
0
100
AcDbLine
10
246.4782884905529
20
189.4974746830583
30
0
11
246.4782884905529
21
174.4974746830583
31
0
0
LINE
5
349
100
AcDbEntity
8
0
100
AcDbLine
10
222.62173468459409
20
70.99999988079071
30
0
11
234.12173468459412
21
70.99999988079071
31
0
0
LINE
5
350
100
AcDbEntity
8
0
100
AcDbLine
10
299.87747468305838
20
149.29747468305831
30
0
11
303.27747468305836
21
149.29747468305831
31
0
0
LINE
5
351
100
AcDbEntity
8
0
100
AcDbLine
10
211.4782884905529
20
189.4974746830583
30
0
11
243.9782884905529
21
189.4974746830583
31
0
0
LINE
5
352
100
AcDbEntity
8
0
100
AcDbLine
10
176.47828849055293
20
189.4974746830583
30
0
11
176.47828849055293
21
174.4974746830583
31
0
0
LINE
5
353
100
AcDbEntity
8
0
100
AcDbLine
10
211.4782884905529
20
189.4974746830583
30
0
11
211.4782884905529
21
174.4974746830583
31
0
0
LINE
5
354
100
AcDbEntity
8
0
100
AcDbLine
10
71.478288490552984
20
189.4974746830583
30
0
11
103.97828849055294
21
189.4974746830583
31
0
0
LINE
5
355
100
AcDbEntity
8
0
100
AcDbLine
10
141.47828849055296
20
189.4974746830583
30
0
11
141.47828849055296
21
174.4974746830583
31
0
0
LINE
5
356
100
AcDbEntity
8
0
100
AcDbLine
10
36.478288490552963
20
174.4974746830583
30
0
11
33.97828849055297
21
174.4974746830583
31
0
0
LINE
5
357
100
AcDbEntity
8
0
100
AcDbLine
10
68.978288490552984
20
174.4974746830583
30
0
11
68.978288490552984
21
189.4974746830583
31
0
0
LINE
5
358
100
AcDbEntity
8
0
100
AcDbLine
10
-34.521711509447037
20
151.93735451127344
30
0
11
-34.521711509447037
21
182.33735451127345
31
0
0
LINE
5
359
100
AcDbEntity
8
0
100
AcDbLine
10
278.97828849055293
20
174.4974746830583
30
0
11
278.97828849055293
21
189.4974746830583
31
0
0
LINE
5
360
100
AcDbEntity
8
0
100
AcDbLine
10
281.47828849055293
20
189.4974746830583
30
0
11
281.47828849055293
21
174.4974746830583
31
0
0
LWPOLYLINE
5
361
100
AcDbEntity
8
0
100
AcDbPolyline
90
4
70
1
43
0.0
10
130.00000616852049
20
-79.79992549422812
10
40.000006168520628
20
-79.799925494238352
10
40.000006168520521
20
-62.79992549422812
10
130.00000616852049
20
-62.79992549422812
0
CIRCLE
5
362
100
AcDbEntity
8
0
100
AcDbCircle
10
72.000000596046462
20
-47.799925494228113
30
0
40
1.3500000000000001
0
ELLIPSE
5
363
100
AcDbEntity
8
0
100
AcDbEllipse
10
125
20
-5
30
0
11
2.5
21
0
31
0.0
40
0.60000000000000009
41
0
42
6.2831853071795862
0
LWPOLYLINE
5
364
100
AcDbEntity
8
0
100
AcDbPolyline
90
4
70
1
43
0.0
10
181.26095818821773
20
-78.649084964297415
10
177.26095818818982
20
-78.654543997880324
10
177.2609581882169
20
-49.149164387628524
10
181.26095818821688
20
-49.149084964297423
0
LWPOLYLINE
5
365
100
AcDbEntity
8
0
100
AcDbPolyline
90
4
70
1
43
0.0
10
130.00000238417329
20
31.000074505704305
10
130.00000238415288
20
14.000074505704298
10
40.000002384175382
20
14.000074505696173
10
40.000002384179751
20
31.000074505817551
0
LWPOLYLINE
5
366
100
AcDbEntity
8
0
100
AcDbPolyline
90
4
70
1
43
0.0
10
-22.051758539330002
20
-48.549925494209191
10
-19.351758539330003
20
-48.549925494209191
10
-19.351758539330003
20
-78.549925494209191
10
-22.051758539330002
20
-78.549925494209191
0
LWPOLYLINE
5
367
100
AcDbEntity
8
0
100
AcDbPolyline
90
4
70
1
43
0.0
10
177.2609581901942
20
30.885679600391608
10
181.26095819019417
20
30.887492546229893
10
181.26095819019426
20
1.3874925462298693
10
177.26096062301653
20
1.3810911407687065
0
LWPOLYLINE
5
368
100
AcDbEntity
8
0
100
AcDbPolyline
90
4
70
1
43
0.0
10
165.76119418844883
20
-92.822090892845779
10
135.76103998848882
20
-92.910728027061609
10
135.76119418844928
20
-90.210728027061606
10
165.76119418844925
20
-90.12209089284579
0
LWPOLYLINE
5
369
100
AcDbEntity
8
0
100
AcDbPolyline
90
4
70
1
43
0.0
10
-25.482846809568898
20
-99.799925494355676
10
187.26095819019798
20
-99.799925494346098
10
187.26095819019366
20
51.000074505903605
10
-25.482846809575399
20
51.000074505878032
0
LWPOLYLINE
5
370
100
AcDbEntity
8
0
100
AcDbPolyline
90
4
70
1
43
0.0
10
-19.351758539330003
20
1.4500745057908127
10
-22.051758539330002
20
1.4500745057908127
10
-22.051758539330002
20
31.450074505790813
10
-19.351758539330003
20
31.450074505790813
0
LINE
5
371
100
AcDbEntity
8
0
100
AcDbLine
10
122.5
20
-45
30
0
11
127.5
21
-45
31
0
0
LINE
5
372
100
AcDbEntity
8
0
100
AcDbLine
10
125
20
-46.5
30
0
11
125
21
-43.500000000000007
31
0
0
LWPOLYLINE
5
373
100
AcDbEntity
8
0
100
AcDbPolyline
90
4
70
1
43
0.0
10
136.25516501787126
20
42.966107018421823
10
136.25531545055
20
45.666107018421812
10
166.25517227125894
20
45.794289829237265
10
166.25516501787126
20
43.094289829237262
0
CIRCLE
5
374
100
AcDbEntity
8
0
100
AcDbCircle
10
99.000000596046576
20
-0.99992549430093725
30
0
40
1.3500000000000001
0
CIRCLE
5
375
100
AcDbEntity
8
0
100
AcDbCircle
10
72.000000596046462
20
-39.799925494228113
30
0
40
1.3500000000000001
0
LWPOLYLINE
5
376
100
AcDbEntity
8
0
100
AcDbPolyline
90
4
70
1
43
0.0
10
35.76095819019379
20
45.666107018421812
10
65.760961729579407
20
45.666107018421812
10
65.760961729579464
20
42.966107018421823
10
35.760961729579471
20
42.966107018421823
0
CIRCLE
5
377
100
AcDbEntity
8
0
100
AcDbCircle
10
72.000000596046561
20
-0.99992549430093725
30
0
40
1.3500000000000001
0
LWPOLYLINE
5
378
100
AcDbEntity
8
0
100
AcDbPolyline
90
4
70
1
43
0.0
10
65.260958190194927
20
-90.292149141394859
10
65.260958193970978
20
-92.992149141394847
10
35.258099213870466
20
-92.992149141394847
10
35.260958190194927
20
-90.292149141394859
0
CIRCLE
5
379
100
AcDbEntity
8
0
100
AcDbCircle
10
99.000000596046476
20
-39.799925494228113
30
0
40
1.3500000000000001
0
ELLIPSE
5
380
100
AcDbEntity
8
0
100
AcDbEllipse
10
55
20
-5
30
0
11
2.5
21
0
31
0.0
40
0.60000000000000009
41
0
42
6.2831853071795862
0
LINE
5
381
100
AcDbEntity
8
0
100
AcDbLine
10
52.5
20
-45
30
0
11
57.5
21
-45
31
0
0
LINE
5
382
100
AcDbEntity
8
0
100
AcDbLine
10
125
20
-6.5000000000000018
30
0
11
125
21
-3.5000000000000009
31
0
0
LINE
5
383
100
AcDbEntity
8
0
100
AcDbLine
10
55
20
-6.5000000000000018
30
0
11
55
21
-3.5000000000000009
31
0
0
CIRCLE
5
384
100
AcDbEntity
8
0
100
AcDbCircle
10
72.000000596046561
20
-8.9999254943009355
30
0
40
1.3500000000000001
0
LINE
5
385
100
AcDbEntity
8
0
100
AcDbLine
10
52.5
20
-5
30
0
11
57.5
21
-5
31
0
0
ELLIPSE
5
386
100
AcDbEntity
8
0
100
AcDbEllipse
10
55
20
-45
30
0
11
2.5
21
0
31
0.0
40
0.60000000000000009
41
0
42
6.2831853071795862
0
CIRCLE
5
387
100
AcDbEntity
8
0
100
AcDbCircle
10
99.000000596046476
20
-47.799925494228113
30
0
40
1.3500000000000001
0
LINE
5
388
100
AcDbEntity
8
0
100
AcDbLine
10
122.5
20
-5
30
0
11
127.5
21
-5
31
0
0
ELLIPSE
5
389
100
AcDbEntity
8
0
100
AcDbEllipse
10
125
20
-45
30
0
11
2.5
21
0
31
0.0
40
0.60000000000000009
41
0
42
6.2831853071795862
0
LINE
5
390
100
AcDbEntity
8
0
100
AcDbLine
10
55
20
-46.5
30
0
11
55
21
-43.500000000000007
31
0
0
CIRCLE
5
391
100
AcDbEntity
8
0
100
AcDbCircle
10
99.000000596046576
20
-8.9999254943009355
30
0
40
1.3500000000000001
0
LWPOLYLINE
5
392
100
AcDbEntity
8
0
100
AcDbPolyline
90
4
70
1
43
0.0
10
312.40000616840433
20
230.99999416890509
10
312.40000616840433
20
260.99999289947391
10
316.40000616841405
20
260.99999289946987
10
316.40000616840433
20
230.9999977958513
0
LWPOLYLINE
5
393
100
AcDbEntity
8
0
100
AcDbPolyline
90
4
70
1
43
0.0
10
339.70000616844146
20
352.50007450579432
10
325.00000616844147
20
352.50007450580756
10
325.00000616844034
20
355.20007450578851
10
339.70000616844038
20
355.20007450579436
0
LWPOLYLINE
5
394
100
AcDbEntity
8
0
100
AcDbPolyline
90
4
70
1
43
0.0
10
325.30000616844336
20
217.00007450581523
10
325.30000598921163
20
219.70007450579615
10
340.00000598921162
20
219.70007450580201
10
340.00000600248904
20
217.00007450580202
0
CIRCLE
5
395
100
AcDbEntity
8
0
100
AcDbCircle
10
321.99999999999994
20
286.00007450583263
30
0
40
3.7749999999999999
0
LWPOLYLINE
5
396
100
AcDbEntity
8
0
100
AcDbPolyline
90
4
70
1
43
0.0
10
350.60000616840432
20
230.79999534766108
10
347.90000616840427
20
230.79999289947239
10
347.90000616840427
20
260.99999289947237
10
350.60000616841398
20
260.99999289946965
0
LWPOLYLINE
5
397
100
AcDbEntity
8
0
100
AcDbPolyline
90
5
70
1
43
0.0
10
354.74227700245626
20
211.00007450583377
10
354.74227700245626
20
211.20014668704135
10
354.74227700244955
20
361.00007450580307
10
305.00000616845921
20
361.00007450575896
10
305.00000616828765
20
211.00007450583149
0
LWPOLYLINE
5
398
100
AcDbEntity
8
0
100
AcDbPolyline
90
4
70
1
43
0.0
10
312.40000616840643
20
341.00007450584286
10
316.40000616840655
20
341.00007450584286
10
316.40000616840655
20
311.0000745058428
10
312.40000616840655
20
311.0000745058428
0
LWPOLYLINE
5
399
100
AcDbEntity
8
0
100
AcDbPolyline
90
4
70
1
43
0.0
10
347.90000616840649
20
341.00007450584286
10
350.60000616840659
20
341.00007450584286
10
350.60000616840659
20
310.80007450584287
10
347.90000616840655
20
310.80007450584287
0
LINE
5
400
100
AcDbEntity
8
0
100
AcDbLine
10
312.40000616840433
20
260.99999289947391
30
0
11
312.40000616840433
21
230.99999416890509
31
0
0
LINE
5
401
100
AcDbEntity
8
0
100
AcDbLine
10
316.40000616840433
20
230.9999977958513
30
0
11
316.40000616841405
21
260.99999289946987
31
0
0
LINE
5
402
100
AcDbEntity
8
0
100
AcDbLine
10
312.40000616840655
20
311.0000745058428
30
0
11
316.40000616840655
21
311.0000745058428
31
0
0
LINE
5
403
100
AcDbEntity
8
0
100
AcDbLine
10
312.40000616840433
20
230.99999416890509
30
0
11
316.40000616840433
21
230.9999977958513
31
0
0
LINE
5
404
100
AcDbEntity
8
0
100
AcDbLine
10
316.40000616841405
20
260.99999289946987
30
0
11
312.40000616840433
21
260.99999289947391
31
0
0
LINE
5
405
100
AcDbEntity
8
0
100
AcDbLine
10
312.40000616840643
20
341.00007450584286
30
0
11
312.40000616840655
21
311.0000745058428
31
0
0
LINE
5
406
100
AcDbEntity
8
0
100
AcDbLine
10
316.40000616840655
20
341.00007450584286
30
0
11
312.40000616840643
21
341.00007450584286
31
0
0
LINE
5
407
100
AcDbEntity
8
0
100
AcDbLine
10
316.40000616840655
20
311.0000745058428
30
0
11
316.40000616840655
21
341.00007450584286
31
0
0
LWPOLYLINE
5
408
100
AcDbEntity
8
0
100
AcDbPolyline
90
20
70
1
43
0.0
10
96.000074505803099
20
217.5
10
96.000074505803099
20
220.5
10
66.000074505803099
20
220.5
10
66.000074505803099
20
217.5
10
16.20014668704134
20
217.5
10
16.20014668704134
20
220.5
10
-13.79985331295865
20
220.5
10
-13.79985331295865
20
217.5
10
-33.799853312958646
20
217.5
10
-33.799853312958646
20
200
10
-13.799925494209191
20
200
10
-13.799925494209191
20
197
10
16.200074505790809
20
197
10
16.200074505790809
20
200
10
66.387492546229879
20
200
10
66.387492546229865
20
197
10
96.387492546229865
20
197
10
96.387492546229865
20
200
10
116.0000745058031
20
200
10
116.0000745058031
20
217.5
0
LWPOLYLINE
5
409
100
AcDbEntity
8
0
100
AcDbPolyline
90
4
70
1
43
0.0
10
170
20
10.228823818176309
10
133.57929186090723
20
10.228823818176309
10
133.57929186090723
20
-60
10
170
20
-60
0
ENDSEC
0
SECTION
2
OBJECTS
0
DICTIONARY
5
C
100
AcDbDictionary
3
ACAD_GROUP
350
D
3
ACAD_MLINESTYLE
350
17
0
DICTIONARY
5
D
100
AcDbDictionary
0
DICTIONARY
5
1A
330
C
100
AcDbDictionary
0
DICTIONARY
5
17
100
AcDbDictionary
0
ENDSEC
0
EOF
