0
SECTION
2
HEADER
9
$INSUNITS
70
4
9
$ACADVER
1
AC1014
9
$HANDSEED
5
FFFF
0
ENDSEC
0
SECTION
2
TABLES
0
TABLE
2
VPORT
5
8
100
AcDbSymbolTable
0
ENDTAB
0
TABLE
2
LTYPE
5
5
100
AcDbSymbolTable
0
LTYPE
5
14
100
AcDbSymbolTableRecord
100
AcDbLinetypeTableRecord
2
BYBLOCK
70
0
0
LTYPE
5
15
100
AcDbSymbolTableRecord
100
AcDbLinetypeTableRecord
2
BYLAYER
70
0
0
ENDTAB
0
TABLE
2
LAYER
5
2
100
AcDbSymbolTable
70
2
0
LAYER
5
50
100
AcDbSymbolTableRecord
100
AcDbLayerTableRecord
2
0
70
0
6
CONTINUOUS
0
ENDTAB
0
TABLE
2
STYLE
5
3
100
AcDbSymbolTable
70
1
0
STYLE
5
11
100
AcDbSymbolTableRecord
100
AcDbTextStyleTableRecord
2
STANDARD
70
0
0
ENDTAB
0
TABLE
2
VIEW
5
6
100
AcDbSymbolTable
70
0
0
ENDTAB
0
TABLE
2
UCS
5
7
100
AcDbSymbolTable
70
0
0
ENDTAB
0
TABLE
2
APPID
5
9
100
AcDbSymbolTable
70
2
0
APPID
5
12
100
AcDbSymbolTableRecord
100
AcDbRegAppTableRecord
2
ACAD
70
0
0
ENDTAB
0
TABLE
2
DIMSTYLE
5
A
100
AcDbSymbolTable
70
1
0
ENDTAB
0
TABLE
2
BLOCK_RECORD
5
1
100
AcDbSymbolTable
70
1
0
BLOCK_RECORD
5
1F
100
AcDbSymbolTableRecord
100
AcDbBlockTableRecord
2
*MODEL_SPACE
0
BLOCK_RECORD
5
1B
100
AcDbSymbolTableRecord
100
AcDbBlockTableRecord
2
*PAPER_SPACE
0
ENDTAB
0
ENDSEC
0
SECTION
2
BLOCKS
0
BLOCK
5
20
100
AcDbEntity
100
AcDbBlockBegin
2
*MODEL_SPACE
0
ENDBLK
5
21
100
AcDbEntity
100
AcDbBlockEnd
0
BLOCK
5
1C
100
AcDbEntity
100
AcDbBlockBegin
2
*PAPER_SPACE
0
ENDBLK
5
1D
100
AcDbEntity
100
AcDbBlockEnd
0
ENDSEC
0
SECTION
2
ENTITIES
0
ARC
5
100
100
AcDbEntity
8
0
100
AcDbCircle
10
119.49999663816166
20
133.00000336183837
30
0
40
4.4999966381629033
100
AcDbArc
50
89.999957195712696
51
180.00004279952898
0
LINE
5
101
100
AcDbEntity
8
0
100
AcDbLine
10
119.50000000066332
20
128.5
30
0
11
215.50000009510916
21
128.5
31
0
0
ARC
5
102
100
AcDbEntity
8
0
100
AcDbCircle
10
119.49999663816169
20
132.99999663816169
30
0
40
4.4999966381629211
100
AcDbArc
50
179.99995720047102
51
270.00004281273249
0
LINE
5
103
100
AcDbEntity
8
0
100
AcDbLine
10
221
20
137.7163716118958
30
0
11
235.50004822637217
21
137.4999999997776
31
0
0
ARC
5
104
100
AcDbEntity
8
0
100
AcDbCircle
10
215.50000336183828
20
132.99999663816175
30
0
40
4.4999966381629042
100
AcDbArc
50
269.99995840668186
51
359.76723612124783
0
ARC
5
105
100
AcDbEntity
8
0
100
AcDbCircle
10
235.50000336183828
20
133.00000336183828
30
0
40
4.4999966381629664
100
AcDbArc
50
-4.2799528968783063e-05
51
89.999428766586192
0
ARC
5
106
100
AcDbEntity
8
0
100
AcDbCircle
10
119.49999663816169
20
31.999996638161676
30
0
40
4.4999966381629388
100
AcDbArc
50
179.99995720047102
51
270.00004280428698
0
LINE
5
107
100
AcDbEntity
8
0
100
AcDbLine
10
220
20
27.5
30
0
11
220
21
32
31
0
0
LINE
5
108
100
AcDbEntity
8
0
100
AcDbLine
10
205.03214059523853
20
92.499627493958783
30
0
11
235.56431835930667
21
92.06346996010663
31
0
0
LINE
5
109
100
AcDbEntity
8
0
100
AcDbLine
10
240
20
77.43616999999999
30
0
11
240
21
77.436270000000007
31
0
0
LINE
5
110
100
AcDbEntity
8
0
100
AcDbLine
10
235.5
20
27.5
30
0
11
220
21
27.5
31
0
0
ARC
5
111
100
AcDbEntity
8
0
100
AcDbCircle
10
189.4999849909284
20
67.999954610601307
30
0
40
4.4999759547997549
100
AcDbArc
50
89.999808896992064
51
179.99942208100353
0
LINE
5
112
100
AcDbEntity
8
0
100
AcDbLine
10
189.50000000025591
20
92.500085387503532
30
0
11
204.96785925906752
21
92.500087476072949
31
0
0
LINE
5
113
100
AcDbEntity
8
0
100
AcDbLine
10
240
20
82.5
30
0
11
240
21
77.43616999999999
31
0
0
LINE
5
114
100
AcDbEntity
8
0
100
AcDbLine
10
240
20
133
30
0
11
240
21
119.50000000000001
31
0
0
ARC
5
115
100
AcDbEntity
8
0
100
AcDbCircle
10
215.50000336183837
20
32.000003361838367
30
0
40
4.4999966381629033
100
AcDbArc
50
-4.2799528968783063e-05
51
90.000042804287858
0
LINE
5
116
100
AcDbEntity
8
0
100
AcDbLine
10
240
20
119.50000000000001
30
0
11
205
21
119.50000000000001
31
0
0
LINE
5
117
100
AcDbEntity
8
0
100
AcDbLine
10
219.99996286636289
20
132.98171546981663
30
0
11
221
21
137.7163716118958
31
0
0
ARC
5
118
100
AcDbEntity
8
0
100
AcDbCircle
10
119.49999663816166
20
50.000003361838338
30
0
40
4.4999966381629211
100
AcDbArc
50
89.99995719842731
51
180.00004279952898
0
ARC
5
119
100
AcDbEntity
8
0
100
AcDbCircle
10
189.49999959551741
20
67.999991998654068
30
0
40
4.4999905591725033
100
AcDbArc
50
179.99989812508971
51
270.00004304008519
0
LINE
5
120
100
AcDbEntity
8
0
100
AcDbLine
10
204.96350880167924
20
72.499924130546702
30
0
11
189.50000000004334
21
72.499930565376033
31
0
0
LINE
5
121
100
AcDbEntity
8
0
100
AcDbLine
10
205.03649350883336
20
72.500446476072938
30
0
11
204.96350880167924
21
72.499924130546702
31
0
0
LINE
5
122
100
AcDbEntity
8
0
100
AcDbLine
10
239.99999991669011
20
87.563878500002176
30
0
11
240
21
82.5
31
0
0
LINE
5
123
100
AcDbEntity
8
0
100
AcDbLine
10
239.99999991688864
20
87.563778500002186
30
0
11
239.99999991669011
21
87.563878500002176
31
0
0
LINE
5
124
100
AcDbEntity
8
0
100
AcDbLine
10
215.49999999999997
20
36.500000000000014
30
0
11
119.50000000000001
21
36.5
31
0
0
LINE
5
125
100
AcDbEntity
8
0
100
AcDbLine
10
205
20
45.5
30
0
11
240
21
45.5
31
0
0
LINE
5
126
100
AcDbEntity
8
0
100
AcDbLine
10
119.50000000000001
20
45.5
30
0
11
205
21
45.5
31
0
0
ARC
5
127
100
AcDbEntity
8
0
100
AcDbCircle
10
119.50357029356539
20
115.00184612526576
30
0
40
4.49815529164011
100
AcDbArc
50
90.045476906795031
51
180.02351207327564
0
ARC
5
128
100
AcDbEntity
8
0
100
AcDbCircle
10
119.49999663816166
20
49.999996638161676
30
0
40
4.4999966381629211
100
AcDbArc
50
179.99995720047102
51
270.00004280428726
0
ARC
5
129
100
AcDbEntity
8
0
100
AcDbCircle
10
235.50000177688074
20
77.436172137141199
30
0
40
4.4999982241833978
100
AcDbArc
50
-89.181706552508899
51
0.0012460290370762562
0
LINE
5
130
100
AcDbEntity
8
0
100
AcDbLine
10
240
20
45.5
30
0
11
240
21
32
31
0
0
ARC
5
131
100
AcDbEntity
8
0
100
AcDbCircle
10
119.49999663816169
20
32.000003361838331
30
0
40
4.4999966381629299
100
AcDbArc
50
89.999957195713051
51
180.00004279952898
0
LINE
5
132
100
AcDbEntity
8
0
100
AcDbLine
10
235.56426818375982
20
72.936632845499844
30
0
11
235.5642998064944
21
72.936537977156036
31
0
0
ARC
5
133
100
AcDbEntity
8
0
100
AcDbCircle
10
189.49997228112466
20
97.000049778720637
30
0
40
4.4999643913514733
100
AcDbArc
50
180.00063380661646
51
270.00035293373338
0
ARC
5
134
100
AcDbEntity
8
0
100
AcDbCircle
10
235.50002099405066
20
87.563784890056439
30
0
40
4.4999789228425229
100
AcDbArc
50
-8.1359745812185439e-05
51
89.182008073127477
0
ARC
5
135
100
AcDbEntity
8
0
100
AcDbCircle
10
119.48279899564362
20
115.02889442550007
30
0
40
4.4774768462994778
100
AcDbArc
50
180.36974527123854
51
270.22011268764368
0
ARC
5
136
100
AcDbEntity
8
0
100
AcDbCircle
10
235.50000336183837
20
31.99999663816164
30
0
40
4.4999966381629033
100
AcDbArc
50
-90.000042804287489
51
4.279952897278051e-05
0
LINE
5
137
100
AcDbEntity
8
0
100
AcDbLine
10
204.96785925906752
20
92.500087476072949
30
0
11
205.03214059523853
21
92.499627493958783
31
0
0
ARC
5
138
100
AcDbEntity
8
0
100
AcDbCircle
10
189.50000078327193
20
97.000005858640662
30
0
40
4.49999289322722
100
AcDbArc
50
90.00000997296651
51
180.00007459167787
0
LINE
5
139
100
AcDbEntity
8
0
100
AcDbLine
10
235.5642998064944
20
72.936537977156036
30
0
11
205.03649350883336
21
72.500446476072938
31
0
0
LINE
5
140
100
AcDbEntity
8
0
100
AcDbLine
10
205
20
119.50000000000001
30
0
11
119.50000001021805
21
119.50000000000001
31
0
0
LINE
5
141
100
AcDbEntity
8
0
100
AcDbLine
10
235.56431835930667
20
92.06346996010663
30
0
11
235.56426344644535
21
92.063305221529262
31
0
0
LINE
5
142
100
AcDbEntity
8
0
100
AcDbLine
10
119.50000000000001
20
137.5
30
0
11
200
21
137.5
31
0
0
LINE
5
143
100
AcDbEntity
8
0
100
AcDbLine
10
200
20
137.5
30
0
11
200
21
162.5
31
0
0
LINE
5
144
100
AcDbEntity
8
0
100
AcDbLine
10
189.49999999999821
20
101.49999875186781
30
0
11
199.99999999999997
21
101.49999875186776
31
0
0
LINE
5
145
100
AcDbEntity
8
0
100
AcDbLine
10
199.99999999999997
20
101.49999875186776
30
0
11
199.99999999999997
21
110.55145061978402
31
0
0
LINE
5
146
100
AcDbEntity
8
0
100
AcDbLine
10
119.50000003639494
20
110.55145061978402
30
0
11
199.99999999999997
21
110.55145061978402
31
0
0
LINE
5
147
100
AcDbEntity
8
0
100
AcDbLine
10
189.5000029758707
20
63.500001439490816
30
0
11
199.99999999999994
21
63.500009327007248
31
0
0
LINE
5
148
100
AcDbEntity
8
0
100
AcDbLine
10
199.99999999999994
20
63.500009327007248
30
0
11
200
21
54.499999999999993
31
0
0
LINE
5
149
100
AcDbEntity
8
0
100
AcDbLine
10
200
20
54.499999999999993
30
0
11
119.49999999978681
21
54.5
31
0
0
LINE
5
150
100
AcDbEntity
8
0
100
AcDbLine
10
119.50000000000001
20
27.499999999999993
30
0
11
200
21
27.5
31
0
0
LINE
5
151
100
AcDbEntity
8
0
100
AcDbLine
10
200
20
27.5
30
0
11
200
21
2.5
31
0
0
LINE
5
152
100
AcDbEntity
8
0
100
AcDbLine
10
200
20
162.5
30
0
11
-700
21
162.5
31
0
0
LINE
5
153
100
AcDbEntity
8
0
100
AcDbLine
10
-700
20
162.5
30
0
11
-700
21
2.5
31
0
0
LINE
5
154
100
AcDbEntity
8
0
100
AcDbLine
10
-700
20
2.5
30
0
11
200
21
2.5
31
0
0
ENDSEC
0
SECTION
2
OBJECTS
0
DICTIONARY
5
C
100
AcDbDictionary
3
ACAD_GROUP
350
D
3
ACAD_MLINESTYLE
350
17
0
DICTIONARY
5
D
100
AcDbDictionary
0
DICTIONARY
5
1A
330
C
100
AcDbDictionary
0
DICTIONARY
5
17
100
AcDbDictionary
0
ENDSEC
0
EOF
