  0
SECTION
  2
HEADER
  9
$ACADVER
  1
AC1018
  9
$ACADMAINTVER
 70
     0
  9
$DWGCODEPAGE
  3
ANSI_1252
  9
$INSBASE
 10
0.0
 20
0.0
 30
0.0
  9
$EXTMIN
 10
-22.75171567889221
 20
-549.2026808656433
 30
-0.0000000000000071
  9
$EXTMAX
 10
251.1825777506382
 20
-365.3431896909995
 30
0.0000000000000213
  9
$LIMMIN
 10
0.0
 20
0.0
  9
$LIMMAX
 10
12.0
 20
9.0
  9
$ORTHOMODE
 70
     0
  9
$REGENMODE
 70
     1
  9
$FILLMODE
 70
     1
  9
$QTEXTMODE
 70
     0
  9
$MIRRTEXT
 70
     1
  9
$LTSCALE
 40
1.0
  9
$ATTMODE
 70
     1
  9
$TEXTSIZE
 40
0.2
  9
$TRACEWID
 40
0.05
  9
$TEXTSTYLE
  7
Standard
  9
$CLAYER
  8
Predeterminado
  9
$CELTYPE
  6
ByLayer
  9
$CECOLOR
 62
   256
  9
$CELTSCALE
 40
1.0
  9
$DISPSILH
 70
     0
  9
$DIMSCALE
 40
1.0
  9
$DIMASZ
 40
0.18
  9
$DIMEXO
 40
0.0625
  9
$DIMDLI
 40
0.38
  9
$DIMRND
 40
0.0
  9
$DIMDLE
 40
0.0
  9
$DIMEXE
 40
0.18
  9
$DIMTP
 40
0.0
  9
$DIMTM
 40
0.0
  9
$DIMTXT
 40
0.18
  9
$DIMCEN
 40
0.09
  9
$DIMTSZ
 40
0.0
  9
$DIMTOL
 70
     0
  9
$DIMLIM
 70
     0
  9
$DIMTIH
 70
     1
  9
$DIMTOH
 70
     1
  9
$DIMSE1
 70
     0
  9
$DIMSE2
 70
     0
  9
$DIMTAD
 70
     0
  9
$DIMZIN
 70
     0
  9
$DIMBLK
  1

  9
$DIMASO
 70
     1
  9
$DIMSHO
 70
     1
  9
$DIMPOST
  1

  9
$DIMAPOST
  1

  9
$DIMALT
 70
     0
  9
$DIMALTD
 70
     2
  9
$DIMALTF
 40
25.4
  9
$DIMLFAC
 40
1.0
  9
$DIMTOFL
 70
     0
  9
$DIMTVP
 40
0.0
  9
$DIMTIX
 70
     0
  9
$DIMSOXD
 70
     0
  9
$DIMSAH
 70
     0
  9
$DIMBLK1
  1

  9
$DIMBLK2
  1

  9
$DIMSTYLE
  2
Standard
  9
$DIMCLRD
 70
     0
  9
$DIMCLRE
 70
     0
  9
$DIMCLRT
 70
     0
  9
$DIMTFAC
 40
1.0
  9
$DIMGAP
 40
0.09
  9
$DIMJUST
 70
     0
  9
$DIMSD1
 70
     0
  9
$DIMSD2
 70
     0
  9
$DIMTOLJ
 70
     1
  9
$DIMTZIN
 70
     0
  9
$DIMALTZ
 70
     0
  9
$DIMALTTZ
 70
     0
  9
$DIMUPT
 70
     0
  9
$DIMDEC
 70
     4
  9
$DIMTDEC
 70
     4
  9
$DIMALTU
 70
     2
  9
$DIMALTTD
 70
     2
  9
$DIMTXSTY
  7
Standard
  9
$DIMAUNIT
 70
     0
  9
$DIMADEC
 70
     0
  9
$DIMALTRND
 40
0.0
  9
$DIMAZIN
 70
     0
  9
$DIMDSEP
 70
    46
  9
$DIMATFIT
 70
     3
  9
$DIMFRAC
 70
     0
  9
$DIMLDRBLK
  1

  9
$DIMLUNIT
 70
     2
  9
$DIMLWD
 70
    -2
  9
$DIMLWE
 70
    -2
  9
$DIMTMOVE
 70
     2
  9
$LUNITS
 70
     2
  9
$LUPREC
 70
     3
  9
$SKETCHINC
 40
0.1
  9
$FILLETRAD
 40
0.5
  9
$AUNITS
 70
     0
  9
$AUPREC
 70
     0
  9
$MENU
  1
.
  9
$ELEVATION
 40
0.0
  9
$PELEVATION
 40
0.0
  9
$THICKNESS
 40
0.0
  9
$LIMCHECK
 70
     0
  9
$CHAMFERA
 40
0.0
  9
$CHAMFERB
 40
0.0
  9
$CHAMFERC
 40
0.0
  9
$CHAMFERD
 40
0.0
  9
$SKPOLY
 70
     0
  9
$TDCREATE
 40
2458043.137260394
  9
$TDUCREATE
 40
2458043.05392706
  9
$TDUPDATE
 40
2458043.137285428
  9
$TDUUPDATE
 40
2458043.053952095
  9
$TDINDWG
 40
0.0000000116
  9
$TDUSRTIMER
 40
0.0000000116
  9
$USRTIMER
 70
     1
  9
$ANGBASE
 50
0.0
  9
$ANGDIR
 70
     0
  9
$PDMODE
 70
     0
  9
$PDSIZE
 40
0.0
  9
$PLINEWID
 40
0.0
  9
$SPLFRAME
 70
     0
  9
$SPLINETYPE
 70
     6
  9
$SPLINESEGS
 70
     8
  9
$HANDSEED
  5
222
  9
$SURFTAB1
 70
     6
  9
$SURFTAB2
 70
     6
  9
$SURFTYPE
 70
     6
  9
$SURFU
 70
     6
  9
$SURFV
 70
     6
  9
$UCSBASE
  2

  9
$UCSNAME
  2

  9
$UCSORG
 10
0.0
 20
0.0
 30
0.0
  9
$UCSXDIR
 10
1.0
 20
0.0
 30
0.0
  9
$UCSYDIR
 10
0.0
 20
1.0
 30
0.0
  9
$UCSORTHOREF
  2

  9
$UCSORTHOVIEW
 70
     0
  9
$UCSORGTOP
 10
0.0
 20
0.0
 30
0.0
  9
$UCSORGBOTTOM
 10
0.0
 20
0.0
 30
0.0
  9
$UCSORGLEFT
 10
0.0
 20
0.0
 30
0.0
  9
$UCSORGRIGHT
 10
0.0
 20
0.0
 30
0.0
  9
$UCSORGFRONT
 10
0.0
 20
0.0
 30
0.0
  9
$UCSORGBACK
 10
0.0
 20
0.0
 30
0.0
  9
$PUCSBASE
  2

  9
$PUCSNAME
  2

  9
$PUCSORG
 10
0.0
 20
0.0
 30
0.0
  9
$PUCSXDIR
 10
1.0
 20
0.0
 30
0.0
  9
$PUCSYDIR
 10
0.0
 20
1.0
 30
0.0
  9
$PUCSORTHOREF
  2

  9
$PUCSORTHOVIEW
 70
     0
  9
$PUCSORGTOP
 10
0.0
 20
0.0
 30
0.0
  9
$PUCSORGBOTTOM
 10
0.0
 20
0.0
 30
0.0
  9
$PUCSORGLEFT
 10
0.0
 20
0.0
 30
0.0
  9
$PUCSORGRIGHT
 10
0.0
 20
0.0
 30
0.0
  9
$PUCSORGFRONT
 10
0.0
 20
0.0
 30
0.0
  9
$PUCSORGBACK
 10
0.0
 20
0.0
 30
0.0
  9
$USERI1
 70
     0
  9
$USERI2
 70
     0
  9
$USERI3
 70
     0
  9
$USERI4
 70
     0
  9
$USERI5
 70
     0
  9
$USERR1
 40
0.0
  9
$USERR2
 40
0.0
  9
$USERR3
 40
0.0
  9
$USERR4
 40
0.0
  9
$USERR5
 40
0.0
  9
$WORLDVIEW
 70
     1
  9
$SHADEDGE
 70
     3
  9
$SHADEDIF
 70
    70
  9
$TILEMODE
 70
     1
  9
$MAXACTVP
 70
    64
  9
$PINSBASE
 10
0.0
 20
0.0
 30
0.0
  9
$PLIMCHECK
 70
     0
  9
$PEXTMIN
 10
1.000000000000000E+20
 20
1.000000000000000E+20
 30
1.000000000000000E+20
  9
$PEXTMAX
 10
-1.000000000000000E+20
 20
-1.000000000000000E+20
 30
-1.000000000000000E+20
  9
$PLIMMIN
 10
0.0
 20
0.0
  9
$PLIMMAX
 10
12.0
 20
9.0
  9
$UNITMODE
 70
     0
  9
$VISRETAIN
 70
     1
  9
$PLINEGEN
 70
     0
  9
$PSLTSCALE
 70
     1
  9
$TREEDEPTH
 70
  3020
  9
$CMLSTYLE
  2
Standard
  9
$CMLJUST
 70
     0
  9
$CMLSCALE
 40
1.0
  9
$PROXYGRAPHICS
 70
     1
  9
$MEASUREMENT
 70
     0
  9
$CELWEIGHT
370
    -1
  9
$ENDCAPS
280
     0
  9
$JOINSTYLE
280
     0
  9
$LWDISPLAY
290
     0
  9
$INSUNITS
 70
     4
  9
$HYPERLINKBASE
  1

  9
$STYLESHEET
  1

  9
$XEDIT
290
     1
  9
$CEPSNTYPE
380
     0
  9
$PSTYLEMODE
290
     1
  9
$FINGERPRINTGUID
  2
{56007547-8F14-40CC-AADE-2971C64C9AC5}
  9
$VERSIONGUID
  2
{FAEB1C32-E019-11D5-929B-00C0DF256EC4}
  9
$EXTNAMES
290
     1
  9
$PSVPSCALE
 40
0.0
  9
$OLESTARTUP
290
     0
  9
$SORTENTS
280
   127
  9
$INDEXCTL
280
     0
  9
$HIDETEXT
280
     1
  9
$XCLIPFRAME
290
     0
  9
$HALOGAP
280
     0
  9
$OBSCOLOR
 70
   257
  9
$OBSLTYPE
280
     0
  9
$INTERSECTIONDISPLAY
280
     0
  9
$INTERSECTIONCOLOR
 70
   257
  9
$DIMASSOC
280
     2
  9
$PROJECTNAME
  1

  0
ENDSEC
  0
SECTION
  2
CLASSES
  0
CLASS
  1
ACDBDICTIONARYWDFLT
  2
AcDbDictionaryWithDefault
  3
ObjectDBX Classes
 90
        0
 91
        4
280
     0
281
     0
  0
CLASS
  1
VISUALSTYLE
  2
AcDbVisualStyle
  3
ObjectDBX Classes
 90
     4095
 91
        4
280
     0
281
     0
  0
CLASS
  1
MATERIAL
  2
AcDbMaterial
  3
ObjectDBX Classes
 90
     1153
 91
        4
280
     0
281
     0
  0
CLASS
  1
SCALE
  2
AcDbScale
  3
ObjectDBX Classes
 90
     1153
 91
        4
280
     0
281
     0
  0
CLASS
  1
TABLESTYLE
  2
AcDbTableStyle
  3
ObjectDBX Classes
 90
     4095
 91
        4
280
     0
281
     0
  0
CLASS
  1
MLEADERSTYLE
  2
AcDbMLeaderStyle
  3
ACDB_MLEADERSTYLE_CLASS
 90
     4095
 91
        4
280
     0
281
     0
  0
CLASS
  1
SUN
  2
AcDbSun
  3
SCENEOE
 90
     1153
 91
        4
280
     0
281
     0
  0
CLASS
  1
DICTIONARYVAR
  2
AcDbDictionaryVar
  3
ObjectDBX Classes
 90
        0
 91
        4
280
     0
281
     0
  0
CLASS
  1
CELLSTYLEMAP
  2
AcDbCellStyleMap
  3
ObjectDBX Classes
 90
     1152
 91
        4
280
     0
281
     0
  0
ENDSEC
  0
SECTION
  2
TABLES
  0
TABLE
  2
VPORT
  5
8
102
{ACAD_XDICTIONARY
360
1DB
102
}
330
0
100
AcDbSymbolTable
 70
     1
  0
VPORT
  5
29
330
8
100
AcDbSymbolTableRecord
100
AcDbViewportTableRecord
  2
*Active
 70
     0
 10
0.0
 20
0.0
 11
1.0
 21
1.0
 12
114.215431035873
 22
-457.2729352783214
 13
0.0
 23
0.0
 14
0.5
 24
0.5
 15
0.5
 25
0.5
 16
0.0
 26
0.0
 36
1.0
 17
0.0
 27
0.0
 37
0.0
 40
187.5366809981367
 41
1.48991108198666
 42
50.0
 43
0.0
 44
0.0
 50
0.0
 51
0.0
 71
     0
 72
   100
 73
     1
 74
     3
 75
     0
 76
     0
 77
     0
 78
     0
281
     0
 65
     1
110
0.0
120
0.0
130
0.0
111
1.0
121
0.0
131
0.0
112
0.0
122
1.0
132
0.0
 79
     0
146
0.0
  0
ENDTAB
  0
TABLE
  2
LTYPE
  5
5
330
0
100
AcDbSymbolTable
 70
     1
  0
LTYPE
  5
14
330
5
100
AcDbSymbolTableRecord
100
AcDbLinetypeTableRecord
  2
ByBlock
 70
     0
  3

 72
    65
 73
     0
 40
0.0
  0
LTYPE
  5
15
330
5
100
AcDbSymbolTableRecord
100
AcDbLinetypeTableRecord
  2
ByLayer
 70
     0
  3

 72
    65
 73
     0
 40
0.0
  0
LTYPE
  5
16
330
5
100
AcDbSymbolTableRecord
100
AcDbLinetypeTableRecord
  2
Continuous
 70
     0
  3
Solid line
 72
    65
 73
     0
 40
0.0
  0
ENDTAB
  0
TABLE
  2
LAYER
  5
2
330
0
100
AcDbSymbolTable
 70
     2
  0
LAYER
  5
10
330
2
100
AcDbSymbolTableRecord
100
AcDbLayerTableRecord
  2
0
 70
     0
 62
     7
  6
Continuous
370
    -3
390
F
  0
LAYER
  5
6E
330
2
100
AcDbSymbolTableRecord
100
AcDbLayerTableRecord
  2
Predeterminado
 70
     0
 62
    18
420
        0
  6
Continuous
370
    -3
390
F
  0
ENDTAB
  0
TABLE
  2
STYLE
  5
3
330
0
100
AcDbSymbolTable
 70
     1
  0
STYLE
  5
11
330
3
100
AcDbSymbolTableRecord
100
AcDbTextStyleTableRecord
  2
Standard
 70
     0
 40
0.0
 41
1.0
 50
0.0
 71
     0
 42
0.2
  3
txt
  4

  0
ENDTAB
  0
TABLE
  2
VIEW
  5
6
330
0
100
AcDbSymbolTable
 70
     0
  0
ENDTAB
  0
TABLE
  2
UCS
  5
7
330
0
100
AcDbSymbolTable
 70
     0
  0
ENDTAB
  0
TABLE
  2
APPID
  5
9
330
0
100
AcDbSymbolTable
 70
     2
  0
APPID
  5
12
330
9
100
AcDbSymbolTableRecord
100
AcDbRegAppTableRecord
  2
ACAD
 70
     0
  0
APPID
  5
21A
330
9
100
AcDbSymbolTableRecord
100
AcDbRegAppTableRecord
  2
ACAD_MLEADERVER
 70
     0
  0
ENDTAB
  0
TABLE
  2
DIMSTYLE
  5
A
330
0
100
AcDbSymbolTable
 70
     1
100
AcDbDimStyleTable
  0
DIMSTYLE
105
27
330
A
100
AcDbSymbolTableRecord
100
AcDbDimStyleTableRecord
  2
Standard
 70
     0
178
     0
340
11
  0
ENDTAB
  0
TABLE
  2
BLOCK_RECORD
  5
1
330
0
100
AcDbSymbolTable
 70
     1
  0
BLOCK_RECORD
  5
1F
330
1
100
AcDbSymbolTableRecord
100
AcDbBlockTableRecord
  2
*Model_Space
340
22
  0
BLOCK_RECORD
  5
1B
330
1
100
AcDbSymbolTableRecord
100
AcDbBlockTableRecord
  2
*Paper_Space
340
1E
  0
BLOCK_RECORD
  5
23
330
1
100
AcDbSymbolTableRecord
100
AcDbBlockTableRecord
  2
*Paper_Space0
340
26
  0
ENDTAB
  0
ENDSEC
  0
SECTION
  2
BLOCKS
  0
BLOCK
  5
20
330
1F
100
AcDbEntity
  8
0
100
AcDbBlockBegin
  2
*Model_Space
 70
     0
 10
0.0
 20
0.0
 30
0.0
  3
*Model_Space
  1

  0
ENDBLK
  5
21
330
1F
100
AcDbEntity
  8
0
100
AcDbBlockEnd
  0
BLOCK
  5
1C
330
1B
100
AcDbEntity
 67
     1
  8
0
100
AcDbBlockBegin
  2
*Paper_Space
 70
     0
 10
0.0
 20
0.0
 30
0.0
  3
*Paper_Space
  1

  0
ENDBLK
  5
1D
330
1B
100
AcDbEntity
 67
     1
  8
0
100
AcDbBlockEnd
  0
BLOCK
  5
24
330
23
100
AcDbEntity
  8
0
100
AcDbBlockBegin
  2
*Paper_Space0
 70
     0
 10
0.0
 20
0.0
 30
0.0
  3
*Paper_Space0
  1

  0
ENDBLK
  5
25
330
23
100
AcDbEntity
  8
0
100
AcDbBlockEnd
  0
ENDSEC
  0
SECTION
  2
ENTITIES
  0
POLYLINE
  5
6F
330
1F
100
AcDbEntity
  8
Predeterminado
100
AcDb2dPolyline
 66
     1
 10
0.0
 20
0.0
 30
0.0
 70
     1
  0
VERTEX
  5
70
330
6F
100
AcDbEntity
  8
Predeterminado
100
AcDbVertex
100
AcDb2dVertex
 10
141.1265712368638
 20
-525.9945653408478
 30
0.0
  0
VERTEX
  5
71
330
6F
100
AcDbEntity
  8
Predeterminado
100
AcDbVertex
100
AcDb2dVertex
 10
141.1265712368638
 20
-507.8781996893912
 30
0.0
  0
VERTEX
  5
72
330
6F
100
AcDbEntity
  8
Predeterminado
100
AcDbVertex
100
AcDb2dVertex
 10
146.1265712368638
 20
-507.8781996893912
 30
0.0
  0
VERTEX
  5
73
330
6F
100
AcDbEntity
  8
Predeterminado
100
AcDbVertex
100
AcDb2dVertex
 10
146.1265712368637
 20
-498.8625520975455
 30
0.0
  0
VERTEX
  5
74
330
6F
100
AcDbEntity
  8
Predeterminado
100
AcDbVertex
100
AcDb2dVertex
 10
141.1265712368637
 20
-498.8625520975455
 30
0.0
  0
VERTEX
  5
75
330
6F
100
AcDbEntity
  8
Predeterminado
100
AcDbVertex
100
AcDb2dVertex
 10
141.1265712368637
 20
-480.7461864460889
 30
0.0
  0
VERTEX
  5
76
330
6F
100
AcDbEntity
  8
Predeterminado
100
AcDbVertex
100
AcDb2dVertex
 10
146.1265712368637
 20
-480.7461864460888
 30
0.0
  0
VERTEX
  5
77
330
6F
100
AcDbEntity
  8
Predeterminado
100
AcDbVertex
100
AcDb2dVertex
 10
146.1265712368636
 20
-471.7305388542432
 30
0.0
  0
VERTEX
  5
78
330
6F
100
AcDbEntity
  8
Predeterminado
100
AcDbVertex
100
AcDb2dVertex
 10
141.1265712368636
 20
-471.7305388542432
 30
0.0
  0
VERTEX
  5
79
330
6F
100
AcDbEntity
  8
Predeterminado
100
AcDbVertex
100
AcDb2dVertex
 10
141.1265712368636
 20
-458.3703758934683
 30
0.0
  0
VERTEX
  5
7A
330
6F
100
AcDbEntity
  8
Predeterminado
100
AcDbVertex
100
AcDb2dVertex
 10
136.1265712368636
 20
-458.3703758934683
 30
0.0
  0
VERTEX
  5
7B
330
6F
100
AcDbEntity
  8
Predeterminado
100
AcDbVertex
100
AcDb2dVertex
 10
136.126571236864
 20
-548.3703758934683
 30
0.0
  0
VERTEX
  5
7C
330
6F
100
AcDbEntity
  8
Predeterminado
100
AcDbVertex
100
AcDb2dVertex
 10
141.126571236864
 20
-548.3703758934683
 30
0.0
  0
VERTEX
  5
7D
330
6F
100
AcDbEntity
  8
Predeterminado
100
AcDbVertex
100
AcDb2dVertex
 10
141.1265712368639
 20
-535.0102129326934
 30
0.0
  0
VERTEX
  5
7E
330
6F
100
AcDbEntity
  8
Predeterminado
100
AcDbVertex
100
AcDb2dVertex
 10
146.1265712368639
 20
-535.0102129326934
 30
0.0
  0
VERTEX
  5
7F
330
6F
100
AcDbEntity
  8
Predeterminado
100
AcDbVertex
100
AcDb2dVertex
 10
146.1265712368638
 20
-525.9945653408478
 30
0.0
  0
SEQEND
  5
80
330
6F
100
AcDbEntity
  8
Predeterminado
  0
POLYLINE
  5
81
330
1F
100
AcDbEntity
  8
Predeterminado
100
AcDb2dPolyline
 66
     1
 10
0.0
 20
0.0
 30
0.0
 70
     1
  0
VERTEX
  5
82
330
81
100
AcDbEntity
  8
Predeterminado
100
AcDbVertex
100
AcDb2dVertex
 10
153.2353160467398
 20
-525.9945653408478
 30
0.0
  0
VERTEX
  5
83
330
81
100
AcDbEntity
  8
Predeterminado
100
AcDbVertex
100
AcDb2dVertex
 10
153.2353160467398
 20
-507.8781996893912
 30
0.0
  0
VERTEX
  5
84
330
81
100
AcDbEntity
  8
Predeterminado
100
AcDbVertex
100
AcDb2dVertex
 10
158.2353160467398
 20
-507.8781996893912
 30
0.0
  0
VERTEX
  5
85
330
81
100
AcDbEntity
  8
Predeterminado
100
AcDbVertex
100
AcDb2dVertex
 10
158.2353160467397
 20
-498.8625520975455
 30
0.0
  0
VERTEX
  5
86
330
81
100
AcDbEntity
  8
Predeterminado
100
AcDbVertex
100
AcDb2dVertex
 10
153.2353160467397
 20
-498.8625520975455
 30
0.0
  0
VERTEX
  5
87
330
81
100
AcDbEntity
  8
Predeterminado
100
AcDbVertex
100
AcDb2dVertex
 10
153.2353160467397
 20
-480.7461864460889
 30
0.0
  0
VERTEX
  5
88
330
81
100
AcDbEntity
  8
Predeterminado
100
AcDbVertex
100
AcDb2dVertex
 10
158.2353160467397
 20
-480.7461864460888
 30
0.0
  0
VERTEX
  5
89
330
81
100
AcDbEntity
  8
Predeterminado
100
AcDbVertex
100
AcDb2dVertex
 10
158.2353160467396
 20
-471.7305388542432
 30
0.0
  0
VERTEX
  5
8A
330
81
100
AcDbEntity
  8
Predeterminado
100
AcDbVertex
100
AcDb2dVertex
 10
153.2353160467396
 20
-471.7305388542432
 30
0.0
  0
VERTEX
  5
8B
330
81
100
AcDbEntity
  8
Predeterminado
100
AcDbVertex
100
AcDb2dVertex
 10
153.2353160467395
 20
-458.3703758934683
 30
0.0
  0
VERTEX
  5
8C
330
81
100
AcDbEntity
  8
Predeterminado
100
AcDbVertex
100
AcDb2dVertex
 10
148.2353160467396
 20
-458.3703758934683
 30
0.0
  0
VERTEX
  5
8D
330
81
100
AcDbEntity
  8
Predeterminado
100
AcDbVertex
100
AcDb2dVertex
 10
148.2353160467399
 20
-548.3703758934683
 30
0.0
  0
VERTEX
  5
8E
330
81
100
AcDbEntity
  8
Predeterminado
100
AcDbVertex
100
AcDb2dVertex
 10
153.2353160467399
 20
-548.3703758934683
 30
0.0
  0
VERTEX
  5
8F
330
81
100
AcDbEntity
  8
Predeterminado
100
AcDbVertex
100
AcDb2dVertex
 10
153.2353160467399
 20
-535.0102129326934
 30
0.0
  0
VERTEX
  5
90
330
81
100
AcDbEntity
  8
Predeterminado
100
AcDbVertex
100
AcDb2dVertex
 10
158.2353160467399
 20
-535.0102129326934
 30
0.0
  0
VERTEX
  5
91
330
81
100
AcDbEntity
  8
Predeterminado
100
AcDbVertex
100
AcDb2dVertex
 10
158.2353160467398
 20
-525.9945653408478
 30
0.0
  0
SEQEND
  5
92
330
81
100
AcDbEntity
  8
Predeterminado
  0
SPLINE
  5
93
330
1F
100
AcDbEntity
  8
Predeterminado
100
AcDbSpline
210
0.0
220
0.0
230
1.0
 70
    24
 71
     2
 72
     6
 73
     3
 74
     0
 42
0.000000001
 43
0.0000000001
 40
398.2444843575655
 40
398.2444843575655
 40
398.2444843575655
 40
414.549213714743
 40
414.549213714743
 40
414.549213714743
 10
161.1825777506382
 20
-399.3958489745033
 30
-0.000000000000001
 10
161.1825777506382
 20
-408.4540318002317
 30
-0.000000000000001
 10
161.1825777506382
 20
-417.51221462596
 30
-0.000000000000001
  0
SPLINE
  5
94
330
1F
100
AcDbEntity
  8
Predeterminado
100
AcDbSpline
210
0.0
220
0.0
230
1.0
 70
    24
 71
     2
 72
     6
 73
     3
 74
     0
 42
0.000000001
 43
0.0000000001
 40
414.549213714743
 40
414.549213714743
 40
414.549213714743
 40
419.549213714743
 40
419.549213714743
 40
419.549213714743
 10
161.1825777506382
 20
-417.51221462596
 30
-0.000000000000001
 10
163.6825777912672
 20
-417.51221462596
 30
-0.0000000000000005
 10
166.1825778318962
 20
-417.51221462596
 30
0.0
  0
SPLINE
  5
95
330
1F
100
AcDbEntity
  8
Predeterminado
100
AcDbSpline
210
0.0
220
0.0
230
1.0
 70
    24
 71
     2
 72
     6
 73
     3
 74
     0
 42
0.000000001
 43
0.0000000001
 40
419.549213714743
 40
419.549213714743
 40
419.549213714743
 40
428.5648613065886
 40
428.5648613065886
 40
428.5648613065886
 10
166.1825778318962
 20
-417.51221462596
 30
0.0
 10
166.1825778318962
 20
-422.0200384218829
 30
-0.000000000000001
 10
166.1825778318962
 20
-426.5278622178056
 30
-0.000000000000002
  0
SPLINE
  5
96
330
1F
100
AcDbEntity
  8
Predeterminado
100
AcDbSpline
210
0.0
220
0.0
230
1.0
 70
    24
 71
     2
 72
     6
 73
     3
 74
     0
 42
0.000000001
 43
0.0000000001
 40
428.5648613065886
 40
428.5648613065886
 40
428.5648613065886
 40
433.5648613065886
 40
433.5648613065886
 40
433.5648613065886
 10
166.1825778318962
 20
-426.5278622178056
 30
-0.000000000000002
 10
163.6825777912672
 20
-426.5278622178056
 30
-0.0000000000000015
 10
161.1825777506382
 20
-426.5278622178056
 30
-0.000000000000001
  0
SPLINE
  5
97
330
1F
100
AcDbEntity
  8
Predeterminado
100
AcDbSpline
210
0.0
220
0.0
230
1.0
 70
    24
 71
     2
 72
     6
 73
     3
 74
     0
 42
0.000000001
 43
0.0000000001
 40
433.5648613065886
 40
433.5648613065886
 40
433.5648613065886
 40
449.8695906637661
 40
449.8695906637661
 40
449.8695906637661
 10
161.1825777506382
 20
-426.5278622178056
 30
-0.000000000000001
 10
161.1825777506382
 20
-435.5860450435339
 30
-0.000000000000001
 10
161.1825777506382
 20
-444.6442278692623
 30
-0.000000000000001
  0
SPLINE
  5
98
330
1F
100
AcDbEntity
  8
Predeterminado
100
AcDbSpline
210
0.0
220
0.0
230
1.0
 70
    24
 71
     2
 72
     6
 73
     3
 74
     0
 42
0.000000001
 43
0.0000000001
 40
449.8695906637661
 40
449.8695906637661
 40
449.8695906637661
 40
454.8695906637661
 40
454.8695906637661
 40
454.8695906637661
 10
161.1825777506382
 20
-444.6442278692623
 30
-0.000000000000001
 10
163.6825777912672
 20
-444.6442278692623
 30
-0.0000000000000005
 10
166.1825778318962
 20
-444.6442278692623
 30
0.0
  0
SPLINE
  5
99
330
1F
100
AcDbEntity
  8
Predeterminado
100
AcDbSpline
210
0.0
220
0.0
230
1.0
 70
    24
 71
     2
 72
     6
 73
     3
 74
     0
 42
0.000000001
 43
0.0000000001
 40
454.8695906637661
 40
454.8695906637661
 40
454.8695906637661
 40
463.8852382556117
 40
463.8852382556117
 40
463.8852382556117
 10
166.1825778318962
 20
-444.6442278692623
 30
0.0
 10
166.1825778318962
 20
-449.1520516651851
 30
-0.000000000000001
 10
166.1825778318962
 20
-453.659875461108
 30
-0.000000000000002
  0
SPLINE
  5
9A
330
1F
100
AcDbEntity
  8
Predeterminado
100
AcDbSpline
210
0.0
220
0.0
230
1.0
 70
    24
 71
     2
 72
     6
 73
     3
 74
     0
 42
0.000000001
 43
0.0000000001
 40
463.8852382556117
 40
463.8852382556117
 40
463.8852382556117
 40
468.8852382556117
 40
468.8852382556117
 40
468.8852382556117
 10
166.1825778318962
 20
-453.659875461108
 30
-0.000000000000002
 10
163.6825777912672
 20
-453.659875461108
 30
-0.0000000000000015
 10
161.1825777506382
 20
-453.659875461108
 30
-0.000000000000001
  0
SPLINE
  5
9B
330
1F
100
AcDbEntity
  8
Predeterminado
100
AcDbSpline
210
0.0
220
0.0
230
1.0
 70
    24
 71
     2
 72
     6
 73
     3
 74
     0
 42
0.000000001
 43
0.0000000001
 40
468.8852382556117
 40
468.8852382556117
 40
468.8852382556117
 40
485.4093847397758
 40
485.4093847397758
 40
485.4093847397758
 10
161.1825777506382
 20
-453.659875461108
 30
-0.000000000000001
 10
161.1825777100091
 20
-462.8399566886926
 30
-0.0000000000000015
 10
161.1825776693801
 20
-472.0200379162773
 30
-0.000000000000002
  0
SPLINE
  5
9C
330
1F
100
AcDbEntity
  8
Predeterminado
100
AcDbSpline
210
0.0
220
0.0
230
1.0
 70
    24
 71
     2
 72
     6
 73
     3
 74
     0
 42
0.000000001
 43
0.0000000001
 40
485.4093847397758
 40
485.4093847397758
 40
485.4093847397758
 40
498.7695478630669
 40
498.7695478630669
 40
498.7695478630669
 10
161.1825776693801
 20
-472.0200379162773
 30
-0.000000000000002
 10
167.8626592310256
 20
-472.0200380426787
 30
-0.0000000000000015
 10
174.5427407926711
 20
-472.0200381690801
 30
-0.000000000000001
  0
SPLINE
  5
9D
330
1F
100
AcDbEntity
  8
Predeterminado
100
AcDbSpline
210
0.0
220
0.0
230
1.0
 70
    24
 71
     2
 72
     6
 73
     3
 74
     0
 42
0.000000001
 43
0.0000000001
 40
498.7695478630669
 40
498.7695478630669
 40
498.7695478630669
 40
503.7695476102641
 40
503.7695476102641
 40
503.7695476102641
 10
174.5427407926711
 20
-472.0200381690801
 30
-0.000000000000001
 10
174.5427407926711
 20
-469.5200382954815
 30
-0.0000000000000005
 10
174.5427407926711
 20
-467.0200384218829
 30
0.0
  0
SPLINE
  5
9E
330
1F
100
AcDbEntity
  8
Predeterminado
100
AcDbSpline
210
0.0
220
0.0
230
1.0
 70
    24
 71
     2
 72
     6
 73
     3
 74
     0
 42
0.000000001
 43
0.0000000001
 40
503.7695476102641
 40
503.7695476102641
 40
503.7695476102641
 40
512.7851952021098
 40
512.7851952021098
 40
512.7851952021098
 10
174.5427407926711
 20
-467.0200384218829
 30
0.0
 10
179.0505645885939
 20
-467.0200384218829
 30
-0.000000000000001
 10
183.5583883845167
 20
-467.0200384218829
 30
-0.000000000000002
  0
SPLINE
  5
9F
330
1F
100
AcDbEntity
  8
Predeterminado
100
AcDbSpline
210
0.0
220
0.0
230
1.0
 70
    24
 71
     2
 72
     6
 73
     3
 74
     0
 42
0.000000001
 43
0.0000000001
 40
512.7851952021098
 40
512.7851952021098
 40
512.7851952021098
 40
517.7851946965042
 40
517.7851946965042
 40
517.7851946965042
 10
183.5583883845167
 20
-467.0200384218829
 30
-0.000000000000002
 10
183.5583883845167
 20
-469.5200382954815
 30
-0.0000000000000015
 10
183.5583883845167
 20
-472.0200381690801
 30
-0.000000000000001
  0
SPLINE
  5
A0
330
1F
100
AcDbEntity
  8
Predeterminado
100
AcDbSpline
210
0.0
220
0.0
230
1.0
 70
    24
 71
     2
 72
     6
 73
     3
 74
     0
 42
0.000000001
 43
0.0000000001
 40
517.7851946965042
 40
517.7851946965042
 40
517.7851946965042
 40
535.9015603479609
 40
535.9015603479609
 40
535.9015603479609
 10
183.5583883845167
 20
-472.0200381690801
 30
-0.000000000000001
 10
192.6165712102451
 20
-472.0200381690801
 30
-0.000000000000001
 10
201.6747540359735
 20
-472.0200381690801
 30
-0.000000000000001
  0
SPLINE
  5
A1
330
1F
100
AcDbEntity
  8
Predeterminado
100
AcDbSpline
210
0.0
220
0.0
230
1.0
 70
    24
 71
     2
 72
     6
 73
     3
 74
     0
 42
0.000000001
 43
0.0000000001
 40
535.9015603479609
 40
535.9015603479609
 40
535.9015603479609
 40
540.9015600951582
 40
540.9015600951582
 40
540.9015600951582
 10
201.6747540359735
 20
-472.0200381690801
 30
-0.000000000000001
 10
201.6747540359735
 20
-469.5200382954815
 30
-0.0000000000000005
 10
201.6747540359735
 20
-467.0200384218829
 30
0.0
  0
SPLINE
  5
A2
330
1F
100
AcDbEntity
  8
Predeterminado
100
AcDbSpline
210
0.0
220
0.0
230
1.0
 70
    24
 71
     2
 72
     6
 73
     3
 74
     0
 42
0.000000001
 43
0.0000000001
 40
540.9015600951582
 40
540.9015600951582
 40
540.9015600951582
 40
549.9172076870037
 40
549.9172076870037
 40
549.9172076870037
 10
201.6747540359735
 20
-467.0200384218829
 30
0.0
 10
206.1825778318963
 20
-467.0200384218829
 30
-0.000000000000001
 10
210.6904016278191
 20
-467.0200384218829
 30
-0.000000000000002
  0
SPLINE
  5
A3
330
1F
100
AcDbEntity
  8
Predeterminado
100
AcDbSpline
210
0.0
220
0.0
230
1.0
 70
    24
 71
     2
 72
     6
 73
     3
 74
     0
 42
0.000000001
 43
0.0000000001
 40
549.9172076870037
 40
549.9172076870037
 40
549.9172076870037
 40
554.9172071813982
 40
554.9172071813982
 40
554.9172071813982
 10
210.6904016278191
 20
-467.0200384218829
 30
-0.000000000000002
 10
210.6904016278191
 20
-469.5200382954815
 30
-0.0000000000000015
 10
210.6904016278191
 20
-472.0200381690801
 30
-0.000000000000001
  0
SPLINE
  5
A4
330
1F
100
AcDbEntity
  8
Predeterminado
100
AcDbSpline
210
0.0
220
0.0
230
1.0
 70
    24
 71
     2
 72
     6
 73
     3
 74
     0
 42
0.000000001
 43
0.0000000001
 40
554.9172071813982
 40
554.9172071813982
 40
554.9172071813982
 40
573.0335728328549
 40
573.0335728328549
 40
573.0335728328549
 10
210.6904016278191
 20
-472.0200381690801
 30
-0.000000000000001
 10
219.7485844535474
 20
-472.0200381690801
 30
-0.000000000000001
 10
228.8067672792757
 20
-472.0200381690801
 30
-0.000000000000001
  0
SPLINE
  5
A5
330
1F
100
AcDbEntity
  8
Predeterminado
100
AcDbSpline
210
0.0
220
0.0
230
1.0
 70
    24
 71
     2
 72
     6
 73
     3
 74
     0
 42
0.000000001
 43
0.0000000001
 40
573.0335728328549
 40
573.0335728328549
 40
573.0335728328549
 40
578.0335725800521
 40
578.0335725800521
 40
578.0335725800521
 10
228.8067672792757
 20
-472.0200381690801
 30
-0.000000000000001
 10
228.8067672792757
 20
-469.5200382954815
 30
-0.0000000000000005
 10
228.8067672792757
 20
-467.0200384218829
 30
0.0
  0
SPLINE
  5
A6
330
1F
100
AcDbEntity
  8
Predeterminado
100
AcDbSpline
210
0.0
220
0.0
230
1.0
 70
    24
 71
     2
 72
     6
 73
     3
 74
     0
 42
0.000000001
 43
0.0000000001
 40
578.0335725800521
 40
578.0335725800521
 40
578.0335725800521
 40
587.0492201718978
 40
587.0492201718978
 40
587.0492201718978
 10
228.8067672792757
 20
-467.0200384218829
 30
0.0
 10
233.3145910751985
 20
-467.0200384218829
 30
-0.000000000000001
 10
237.8224148711214
 20
-467.0200384218829
 30
-0.000000000000002
  0
SPLINE
  5
A7
330
1F
100
AcDbEntity
  8
Predeterminado
100
AcDbSpline
210
0.0
220
0.0
230
1.0
 70
    24
 71
     2
 72
     6
 73
     3
 74
     0
 42
0.000000001
 43
0.0000000001
 40
587.0492201718978
 40
587.0492201718978
 40
587.0492201718978
 40
592.0492196662922
 40
592.0492196662922
 40
592.0492196662922
 10
237.8224148711214
 20
-467.0200384218829
 30
-0.000000000000002
 10
237.8224148711214
 20
-469.5200382954815
 30
-0.0000000000000015
 10
237.8224148711214
 20
-472.0200381690801
 30
-0.000000000000001
  0
SPLINE
  5
A8
330
1F
100
AcDbEntity
  8
Predeterminado
100
AcDbSpline
210
0.0
220
0.0
230
1.0
 70
    24
 71
     2
 72
     6
 73
     3
 74
     0
 42
0.000000001
 43
0.0000000001
 40
592.0492196662922
 40
592.0492196662922
 40
592.0492196662922
 40
605.409382464551
 40
605.409382464551
 40
605.409382464551
 10
237.8224148711214
 20
-472.0200381690801
 30
-0.000000000000001
 10
244.5024962702508
 20
-472.0200380426787
 30
-0.0000000000000015
 10
251.1825776693802
 20
-472.0200379162773
 30
-0.000000000000002
  0
SPLINE
  5
A9
330
1F
100
AcDbEntity
  8
Predeterminado
100
AcDbSpline
210
0.0
220
0.0
230
1.0
 70
    24
 71
     2
 72
     6
 73
     3
 74
     0
 42
0.000000001
 43
0.0000000001
 40
605.409382464551
 40
605.409382464551
 40
605.409382464551
 40
621.9335289487151
 40
621.9335289487151
 40
621.9335289487151
 10
251.1825776693802
 20
-472.0200379162773
 30
-0.000000000000002
 10
251.1825777100092
 20
-462.8399566886926
 30
-0.0000000000000015
 10
251.1825777506382
 20
-453.659875461108
 30
-0.000000000000001
  0
SPLINE
  5
AA
330
1F
100
AcDbEntity
  8
Predeterminado
100
AcDbSpline
210
0.0
220
0.0
230
1.0
 70
    24
 71
     2
 72
     6
 73
     3
 74
     0
 42
0.000000001
 43
0.0000000001
 40
621.9335289487151
 40
621.9335289487151
 40
621.9335289487151
 40
626.9335287861988
 40
626.9335287861988
 40
626.9335287861988
 10
251.1825777506382
 20
-453.659875461108
 30
-0.000000000000001
 10
248.6825777912672
 20
-453.659875461108
 30
-0.0000000000000015
 10
246.1825778318963
 20
-453.659875461108
 30
-0.000000000000002
  0
SPLINE
  5
AB
330
1F
100
AcDbEntity
  8
Predeterminado
100
AcDbSpline
210
0.0
220
0.0
230
1.0
 70
    24
 71
     2
 72
     6
 73
     3
 74
     0
 42
0.000000001
 43
0.0000000001
 40
626.9335287861988
 40
626.9335287861988
 40
626.9335287861988
 40
635.9491763780445
 40
635.9491763780445
 40
635.9491763780445
 10
246.1825778318963
 20
-453.659875461108
 30
-0.000000000000002
 10
246.1825778318963
 20
-449.1520516651851
 30
-0.000000000000001
 10
246.1825778318963
 20
-444.6442278692623
 30
0.0
  0
SPLINE
  5
AC
330
1F
100
AcDbEntity
  8
Predeterminado
100
AcDbSpline
210
0.0
220
0.0
230
1.0
 70
    24
 71
     2
 72
     6
 73
     3
 74
     0
 42
0.000000001
 43
0.0000000001
 40
635.9491763780445
 40
635.9491763780445
 40
635.9491763780445
 40
640.9491762967864
 40
640.9491762967864
 40
640.9491762967864
 10
246.1825778318963
 20
-444.6442278692623
 30
0.0
 10
248.6825777912672
 20
-444.6442278692623
 30
-0.0000000000000005
 10
251.1825777506382
 20
-444.6442278692623
 30
-0.000000000000001
  0
SPLINE
  5
AD
330
1F
100
AcDbEntity
  8
Predeterminado
100
AcDbSpline
210
0.0
220
0.0
230
1.0
 70
    24
 71
     2
 72
     6
 73
     3
 74
     0
 42
0.000000001
 43
0.0000000001
 40
640.9491762967864
 40
640.9491762967864
 40
640.9491762967864
 40
657.2539056539639
 40
657.2539056539639
 40
657.2539056539639
 10
251.1825777506382
 20
-444.6442278692623
 30
-0.000000000000001
 10
251.1825777506382
 20
-435.586045043534
 30
-0.000000000000001
 10
251.1825777506382
 20
-426.5278622178056
 30
-0.000000000000001
  0
SPLINE
  5
AE
330
1F
100
AcDbEntity
  8
Predeterminado
100
AcDbSpline
210
0.0
220
0.0
230
1.0
 70
    24
 71
     2
 72
     6
 73
     3
 74
     0
 42
0.000000001
 43
0.0000000001
 40
657.2539056539639
 40
657.2539056539639
 40
657.2539056539639
 40
662.2539054914478
 40
662.2539054914478
 40
662.2539054914478
 10
251.1825777506382
 20
-426.5278622178056
 30
-0.000000000000001
 10
248.6825777912672
 20
-426.5278622178056
 30
-0.0000000000000015
 10
246.1825778318963
 20
-426.5278622178056
 30
-0.000000000000002
  0
SPLINE
  5
AF
330
1F
100
AcDbEntity
  8
Predeterminado
100
AcDbSpline
210
0.0
220
0.0
230
1.0
 70
    24
 71
     2
 72
     6
 73
     3
 74
     0
 42
0.000000001
 43
0.0000000001
 40
662.2539054914478
 40
662.2539054914478
 40
662.2539054914478
 40
671.2695530832933
 40
671.2695530832933
 40
671.2695530832933
 10
246.1825778318963
 20
-426.5278622178056
 30
-0.000000000000002
 10
246.1825778318963
 20
-422.0200384218829
 30
-0.000000000000001
 10
246.1825778318963
 20
-417.51221462596
 30
0.0
  0
SPLINE
  5
B0
330
1F
100
AcDbEntity
  8
Predeterminado
100
AcDbSpline
210
0.0
220
0.0
230
1.0
 70
    24
 71
     2
 72
     6
 73
     3
 74
     0
 42
0.000000001
 43
0.0000000001
 40
671.2695530832933
 40
671.2695530832933
 40
671.2695530832933
 40
676.2695530020352
 40
676.2695530020352
 40
676.2695530020352
 10
246.1825778318963
 20
-417.51221462596
 30
0.0
 10
248.6825777912672
 20
-417.51221462596
 30
-0.0000000000000005
 10
251.1825777506382
 20
-417.51221462596
 30
-0.000000000000001
  0
SPLINE
  5
B1
330
1F
100
AcDbEntity
  8
Predeterminado
100
AcDbSpline
210
0.0
220
0.0
230
1.0
 70
    24
 71
     2
 72
     6
 73
     3
 74
     0
 42
0.000000001
 43
0.0000000001
 40
676.2695530020352
 40
676.2695530020352
 40
676.2695530020352
 40
692.5742823592127
 40
692.5742823592127
 40
692.5742823592127
 10
251.1825777506382
 20
-417.51221462596
 30
-0.000000000000001
 10
251.1825777506382
 20
-408.4540318002317
 30
-0.000000000000001
 10
251.1825777506382
 20
-399.3958489745033
 30
-0.000000000000001
  0
SPLINE
  5
B2
330
1F
100
AcDbEntity
  8
Predeterminado
100
AcDbSpline
210
0.0
220
0.0
230
1.0
 70
    24
 71
     2
 72
     6
 73
     3
 74
     0
 42
0.000000001
 43
0.0000000001
 40
692.5742823592127
 40
692.5742823592127
 40
692.5742823592127
 40
697.5742821966966
 40
697.5742821966966
 40
697.5742821966966
 10
251.1825777506382
 20
-399.3958489745033
 30
-0.000000000000001
 10
248.6825777912672
 20
-399.3958489745033
 30
-0.0000000000000015
 10
246.1825778318963
 20
-399.3958489745033
 30
-0.000000000000002
  0
SPLINE
  5
B3
330
1F
100
AcDbEntity
  8
Predeterminado
100
AcDbSpline
210
0.0
220
0.0
230
1.0
 70
    24
 71
     2
 72
     6
 73
     3
 74
     0
 42
0.000000001
 43
0.0000000001
 40
697.5742821966966
 40
697.5742821966966
 40
697.5742821966966
 40
706.5899297885421
 40
706.5899297885421
 40
706.5899297885421
 10
246.1825778318963
 20
-399.3958489745033
 30
-0.000000000000002
 10
246.1825778318963
 20
-394.8880251785805
 30
-0.000000000000001
 10
246.1825778318963
 20
-390.3802013826577
 30
0.0
  0
SPLINE
  5
B4
330
1F
100
AcDbEntity
  8
Predeterminado
100
AcDbSpline
210
0.0
220
0.0
230
1.0
 70
    24
 71
     2
 72
     6
 73
     3
 74
     0
 42
0.000000001
 43
0.0000000001
 40
706.5899297885421
 40
706.5899297885421
 40
706.5899297885421
 40
711.5899297072841
 40
711.5899297072841
 40
711.5899297072841
 10
246.1825778318963
 20
-390.3802013826577
 30
0.0
 10
248.6825777912672
 20
-390.3802013826577
 30
-0.0000000000000005
 10
251.1825777506382
 20
-390.3802013826577
 30
-0.000000000000001
  0
SPLINE
  5
B5
330
1F
100
AcDbEntity
  8
Predeterminado
100
AcDbSpline
210
0.0
220
0.0
230
1.0
 70
    24
 71
     2
 72
     6
 73
     3
 74
     0
 42
0.000000001
 43
0.0000000001
 40
711.5899297072841
 40
711.5899297072841
 40
711.5899297072841
 40
728.11407560639
 40
728.11407560639
 40
728.11407560639
 10
251.1825777506382
 20
-390.3802013826577
 30
-0.000000000000001
 10
251.1825777100092
 20
-381.2001204801054
 30
-0.0000000000000015
 10
251.1825776693802
 20
-372.020039577553
 30
-0.000000000000002
  0
SPLINE
  5
B6
330
1F
100
AcDbEntity
  8
Predeterminado
100
AcDbSpline
210
0.0
220
0.0
230
1.0
 70
    24
 71
     2
 72
     6
 73
     3
 74
     0
 42
0.000000001
 43
0.0000000001
 40
728.11407560639
 40
728.11407560639
 40
728.11407560639
 40
741.4742372489784
 40
741.4742372489784
 40
741.4742372489784
 10
251.1825776693802
 20
-372.020039577553
 30
-0.000000000000002
 10
244.5024968480858
 20
-372.020039577553
 30
-0.0000000000000015
 10
237.8224160267915
 20
-372.020039577553
 30
-0.000000000000001
  0
SPLINE
  5
B7
330
1F
100
AcDbEntity
  8
Predeterminado
100
AcDbSpline
210
0.0
220
0.0
230
1.0
 70
    24
 71
     2
 72
     6
 73
     3
 74
     0
 42
0.000000001
 43
0.0000000001
 40
741.4742372489784
 40
741.4742372489784
 40
741.4742372489784
 40
746.4742372489784
 40
746.4742372489784
 40
746.4742372489784
 10
237.8224160267915
 20
-372.020039577553
 30
-0.000000000000001
 10
237.8224160267915
 20
-374.520039577553
 30
-0.0000000000000015
 10
237.8224160267915
 20
-377.020039577553
 30
-0.000000000000002
  0
SPLINE
  5
B8
330
1F
100
AcDbEntity
  8
Predeterminado
100
AcDbSpline
210
0.0
220
0.0
230
1.0
 70
    24
 71
     2
 72
     6
 73
     3
 74
     0
 42
0.000000001
 43
0.0000000001
 40
746.4742372489784
 40
746.4742372489784
 40
746.4742372489784
 40
755.4898848408241
 40
755.4898848408241
 40
755.4898848408241
 10
237.8224160267915
 20
-377.020039577553
 30
-0.000000000000002
 10
233.3145922308687
 20
-377.020039577553
 30
-0.000000000000001
 10
228.8067684349459
 20
-377.020039577553
 30
0.0
  0
SPLINE
  5
B9
330
1F
100
AcDbEntity
  8
Predeterminado
100
AcDbSpline
210
0.0
220
0.0
230
1.0
 70
    24
 71
     2
 72
     6
 73
     3
 74
     0
 42
0.000000001
 43
0.0000000001
 40
755.4898848408241
 40
755.4898848408241
 40
755.4898848408241
 40
760.4898848408241
 40
760.4898848408241
 40
760.4898848408241
 10
228.8067684349459
 20
-377.020039577553
 30
0.0
 10
228.8067684349459
 20
-374.520039577553
 30
-0.0000000000000005
 10
228.8067684349459
 20
-372.020039577553
 30
-0.000000000000001
  0
SPLINE
  5
BA
330
1F
100
AcDbEntity
  8
Predeterminado
100
AcDbSpline
210
0.0
220
0.0
230
1.0
 70
    24
 71
     2
 72
     6
 73
     3
 74
     0
 42
0.000000001
 43
0.0000000001
 40
760.4898848408241
 40
760.4898848408241
 40
760.4898848408241
 40
778.6062504922807
 40
778.6062504922807
 40
778.6062504922807
 10
228.8067684349459
 20
-372.020039577553
 30
-0.000000000000001
 10
219.7485856092176
 20
-372.020039577553
 30
-0.000000000000001
 10
210.6904027834892
 20
-372.020039577553
 30
-0.000000000000001
  0
SPLINE
  5
BB
330
1F
100
AcDbEntity
  8
Predeterminado
100
AcDbSpline
210
0.0
220
0.0
230
1.0
 70
    24
 71
     2
 72
     6
 73
     3
 74
     0
 42
0.000000001
 43
0.0000000001
 40
778.6062504922807
 40
778.6062504922807
 40
778.6062504922807
 40
783.6062504922807
 40
783.6062504922807
 40
783.6062504922807
 10
210.6904027834892
 20
-372.020039577553
 30
-0.000000000000001
 10
210.6904027834892
 20
-374.520039577553
 30
-0.0000000000000015
 10
210.6904027834892
 20
-377.020039577553
 30
-0.000000000000002
  0
SPLINE
  5
BC
330
1F
100
AcDbEntity
  8
Predeterminado
100
AcDbSpline
210
0.0
220
0.0
230
1.0
 70
    24
 71
     2
 72
     6
 73
     3
 74
     0
 42
0.000000001
 43
0.0000000001
 40
783.6062504922807
 40
783.6062504922807
 40
783.6062504922807
 40
792.6218980841263
 40
792.6218980841263
 40
792.6218980841263
 10
210.6904027834892
 20
-377.020039577553
 30
-0.000000000000002
 10
206.1825789875664
 20
-377.020039577553
 30
-0.000000000000001
 10
201.6747551916436
 20
-377.020039577553
 30
0.0
  0
SPLINE
  5
BD
330
1F
100
AcDbEntity
  8
Predeterminado
100
AcDbSpline
210
0.0
220
0.0
230
1.0
 70
    24
 71
     2
 72
     6
 73
     3
 74
     0
 42
0.000000001
 43
0.0000000001
 40
792.6218980841263
 40
792.6218980841263
 40
792.6218980841263
 40
797.6218980841263
 40
797.6218980841263
 40
797.6218980841263
 10
201.6747551916436
 20
-377.020039577553
 30
0.0
 10
201.6747551916436
 20
-374.520039577553
 30
-0.0000000000000005
 10
201.6747551916436
 20
-372.020039577553
 30
-0.000000000000001
  0
SPLINE
  5
BE
330
1F
100
AcDbEntity
  8
Predeterminado
100
AcDbSpline
210
0.0
220
0.0
230
1.0
 70
    24
 71
     2
 72
     6
 73
     3
 74
     0
 42
0.000000001
 43
0.0000000001
 40
797.6218980841263
 40
797.6218980841263
 40
797.6218980841263
 40
815.7382637355829
 40
815.7382637355829
 40
815.7382637355829
 10
201.6747551916436
 20
-372.020039577553
 30
-0.000000000000001
 10
192.6165723659153
 20
-372.020039577553
 30
-0.000000000000001
 10
183.5583895401869
 20
-372.020039577553
 30
-0.000000000000001
  0
SPLINE
  5
BF
330
1F
100
AcDbEntity
  8
Predeterminado
100
AcDbSpline
210
0.0
220
0.0
230
1.0
 70
    24
 71
     2
 72
     6
 73
     3
 74
     0
 42
0.000000001
 43
0.0000000001
 40
815.7382637355829
 40
815.7382637355829
 40
815.7382637355829
 40
820.7382637355829
 40
820.7382637355829
 40
820.7382637355829
 10
183.5583895401869
 20
-372.020039577553
 30
-0.000000000000001
 10
183.5583895401869
 20
-374.520039577553
 30
-0.0000000000000015
 10
183.5583895401869
 20
-377.020039577553
 30
-0.000000000000002
  0
SPLINE
  5
C0
330
1F
100
AcDbEntity
  8
Predeterminado
100
AcDbSpline
210
0.0
220
0.0
230
1.0
 70
    24
 71
     2
 72
     6
 73
     3
 74
     0
 42
0.000000001
 43
0.0000000001
 40
820.7382637355829
 40
820.7382637355829
 40
820.7382637355829
 40
829.7539113274286
 40
829.7539113274286
 40
829.7539113274286
 10
183.5583895401869
 20
-377.020039577553
 30
-0.000000000000002
 10
179.0505657442641
 20
-377.020039577553
 30
-0.000000000000001
 10
174.5427419483413
 20
-377.020039577553
 30
0.0
  0
SPLINE
  5
C1
330
1F
100
AcDbEntity
  8
Predeterminado
100
AcDbSpline
210
0.0
220
0.0
230
1.0
 70
    24
 71
     2
 72
     6
 73
     3
 74
     0
 42
0.000000001
 43
0.0000000001
 40
829.7539113274286
 40
829.7539113274286
 40
829.7539113274286
 40
834.7539113274286
 40
834.7539113274286
 40
834.7539113274286
 10
174.5427419483413
 20
-377.020039577553
 30
0.0
 10
174.5427419483413
 20
-374.520039577553
 30
-0.0000000000000005
 10
174.5427419483413
 20
-372.020039577553
 30
-0.000000000000001
  0
SPLINE
  5
C2
330
1F
100
AcDbEntity
  8
Predeterminado
100
AcDbSpline
210
0.0
220
0.0
230
1.0
 70
    24
 71
     2
 72
     6
 73
     3
 74
     0
 42
0.000000001
 43
0.0000000001
 40
834.7539113274286
 40
834.7539113274286
 40
834.7539113274286
 40
848.1140756063899
 40
848.1140756063899
 40
848.1140756063899
 10
174.5427419483413
 20
-372.020039577553
 30
-0.000000000000001
 10
167.8626598088607
 20
-372.020039577553
 30
-0.0000000000000015
 10
161.1825776693801
 20
-372.020039577553
 30
-0.000000000000002
  0
SPLINE
  5
C3
330
1F
100
AcDbEntity
  8
Predeterminado
100
AcDbSpline
210
0.0
220
0.0
230
1.0
 70
    24
 71
     2
 72
     6
 73
     3
 74
     0
 42
0.000000001
 43
0.0000000001
 40
848.1140756063899
 40
848.1140756063899
 40
848.1140756063899
 40
864.6382215054957
 40
864.6382215054957
 40
864.6382215054957
 10
161.1825776693801
 20
-372.020039577553
 30
-0.000000000000002
 10
161.1825777100091
 20
-381.2001204801054
 30
-0.0000000000000015
 10
161.1825777506382
 20
-390.3802013826577
 30
-0.000000000000001
  0
SPLINE
  5
C4
330
1F
100
AcDbEntity
  8
Predeterminado
100
AcDbSpline
210
0.0
220
0.0
230
1.0
 70
    24
 71
     2
 72
     6
 73
     3
 74
     0
 42
0.000000001
 43
0.0000000001
 40
864.6382215054957
 40
864.6382215054957
 40
864.6382215054957
 40
869.6382215054957
 40
869.6382215054957
 40
869.6382215054957
 10
161.1825777506382
 20
-390.3802013826577
 30
-0.000000000000001
 10
163.6825777912672
 20
-390.3802013826577
 30
-0.0000000000000005
 10
166.1825778318962
 20
-390.3802013826577
 30
0.0
  0
SPLINE
  5
C5
330
1F
100
AcDbEntity
  8
Predeterminado
100
AcDbSpline
210
0.0
220
0.0
230
1.0
 70
    24
 71
     2
 72
     6
 73
     3
 74
     0
 42
0.000000001
 43
0.0000000001
 40
869.6382215054957
 40
869.6382215054957
 40
869.6382215054957
 40
878.6538690973413
 40
878.6538690973413
 40
878.6538690973413
 10
166.1825778318962
 20
-390.3802013826577
 30
0.0
 10
166.1825778318962
 20
-394.8880251785805
 30
-0.000000000000001
 10
166.1825778318962
 20
-399.3958489745033
 30
-0.000000000000002
  0
SPLINE
  5
C6
330
1F
100
AcDbEntity
  8
Predeterminado
100
AcDbSpline
210
0.0
220
0.0
230
1.0
 70
    24
 71
     2
 72
     6
 73
     3
 74
     0
 42
0.000000001
 43
0.0000000001
 40
878.6538690973413
 40
878.6538690973413
 40
878.6538690973413
 40
883.6538690973413
 40
883.6538690973413
 40
883.6538690973413
 10
166.1825778318962
 20
-399.3958489745033
 30
-0.000000000000002
 10
163.6825777912672
 20
-399.3958489745033
 30
-0.0000000000000015
 10
161.1825777506382
 20
-399.3958489745033
 30
-0.000000000000001
  0
SPLINE
  5
C7
330
1F
100
AcDbEntity
  8
Predeterminado
100
AcDbSpline
210
0.0
220
0.0
230
1.0
 70
    24
 71
     2
 72
     6
 73
     3
 74
     0
 42
0.000000001
 43
0.0000000001
 40
211.8836343485433
 40
211.8836343485433
 40
211.8836343485433
 40
229.9999999999999
 40
229.9999999999999
 40
229.9999999999999
 10
227.3250965945548
 20
-487.9350553223355
 30
0.0
 10
218.2669137688264
 20
-487.9350553223355
 30
0.0
 10
209.2087309430981
 20
-487.9350553223356
 30
0.0
  0
SPLINE
  5
C8
330
1F
100
AcDbEntity
  8
Predeterminado
100
AcDbSpline
210
0.0
220
0.0
230
1.0
 70
    24
 71
     2
 72
     6
 73
     3
 74
     0
 42
0.000000001
 43
0.0000000001
 40
229.9999999999999
 40
229.9999999999999
 40
229.9999999999999
 40
234.9999999999999
 40
234.9999999999999
 40
234.9999999999999
 10
209.2087309430981
 20
-487.9350553223356
 30
0.0
 10
209.2087309430981
 20
-485.4350553223356
 30
0.0
 10
209.2087309430981
 20
-482.9350553223356
 30
0.0
  0
SPLINE
  5
C9
330
1F
100
AcDbEntity
  8
Predeterminado
100
AcDbSpline
210
0.0
220
0.0
230
1.0
 70
    24
 71
     2
 72
     6
 73
     3
 74
     0
 42
0.000000001
 43
0.0000000001
 40
234.9999999999999
 40
234.9999999999999
 40
234.9999999999999
 40
244.0156475918455
 40
244.0156475918455
 40
244.0156475918455
 10
209.2087309430981
 20
-482.9350553223356
 30
0.0
 10
204.7009071471752
 20
-482.9350553223356
 30
0.0
 10
200.1930833512524
 20
-482.9350553223356
 30
0.0
  0
SPLINE
  5
CA
330
1F
100
AcDbEntity
  8
Predeterminado
100
AcDbSpline
210
0.0
220
0.0
230
1.0
 70
    24
 71
     2
 72
     6
 73
     3
 74
     0
 42
0.000000001
 43
0.0000000001
 40
244.0156475918455
 40
244.0156475918455
 40
244.0156475918455
 40
249.0156475918455
 40
249.0156475918455
 40
249.0156475918455
 10
200.1930833512524
 20
-482.9350553223356
 30
0.0
 10
200.1930833512524
 20
-485.4350553223356
 30
0.0
 10
200.1930833512525
 20
-487.9350553223356
 30
0.0
  0
SPLINE
  5
CB
330
1F
100
AcDbEntity
  8
Predeterminado
100
AcDbSpline
210
0.0
220
0.0
230
1.0
 70
    24
 71
     2
 72
     6
 73
     3
 74
     0
 42
0.000000001
 43
0.0000000001
 40
249.0156475918455
 40
249.0156475918455
 40
249.0156475918455
 40
267.1320132433022
 40
267.1320132433022
 40
267.1320132433022
 10
200.1930833512525
 20
-487.9350553223356
 30
0.0
 10
191.1349005255241
 20
-487.9350553223356
 30
0.0
 10
182.0767176997958
 20
-487.9350553223357
 30
0.0
  0
SPLINE
  5
CC
330
1F
100
AcDbEntity
  8
Predeterminado
100
AcDbSpline
210
0.0
220
0.0
230
1.0
 70
    24
 71
     2
 72
     6
 73
     3
 74
     0
 42
0.000000001
 43
0.0000000001
 40
267.1320132433022
 40
267.1320132433022
 40
267.1320132433022
 40
272.1320132433022
 40
272.1320132433022
 40
272.1320132433022
 10
182.0767176997958
 20
-487.9350553223357
 30
0.0
 10
182.0767176997958
 20
-485.4350553223357
 30
0.0
 10
182.0767176997958
 20
-482.9350553223357
 30
0.0
  0
SPLINE
  5
CD
330
1F
100
AcDbEntity
  8
Predeterminado
100
AcDbSpline
210
0.0
220
0.0
230
1.0
 70
    24
 71
     2
 72
     6
 73
     3
 74
     0
 42
0.000000001
 43
0.0000000001
 40
272.1320132433022
 40
272.1320132433022
 40
272.1320132433022
 40
281.1476608351478
 40
281.1476608351478
 40
281.1476608351478
 10
182.0767176997958
 20
-482.9350553223357
 30
0.0
 10
177.568893903873
 20
-482.9350553223357
 30
0.0
 10
173.0610701079501
 20
-482.9350553223357
 30
0.0
  0
SPLINE
  5
CE
330
1F
100
AcDbEntity
  8
Predeterminado
100
AcDbSpline
210
0.0
220
0.0
230
1.0
 70
    24
 71
     2
 72
     6
 73
     3
 74
     0
 42
0.000000001
 43
0.0000000001
 40
281.1476608351478
 40
281.1476608351478
 40
281.1476608351478
 40
286.1476608351478
 40
286.1476608351478
 40
286.1476608351478
 10
173.0610701079501
 20
-482.9350553223357
 30
0.0
 10
173.0610701079501
 20
-485.4350553223357
 30
0.0
 10
173.0610701079501
 20
-487.9350553223357
 30
0.0
  0
SPLINE
  5
CF
330
1F
100
AcDbEntity
  8
Predeterminado
100
AcDbSpline
210
0.0
220
0.0
230
1.0
 70
    24
 71
     2
 72
     6
 73
     3
 74
     0
 42
0.000000001
 43
0.0000000001
 40
286.1476608351478
 40
286.1476608351478
 40
286.1476608351478
 40
299.5078237959227
 40
299.5078237959227
 40
299.5078237959227
 10
173.0610701079501
 20
-487.9350553223357
 30
0.0
 10
166.3809886275627
 20
-487.9350553223358
 30
0.0
 10
159.7009071471752
 20
-487.9350553223358
 30
0.0
  0
SPLINE
  5
D0
330
1F
100
AcDbEntity
  8
Predeterminado
100
AcDbSpline
210
0.0
220
0.0
230
1.0
 70
    24
 71
     2
 72
     6
 73
     3
 74
     0
 42
0.000000001
 43
0.0000000001
 40
299.5078237959227
 40
299.5078237959227
 40
299.5078237959227
 40
309.5078237959227
 40
309.5078237959227
 40
309.5078237959227
 10
159.7009071471752
 20
-487.9350553223358
 30
0.0
 10
159.7009071471753
 20
-492.9350553223358
 30
0.0
 10
159.7009071471753
 20
-497.9350553223357
 30
0.0
  0
SPLINE
  5
D1
330
1F
100
AcDbEntity
  8
Predeterminado
100
AcDbSpline
210
0.0
220
0.0
230
1.0
 70
    24
 71
     2
 72
     6
 73
     3
 74
     0
 42
0.000000001
 43
0.0000000001
 40
309.5078237959227
 40
309.5078237959227
 40
309.5078237959227
 40
399.5078237959227
 40
399.5078237959227
 40
399.5078237959227
 10
159.7009071471753
 20
-497.9350553223357
 30
0.0
 10
204.7009071471753
 20
-497.9350553223355
 30
0.0
 10
249.7009071471753
 20
-497.9350553223354
 30
0.0
  0
SPLINE
  5
D2
330
1F
100
AcDbEntity
  8
Predeterminado
100
AcDbSpline
210
0.0
220
0.0
230
1.0
 70
    24
 71
     2
 72
     6
 73
     3
 74
     0
 42
0.000000001
 43
0.0000000001
 40
399.5078237959227
 40
399.5078237959227
 40
399.5078237959227
 40
409.5078237959227
 40
409.5078237959227
 40
409.5078237959227
 10
249.7009071471753
 20
-497.9350553223354
 30
0.0
 10
249.7009071471753
 20
-492.9350553223354
 30
0.0
 10
249.7009071471753
 20
-487.9350553223354
 30
0.0
  0
SPLINE
  5
D3
330
1F
100
AcDbEntity
  8
Predeterminado
100
AcDbSpline
210
0.0
220
0.0
230
1.0
 70
    24
 71
     2
 72
     6
 73
     3
 74
     0
 42
0.000000001
 43
0.0000000001
 40
409.5078237959227
 40
409.5078237959227
 40
409.5078237959227
 40
422.8679867566976
 40
422.8679867566976
 40
422.8679867566976
 10
249.7009071471753
 20
-487.9350553223354
 30
0.0
 10
243.0208256667878
 20
-487.9350553223354
 30
0.0
 10
236.3407441864004
 20
-487.9350553223355
 30
0.0
  0
SPLINE
  5
D4
330
1F
100
AcDbEntity
  8
Predeterminado
100
AcDbSpline
210
0.0
220
0.0
230
1.0
 70
    24
 71
     2
 72
     6
 73
     3
 74
     0
 42
0.000000001
 43
0.0000000001
 40
422.8679867566976
 40
422.8679867566976
 40
422.8679867566976
 40
427.8679867566976
 40
427.8679867566976
 40
427.8679867566976
 10
236.3407441864004
 20
-487.9350553223355
 30
0.0
 10
236.3407441864003
 20
-485.4350553223355
 30
0.0
 10
236.3407441864003
 20
-482.9350553223355
 30
0.0
  0
SPLINE
  5
D5
330
1F
100
AcDbEntity
  8
Predeterminado
100
AcDbSpline
210
0.0
220
0.0
230
1.0
 70
    24
 71
     2
 72
     6
 73
     3
 74
     0
 42
0.000000001
 43
0.0000000001
 40
427.8679867566976
 40
427.8679867566976
 40
427.8679867566976
 40
436.8836343485432
 40
436.8836343485432
 40
436.8836343485432
 10
236.3407441864003
 20
-482.9350553223355
 30
0.0
 10
231.8329203904775
 20
-482.9350553223355
 30
0.0
 10
227.3250965945547
 20
-482.9350553223355
 30
0.0
  0
SPLINE
  5
D6
330
1F
100
AcDbEntity
  8
Predeterminado
100
AcDbSpline
210
0.0
220
0.0
230
1.0
 70
    24
 71
     2
 72
     6
 73
     3
 74
     0
 42
0.000000001
 43
0.0000000001
 40
436.8836343485432
 40
436.8836343485432
 40
436.8836343485432
 40
441.8836343485432
 40
441.8836343485432
 40
441.8836343485432
 10
227.3250965945547
 20
-482.9350553223355
 30
0.0
 10
227.3250965945547
 20
-485.4350553223355
 30
0.0
 10
227.3250965945548
 20
-487.9350553223355
 30
0.0
  0
SPLINE
  5
D7
330
1F
100
AcDbEntity
  8
Predeterminado
100
AcDbSpline
210
0.0
220
0.0
230
1.0
 70
    24
 71
     2
 72
     6
 73
     3
 74
     0
 42
0.000000001
 43
0.0000000001
 40
19.01564759184562
 40
19.01564759184562
 40
19.01564759184562
 40
37.1320132433023
 40
37.1320132433023
 40
37.1320132433023
 10
209.5600388214658
 20
-538.7814471447472
 30
0.0000000000000142
 10
218.6182216471941
 20
-538.7814471447472
 30
0.0000000000000142
 10
227.6764044729225
 20
-538.7814471447472
 30
0.0000000000000142
  0
SPLINE
  5
D8
330
1F
100
AcDbEntity
  8
Predeterminado
100
AcDbSpline
210
0.0
220
0.0
230
1.0
 70
    24
 71
     2
 72
     6
 73
     3
 74
     0
 42
0.000000001
 43
0.0000000001
 40
37.1320132433023
 40
37.1320132433023
 40
37.1320132433023
 40
42.1320132433023
 40
42.1320132433023
 40
42.1320132433023
 10
227.6764044729225
 20
-538.7814471447472
 30
0.0000000000000142
 10
227.6764044729225
 20
-536.2814471447472
 30
0.0000000000000178
 10
227.6764044729225
 20
-533.7814471447472
 30
0.0000000000000213
  0
SPLINE
  5
D9
330
1F
100
AcDbEntity
  8
Predeterminado
100
AcDbSpline
210
0.0
220
0.0
230
1.0
 70
    24
 71
     2
 72
     6
 73
     3
 74
     0
 42
0.000000001
 43
0.0000000001
 40
42.1320132433023
 40
42.1320132433023
 40
42.1320132433023
 40
51.14766083514792
 40
51.14766083514792
 40
51.14766083514792
 10
227.6764044729225
 20
-533.7814471447472
 30
0.0000000000000213
 10
232.1842282688453
 20
-533.7814471447472
 30
0.0000000000000213
 10
236.6920520647681
 20
-533.7814471447472
 30
0.0000000000000213
  0
SPLINE
  5
DA
330
1F
100
AcDbEntity
  8
Predeterminado
100
AcDbSpline
210
0.0
220
0.0
230
1.0
 70
    24
 71
     2
 72
     6
 73
     3
 74
     0
 42
0.000000001
 43
0.0000000001
 40
51.14766083514792
 40
51.14766083514792
 40
51.14766083514792
 40
56.14766083514792
 40
56.14766083514792
 40
56.14766083514792
 10
236.6920520647681
 20
-533.7814471447472
 30
0.0000000000000213
 10
236.6920520647681
 20
-536.2814471447472
 30
0.0000000000000178
 10
236.6920520647681
 20
-538.7814471447472
 30
0.0000000000000142
  0
SPLINE
  5
DB
330
1F
100
AcDbEntity
  8
Predeterminado
100
AcDbSpline
210
0.0
220
0.0
230
1.0
 70
    24
 71
     2
 72
     6
 73
     3
 74
     0
 42
0.000000001
 43
0.0000000001
 40
56.14766083514792
 40
56.14766083514792
 40
56.14766083514792
 40
69.50782379592282
 40
69.50782379592282
 40
69.50782379592282
 10
236.6920520647681
 20
-538.7814471447472
 30
0.0000000000000142
 10
243.3721335451555
 20
-538.7814471447472
 30
0.0000000000000071
 10
250.0522150255429
 20
-538.7814471447472
 30
0.0
  0
SPLINE
  5
DC
330
1F
100
AcDbEntity
  8
Predeterminado
100
AcDbSpline
210
0.0
220
0.0
230
1.0
 70
    24
 71
     2
 72
     6
 73
     3
 74
     0
 42
0.000000001
 43
0.0000000001
 40
69.50782379592282
 40
69.50782379592282
 40
69.50782379592282
 40
79.50782379592282
 40
79.50782379592282
 40
79.50782379592282
 10
250.0522150255429
 20
-538.7814471447472
 30
0.0
 10
250.0522150255429
 20
-543.7814471447472
 30
-0.0000000000000036
 10
250.0522150255429
 20
-548.7814471447472
 30
-0.0000000000000071
  0
SPLINE
  5
DD
330
1F
100
AcDbEntity
  8
Predeterminado
100
AcDbSpline
210
0.0
220
0.0
230
1.0
 70
    24
 71
     2
 72
     6
 73
     3
 74
     0
 42
0.000000001
 43
0.0000000001
 40
79.50782379592282
 40
79.50782379592282
 40
79.50782379592282
 40
169.5078237959228
 40
169.5078237959228
 40
169.5078237959228
 10
250.0522150255429
 20
-548.7814471447472
 30
-0.0000000000000071
 10
205.052215025543
 20
-548.7814471447472
 30
-0.0000000000000071
 10
160.052215025543
 20
-548.7814471447472
 30
-0.0000000000000071
  0
SPLINE
  5
DE
330
1F
100
AcDbEntity
  8
Predeterminado
100
AcDbSpline
210
0.0
220
0.0
230
1.0
 70
    24
 71
     2
 72
     6
 73
     3
 74
     0
 42
0.000000001
 43
0.0000000001
 40
169.5078237959228
 40
169.5078237959228
 40
169.5078237959228
 40
179.5078237959228
 40
179.5078237959228
 40
179.5078237959228
 10
160.052215025543
 20
-548.7814471447472
 30
-0.0000000000000071
 10
160.052215025543
 20
-543.7814471447472
 30
-0.0000000000000036
 10
160.052215025543
 20
-538.7814471447472
 30
0.0
  0
SPLINE
  5
DF
330
1F
100
AcDbEntity
  8
Predeterminado
100
AcDbSpline
210
0.0
220
0.0
230
1.0
 70
    24
 71
     2
 72
     6
 73
     3
 74
     0
 42
0.000000001
 43
0.0000000001
 40
179.5078237959228
 40
179.5078237959228
 40
179.5078237959228
 40
192.8679867566977
 40
192.8679867566977
 40
192.8679867566977
 10
160.052215025543
 20
-538.7814471447472
 30
0.0
 10
166.7322965059304
 20
-538.7814471447472
 30
0.0000000000000071
 10
173.4123779863179
 20
-538.7814471447472
 30
0.0000000000000142
  0
SPLINE
  5
E0
330
1F
100
AcDbEntity
  8
Predeterminado
100
AcDbSpline
210
0.0
220
0.0
230
1.0
 70
    24
 71
     2
 72
     6
 73
     3
 74
     0
 42
0.000000001
 43
0.0000000001
 40
192.8679867566977
 40
192.8679867566977
 40
192.8679867566977
 40
197.8679867566977
 40
197.8679867566977
 40
197.8679867566977
 10
173.4123779863179
 20
-538.7814471447472
 30
0.0000000000000142
 10
173.4123779863179
 20
-536.2814471447472
 30
0.0000000000000178
 10
173.4123779863179
 20
-533.7814471447472
 30
0.0000000000000213
  0
SPLINE
  5
E1
330
1F
100
AcDbEntity
  8
Predeterminado
100
AcDbSpline
210
0.0
220
0.0
230
1.0
 70
    24
 71
     2
 72
     6
 73
     3
 74
     0
 42
0.000000001
 43
0.0000000001
 40
197.8679867566977
 40
197.8679867566977
 40
197.8679867566977
 40
206.8836343485434
 40
206.8836343485434
 40
206.8836343485434
 10
173.4123779863179
 20
-533.7814471447472
 30
0.0000000000000213
 10
177.9202017822407
 20
-533.7814471447472
 30
0.0000000000000213
 10
182.4280255781635
 20
-533.7814471447472
 30
0.0000000000000213
  0
SPLINE
  5
E2
330
1F
100
AcDbEntity
  8
Predeterminado
100
AcDbSpline
210
0.0
220
0.0
230
1.0
 70
    24
 71
     2
 72
     6
 73
     3
 74
     0
 42
0.000000001
 43
0.0000000001
 40
206.8836343485434
 40
206.8836343485434
 40
206.8836343485434
 40
211.8836343485434
 40
211.8836343485434
 40
211.8836343485434
 10
182.4280255781635
 20
-533.7814471447472
 30
0.0000000000000213
 10
182.4280255781635
 20
-536.2814471447472
 30
0.0000000000000178
 10
182.4280255781635
 20
-538.7814471447472
 30
0.0000000000000142
  0
SPLINE
  5
E3
330
1F
100
AcDbEntity
  8
Predeterminado
100
AcDbSpline
210
0.0
220
0.0
230
1.0
 70
    24
 71
     2
 72
     6
 73
     3
 74
     0
 42
0.000000001
 43
0.0000000001
 40
211.8836343485434
 40
211.8836343485434
 40
211.8836343485434
 40
230.0
 40
230.0
 40
230.0
 10
182.4280255781635
 20
-538.7814471447472
 30
0.0000000000000142
 10
191.4862084038919
 20
-538.7814471447472
 30
0.0000000000000142
 10
200.5443912296202
 20
-538.7814471447472
 30
0.0000000000000142
  0
SPLINE
  5
E4
330
1F
100
AcDbEntity
  8
Predeterminado
100
AcDbSpline
210
0.0
220
0.0
230
1.0
 70
    24
 71
     2
 72
     6
 73
     3
 74
     0
 42
0.000000001
 43
0.0000000001
 40
230.0
 40
230.0
 40
230.0
 40
235.0
 40
235.0
 40
235.0
 10
200.5443912296202
 20
-538.7814471447472
 30
0.0000000000000142
 10
200.5443912296202
 20
-536.2814471447472
 30
0.0000000000000178
 10
200.5443912296202
 20
-533.7814471447472
 30
0.0000000000000213
  0
SPLINE
  5
E5
330
1F
100
AcDbEntity
  8
Predeterminado
100
AcDbSpline
210
0.0
220
0.0
230
1.0
 70
    24
 71
     2
 72
     6
 73
     3
 74
     0
 42
0.000000001
 43
0.0000000001
 40
235.0
 40
235.0
 40
235.0
 40
244.0156475918456
 40
244.0156475918456
 40
244.0156475918456
 10
200.5443912296202
 20
-533.7814471447472
 30
0.0000000000000213
 10
205.052215025543
 20
-533.7814471447472
 30
0.0000000000000213
 10
209.5600388214658
 20
-533.7814471447472
 30
0.0000000000000213
  0
SPLINE
  5
E6
330
1F
100
AcDbEntity
  8
Predeterminado
100
AcDbSpline
210
0.0
220
0.0
230
1.0
 70
    24
 71
     2
 72
     6
 73
     3
 74
     0
 42
0.000000001
 43
0.0000000001
 40
244.0156475918456
 40
244.0156475918456
 40
244.0156475918456
 40
249.0156475918456
 40
249.0156475918456
 40
249.0156475918456
 10
209.5600388214658
 20
-533.7814471447472
 30
0.0000000000000213
 10
209.5600388214658
 20
-536.2814471447472
 30
0.0000000000000178
 10
209.5600388214658
 20
-538.7814471447472
 30
0.0000000000000142
  0
SPLINE
  5
E7
330
1F
100
AcDbEntity
  8
Predeterminado
100
AcDbSpline
210
0.0
220
0.0
230
1.0
 70
    24
 71
     2
 72
     6
 73
     3
 74
     0
 42
0.000000001
 43
0.0000000001
 40
19.01564759184562
 40
19.01564759184562
 40
19.01564759184562
 40
37.1320132433023
 40
37.1320132433023
 40
37.1320132433023
 10
209.5600388214658
 20
-521.9695021360332
 30
0.0000000000000142
 10
218.6182216471941
 20
-521.9695021360332
 30
0.0000000000000142
 10
227.6764044729225
 20
-521.9695021360332
 30
0.0000000000000142
  0
SPLINE
  5
E8
330
1F
100
AcDbEntity
  8
Predeterminado
100
AcDbSpline
210
0.0
220
0.0
230
1.0
 70
    24
 71
     2
 72
     6
 73
     3
 74
     0
 42
0.000000001
 43
0.0000000001
 40
37.1320132433023
 40
37.1320132433023
 40
37.1320132433023
 40
42.1320132433023
 40
42.1320132433023
 40
42.1320132433023
 10
227.6764044729225
 20
-521.9695021360332
 30
0.0000000000000142
 10
227.6764044729225
 20
-519.4695021360332
 30
0.0000000000000178
 10
227.6764044729225
 20
-516.9695021360332
 30
0.0000000000000213
  0
SPLINE
  5
E9
330
1F
100
AcDbEntity
  8
Predeterminado
100
AcDbSpline
210
0.0
220
0.0
230
1.0
 70
    24
 71
     2
 72
     6
 73
     3
 74
     0
 42
0.000000001
 43
0.0000000001
 40
42.1320132433023
 40
42.1320132433023
 40
42.1320132433023
 40
51.14766083514792
 40
51.14766083514792
 40
51.14766083514792
 10
227.6764044729225
 20
-516.9695021360332
 30
0.0000000000000213
 10
232.1842282688453
 20
-516.9695021360332
 30
0.0000000000000213
 10
236.6920520647681
 20
-516.9695021360332
 30
0.0000000000000213
  0
SPLINE
  5
EA
330
1F
100
AcDbEntity
  8
Predeterminado
100
AcDbSpline
210
0.0
220
0.0
230
1.0
 70
    24
 71
     2
 72
     6
 73
     3
 74
     0
 42
0.000000001
 43
0.0000000001
 40
51.14766083514792
 40
51.14766083514792
 40
51.14766083514792
 40
56.14766083514792
 40
56.14766083514792
 40
56.14766083514792
 10
236.6920520647681
 20
-516.9695021360332
 30
0.0000000000000213
 10
236.6920520647681
 20
-519.4695021360332
 30
0.0000000000000178
 10
236.6920520647681
 20
-521.9695021360332
 30
0.0000000000000142
  0
SPLINE
  5
EB
330
1F
100
AcDbEntity
  8
Predeterminado
100
AcDbSpline
210
0.0
220
0.0
230
1.0
 70
    24
 71
     2
 72
     6
 73
     3
 74
     0
 42
0.000000001
 43
0.0000000001
 40
56.14766083514792
 40
56.14766083514792
 40
56.14766083514792
 40
69.50782379592282
 40
69.50782379592282
 40
69.50782379592282
 10
236.6920520647681
 20
-521.9695021360332
 30
0.0000000000000142
 10
243.3721335451555
 20
-521.9695021360332
 30
0.0000000000000071
 10
250.0522150255429
 20
-521.9695021360332
 30
0.0
  0
SPLINE
  5
EC
330
1F
100
AcDbEntity
  8
Predeterminado
100
AcDbSpline
210
0.0
220
0.0
230
1.0
 70
    24
 71
     2
 72
     6
 73
     3
 74
     0
 42
0.000000001
 43
0.0000000001
 40
69.50782379592282
 40
69.50782379592282
 40
69.50782379592282
 40
79.50782379592282
 40
79.50782379592282
 40
79.50782379592282
 10
250.0522150255429
 20
-521.9695021360332
 30
0.0
 10
250.0522150255429
 20
-526.9695021360332
 30
-0.0000000000000036
 10
250.0522150255429
 20
-531.9695021360332
 30
-0.0000000000000071
  0
SPLINE
  5
ED
330
1F
100
AcDbEntity
  8
Predeterminado
100
AcDbSpline
210
0.0
220
0.0
230
1.0
 70
    24
 71
     2
 72
     6
 73
     3
 74
     0
 42
0.000000001
 43
0.0000000001
 40
79.50782379592282
 40
79.50782379592282
 40
79.50782379592282
 40
169.5078237959228
 40
169.5078237959228
 40
169.5078237959228
 10
250.0522150255429
 20
-531.9695021360332
 30
-0.0000000000000071
 10
205.052215025543
 20
-531.9695021360332
 30
-0.0000000000000071
 10
160.052215025543
 20
-531.9695021360332
 30
-0.0000000000000071
  0
SPLINE
  5
EE
330
1F
100
AcDbEntity
  8
Predeterminado
100
AcDbSpline
210
0.0
220
0.0
230
1.0
 70
    24
 71
     2
 72
     6
 73
     3
 74
     0
 42
0.000000001
 43
0.0000000001
 40
169.5078237959228
 40
169.5078237959228
 40
169.5078237959228
 40
179.5078237959228
 40
179.5078237959228
 40
179.5078237959228
 10
160.052215025543
 20
-531.9695021360332
 30
-0.0000000000000071
 10
160.052215025543
 20
-526.9695021360332
 30
-0.0000000000000036
 10
160.052215025543
 20
-521.9695021360332
 30
0.0
  0
SPLINE
  5
EF
330
1F
100
AcDbEntity
  8
Predeterminado
100
AcDbSpline
210
0.0
220
0.0
230
1.0
 70
    24
 71
     2
 72
     6
 73
     3
 74
     0
 42
0.000000001
 43
0.0000000001
 40
179.5078237959228
 40
179.5078237959228
 40
179.5078237959228
 40
192.8679867566977
 40
192.8679867566977
 40
192.8679867566977
 10
160.052215025543
 20
-521.9695021360332
 30
0.0
 10
166.7322965059304
 20
-521.9695021360332
 30
0.0000000000000071
 10
173.4123779863179
 20
-521.9695021360332
 30
0.0000000000000142
  0
SPLINE
  5
F0
330
1F
100
AcDbEntity
  8
Predeterminado
100
AcDbSpline
210
0.0
220
0.0
230
1.0
 70
    24
 71
     2
 72
     6
 73
     3
 74
     0
 42
0.000000001
 43
0.0000000001
 40
192.8679867566977
 40
192.8679867566977
 40
192.8679867566977
 40
197.8679867566977
 40
197.8679867566977
 40
197.8679867566977
 10
173.4123779863179
 20
-521.9695021360332
 30
0.0000000000000142
 10
173.4123779863179
 20
-519.4695021360332
 30
0.0000000000000178
 10
173.4123779863179
 20
-516.9695021360332
 30
0.0000000000000213
  0
SPLINE
  5
F1
330
1F
100
AcDbEntity
  8
Predeterminado
100
AcDbSpline
210
0.0
220
0.0
230
1.0
 70
    24
 71
     2
 72
     6
 73
     3
 74
     0
 42
0.000000001
 43
0.0000000001
 40
197.8679867566977
 40
197.8679867566977
 40
197.8679867566977
 40
206.8836343485434
 40
206.8836343485434
 40
206.8836343485434
 10
173.4123779863179
 20
-516.9695021360332
 30
0.0000000000000213
 10
177.9202017822407
 20
-516.9695021360332
 30
0.0000000000000213
 10
182.4280255781635
 20
-516.9695021360332
 30
0.0000000000000213
  0
SPLINE
  5
F2
330
1F
100
AcDbEntity
  8
Predeterminado
100
AcDbSpline
210
0.0
220
0.0
230
1.0
 70
    24
 71
     2
 72
     6
 73
     3
 74
     0
 42
0.000000001
 43
0.0000000001
 40
206.8836343485434
 40
206.8836343485434
 40
206.8836343485434
 40
211.8836343485434
 40
211.8836343485434
 40
211.8836343485434
 10
182.4280255781635
 20
-516.9695021360332
 30
0.0000000000000213
 10
182.4280255781635
 20
-519.4695021360332
 30
0.0000000000000178
 10
182.4280255781635
 20
-521.9695021360332
 30
0.0000000000000142
  0
SPLINE
  5
F3
330
1F
100
AcDbEntity
  8
Predeterminado
100
AcDbSpline
210
0.0
220
0.0
230
1.0
 70
    24
 71
     2
 72
     6
 73
     3
 74
     0
 42
0.000000001
 43
0.0000000001
 40
211.8836343485434
 40
211.8836343485434
 40
211.8836343485434
 40
230.0
 40
230.0
 40
230.0
 10
182.4280255781635
 20
-521.9695021360332
 30
0.0000000000000142
 10
191.4862084038919
 20
-521.9695021360332
 30
0.0000000000000142
 10
200.5443912296202
 20
-521.9695021360332
 30
0.0000000000000142
  0
SPLINE
  5
F4
330
1F
100
AcDbEntity
  8
Predeterminado
100
AcDbSpline
210
0.0
220
0.0
230
1.0
 70
    24
 71
     2
 72
     6
 73
     3
 74
     0
 42
0.000000001
 43
0.0000000001
 40
230.0
 40
230.0
 40
230.0
 40
235.0
 40
235.0
 40
235.0
 10
200.5443912296202
 20
-521.9695021360332
 30
0.0000000000000142
 10
200.5443912296202
 20
-519.4695021360332
 30
0.0000000000000178
 10
200.5443912296202
 20
-516.9695021360332
 30
0.0000000000000213
  0
SPLINE
  5
F5
330
1F
100
AcDbEntity
  8
Predeterminado
100
AcDbSpline
210
0.0
220
0.0
230
1.0
 70
    24
 71
     2
 72
     6
 73
     3
 74
     0
 42
0.000000001
 43
0.0000000001
 40
235.0
 40
235.0
 40
235.0
 40
244.0156475918456
 40
244.0156475918456
 40
244.0156475918456
 10
200.5443912296202
 20
-516.9695021360332
 30
0.0000000000000213
 10
205.052215025543
 20
-516.9695021360332
 30
0.0000000000000213
 10
209.5600388214658
 20
-516.9695021360332
 30
0.0000000000000213
  0
SPLINE
  5
F6
330
1F
100
AcDbEntity
  8
Predeterminado
100
AcDbSpline
210
0.0
220
0.0
230
1.0
 70
    24
 71
     2
 72
     6
 73
     3
 74
     0
 42
0.000000001
 43
0.0000000001
 40
244.0156475918456
 40
244.0156475918456
 40
244.0156475918456
 40
249.0156475918456
 40
249.0156475918456
 40
249.0156475918456
 10
209.5600388214658
 20
-516.9695021360332
 30
0.0000000000000213
 10
209.5600388214658
 20
-519.4695021360332
 30
0.0000000000000178
 10
209.5600388214658
 20
-521.9695021360332
 30
0.0000000000000142
  0
SPLINE
  5
F7
330
1F
100
AcDbEntity
  8
Predeterminado
100
AcDbSpline
210
0.0
220
0.0
230
1.0
 70
    24
 71
     2
 72
     6
 73
     3
 74
     0
 42
0.000000001
 43
0.0000000001
 40
211.8836343485433
 40
211.8836343485433
 40
211.8836343485433
 40
229.9999999999999
 40
229.9999999999999
 40
229.9999999999999
 10
227.3250965945548
 20
-505.7193886093021
 30
0.0
 10
218.2669137688264
 20
-505.7193886093022
 30
0.0
 10
209.2087309430981
 20
-505.7193886093023
 30
0.0
  0
SPLINE
  5
F8
330
1F
100
AcDbEntity
  8
Predeterminado
100
AcDbSpline
210
0.0
220
0.0
230
1.0
 70
    24
 71
     2
 72
     6
 73
     3
 74
     0
 42
0.000000001
 43
0.0000000001
 40
229.9999999999999
 40
229.9999999999999
 40
229.9999999999999
 40
234.9999999999999
 40
234.9999999999999
 40
234.9999999999999
 10
209.2087309430981
 20
-505.7193886093023
 30
0.0
 10
209.2087309430981
 20
-503.2193886093023
 30
0.0
 10
209.2087309430981
 20
-500.7193886093023
 30
0.0
  0
SPLINE
  5
F9
330
1F
100
AcDbEntity
  8
Predeterminado
100
AcDbSpline
210
0.0
220
0.0
230
1.0
 70
    24
 71
     2
 72
     6
 73
     3
 74
     0
 42
0.000000001
 43
0.0000000001
 40
234.9999999999999
 40
234.9999999999999
 40
234.9999999999999
 40
244.0156475918455
 40
244.0156475918455
 40
244.0156475918455
 10
209.2087309430981
 20
-500.7193886093023
 30
0.0
 10
204.7009071471752
 20
-500.7193886093023
 30
0.0
 10
200.1930833512524
 20
-500.7193886093024
 30
0.0
  0
SPLINE
  5
FA
330
1F
100
AcDbEntity
  8
Predeterminado
100
AcDbSpline
210
0.0
220
0.0
230
1.0
 70
    24
 71
     2
 72
     6
 73
     3
 74
     0
 42
0.000000001
 43
0.0000000001
 40
244.0156475918455
 40
244.0156475918455
 40
244.0156475918455
 40
249.0156475918455
 40
249.0156475918455
 40
249.0156475918455
 10
200.1930833512524
 20
-500.7193886093024
 30
0.0
 10
200.1930833512524
 20
-503.2193886093024
 30
0.0
 10
200.1930833512525
 20
-505.7193886093024
 30
0.0
  0
SPLINE
  5
FB
330
1F
100
AcDbEntity
  8
Predeterminado
100
AcDbSpline
210
0.0
220
0.0
230
1.0
 70
    24
 71
     2
 72
     6
 73
     3
 74
     0
 42
0.000000001
 43
0.0000000001
 40
249.0156475918455
 40
249.0156475918455
 40
249.0156475918455
 40
267.1320132433022
 40
267.1320132433022
 40
267.1320132433022
 10
200.1930833512525
 20
-505.7193886093024
 30
0.0
 10
191.1349005255241
 20
-505.7193886093024
 30
0.0
 10
182.0767176997958
 20
-505.7193886093024
 30
0.0
  0
SPLINE
  5
FC
330
1F
100
AcDbEntity
  8
Predeterminado
100
AcDbSpline
210
0.0
220
0.0
230
1.0
 70
    24
 71
     2
 72
     6
 73
     3
 74
     0
 42
0.000000001
 43
0.0000000001
 40
267.1320132433022
 40
267.1320132433022
 40
267.1320132433022
 40
272.1320132433022
 40
272.1320132433022
 40
272.1320132433022
 10
182.0767176997958
 20
-505.7193886093024
 30
0.0
 10
182.0767176997958
 20
-503.2193886093024
 30
0.0
 10
182.0767176997958
 20
-500.7193886093024
 30
0.0
  0
SPLINE
  5
FD
330
1F
100
AcDbEntity
  8
Predeterminado
100
AcDbSpline
210
0.0
220
0.0
230
1.0
 70
    24
 71
     2
 72
     6
 73
     3
 74
     0
 42
0.000000001
 43
0.0000000001
 40
272.1320132433022
 40
272.1320132433022
 40
272.1320132433022
 40
281.1476608351478
 40
281.1476608351478
 40
281.1476608351478
 10
182.0767176997958
 20
-500.7193886093024
 30
0.0
 10
177.568893903873
 20
-500.7193886093024
 30
0.0
 10
173.0610701079501
 20
-500.7193886093024
 30
0.0
  0
SPLINE
  5
FE
330
1F
100
AcDbEntity
  8
Predeterminado
100
AcDbSpline
210
0.0
220
0.0
230
1.0
 70
    24
 71
     2
 72
     6
 73
     3
 74
     0
 42
0.000000001
 43
0.0000000001
 40
281.1476608351478
 40
281.1476608351478
 40
281.1476608351478
 40
286.1476608351478
 40
286.1476608351478
 40
286.1476608351478
 10
173.0610701079501
 20
-500.7193886093024
 30
0.0
 10
173.0610701079501
 20
-503.2193886093024
 30
0.0
 10
173.0610701079501
 20
-505.7193886093024
 30
0.0
  0
SPLINE
  5
FF
330
1F
100
AcDbEntity
  8
Predeterminado
100
AcDbSpline
210
0.0
220
0.0
230
1.0
 70
    24
 71
     2
 72
     6
 73
     3
 74
     0
 42
0.000000001
 43
0.0000000001
 40
286.1476608351478
 40
286.1476608351478
 40
286.1476608351478
 40
299.5078237959227
 40
299.5078237959227
 40
299.5078237959227
 10
173.0610701079501
 20
-505.7193886093024
 30
0.0
 10
166.3809886275627
 20
-505.7193886093024
 30
0.0
 10
159.7009071471752
 20
-505.7193886093025
 30
0.0
  0
SPLINE
  5
100
330
1F
100
AcDbEntity
  8
Predeterminado
100
AcDbSpline
210
0.0
220
0.0
230
1.0
 70
    24
 71
     2
 72
     6
 73
     3
 74
     0
 42
0.000000001
 43
0.0000000001
 40
299.5078237959227
 40
299.5078237959227
 40
299.5078237959227
 40
309.5078237959227
 40
309.5078237959227
 40
309.5078237959227
 10
159.7009071471752
 20
-505.7193886093025
 30
0.0
 10
159.7009071471753
 20
-510.7193886093025
 30
0.0
 10
159.7009071471753
 20
-515.7193886093025
 30
0.0
  0
SPLINE
  5
101
330
1F
100
AcDbEntity
  8
Predeterminado
100
AcDbSpline
210
0.0
220
0.0
230
1.0
 70
    24
 71
     2
 72
     6
 73
     3
 74
     0
 42
0.000000001
 43
0.0000000001
 40
309.5078237959227
 40
309.5078237959227
 40
309.5078237959227
 40
399.5078237959227
 40
399.5078237959227
 40
399.5078237959227
 10
159.7009071471753
 20
-515.7193886093025
 30
0.0
 10
204.7009071471753
 20
-515.7193886093023
 30
0.0
 10
249.7009071471753
 20
-515.7193886093021
 30
0.0
  0
SPLINE
  5
102
330
1F
100
AcDbEntity
  8
Predeterminado
100
AcDbSpline
210
0.0
220
0.0
230
1.0
 70
    24
 71
     2
 72
     6
 73
     3
 74
     0
 42
0.000000001
 43
0.0000000001
 40
399.5078237959227
 40
399.5078237959227
 40
399.5078237959227
 40
409.5078237959227
 40
409.5078237959227
 40
409.5078237959227
 10
249.7009071471753
 20
-515.7193886093021
 30
0.0
 10
249.7009071471753
 20
-510.7193886093021
 30
0.0
 10
249.7009071471753
 20
-505.7193886093021
 30
0.0
  0
SPLINE
  5
103
330
1F
100
AcDbEntity
  8
Predeterminado
100
AcDbSpline
210
0.0
220
0.0
230
1.0
 70
    24
 71
     2
 72
     6
 73
     3
 74
     0
 42
0.000000001
 43
0.0000000001
 40
409.5078237959227
 40
409.5078237959227
 40
409.5078237959227
 40
422.8679867566976
 40
422.8679867566976
 40
422.8679867566976
 10
249.7009071471753
 20
-505.7193886093021
 30
0.0
 10
243.0208256667878
 20
-505.7193886093021
 30
0.0
 10
236.3407441864004
 20
-505.7193886093021
 30
0.0
  0
SPLINE
  5
104
330
1F
100
AcDbEntity
  8
Predeterminado
100
AcDbSpline
210
0.0
220
0.0
230
1.0
 70
    24
 71
     2
 72
     6
 73
     3
 74
     0
 42
0.000000001
 43
0.0000000001
 40
422.8679867566976
 40
422.8679867566976
 40
422.8679867566976
 40
427.8679867566976
 40
427.8679867566976
 40
427.8679867566976
 10
236.3407441864004
 20
-505.7193886093021
 30
0.0
 10
236.3407441864003
 20
-503.2193886093021
 30
0.0
 10
236.3407441864003
 20
-500.7193886093021
 30
0.0
  0
SPLINE
  5
105
330
1F
100
AcDbEntity
  8
Predeterminado
100
AcDbSpline
210
0.0
220
0.0
230
1.0
 70
    24
 71
     2
 72
     6
 73
     3
 74
     0
 42
0.000000001
 43
0.0000000001
 40
427.8679867566976
 40
427.8679867566976
 40
427.8679867566976
 40
436.8836343485432
 40
436.8836343485432
 40
436.8836343485432
 10
236.3407441864003
 20
-500.7193886093021
 30
0.0
 10
231.8329203904775
 20
-500.7193886093021
 30
0.0
 10
227.3250965945547
 20
-500.7193886093021
 30
0.0
  0
SPLINE
  5
106
330
1F
100
AcDbEntity
  8
Predeterminado
100
AcDbSpline
210
0.0
220
0.0
230
1.0
 70
    24
 71
     2
 72
     6
 73
     3
 74
     0
 42
0.000000001
 43
0.0000000001
 40
436.8836343485432
 40
436.8836343485432
 40
436.8836343485432
 40
441.8836343485432
 40
441.8836343485432
 40
441.8836343485432
 10
227.3250965945547
 20
-500.7193886093021
 30
0.0
 10
227.3250965945547
 20
-503.2193886093021
 30
0.0
 10
227.3250965945548
 20
-505.7193886093021
 30
0.0
  0
POLYLINE
  5
107
330
1F
100
AcDbEntity
  8
Predeterminado
100
AcDb2dPolyline
 66
     1
 10
0.0
 20
0.0
 30
0.0000000000000142
 70
     1
  0
VERTEX
  5
108
330
107
100
AcDbEntity
  8
Predeterminado
100
AcDbVertex
100
AcDb2dVertex
 10
153.2353160467395
 20
-414.8510134869222
 30
0.0000000000000142
  0
VERTEX
  5
109
330
107
100
AcDbEntity
  8
Predeterminado
100
AcDbVertex
100
AcDb2dVertex
 10
153.2353160467395
 20
-432.9673791383789
 30
0.0000000000000142
  0
VERTEX
  5
10A
330
107
100
AcDbEntity
  8
Predeterminado
100
AcDbVertex
100
AcDb2dVertex
 10
158.2353160467395
 20
-432.9673791383789
 30
0.0000000000000142
  0
VERTEX
  5
10B
330
107
100
AcDbEntity
  8
Predeterminado
100
AcDbVertex
100
AcDb2dVertex
 10
158.2353160467395
 20
-441.9830267302245
 30
0.0000000000000142
  0
VERTEX
  5
10C
330
107
100
AcDbEntity
  8
Predeterminado
100
AcDbVertex
100
AcDb2dVertex
 10
153.2353160467395
 20
-441.9830267302245
 30
0.0000000000000142
  0
VERTEX
  5
10D
330
107
100
AcDbEntity
  8
Predeterminado
100
AcDbVertex
100
AcDb2dVertex
 10
153.2353160467395
 20
-455.3431896909995
 30
0.0000000000000142
  0
VERTEX
  5
10E
330
107
100
AcDbEntity
  8
Predeterminado
100
AcDbVertex
100
AcDb2dVertex
 10
148.2353160467395
 20
-455.3431896909995
 30
0.0000000000000142
  0
VERTEX
  5
10F
330
107
100
AcDbEntity
  8
Predeterminado
100
AcDbVertex
100
AcDb2dVertex
 10
148.2353160467395
 20
-365.3431896909995
 30
0.0000000000000142
  0
VERTEX
  5
110
330
107
100
AcDbEntity
  8
Predeterminado
100
AcDbVertex
100
AcDb2dVertex
 10
153.2353160467395
 20
-365.3431896909995
 30
0.0000000000000142
  0
VERTEX
  5
111
330
107
100
AcDbEntity
  8
Predeterminado
100
AcDbVertex
100
AcDb2dVertex
 10
153.2353160467395
 20
-378.7033526517743
 30
0.0000000000000142
  0
VERTEX
  5
112
330
107
100
AcDbEntity
  8
Predeterminado
100
AcDbVertex
100
AcDb2dVertex
 10
158.2353160467395
 20
-378.7033526517743
 30
0.0000000000000142
  0
VERTEX
  5
113
330
107
100
AcDbEntity
  8
Predeterminado
100
AcDbVertex
100
AcDb2dVertex
 10
158.2353160467395
 20
-387.7190002436199
 30
0.0000000000000142
  0
VERTEX
  5
114
330
107
100
AcDbEntity
  8
Predeterminado
100
AcDbVertex
100
AcDb2dVertex
 10
153.2353160467395
 20
-387.7190002436199
 30
0.0000000000000142
  0
VERTEX
  5
115
330
107
100
AcDbEntity
  8
Predeterminado
100
AcDbVertex
100
AcDb2dVertex
 10
153.2353160467395
 20
-405.8353658950766
 30
0.0000000000000142
  0
VERTEX
  5
116
330
107
100
AcDbEntity
  8
Predeterminado
100
AcDbVertex
100
AcDb2dVertex
 10
158.2353160467395
 20
-405.8353658950766
 30
0.0000000000000142
  0
VERTEX
  5
117
330
107
100
AcDbEntity
  8
Predeterminado
100
AcDbVertex
100
AcDb2dVertex
 10
158.2353160467395
 20
-414.8510134869222
 30
0.0000000000000142
  0
SEQEND
  5
118
330
107
100
AcDbEntity
  8
Predeterminado
  0
SPLINE
  5
119
330
1F
100
AcDbEntity
  8
Predeterminado
100
AcDbSpline
210
0.0
220
0.0
230
1.0
 70
    24
 71
     2
 72
     6
 73
     3
 74
     0
 42
0.000000001
 43
0.0000000001
 40
398.2444843575655
 40
398.2444843575655
 40
398.2444843575655
 40
414.549213714743
 40
414.549213714743
 40
414.549213714743
 10
58.47620184282229
 20
-456.3326458215012
 30
-0.000000000000001
 10
67.53438466855059
 20
-456.3326458215012
 30
-0.000000000000001
 10
76.59256749427888
 20
-456.3326458215012
 30
-0.000000000000001
  0
SPLINE
  5
11A
330
1F
100
AcDbEntity
  8
Predeterminado
100
AcDbSpline
210
0.0
220
0.0
230
1.0
 70
    24
 71
     2
 72
     6
 73
     3
 74
     0
 42
0.000000001
 43
0.0000000001
 40
414.549213714743
 40
414.549213714743
 40
414.549213714743
 40
419.549213714743
 40
419.549213714743
 40
419.549213714743
 10
76.59256749427888
 20
-456.3326458215012
 30
-0.000000000000001
 10
76.59256749427891
 20
-453.8326457808722
 30
-0.0000000000000005
 10
76.59256749427894
 20
-451.3326457402432
 30
0.0
  0
SPLINE
  5
11B
330
1F
100
AcDbEntity
  8
Predeterminado
100
AcDbSpline
210
0.0
220
0.0
230
1.0
 70
    24
 71
     2
 72
     6
 73
     3
 74
     0
 42
0.000000001
 43
0.0000000001
 40
419.549213714743
 40
419.549213714743
 40
419.549213714743
 40
428.5648613065886
 40
428.5648613065886
 40
428.5648613065886
 10
76.59256749427894
 20
-451.3326457402432
 30
0.0
 10
81.10039129020174
 20
-451.3326457402432
 30
-0.000000000000001
 10
85.60821508612455
 20
-451.3326457402432
 30
-0.000000000000002
  0
SPLINE
  5
11C
330
1F
100
AcDbEntity
  8
Predeterminado
100
AcDbSpline
210
0.0
220
0.0
230
1.0
 70
    24
 71
     2
 72
     6
 73
     3
 74
     0
 42
0.000000001
 43
0.0000000001
 40
428.5648613065886
 40
428.5648613065886
 40
428.5648613065886
 40
433.5648613065886
 40
433.5648613065886
 40
433.5648613065886
 10
85.60821508612455
 20
-451.3326457402432
 30
-0.000000000000002
 10
85.60821508612455
 20
-453.8326457808722
 30
-0.0000000000000015
 10
85.60821508612455
 20
-456.3326458215012
 30
-0.000000000000001
  0
SPLINE
  5
11D
330
1F
100
AcDbEntity
  8
Predeterminado
100
AcDbSpline
210
0.0
220
0.0
230
1.0
 70
    24
 71
     2
 72
     6
 73
     3
 74
     0
 42
0.000000001
 43
0.0000000001
 40
433.5648613065886
 40
433.5648613065886
 40
433.5648613065886
 40
449.8695906637661
 40
449.8695906637661
 40
449.8695906637661
 10
85.60821508612455
 20
-456.3326458215012
 30
-0.000000000000001
 10
94.6663979118529
 20
-456.3326458215013
 30
-0.000000000000001
 10
103.7245807375812
 20
-456.3326458215013
 30
-0.000000000000001
  0
SPLINE
  5
11E
330
1F
100
AcDbEntity
  8
Predeterminado
100
AcDbSpline
210
0.0
220
0.0
230
1.0
 70
    24
 71
     2
 72
     6
 73
     3
 74
     0
 42
0.000000001
 43
0.0000000001
 40
449.8695906637661
 40
449.8695906637661
 40
449.8695906637661
 40
454.8695906637661
 40
454.8695906637661
 40
454.8695906637661
 10
103.7245807375812
 20
-456.3326458215013
 30
-0.000000000000001
 10
103.7245807375812
 20
-453.8326457808722
 30
-0.0000000000000005
 10
103.7245807375812
 20
-451.3326457402432
 30
0.0
  0
SPLINE
  5
11F
330
1F
100
AcDbEntity
  8
Predeterminado
100
AcDbSpline
210
0.0
220
0.0
230
1.0
 70
    24
 71
     2
 72
     6
 73
     3
 74
     0
 42
0.000000001
 43
0.0000000001
 40
454.8695906637661
 40
454.8695906637661
 40
454.8695906637661
 40
463.8852382556117
 40
463.8852382556117
 40
463.8852382556117
 10
103.7245807375812
 20
-451.3326457402432
 30
0.0
 10
108.2324045335041
 20
-451.3326457402432
 30
-0.000000000000001
 10
112.7402283294269
 20
-451.3326457402432
 30
-0.000000000000002
  0
SPLINE
  5
120
330
1F
100
AcDbEntity
  8
Predeterminado
100
AcDbSpline
210
0.0
220
0.0
230
1.0
 70
    24
 71
     2
 72
     6
 73
     3
 74
     0
 42
0.000000001
 43
0.0000000001
 40
463.8852382556117
 40
463.8852382556117
 40
463.8852382556117
 40
468.8852382556117
 40
468.8852382556117
 40
468.8852382556117
 10
112.7402283294269
 20
-451.3326457402432
 30
-0.000000000000002
 10
112.7402283294268
 20
-453.8326457808722
 30
-0.0000000000000015
 10
112.7402283294268
 20
-456.3326458215013
 30
-0.000000000000001
  0
SPLINE
  5
121
330
1F
100
AcDbEntity
  8
Predeterminado
100
AcDbSpline
210
0.0
220
0.0
230
1.0
 70
    24
 71
     2
 72
     6
 73
     3
 74
     0
 42
0.000000001
 43
0.0000000001
 40
468.8852382556117
 40
468.8852382556117
 40
468.8852382556117
 40
485.4093847397758
 40
485.4093847397758
 40
485.4093847397758
 10
112.7402283294268
 20
-456.3326458215013
 30
-0.000000000000001
 10
121.9203095570115
 20
-456.3326458621303
 30
-0.0000000000000015
 10
131.1003907845962
 20
-456.3326459027594
 30
-0.000000000000002
  0
SPLINE
  5
122
330
1F
100
AcDbEntity
  8
Predeterminado
100
AcDbSpline
210
0.0
220
0.0
230
1.0
 70
    24
 71
     2
 72
     6
 73
     3
 74
     0
 42
0.000000001
 43
0.0000000001
 40
485.4093847397758
 40
485.4093847397758
 40
485.4093847397758
 40
498.7695478630669
 40
498.7695478630669
 40
498.7695478630669
 10
131.1003907845962
 20
-456.3326459027594
 30
-0.000000000000002
 10
131.1003909109976
 20
-449.6525643411139
 30
-0.0000000000000015
 10
131.100391037399
 20
-442.9724827794684
 30
-0.000000000000001
  0
SPLINE
  5
123
330
1F
100
AcDbEntity
  8
Predeterminado
100
AcDbSpline
210
0.0
220
0.0
230
1.0
 70
    24
 71
     2
 72
     6
 73
     3
 74
     0
 42
0.000000001
 43
0.0000000001
 40
498.7695478630669
 40
498.7695478630669
 40
498.7695478630669
 40
503.7695476102641
 40
503.7695476102641
 40
503.7695476102641
 10
131.100391037399
 20
-442.9724827794684
 30
-0.000000000000001
 10
128.6003911638004
 20
-442.9724827794684
 30
-0.0000000000000005
 10
126.1003912902018
 20
-442.9724827794683
 30
0.0
  0
SPLINE
  5
124
330
1F
100
AcDbEntity
  8
Predeterminado
100
AcDbSpline
210
0.0
220
0.0
230
1.0
 70
    24
 71
     2
 72
     6
 73
     3
 74
     0
 42
0.000000001
 43
0.0000000001
 40
503.7695476102641
 40
503.7695476102641
 40
503.7695476102641
 40
512.7851952021098
 40
512.7851952021098
 40
512.7851952021098
 10
126.1003912902018
 20
-442.9724827794683
 30
0.0
 10
126.1003912902018
 20
-438.4646589835455
 30
-0.000000000000001
 10
126.1003912902018
 20
-433.9568351876227
 30
-0.000000000000002
  0
SPLINE
  5
125
330
1F
100
AcDbEntity
  8
Predeterminado
100
AcDbSpline
210
0.0
220
0.0
230
1.0
 70
    24
 71
     2
 72
     6
 73
     3
 74
     0
 42
0.000000001
 43
0.0000000001
 40
512.7851952021098
 40
512.7851952021098
 40
512.7851952021098
 40
517.7851946965042
 40
517.7851946965042
 40
517.7851946965042
 10
126.1003912902018
 20
-433.9568351876227
 30
-0.000000000000002
 10
128.6003911638004
 20
-433.9568351876227
 30
-0.0000000000000015
 10
131.100391037399
 20
-433.9568351876227
 30
-0.000000000000001
  0
SPLINE
  5
126
330
1F
100
AcDbEntity
  8
Predeterminado
100
AcDbSpline
210
0.0
220
0.0
230
1.0
 70
    24
 71
     2
 72
     6
 73
     3
 74
     0
 42
0.000000001
 43
0.0000000001
 40
517.7851946965042
 40
517.7851946965042
 40
517.7851946965042
 40
535.9015603479609
 40
535.9015603479609
 40
535.9015603479609
 10
131.100391037399
 20
-433.9568351876227
 30
-0.000000000000001
 10
131.100391037399
 20
-424.8986523618944
 30
-0.000000000000001
 10
131.100391037399
 20
-415.840469536166
 30
-0.000000000000001
  0
SPLINE
  5
127
330
1F
100
AcDbEntity
  8
Predeterminado
100
AcDbSpline
210
0.0
220
0.0
230
1.0
 70
    24
 71
     2
 72
     6
 73
     3
 74
     0
 42
0.000000001
 43
0.0000000001
 40
535.9015603479609
 40
535.9015603479609
 40
535.9015603479609
 40
540.9015600951582
 40
540.9015600951582
 40
540.9015600951582
 10
131.100391037399
 20
-415.840469536166
 30
-0.000000000000001
 10
128.6003911638004
 20
-415.840469536166
 30
-0.0000000000000005
 10
126.1003912902018
 20
-415.840469536166
 30
0.0
  0
SPLINE
  5
128
330
1F
100
AcDbEntity
  8
Predeterminado
100
AcDbSpline
210
0.0
220
0.0
230
1.0
 70
    24
 71
     2
 72
     6
 73
     3
 74
     0
 42
0.000000001
 43
0.0000000001
 40
540.9015600951582
 40
540.9015600951582
 40
540.9015600951582
 40
549.9172076870037
 40
549.9172076870037
 40
549.9172076870037
 10
126.1003912902018
 20
-415.840469536166
 30
0.0
 10
126.1003912902019
 20
-411.3326457402432
 30
-0.000000000000001
 10
126.1003912902019
 20
-406.8248219443204
 30
-0.000000000000002
  0
SPLINE
  5
129
330
1F
100
AcDbEntity
  8
Predeterminado
100
AcDbSpline
210
0.0
220
0.0
230
1.0
 70
    24
 71
     2
 72
     6
 73
     3
 74
     0
 42
0.000000001
 43
0.0000000001
 40
549.9172076870037
 40
549.9172076870037
 40
549.9172076870037
 40
554.9172071813982
 40
554.9172071813982
 40
554.9172071813982
 10
126.1003912902019
 20
-406.8248219443204
 30
-0.000000000000002
 10
128.6003911638005
 20
-406.8248219443204
 30
-0.0000000000000015
 10
131.1003910373991
 20
-406.8248219443204
 30
-0.000000000000001
  0
SPLINE
  5
12A
330
1F
100
AcDbEntity
  8
Predeterminado
100
AcDbSpline
210
0.0
220
0.0
230
1.0
 70
    24
 71
     2
 72
     6
 73
     3
 74
     0
 42
0.000000001
 43
0.0000000001
 40
554.9172071813982
 40
554.9172071813982
 40
554.9172071813982
 40
573.0335728328549
 40
573.0335728328549
 40
573.0335728328549
 10
131.1003910373991
 20
-406.8248219443204
 30
-0.000000000000001
 10
131.1003910373991
 20
-397.7666391185921
 30
-0.000000000000001
 10
131.1003910373991
 20
-388.7084562928638
 30
-0.000000000000001
  0
SPLINE
  5
12B
330
1F
100
AcDbEntity
  8
Predeterminado
100
AcDbSpline
210
0.0
220
0.0
230
1.0
 70
    24
 71
     2
 72
     6
 73
     3
 74
     0
 42
0.000000001
 43
0.0000000001
 40
573.0335728328549
 40
573.0335728328549
 40
573.0335728328549
 40
578.0335725800521
 40
578.0335725800521
 40
578.0335725800521
 10
131.1003910373991
 20
-388.7084562928638
 30
-0.000000000000001
 10
128.6003911638005
 20
-388.7084562928638
 30
-0.0000000000000005
 10
126.1003912902019
 20
-388.7084562928638
 30
0.0
  0
SPLINE
  5
12C
330
1F
100
AcDbEntity
  8
Predeterminado
100
AcDbSpline
210
0.0
220
0.0
230
1.0
 70
    24
 71
     2
 72
     6
 73
     3
 74
     0
 42
0.000000001
 43
0.0000000001
 40
578.0335725800521
 40
578.0335725800521
 40
578.0335725800521
 40
587.0492201718978
 40
587.0492201718978
 40
587.0492201718978
 10
126.1003912902019
 20
-388.7084562928638
 30
0.0
 10
126.1003912902019
 20
-384.200632496941
 30
-0.000000000000001
 10
126.1003912902019
 20
-379.6928087010181
 30
-0.000000000000002
  0
SPLINE
  5
12D
330
1F
100
AcDbEntity
  8
Predeterminado
100
AcDbSpline
210
0.0
220
0.0
230
1.0
 70
    24
 71
     2
 72
     6
 73
     3
 74
     0
 42
0.000000001
 43
0.0000000001
 40
587.0492201718978
 40
587.0492201718978
 40
587.0492201718978
 40
592.0492196662922
 40
592.0492196662922
 40
592.0492196662922
 10
126.1003912902019
 20
-379.6928087010181
 30
-0.000000000000002
 10
128.6003911638005
 20
-379.6928087010181
 30
-0.0000000000000015
 10
131.1003910373991
 20
-379.6928087010181
 30
-0.000000000000001
  0
SPLINE
  5
12E
330
1F
100
AcDbEntity
  8
Predeterminado
100
AcDbSpline
210
0.0
220
0.0
230
1.0
 70
    24
 71
     2
 72
     6
 73
     3
 74
     0
 42
0.000000001
 43
0.0000000001
 40
592.0492196662922
 40
592.0492196662922
 40
592.0492196662922
 40
605.409382464551
 40
605.409382464551
 40
605.409382464551
 10
131.1003910373991
 20
-379.6928087010181
 30
-0.000000000000001
 10
131.1003909109978
 20
-373.0127273018887
 30
-0.0000000000000015
 10
131.1003907845964
 20
-366.3326459027594
 30
-0.000000000000002
  0
SPLINE
  5
12F
330
1F
100
AcDbEntity
  8
Predeterminado
100
AcDbSpline
210
0.0
220
0.0
230
1.0
 70
    24
 71
     2
 72
     6
 73
     3
 74
     0
 42
0.000000001
 43
0.0000000001
 40
605.409382464551
 40
605.409382464551
 40
605.409382464551
 40
621.9335289487151
 40
621.9335289487151
 40
621.9335289487151
 10
131.1003907845964
 20
-366.3326459027594
 30
-0.000000000000002
 10
121.9203095570117
 20
-366.3326458621303
 30
-0.0000000000000015
 10
112.740228329427
 20
-366.3326458215013
 30
-0.000000000000001
  0
SPLINE
  5
130
330
1F
100
AcDbEntity
  8
Predeterminado
100
AcDbSpline
210
0.0
220
0.0
230
1.0
 70
    24
 71
     2
 72
     6
 73
     3
 74
     0
 42
0.000000001
 43
0.0000000001
 40
621.9335289487151
 40
621.9335289487151
 40
621.9335289487151
 40
626.9335287861988
 40
626.9335287861988
 40
626.9335287861988
 10
112.740228329427
 20
-366.3326458215013
 30
-0.000000000000001
 10
112.740228329427
 20
-368.8326457808722
 30
-0.0000000000000015
 10
112.740228329427
 20
-371.3326457402432
 30
-0.000000000000002
  0
SPLINE
  5
131
330
1F
100
AcDbEntity
  8
Predeterminado
100
AcDbSpline
210
0.0
220
0.0
230
1.0
 70
    24
 71
     2
 72
     6
 73
     3
 74
     0
 42
0.000000001
 43
0.0000000001
 40
626.9335287861988
 40
626.9335287861988
 40
626.9335287861988
 40
635.9491763780445
 40
635.9491763780445
 40
635.9491763780445
 10
112.740228329427
 20
-371.3326457402432
 30
-0.000000000000002
 10
108.2324045335042
 20
-371.3326457402432
 30
-0.000000000000001
 10
103.7245807375814
 20
-371.3326457402432
 30
0.0
  0
SPLINE
  5
132
330
1F
100
AcDbEntity
  8
Predeterminado
100
AcDbSpline
210
0.0
220
0.0
230
1.0
 70
    24
 71
     2
 72
     6
 73
     3
 74
     0
 42
0.000000001
 43
0.0000000001
 40
635.9491763780445
 40
635.9491763780445
 40
635.9491763780445
 40
640.9491762967864
 40
640.9491762967864
 40
640.9491762967864
 10
103.7245807375814
 20
-371.3326457402432
 30
0.0
 10
103.7245807375814
 20
-368.8326457808722
 30
-0.0000000000000005
 10
103.7245807375814
 20
-366.3326458215013
 30
-0.000000000000001
  0
SPLINE
  5
133
330
1F
100
AcDbEntity
  8
Predeterminado
100
AcDbSpline
210
0.0
220
0.0
230
1.0
 70
    24
 71
     2
 72
     6
 73
     3
 74
     0
 42
0.000000001
 43
0.0000000001
 40
640.9491762967864
 40
640.9491762967864
 40
640.9491762967864
 40
657.2539056539639
 40
657.2539056539639
 40
657.2539056539639
 10
103.7245807375814
 20
-366.3326458215013
 30
-0.000000000000001
 10
94.66639791185307
 20
-366.3326458215013
 30
-0.000000000000001
 10
85.60821508612472
 20
-366.3326458215012
 30
-0.000000000000001
  0
SPLINE
  5
134
330
1F
100
AcDbEntity
  8
Predeterminado
100
AcDbSpline
210
0.0
220
0.0
230
1.0
 70
    24
 71
     2
 72
     6
 73
     3
 74
     0
 42
0.000000001
 43
0.0000000001
 40
657.2539056539639
 40
657.2539056539639
 40
657.2539056539639
 40
662.2539054914478
 40
662.2539054914478
 40
662.2539054914478
 10
85.60821508612472
 20
-366.3326458215012
 30
-0.000000000000001
 10
85.60821508612472
 20
-368.8326457808722
 30
-0.0000000000000015
 10
85.60821508612472
 20
-371.3326457402431
 30
-0.000000000000002
  0
SPLINE
  5
135
330
1F
100
AcDbEntity
  8
Predeterminado
100
AcDbSpline
210
0.0
220
0.0
230
1.0
 70
    24
 71
     2
 72
     6
 73
     3
 74
     0
 42
0.000000001
 43
0.0000000001
 40
662.2539054914478
 40
662.2539054914478
 40
662.2539054914478
 40
671.2695530832933
 40
671.2695530832933
 40
671.2695530832933
 10
85.60821508612472
 20
-371.3326457402431
 30
-0.000000000000002
 10
81.10039129020191
 20
-371.3326457402431
 30
-0.000000000000001
 10
76.59256749427911
 20
-371.3326457402431
 30
0.0
  0
SPLINE
  5
136
330
1F
100
AcDbEntity
  8
Predeterminado
100
AcDbSpline
210
0.0
220
0.0
230
1.0
 70
    24
 71
     2
 72
     6
 73
     3
 74
     0
 42
0.000000001
 43
0.0000000001
 40
671.2695530832933
 40
671.2695530832933
 40
671.2695530832933
 40
676.2695530020352
 40
676.2695530020352
 40
676.2695530020352
 10
76.59256749427911
 20
-371.3326457402431
 30
0.0
 10
76.59256749427911
 20
-368.8326457808722
 30
-0.0000000000000005
 10
76.59256749427911
 20
-366.3326458215012
 30
-0.000000000000001
  0
SPLINE
  5
137
330
1F
100
AcDbEntity
  8
Predeterminado
100
AcDbSpline
210
0.0
220
0.0
230
1.0
 70
    24
 71
     2
 72
     6
 73
     3
 74
     0
 42
0.000000001
 43
0.0000000001
 40
676.2695530020352
 40
676.2695530020352
 40
676.2695530020352
 40
692.5742823592127
 40
692.5742823592127
 40
692.5742823592127
 10
76.59256749427911
 20
-366.3326458215012
 30
-0.000000000000001
 10
67.53438466855079
 20
-366.3326458215012
 30
-0.000000000000001
 10
58.47620184282246
 20
-366.3326458215012
 30
-0.000000000000001
  0
SPLINE
  5
138
330
1F
100
AcDbEntity
  8
Predeterminado
100
AcDbSpline
210
0.0
220
0.0
230
1.0
 70
    24
 71
     2
 72
     6
 73
     3
 74
     0
 42
0.000000001
 43
0.0000000001
 40
692.5742823592127
 40
692.5742823592127
 40
692.5742823592127
 40
697.5742821966966
 40
697.5742821966966
 40
697.5742821966966
 10
58.47620184282246
 20
-366.3326458215012
 30
-0.000000000000001
 10
58.47620184282246
 20
-368.8326457808722
 30
-0.0000000000000015
 10
58.47620184282246
 20
-371.3326457402431
 30
-0.000000000000002
  0
SPLINE
  5
139
330
1F
100
AcDbEntity
  8
Predeterminado
100
AcDbSpline
210
0.0
220
0.0
230
1.0
 70
    24
 71
     2
 72
     6
 73
     3
 74
     0
 42
0.000000001
 43
0.0000000001
 40
697.5742821966966
 40
697.5742821966966
 40
697.5742821966966
 40
706.5899297885421
 40
706.5899297885421
 40
706.5899297885421
 10
58.47620184282246
 20
-371.3326457402431
 30
-0.000000000000002
 10
53.96837804689963
 20
-371.332645740243
 30
-0.000000000000001
 10
49.4605542509768
 20
-371.332645740243
 30
0.0
  0
SPLINE
  5
13A
330
1F
100
AcDbEntity
  8
Predeterminado
100
AcDbSpline
210
0.0
220
0.0
230
1.0
 70
    24
 71
     2
 72
     6
 73
     3
 74
     0
 42
0.000000001
 43
0.0000000001
 40
706.5899297885421
 40
706.5899297885421
 40
706.5899297885421
 40
711.5899297072841
 40
711.5899297072841
 40
711.5899297072841
 10
49.4605542509768
 20
-371.332645740243
 30
0.0
 10
49.4605542509768
 20
-368.8326457808721
 30
-0.0000000000000005
 10
49.4605542509768
 20
-366.3326458215012
 30
-0.000000000000001
  0
SPLINE
  5
13B
330
1F
100
AcDbEntity
  8
Predeterminado
100
AcDbSpline
210
0.0
220
0.0
230
1.0
 70
    24
 71
     2
 72
     6
 73
     3
 74
     0
 42
0.000000001
 43
0.0000000001
 40
711.5899297072841
 40
711.5899297072841
 40
711.5899297072841
 40
728.11407560639
 40
728.11407560639
 40
728.11407560639
 10
49.4605542509768
 20
-366.3326458215012
 30
-0.000000000000001
 10
40.28047334842447
 20
-366.3326458621302
 30
-0.0000000000000015
 10
31.10039244587213
 20
-366.3326459027592
 30
-0.000000000000002
  0
SPLINE
  5
13C
330
1F
100
AcDbEntity
  8
Predeterminado
100
AcDbSpline
210
0.0
220
0.0
230
1.0
 70
    24
 71
     2
 72
     6
 73
     3
 74
     0
 42
0.000000001
 43
0.0000000001
 40
728.11407560639
 40
728.11407560639
 40
728.11407560639
 40
741.4742372489784
 40
741.4742372489784
 40
741.4742372489784
 10
31.10039244587213
 20
-366.3326459027592
 30
-0.000000000000002
 10
31.10039244587213
 20
-373.0127267240535
 30
-0.0000000000000015
 10
31.10039244587213
 20
-379.6928075453478
 30
-0.000000000000001
  0
SPLINE
  5
13D
330
1F
100
AcDbEntity
  8
Predeterminado
100
AcDbSpline
210
0.0
220
0.0
230
1.0
 70
    24
 71
     2
 72
     6
 73
     3
 74
     0
 42
0.000000001
 43
0.0000000001
 40
741.4742372489784
 40
741.4742372489784
 40
741.4742372489784
 40
746.4742372489784
 40
746.4742372489784
 40
746.4742372489784
 10
31.10039244587213
 20
-379.6928075453478
 30
-0.000000000000001
 10
33.6003924458721
 20
-379.6928075453478
 30
-0.0000000000000015
 10
36.10039244587207
 20
-379.6928075453478
 30
-0.000000000000002
  0
SPLINE
  5
13E
330
1F
100
AcDbEntity
  8
Predeterminado
100
AcDbSpline
210
0.0
220
0.0
230
1.0
 70
    24
 71
     2
 72
     6
 73
     3
 74
     0
 42
0.000000001
 43
0.0000000001
 40
746.4742372489784
 40
746.4742372489784
 40
746.4742372489784
 40
755.4898848408241
 40
755.4898848408241
 40
755.4898848408241
 10
36.10039244587207
 20
-379.6928075453478
 30
-0.000000000000002
 10
36.10039244587205
 20
-384.2006313412706
 30
-0.000000000000001
 10
36.10039244587202
 20
-388.7084551371934
 30
0.0
  0
SPLINE
  5
13F
330
1F
100
AcDbEntity
  8
Predeterminado
100
AcDbSpline
210
0.0
220
0.0
230
1.0
 70
    24
 71
     2
 72
     6
 73
     3
 74
     0
 42
0.000000001
 43
0.0000000001
 40
755.4898848408241
 40
755.4898848408241
 40
755.4898848408241
 40
760.4898848408241
 40
760.4898848408241
 40
760.4898848408241
 10
36.10039244587202
 20
-388.7084551371934
 30
0.0
 10
33.60039244587205
 20
-388.7084551371934
 30
-0.0000000000000005
 10
31.10039244587207
 20
-388.7084551371934
 30
-0.000000000000001
  0
SPLINE
  5
140
330
1F
100
AcDbEntity
  8
Predeterminado
100
AcDbSpline
210
0.0
220
0.0
230
1.0
 70
    24
 71
     2
 72
     6
 73
     3
 74
     0
 42
0.000000001
 43
0.0000000001
 40
760.4898848408241
 40
760.4898848408241
 40
760.4898848408241
 40
778.6062504922807
 40
778.6062504922807
 40
778.6062504922807
 10
31.10039244587207
 20
-388.7084551371934
 30
-0.000000000000001
 10
31.10039244587207
 20
-397.7666379629217
 30
-0.000000000000001
 10
31.10039244587207
 20
-406.82482078865
 30
-0.000000000000001
  0
SPLINE
  5
141
330
1F
100
AcDbEntity
  8
Predeterminado
100
AcDbSpline
210
0.0
220
0.0
230
1.0
 70
    24
 71
     2
 72
     6
 73
     3
 74
     0
 42
0.000000001
 43
0.0000000001
 40
778.6062504922807
 40
778.6062504922807
 40
778.6062504922807
 40
783.6062504922807
 40
783.6062504922807
 40
783.6062504922807
 10
31.10039244587207
 20
-406.82482078865
 30
-0.000000000000001
 10
33.60039244587205
 20
-406.82482078865
 30
-0.0000000000000015
 10
36.10039244587202
 20
-406.82482078865
 30
-0.000000000000002
  0
SPLINE
  5
142
330
1F
100
AcDbEntity
  8
Predeterminado
100
AcDbSpline
210
0.0
220
0.0
230
1.0
 70
    24
 71
     2
 72
     6
 73
     3
 74
     0
 42
0.000000001
 43
0.0000000001
 40
783.6062504922807
 40
783.6062504922807
 40
783.6062504922807
 40
792.6218980841263
 40
792.6218980841263
 40
792.6218980841263
 10
36.10039244587202
 20
-406.82482078865
 30
-0.000000000000002
 10
36.10039244587199
 20
-411.3326445845728
 30
-0.000000000000001
 10
36.10039244587196
 20
-415.8404683804957
 30
0.0
  0
SPLINE
  5
143
330
1F
100
AcDbEntity
  8
Predeterminado
100
AcDbSpline
210
0.0
220
0.0
230
1.0
 70
    24
 71
     2
 72
     6
 73
     3
 74
     0
 42
0.000000001
 43
0.0000000001
 40
792.6218980841263
 40
792.6218980841263
 40
792.6218980841263
 40
797.6218980841263
 40
797.6218980841263
 40
797.6218980841263
 10
36.10039244587196
 20
-415.8404683804957
 30
0.0
 10
33.60039244587199
 20
-415.8404683804957
 30
-0.0000000000000005
 10
31.10039244587202
 20
-415.8404683804957
 30
-0.000000000000001
  0
SPLINE
  5
144
330
1F
100
AcDbEntity
  8
Predeterminado
100
AcDbSpline
210
0.0
220
0.0
230
1.0
 70
    24
 71
     2
 72
     6
 73
     3
 74
     0
 42
0.000000001
 43
0.0000000001
 40
797.6218980841263
 40
797.6218980841263
 40
797.6218980841263
 40
815.7382637355829
 40
815.7382637355829
 40
815.7382637355829
 10
31.10039244587202
 20
-415.8404683804957
 30
-0.000000000000001
 10
31.10039244587202
 20
-424.898651206224
 30
-0.000000000000001
 10
31.10039244587202
 20
-433.9568340319523
 30
-0.000000000000001
  0
SPLINE
  5
145
330
1F
100
AcDbEntity
  8
Predeterminado
100
AcDbSpline
210
0.0
220
0.0
230
1.0
 70
    24
 71
     2
 72
     6
 73
     3
 74
     0
 42
0.000000001
 43
0.0000000001
 40
815.7382637355829
 40
815.7382637355829
 40
815.7382637355829
 40
820.7382637355829
 40
820.7382637355829
 40
820.7382637355829
 10
31.10039244587202
 20
-433.9568340319523
 30
-0.000000000000001
 10
33.60039244587199
 20
-433.9568340319523
 30
-0.0000000000000015
 10
36.10039244587196
 20
-433.9568340319524
 30
-0.000000000000002
  0
SPLINE
  5
146
330
1F
100
AcDbEntity
  8
Predeterminado
100
AcDbSpline
210
0.0
220
0.0
230
1.0
 70
    24
 71
     2
 72
     6
 73
     3
 74
     0
 42
0.000000001
 43
0.0000000001
 40
820.7382637355829
 40
820.7382637355829
 40
820.7382637355829
 40
829.7539113274286
 40
829.7539113274286
 40
829.7539113274286
 10
36.10039244587196
 20
-433.9568340319524
 30
-0.000000000000002
 10
36.10039244587193
 20
-438.4646578278752
 30
-0.000000000000001
 10
36.1003924458719
 20
-442.9724816237979
 30
0.0
  0
SPLINE
  5
147
330
1F
100
AcDbEntity
  8
Predeterminado
100
AcDbSpline
210
0.0
220
0.0
230
1.0
 70
    24
 71
     2
 72
     6
 73
     3
 74
     0
 42
0.000000001
 43
0.0000000001
 40
829.7539113274286
 40
829.7539113274286
 40
829.7539113274286
 40
834.7539113274286
 40
834.7539113274286
 40
834.7539113274286
 10
36.1003924458719
 20
-442.9724816237979
 30
0.0
 10
33.60039244587193
 20
-442.9724816237979
 30
-0.0000000000000005
 10
31.10039244587196
 20
-442.9724816237979
 30
-0.000000000000001
  0
SPLINE
  5
148
330
1F
100
AcDbEntity
  8
Predeterminado
100
AcDbSpline
210
0.0
220
0.0
230
1.0
 70
    24
 71
     2
 72
     6
 73
     3
 74
     0
 42
0.000000001
 43
0.0000000001
 40
834.7539113274286
 40
834.7539113274286
 40
834.7539113274286
 40
848.1140756063899
 40
848.1140756063899
 40
848.1140756063899
 10
31.10039244587196
 20
-442.9724816237979
 30
-0.000000000000001
 10
31.10039244587196
 20
-449.6525637632785
 30
-0.0000000000000015
 10
31.10039244587196
 20
-456.3326459027592
 30
-0.000000000000002
  0
SPLINE
  5
149
330
1F
100
AcDbEntity
  8
Predeterminado
100
AcDbSpline
210
0.0
220
0.0
230
1.0
 70
    24
 71
     2
 72
     6
 73
     3
 74
     0
 42
0.000000001
 43
0.0000000001
 40
848.1140756063899
 40
848.1140756063899
 40
848.1140756063899
 40
864.6382215054957
 40
864.6382215054957
 40
864.6382215054957
 10
31.10039244587196
 20
-456.3326459027592
 30
-0.000000000000002
 10
40.28047334842429
 20
-456.3326458621302
 30
-0.0000000000000015
 10
49.46055425097663
 20
-456.3326458215012
 30
-0.000000000000001
  0
SPLINE
  5
14A
330
1F
100
AcDbEntity
  8
Predeterminado
100
AcDbSpline
210
0.0
220
0.0
230
1.0
 70
    24
 71
     2
 72
     6
 73
     3
 74
     0
 42
0.000000001
 43
0.0000000001
 40
864.6382215054957
 40
864.6382215054957
 40
864.6382215054957
 40
869.6382215054957
 40
869.6382215054957
 40
869.6382215054957
 10
49.46055425097663
 20
-456.3326458215012
 30
-0.000000000000001
 10
49.46055425097663
 20
-453.8326457808721
 30
-0.0000000000000005
 10
49.46055425097663
 20
-451.3326457402431
 30
0.0
  0
SPLINE
  5
14B
330
1F
100
AcDbEntity
  8
Predeterminado
100
AcDbSpline
210
0.0
220
0.0
230
1.0
 70
    24
 71
     2
 72
     6
 73
     3
 74
     0
 42
0.000000001
 43
0.0000000001
 40
869.6382215054957
 40
869.6382215054957
 40
869.6382215054957
 40
878.6538690973413
 40
878.6538690973413
 40
878.6538690973413
 10
49.46055425097663
 20
-451.3326457402431
 30
0.0
 10
53.96837804689946
 20
-451.3326457402431
 30
-0.000000000000001
 10
58.47620184282229
 20
-451.3326457402431
 30
-0.000000000000002
  0
SPLINE
  5
14C
330
1F
100
AcDbEntity
  8
Predeterminado
100
AcDbSpline
210
0.0
220
0.0
230
1.0
 70
    24
 71
     2
 72
     6
 73
     3
 74
     0
 42
0.000000001
 43
0.0000000001
 40
878.6538690973413
 40
878.6538690973413
 40
878.6538690973413
 40
883.6538690973413
 40
883.6538690973413
 40
883.6538690973413
 10
58.47620184282229
 20
-451.3326457402431
 30
-0.000000000000002
 10
58.47620184282229
 20
-453.8326457808721
 30
-0.0000000000000015
 10
58.47620184282229
 20
-456.3326458215012
 30
-0.000000000000001
  0
POLYLINE
  5
14D
330
1F
100
AcDbEntity
  8
Predeterminado
100
AcDb2dPolyline
 66
     1
 10
0.0
 20
0.0
 30
0.0
 70
     1
  0
VERTEX
  5
14E
330
14D
100
AcDbEntity
  8
Predeterminado
100
AcDbVertex
100
AcDb2dVertex
 10
-2.75171567889193
 20
-526.084483167058
 30
0.0
  0
VERTEX
  5
14F
330
14D
100
AcDbEntity
  8
Predeterminado
100
AcDbVertex
100
AcDb2dVertex
 10
-2.751715678891987
 20
-507.9681175156012
 30
0.0
  0
VERTEX
  5
150
330
14D
100
AcDbEntity
  8
Predeterminado
100
AcDbVertex
100
AcDb2dVertex
 10
2.248284321108013
 20
-507.9681175156012
 30
0.0
  0
VERTEX
  5
151
330
14D
100
AcDbEntity
  8
Predeterminado
100
AcDbVertex
100
AcDb2dVertex
 10
2.248284321107956
 20
-498.9524699237556
 30
0.0
  0
VERTEX
  5
152
330
14D
100
AcDbEntity
  8
Predeterminado
100
AcDbVertex
100
AcDb2dVertex
 10
-2.751715678892044
 20
-498.9524699237556
 30
0.0
  0
VERTEX
  5
153
330
14D
100
AcDbEntity
  8
Predeterminado
100
AcDbVertex
100
AcDb2dVertex
 10
-2.751715678892101
 20
-480.836104272299
 30
0.0
  0
VERTEX
  5
154
330
14D
100
AcDbEntity
  8
Predeterminado
100
AcDbVertex
100
AcDb2dVertex
 10
2.248284321107899
 20
-480.8361042722989
 30
0.0
  0
VERTEX
  5
155
330
14D
100
AcDbEntity
  8
Predeterminado
100
AcDbVertex
100
AcDb2dVertex
 10
2.248284321107842
 20
-471.8204566804533
 30
0.0
  0
VERTEX
  5
156
330
14D
100
AcDbEntity
  8
Predeterminado
100
AcDbVertex
100
AcDb2dVertex
 10
-2.751715678892158
 20
-471.8204566804533
 30
0.0
  0
VERTEX
  5
157
330
14D
100
AcDbEntity
  8
Predeterminado
100
AcDbVertex
100
AcDb2dVertex
 10
-2.751715678892214
 20
-458.4602937196784
 30
0.0
  0
VERTEX
  5
158
330
14D
100
AcDbEntity
  8
Predeterminado
100
AcDbVertex
100
AcDb2dVertex
 10
-22.75171567889221
 20
-458.4602937196784
 30
0.0
  0
VERTEX
  5
159
330
14D
100
AcDbEntity
  8
Predeterminado
100
AcDbVertex
100
AcDb2dVertex
 10
-22.75171567889184
 20
-548.4602937196785
 30
0.0
  0
VERTEX
  5
15A
330
14D
100
AcDbEntity
  8
Predeterminado
100
AcDbVertex
100
AcDb2dVertex
 10
-2.751715678891816
 20
-548.4602937196785
 30
0.0
  0
VERTEX
  5
15B
330
14D
100
AcDbEntity
  8
Predeterminado
100
AcDbVertex
100
AcDb2dVertex
 10
-2.751715678891873
 20
-535.1001307589036
 30
0.0
  0
VERTEX
  5
15C
330
14D
100
AcDbEntity
  8
Predeterminado
100
AcDbVertex
100
AcDb2dVertex
 10
2.248284321108127
 20
-535.1001307589034
 30
0.0
  0
VERTEX
  5
15D
330
14D
100
AcDbEntity
  8
Predeterminado
100
AcDbVertex
100
AcDb2dVertex
 10
2.24828432110807
 20
-526.0844831670579
 30
0.0
  0
SEQEND
  5
15E
330
14D
100
AcDbEntity
  8
Predeterminado
  0
POLYLINE
  5
15F
330
1F
100
AcDbEntity
  8
Predeterminado
100
AcDb2dPolyline
 66
     1
 10
0.0
 20
0.0
 30
0.0
 70
     1
  0
VERTEX
  5
160
330
15F
100
AcDbEntity
  8
Predeterminado
100
AcDbVertex
100
AcDb2dVertex
 10
24.04536904053534
 20
-526.084483167058
 30
0.0
  0
VERTEX
  5
161
330
15F
100
AcDbEntity
  8
Predeterminado
100
AcDbVertex
100
AcDb2dVertex
 10
24.04536904053528
 20
-507.9681175156012
 30
0.0
  0
VERTEX
  5
162
330
15F
100
AcDbEntity
  8
Predeterminado
100
AcDbVertex
100
AcDb2dVertex
 10
29.04536904053528
 20
-507.9681175156012
 30
0.0
  0
VERTEX
  5
163
330
15F
100
AcDbEntity
  8
Predeterminado
100
AcDbVertex
100
AcDb2dVertex
 10
29.04536904053523
 20
-498.9524699237556
 30
0.0
  0
VERTEX
  5
164
330
15F
100
AcDbEntity
  8
Predeterminado
100
AcDbVertex
100
AcDb2dVertex
 10
24.04536904053523
 20
-498.9524699237556
 30
0.0
  0
VERTEX
  5
165
330
15F
100
AcDbEntity
  8
Predeterminado
100
AcDbVertex
100
AcDb2dVertex
 10
24.04536904053517
 20
-480.836104272299
 30
0.0
  0
VERTEX
  5
166
330
15F
100
AcDbEntity
  8
Predeterminado
100
AcDbVertex
100
AcDb2dVertex
 10
29.04536904053517
 20
-480.8361042722989
 30
0.0
  0
VERTEX
  5
167
330
15F
100
AcDbEntity
  8
Predeterminado
100
AcDbVertex
100
AcDb2dVertex
 10
29.04536904053511
 20
-471.8204566804533
 30
0.0
  0
VERTEX
  5
168
330
15F
100
AcDbEntity
  8
Predeterminado
100
AcDbVertex
100
AcDb2dVertex
 10
24.04536904053511
 20
-471.8204566804533
 30
0.0
  0
VERTEX
  5
169
330
15F
100
AcDbEntity
  8
Predeterminado
100
AcDbVertex
100
AcDb2dVertex
 10
24.04536904053506
 20
-458.4602937196784
 30
0.0
  0
VERTEX
  5
16A
330
15F
100
AcDbEntity
  8
Predeterminado
100
AcDbVertex
100
AcDb2dVertex
 10
4.045369040535057
 20
-458.4602937196784
 30
0.0
  0
VERTEX
  5
16B
330
15F
100
AcDbEntity
  8
Predeterminado
100
AcDbVertex
100
AcDb2dVertex
 10
4.045369040535427
 20
-548.4602937196785
 30
0.0
  0
VERTEX
  5
16C
330
15F
100
AcDbEntity
  8
Predeterminado
100
AcDbVertex
100
AcDb2dVertex
 10
24.04536904053545
 20
-548.4602937196785
 30
0.0
  0
VERTEX
  5
16D
330
15F
100
AcDbEntity
  8
Predeterminado
100
AcDbVertex
100
AcDb2dVertex
 10
24.0453690405354
 20
-535.1001307589036
 30
0.0
  0
VERTEX
  5
16E
330
15F
100
AcDbEntity
  8
Predeterminado
100
AcDbVertex
100
AcDb2dVertex
 10
29.0453690405354
 20
-535.1001307589034
 30
0.0
  0
VERTEX
  5
16F
330
15F
100
AcDbEntity
  8
Predeterminado
100
AcDbVertex
100
AcDb2dVertex
 10
29.04536904053534
 20
-526.0844831670579
 30
0.0
  0
SEQEND
  5
170
330
15F
100
AcDbEntity
  8
Predeterminado
  0
POLYLINE
  5
171
330
1F
100
AcDbEntity
  8
Predeterminado
100
AcDb2dPolyline
 66
     1
 10
0.0
 20
0.0
 30
0.0000000000000142
 70
     1
  0
VERTEX
  5
172
330
171
100
AcDbEntity
  8
Predeterminado
100
AcDbVertex
100
AcDb2dVertex
 10
24.25813635740688
 20
-414.8510134869222
 30
0.0000000000000142
  0
VERTEX
  5
173
330
171
100
AcDbEntity
  8
Predeterminado
100
AcDbVertex
100
AcDb2dVertex
 10
24.25813635740688
 20
-432.9673791383789
 30
0.0000000000000142
  0
VERTEX
  5
174
330
171
100
AcDbEntity
  8
Predeterminado
100
AcDbVertex
100
AcDb2dVertex
 10
29.25813635740688
 20
-432.9673791383789
 30
0.0000000000000142
  0
VERTEX
  5
175
330
171
100
AcDbEntity
  8
Predeterminado
100
AcDbVertex
100
AcDb2dVertex
 10
29.25813635740688
 20
-441.9830267302245
 30
0.0000000000000142
  0
VERTEX
  5
176
330
171
100
AcDbEntity
  8
Predeterminado
100
AcDbVertex
100
AcDb2dVertex
 10
24.25813635740688
 20
-441.9830267302245
 30
0.0000000000000142
  0
VERTEX
  5
177
330
171
100
AcDbEntity
  8
Predeterminado
100
AcDbVertex
100
AcDb2dVertex
 10
24.25813635740688
 20
-455.3431896909995
 30
0.0000000000000142
  0
VERTEX
  5
178
330
171
100
AcDbEntity
  8
Predeterminado
100
AcDbVertex
100
AcDb2dVertex
 10
4.258136357406876
 20
-455.3431896909995
 30
0.0000000000000142
  0
VERTEX
  5
179
330
171
100
AcDbEntity
  8
Predeterminado
100
AcDbVertex
100
AcDb2dVertex
 10
4.258136357406876
 20
-365.3431896909995
 30
0.0000000000000142
  0
VERTEX
  5
17A
330
171
100
AcDbEntity
  8
Predeterminado
100
AcDbVertex
100
AcDb2dVertex
 10
24.25813635740688
 20
-365.3431896909995
 30
0.0000000000000142
  0
VERTEX
  5
17B
330
171
100
AcDbEntity
  8
Predeterminado
100
AcDbVertex
100
AcDb2dVertex
 10
24.25813635740688
 20
-378.7033526517743
 30
0.0000000000000142
  0
VERTEX
  5
17C
330
171
100
AcDbEntity
  8
Predeterminado
100
AcDbVertex
100
AcDb2dVertex
 10
29.25813635740688
 20
-378.7033526517743
 30
0.0000000000000142
  0
VERTEX
  5
17D
330
171
100
AcDbEntity
  8
Predeterminado
100
AcDbVertex
100
AcDb2dVertex
 10
29.25813635740688
 20
-387.7190002436199
 30
0.0000000000000142
  0
VERTEX
  5
17E
330
171
100
AcDbEntity
  8
Predeterminado
100
AcDbVertex
100
AcDb2dVertex
 10
24.25813635740688
 20
-387.7190002436199
 30
0.0000000000000142
  0
VERTEX
  5
17F
330
171
100
AcDbEntity
  8
Predeterminado
100
AcDbVertex
100
AcDb2dVertex
 10
24.25813635740688
 20
-405.8353658950766
 30
0.0000000000000142
  0
VERTEX
  5
180
330
171
100
AcDbEntity
  8
Predeterminado
100
AcDbVertex
100
AcDb2dVertex
 10
29.25813635740688
 20
-405.8353658950766
 30
0.0000000000000142
  0
VERTEX
  5
181
330
171
100
AcDbEntity
  8
Predeterminado
100
AcDbVertex
100
AcDb2dVertex
 10
29.25813635740688
 20
-414.8510134869222
 30
0.0000000000000142
  0
SEQEND
  5
182
330
171
100
AcDbEntity
  8
Predeterminado
  0
POLYLINE
  5
183
330
1F
100
AcDbEntity
  8
Predeterminado
100
AcDb2dPolyline
 66
     1
 10
0.0
 20
0.0
 30
0.0000000000000142
 70
     1
  0
VERTEX
  5
184
330
183
100
AcDbEntity
  8
Predeterminado
100
AcDbVertex
100
AcDb2dVertex
 10
-2.682219158745488
 20
-414.8510134869222
 30
0.0000000000000142
  0
VERTEX
  5
185
330
183
100
AcDbEntity
  8
Predeterminado
100
AcDbVertex
100
AcDb2dVertex
 10
-2.682219158745488
 20
-432.9673791383789
 30
0.0000000000000142
  0
VERTEX
  5
186
330
183
100
AcDbEntity
  8
Predeterminado
100
AcDbVertex
100
AcDb2dVertex
 10
2.317780841254512
 20
-432.9673791383789
 30
0.0000000000000142
  0
VERTEX
  5
187
330
183
100
AcDbEntity
  8
Predeterminado
100
AcDbVertex
100
AcDb2dVertex
 10
2.317780841254512
 20
-441.9830267302245
 30
0.0000000000000142
  0
VERTEX
  5
188
330
183
100
AcDbEntity
  8
Predeterminado
100
AcDbVertex
100
AcDb2dVertex
 10
-2.682219158745488
 20
-441.9830267302245
 30
0.0000000000000142
  0
VERTEX
  5
189
330
183
100
AcDbEntity
  8
Predeterminado
100
AcDbVertex
100
AcDb2dVertex
 10
-2.682219158745488
 20
-455.3431896909995
 30
0.0000000000000142
  0
VERTEX
  5
18A
330
183
100
AcDbEntity
  8
Predeterminado
100
AcDbVertex
100
AcDb2dVertex
 10
-22.68221915874549
 20
-455.3431896909995
 30
0.0000000000000142
  0
VERTEX
  5
18B
330
183
100
AcDbEntity
  8
Predeterminado
100
AcDbVertex
100
AcDb2dVertex
 10
-22.68221915874549
 20
-365.3431896909995
 30
0.0000000000000142
  0
VERTEX
  5
18C
330
183
100
AcDbEntity
  8
Predeterminado
100
AcDbVertex
100
AcDb2dVertex
 10
-2.682219158745488
 20
-365.3431896909995
 30
0.0000000000000142
  0
VERTEX
  5
18D
330
183
100
AcDbEntity
  8
Predeterminado
100
AcDbVertex
100
AcDb2dVertex
 10
-2.682219158745488
 20
-378.7033526517743
 30
0.0000000000000142
  0
VERTEX
  5
18E
330
183
100
AcDbEntity
  8
Predeterminado
100
AcDbVertex
100
AcDb2dVertex
 10
2.317780841254512
 20
-378.7033526517743
 30
0.0000000000000142
  0
VERTEX
  5
18F
330
183
100
AcDbEntity
  8
Predeterminado
100
AcDbVertex
100
AcDb2dVertex
 10
2.317780841254512
 20
-387.7190002436199
 30
0.0000000000000142
  0
VERTEX
  5
190
330
183
100
AcDbEntity
  8
Predeterminado
100
AcDbVertex
100
AcDb2dVertex
 10
-2.682219158745488
 20
-387.7190002436199
 30
0.0000000000000142
  0
VERTEX
  5
191
330
183
100
AcDbEntity
  8
Predeterminado
100
AcDbVertex
100
AcDb2dVertex
 10
-2.682219158745488
 20
-405.8353658950766
 30
0.0000000000000142
  0
VERTEX
  5
192
330
183
100
AcDbEntity
  8
Predeterminado
100
AcDbVertex
100
AcDb2dVertex
 10
2.317780841254512
 20
-405.8353658950766
 30
0.0000000000000142
  0
VERTEX
  5
193
330
183
100
AcDbEntity
  8
Predeterminado
100
AcDbVertex
100
AcDb2dVertex
 10
2.317780841254512
 20
-414.8510134869222
 30
0.0000000000000142
  0
SEQEND
  5
194
330
183
100
AcDbEntity
  8
Predeterminado
  0
POLYLINE
  5
195
330
1F
100
AcDbEntity
  8
Predeterminado
100
AcDb2dPolyline
 66
     1
 10
0.0
 20
0.0
 30
0.0000000000000142
 70
     1
  0
VERTEX
  5
196
330
195
100
AcDbEntity
  8
Predeterminado
100
AcDbVertex
100
AcDb2dVertex
 10
141.1410193479253
 20
-414.8510134869222
 30
0.0000000000000142
  0
VERTEX
  5
197
330
195
100
AcDbEntity
  8
Predeterminado
100
AcDbVertex
100
AcDb2dVertex
 10
141.1410193479253
 20
-432.9673791383789
 30
0.0000000000000142
  0
VERTEX
  5
198
330
195
100
AcDbEntity
  8
Predeterminado
100
AcDbVertex
100
AcDb2dVertex
 10
146.1410193479253
 20
-432.9673791383789
 30
0.0000000000000142
  0
VERTEX
  5
199
330
195
100
AcDbEntity
  8
Predeterminado
100
AcDbVertex
100
AcDb2dVertex
 10
146.1410193479253
 20
-441.9830267302245
 30
0.0000000000000142
  0
VERTEX
  5
19A
330
195
100
AcDbEntity
  8
Predeterminado
100
AcDbVertex
100
AcDb2dVertex
 10
141.1410193479253
 20
-441.9830267302245
 30
0.0000000000000142
  0
VERTEX
  5
19B
330
195
100
AcDbEntity
  8
Predeterminado
100
AcDbVertex
100
AcDb2dVertex
 10
141.1410193479253
 20
-455.3431896909995
 30
0.0000000000000142
  0
VERTEX
  5
19C
330
195
100
AcDbEntity
  8
Predeterminado
100
AcDbVertex
100
AcDb2dVertex
 10
136.1410193479253
 20
-455.3431896909995
 30
0.0000000000000142
  0
VERTEX
  5
19D
330
195
100
AcDbEntity
  8
Predeterminado
100
AcDbVertex
100
AcDb2dVertex
 10
136.1410193479253
 20
-365.3431896909995
 30
0.0000000000000142
  0
VERTEX
  5
19E
330
195
100
AcDbEntity
  8
Predeterminado
100
AcDbVertex
100
AcDb2dVertex
 10
141.1410193479253
 20
-365.3431896909995
 30
0.0000000000000142
  0
VERTEX
  5
19F
330
195
100
AcDbEntity
  8
Predeterminado
100
AcDbVertex
100
AcDb2dVertex
 10
141.1410193479253
 20
-378.7033526517743
 30
0.0000000000000142
  0
VERTEX
  5
1A0
330
195
100
AcDbEntity
  8
Predeterminado
100
AcDbVertex
100
AcDb2dVertex
 10
146.1410193479253
 20
-378.7033526517743
 30
0.0000000000000142
  0
VERTEX
  5
1A1
330
195
100
AcDbEntity
  8
Predeterminado
100
AcDbVertex
100
AcDb2dVertex
 10
146.1410193479253
 20
-387.7190002436199
 30
0.0000000000000142
  0
VERTEX
  5
1A2
330
195
100
AcDbEntity
  8
Predeterminado
100
AcDbVertex
100
AcDb2dVertex
 10
141.1410193479253
 20
-387.7190002436199
 30
0.0000000000000142
  0
VERTEX
  5
1A3
330
195
100
AcDbEntity
  8
Predeterminado
100
AcDbVertex
100
AcDb2dVertex
 10
141.1410193479253
 20
-405.8353658950766
 30
0.0000000000000142
  0
VERTEX
  5
1A4
330
195
100
AcDbEntity
  8
Predeterminado
100
AcDbVertex
100
AcDb2dVertex
 10
146.1410193479253
 20
-405.8353658950766
 30
0.0000000000000142
  0
VERTEX
  5
1A5
330
195
100
AcDbEntity
  8
Predeterminado
100
AcDbVertex
100
AcDb2dVertex
 10
146.1410193479253
 20
-414.8510134869222
 30
0.0000000000000142
  0
SEQEND
  5
1A6
330
195
100
AcDbEntity
  8
Predeterminado
  0
SPLINE
  5
1A7
330
1F
100
AcDbEntity
  8
Predeterminado
100
AcDbSpline
210
0.0
220
0.0
230
1.0
 70
    24
 71
     2
 72
     6
 73
     3
 74
     0
 42
0.000000001
 43
0.0000000001
 40
398.2444843575655
 40
398.2444843575655
 40
398.2444843575655
 40
414.549213714743
 40
414.549213714743
 40
414.549213714743
 10
58.83742733969395
 20
-549.2026807843852
 30
-0.000000000000001
 10
67.89561016542224
 20
-549.2026807843852
 30
-0.000000000000001
 10
76.95379299115054
 20
-549.2026807843852
 30
-0.000000000000001
  0
SPLINE
  5
1A8
330
1F
100
AcDbEntity
  8
Predeterminado
100
AcDbSpline
210
0.0
220
0.0
230
1.0
 70
    24
 71
     2
 72
     6
 73
     3
 74
     0
 42
0.000000001
 43
0.0000000001
 40
414.549213714743
 40
414.549213714743
 40
414.549213714743
 40
419.549213714743
 40
419.549213714743
 40
419.549213714743
 10
76.95379299115054
 20
-549.2026807843852
 30
-0.000000000000001
 10
76.95379299115056
 20
-546.7026807437562
 30
-0.0000000000000005
 10
76.95379299115059
 20
-544.2026807031273
 30
0.0
  0
SPLINE
  5
1A9
330
1F
100
AcDbEntity
  8
Predeterminado
100
AcDbSpline
210
0.0
220
0.0
230
1.0
 70
    24
 71
     2
 72
     6
 73
     3
 74
     0
 42
0.000000001
 43
0.0000000001
 40
419.549213714743
 40
419.549213714743
 40
419.549213714743
 40
428.5648613065886
 40
428.5648613065886
 40
428.5648613065886
 10
76.95379299115059
 20
-544.2026807031273
 30
0.0
 10
81.4616167870734
 20
-544.2026807031273
 30
-0.000000000000001
 10
85.9694405829962
 20
-544.2026807031273
 30
-0.000000000000002
  0
SPLINE
  5
1AA
330
1F
100
AcDbEntity
  8
Predeterminado
100
AcDbSpline
210
0.0
220
0.0
230
1.0
 70
    24
 71
     2
 72
     6
 73
     3
 74
     0
 42
0.000000001
 43
0.0000000001
 40
428.5648613065886
 40
428.5648613065886
 40
428.5648613065886
 40
433.5648613065886
 40
433.5648613065886
 40
433.5648613065886
 10
85.9694405829962
 20
-544.2026807031273
 30
-0.000000000000002
 10
85.9694405829962
 20
-546.7026807437562
 30
-0.0000000000000015
 10
85.9694405829962
 20
-549.2026807843852
 30
-0.000000000000001
  0
SPLINE
  5
1AB
330
1F
100
AcDbEntity
  8
Predeterminado
100
AcDbSpline
210
0.0
220
0.0
230
1.0
 70
    24
 71
     2
 72
     6
 73
     3
 74
     0
 42
0.000000001
 43
0.0000000001
 40
433.5648613065886
 40
433.5648613065886
 40
433.5648613065886
 40
449.8695906637661
 40
449.8695906637661
 40
449.8695906637661
 10
85.9694405829962
 20
-549.2026807843852
 30
-0.000000000000001
 10
95.02762340872455
 20
-549.2026807843852
 30
-0.000000000000001
 10
104.0858062344529
 20
-549.2026807843852
 30
-0.000000000000001
  0
SPLINE
  5
1AC
330
1F
100
AcDbEntity
  8
Predeterminado
100
AcDbSpline
210
0.0
220
0.0
230
1.0
 70
    24
 71
     2
 72
     6
 73
     3
 74
     0
 42
0.000000001
 43
0.0000000001
 40
449.8695906637661
 40
449.8695906637661
 40
449.8695906637661
 40
454.8695906637661
 40
454.8695906637661
 40
454.8695906637661
 10
104.0858062344529
 20
-549.2026807843852
 30
-0.000000000000001
 10
104.0858062344529
 20
-546.7026807437562
 30
-0.0000000000000005
 10
104.0858062344529
 20
-544.2026807031273
 30
0.0
  0
SPLINE
  5
1AD
330
1F
100
AcDbEntity
  8
Predeterminado
100
AcDbSpline
210
0.0
220
0.0
230
1.0
 70
    24
 71
     2
 72
     6
 73
     3
 74
     0
 42
0.000000001
 43
0.0000000001
 40
454.8695906637661
 40
454.8695906637661
 40
454.8695906637661
 40
463.8852382556117
 40
463.8852382556117
 40
463.8852382556117
 10
104.0858062344529
 20
-544.2026807031273
 30
0.0
 10
108.5936300303757
 20
-544.2026807031273
 30
-0.000000000000001
 10
113.1014538262985
 20
-544.2026807031273
 30
-0.000000000000002
  0
SPLINE
  5
1AE
330
1F
100
AcDbEntity
  8
Predeterminado
100
AcDbSpline
210
0.0
220
0.0
230
1.0
 70
    24
 71
     2
 72
     6
 73
     3
 74
     0
 42
0.000000001
 43
0.0000000001
 40
463.8852382556117
 40
463.8852382556117
 40
463.8852382556117
 40
468.8852382556117
 40
468.8852382556117
 40
468.8852382556117
 10
113.1014538262985
 20
-544.2026807031273
 30
-0.000000000000002
 10
113.1014538262985
 20
-546.7026807437563
 30
-0.0000000000000015
 10
113.1014538262985
 20
-549.2026807843854
 30
-0.000000000000001
  0
SPLINE
  5
1AF
330
1F
100
AcDbEntity
  8
Predeterminado
100
AcDbSpline
210
0.0
220
0.0
230
1.0
 70
    24
 71
     2
 72
     6
 73
     3
 74
     0
 42
0.000000001
 43
0.0000000001
 40
468.8852382556117
 40
468.8852382556117
 40
468.8852382556117
 40
485.4093847397758
 40
485.4093847397758
 40
485.4093847397758
 10
113.1014538262985
 20
-549.2026807843854
 30
-0.000000000000001
 10
122.2815350538832
 20
-549.2026808250143
 30
-0.0000000000000015
 10
131.4616162814679
 20
-549.2026808656433
 30
-0.000000000000002
  0
SPLINE
  5
1B0
330
1F
100
AcDbEntity
  8
Predeterminado
100
AcDbSpline
210
0.0
220
0.0
230
1.0
 70
    24
 71
     2
 72
     6
 73
     3
 74
     0
 42
0.000000001
 43
0.0000000001
 40
485.4093847397758
 40
485.4093847397758
 40
485.4093847397758
 40
498.7695478630669
 40
498.7695478630669
 40
498.7695478630669
 10
131.4616162814679
 20
-549.2026808656433
 30
-0.000000000000002
 10
131.4616164078693
 20
-542.5225993039978
 30
-0.0000000000000015
 10
131.4616165342706
 20
-535.8425177423524
 30
-0.000000000000001
  0
SPLINE
  5
1B1
330
1F
100
AcDbEntity
  8
Predeterminado
100
AcDbSpline
210
0.0
220
0.0
230
1.0
 70
    24
 71
     2
 72
     6
 73
     3
 74
     0
 42
0.000000001
 43
0.0000000001
 40
498.7695478630669
 40
498.7695478630669
 40
498.7695478630669
 40
503.7695476102641
 40
503.7695476102641
 40
503.7695476102641
 10
131.4616165342706
 20
-535.8425177423524
 30
-0.000000000000001
 10
128.961616660672
 20
-535.8425177423524
 30
-0.0000000000000005
 10
126.4616167870734
 20
-535.8425177423524
 30
0.0
  0
SPLINE
  5
1B2
330
1F
100
AcDbEntity
  8
Predeterminado
100
AcDbSpline
210
0.0
220
0.0
230
1.0
 70
    24
 71
     2
 72
     6
 73
     3
 74
     0
 42
0.000000001
 43
0.0000000001
 40
503.7695476102641
 40
503.7695476102641
 40
503.7695476102641
 40
512.7851952021098
 40
512.7851952021098
 40
512.7851952021098
 10
126.4616167870734
 20
-535.8425177423524
 30
0.0
 10
126.4616167870734
 20
-531.3346939464295
 30
-0.000000000000001
 10
126.4616167870734
 20
-526.8268701505067
 30
-0.000000000000002
  0
SPLINE
  5
1B3
330
1F
100
AcDbEntity
  8
Predeterminado
100
AcDbSpline
210
0.0
220
0.0
230
1.0
 70
    24
 71
     2
 72
     6
 73
     3
 74
     0
 42
0.000000001
 43
0.0000000001
 40
512.7851952021098
 40
512.7851952021098
 40
512.7851952021098
 40
517.7851946965042
 40
517.7851946965042
 40
517.7851946965042
 10
126.4616167870734
 20
-526.8268701505067
 30
-0.000000000000002
 10
128.961616660672
 20
-526.8268701505067
 30
-0.0000000000000015
 10
131.4616165342706
 20
-526.8268701505067
 30
-0.000000000000001
  0
SPLINE
  5
1B4
330
1F
100
AcDbEntity
  8
Predeterminado
100
AcDbSpline
210
0.0
220
0.0
230
1.0
 70
    24
 71
     2
 72
     6
 73
     3
 74
     0
 42
0.000000001
 43
0.0000000001
 40
517.7851946965042
 40
517.7851946965042
 40
517.7851946965042
 40
535.9015603479609
 40
535.9015603479609
 40
535.9015603479609
 10
131.4616165342706
 20
-526.8268701505067
 30
-0.000000000000001
 10
131.4616165342707
 20
-517.7686873247784
 30
-0.000000000000001
 10
131.4616165342707
 20
-508.71050449905
 30
-0.000000000000001
  0
SPLINE
  5
1B5
330
1F
100
AcDbEntity
  8
Predeterminado
100
AcDbSpline
210
0.0
220
0.0
230
1.0
 70
    24
 71
     2
 72
     6
 73
     3
 74
     0
 42
0.000000001
 43
0.0000000001
 40
535.9015603479609
 40
535.9015603479609
 40
535.9015603479609
 40
540.9015600951582
 40
540.9015600951582
 40
540.9015600951582
 10
131.4616165342707
 20
-508.71050449905
 30
-0.000000000000001
 10
128.9616166606721
 20
-508.71050449905
 30
-0.0000000000000005
 10
126.4616167870735
 20
-508.71050449905
 30
0.0
  0
SPLINE
  5
1B6
330
1F
100
AcDbEntity
  8
Predeterminado
100
AcDbSpline
210
0.0
220
0.0
230
1.0
 70
    24
 71
     2
 72
     6
 73
     3
 74
     0
 42
0.000000001
 43
0.0000000001
 40
540.9015600951582
 40
540.9015600951582
 40
540.9015600951582
 40
549.9172076870037
 40
549.9172076870037
 40
549.9172076870037
 10
126.4616167870735
 20
-508.71050449905
 30
0.0
 10
126.4616167870735
 20
-504.2026807031272
 30
-0.000000000000001
 10
126.4616167870735
 20
-499.6948569072044
 30
-0.000000000000002
  0
SPLINE
  5
1B7
330
1F
100
AcDbEntity
  8
Predeterminado
100
AcDbSpline
210
0.0
220
0.0
230
1.0
 70
    24
 71
     2
 72
     6
 73
     3
 74
     0
 42
0.000000001
 43
0.0000000001
 40
549.9172076870037
 40
549.9172076870037
 40
549.9172076870037
 40
554.9172071813982
 40
554.9172071813982
 40
554.9172071813982
 10
126.4616167870735
 20
-499.6948569072044
 30
-0.000000000000002
 10
128.9616166606721
 20
-499.6948569072044
 30
-0.0000000000000015
 10
131.4616165342707
 20
-499.6948569072044
 30
-0.000000000000001
  0
SPLINE
  5
1B8
330
1F
100
AcDbEntity
  8
Predeterminado
100
AcDbSpline
210
0.0
220
0.0
230
1.0
 70
    24
 71
     2
 72
     6
 73
     3
 74
     0
 42
0.000000001
 43
0.0000000001
 40
554.9172071813982
 40
554.9172071813982
 40
554.9172071813982
 40
573.0335728328549
 40
573.0335728328549
 40
573.0335728328549
 10
131.4616165342707
 20
-499.6948569072044
 30
-0.000000000000001
 10
131.4616165342707
 20
-490.636674081476
 30
-0.000000000000001
 10
131.4616165342707
 20
-481.5784912557477
 30
-0.000000000000001
  0
SPLINE
  5
1B9
330
1F
100
AcDbEntity
  8
Predeterminado
100
AcDbSpline
210
0.0
220
0.0
230
1.0
 70
    24
 71
     2
 72
     6
 73
     3
 74
     0
 42
0.000000001
 43
0.0000000001
 40
573.0335728328549
 40
573.0335728328549
 40
573.0335728328549
 40
578.0335725800521
 40
578.0335725800521
 40
578.0335725800521
 10
131.4616165342707
 20
-481.5784912557477
 30
-0.000000000000001
 10
128.9616166606721
 20
-481.5784912557477
 30
-0.0000000000000005
 10
126.4616167870735
 20
-481.5784912557477
 30
0.0
  0
SPLINE
  5
1BA
330
1F
100
AcDbEntity
  8
Predeterminado
100
AcDbSpline
210
0.0
220
0.0
230
1.0
 70
    24
 71
     2
 72
     6
 73
     3
 74
     0
 42
0.000000001
 43
0.0000000001
 40
578.0335725800521
 40
578.0335725800521
 40
578.0335725800521
 40
587.0492201718978
 40
587.0492201718978
 40
587.0492201718978
 10
126.4616167870735
 20
-481.5784912557477
 30
0.0
 10
126.4616167870735
 20
-477.0706674598249
 30
-0.000000000000001
 10
126.4616167870736
 20
-472.5628436639021
 30
-0.000000000000002
  0
SPLINE
  5
1BB
330
1F
100
AcDbEntity
  8
Predeterminado
100
AcDbSpline
210
0.0
220
0.0
230
1.0
 70
    24
 71
     2
 72
     6
 73
     3
 74
     0
 42
0.000000001
 43
0.0000000001
 40
587.0492201718978
 40
587.0492201718978
 40
587.0492201718978
 40
592.0492196662922
 40
592.0492196662922
 40
592.0492196662922
 10
126.4616167870736
 20
-472.5628436639021
 30
-0.000000000000002
 10
128.9616166606721
 20
-472.5628436639021
 30
-0.0000000000000015
 10
131.4616165342707
 20
-472.5628436639021
 30
-0.000000000000001
  0
SPLINE
  5
1BC
330
1F
100
AcDbEntity
  8
Predeterminado
100
AcDbSpline
210
0.0
220
0.0
230
1.0
 70
    24
 71
     2
 72
     6
 73
     3
 74
     0
 42
0.000000001
 43
0.0000000001
 40
592.0492196662922
 40
592.0492196662922
 40
592.0492196662922
 40
605.409382464551
 40
605.409382464551
 40
605.409382464551
 10
131.4616165342707
 20
-472.5628436639021
 30
-0.000000000000001
 10
131.4616164078694
 20
-465.8827622647727
 30
-0.0000000000000015
 10
131.461616281468
 20
-459.2026808656433
 30
-0.000000000000002
  0
SPLINE
  5
1BD
330
1F
100
AcDbEntity
  8
Predeterminado
100
AcDbSpline
210
0.0
220
0.0
230
1.0
 70
    24
 71
     2
 72
     6
 73
     3
 74
     0
 42
0.000000001
 43
0.0000000001
 40
605.409382464551
 40
605.409382464551
 40
605.409382464551
 40
621.9335289487151
 40
621.9335289487151
 40
621.9335289487151
 10
131.461616281468
 20
-459.2026808656433
 30
-0.000000000000002
 10
122.2815350538833
 20
-459.2026808250143
 30
-0.0000000000000015
 10
113.1014538262986
 20
-459.2026807843852
 30
-0.000000000000001
  0
SPLINE
  5
1BE
330
1F
100
AcDbEntity
  8
Predeterminado
100
AcDbSpline
210
0.0
220
0.0
230
1.0
 70
    24
 71
     2
 72
     6
 73
     3
 74
     0
 42
0.000000001
 43
0.0000000001
 40
621.9335289487151
 40
621.9335289487151
 40
621.9335289487151
 40
626.9335287861988
 40
626.9335287861988
 40
626.9335287861988
 10
113.1014538262986
 20
-459.2026807843852
 30
-0.000000000000001
 10
113.1014538262986
 20
-461.7026807437562
 30
-0.0000000000000015
 10
113.1014538262986
 20
-464.2026807031271
 30
-0.000000000000002
  0
SPLINE
  5
1BF
330
1F
100
AcDbEntity
  8
Predeterminado
100
AcDbSpline
210
0.0
220
0.0
230
1.0
 70
    24
 71
     2
 72
     6
 73
     3
 74
     0
 42
0.000000001
 43
0.0000000001
 40
626.9335287861988
 40
626.9335287861988
 40
626.9335287861988
 40
635.9491763780445
 40
635.9491763780445
 40
635.9491763780445
 10
113.1014538262986
 20
-464.2026807031271
 30
-0.000000000000002
 10
108.5936300303758
 20
-464.2026807031271
 30
-0.000000000000001
 10
104.085806234453
 20
-464.2026807031271
 30
0.0
  0
SPLINE
  5
1C0
330
1F
100
AcDbEntity
  8
Predeterminado
100
AcDbSpline
210
0.0
220
0.0
230
1.0
 70
    24
 71
     2
 72
     6
 73
     3
 74
     0
 42
0.000000001
 43
0.0000000001
 40
635.9491763780445
 40
635.9491763780445
 40
635.9491763780445
 40
640.9491762967864
 40
640.9491762967864
 40
640.9491762967864
 10
104.085806234453
 20
-464.2026807031271
 30
0.0
 10
104.085806234453
 20
-461.7026807437562
 30
-0.0000000000000005
 10
104.085806234453
 20
-459.2026807843852
 30
-0.000000000000001
  0
SPLINE
  5
1C1
330
1F
100
AcDbEntity
  8
Predeterminado
100
AcDbSpline
210
0.0
220
0.0
230
1.0
 70
    24
 71
     2
 72
     6
 73
     3
 74
     0
 42
0.000000001
 43
0.0000000001
 40
640.9491762967864
 40
640.9491762967864
 40
640.9491762967864
 40
657.2539056539639
 40
657.2539056539639
 40
657.2539056539639
 10
104.085806234453
 20
-459.2026807843852
 30
-0.000000000000001
 10
95.02762340872466
 20
-459.2026807843852
 30
-0.000000000000001
 10
85.96944058299631
 20
-459.2026807843852
 30
-0.000000000000001
  0
SPLINE
  5
1C2
330
1F
100
AcDbEntity
  8
Predeterminado
100
AcDbSpline
210
0.0
220
0.0
230
1.0
 70
    24
 71
     2
 72
     6
 73
     3
 74
     0
 42
0.000000001
 43
0.0000000001
 40
657.2539056539639
 40
657.2539056539639
 40
657.2539056539639
 40
662.2539054914478
 40
662.2539054914478
 40
662.2539054914478
 10
85.96944058299631
 20
-459.2026807843852
 30
-0.000000000000001
 10
85.96944058299631
 20
-461.7026807437562
 30
-0.0000000000000015
 10
85.96944058299631
 20
-464.2026807031271
 30
-0.000000000000002
  0
SPLINE
  5
1C3
330
1F
100
AcDbEntity
  8
Predeterminado
100
AcDbSpline
210
0.0
220
0.0
230
1.0
 70
    24
 71
     2
 72
     6
 73
     3
 74
     0
 42
0.000000001
 43
0.0000000001
 40
662.2539054914478
 40
662.2539054914478
 40
662.2539054914478
 40
671.2695530832933
 40
671.2695530832933
 40
671.2695530832933
 10
85.96944058299631
 20
-464.2026807031271
 30
-0.000000000000002
 10
81.46161678707351
 20
-464.202680703127
 30
-0.000000000000001
 10
76.9537929911507
 20
-464.202680703127
 30
0.0
  0
SPLINE
  5
1C4
330
1F
100
AcDbEntity
  8
Predeterminado
100
AcDbSpline
210
0.0
220
0.0
230
1.0
 70
    24
 71
     2
 72
     6
 73
     3
 74
     0
 42
0.000000001
 43
0.0000000001
 40
671.2695530832933
 40
671.2695530832933
 40
671.2695530832933
 40
676.2695530020352
 40
676.2695530020352
 40
676.2695530020352
 10
76.9537929911507
 20
-464.202680703127
 30
0.0
 10
76.9537929911507
 20
-461.7026807437561
 30
-0.0000000000000005
 10
76.9537929911507
 20
-459.2026807843852
 30
-0.000000000000001
  0
SPLINE
  5
1C5
330
1F
100
AcDbEntity
  8
Predeterminado
100
AcDbSpline
210
0.0
220
0.0
230
1.0
 70
    24
 71
     2
 72
     6
 73
     3
 74
     0
 42
0.000000001
 43
0.0000000001
 40
676.2695530020352
 40
676.2695530020352
 40
676.2695530020352
 40
692.5742823592127
 40
692.5742823592127
 40
692.5742823592127
 10
76.9537929911507
 20
-459.2026807843852
 30
-0.000000000000001
 10
67.89561016542238
 20
-459.2026807843852
 30
-0.000000000000001
 10
58.83742733969406
 20
-459.2026807843852
 30
-0.000000000000001
  0
SPLINE
  5
1C6
330
1F
100
AcDbEntity
  8
Predeterminado
100
AcDbSpline
210
0.0
220
0.0
230
1.0
 70
    24
 71
     2
 72
     6
 73
     3
 74
     0
 42
0.000000001
 43
0.0000000001
 40
692.5742823592127
 40
692.5742823592127
 40
692.5742823592127
 40
697.5742821966966
 40
697.5742821966966
 40
697.5742821966966
 10
58.83742733969406
 20
-459.2026807843852
 30
-0.000000000000001
 10
58.83742733969406
 20
-461.7026807437561
 30
-0.0000000000000015
 10
58.83742733969406
 20
-464.202680703127
 30
-0.000000000000002
  0
SPLINE
  5
1C7
330
1F
100
AcDbEntity
  8
Predeterminado
100
AcDbSpline
210
0.0
220
0.0
230
1.0
 70
    24
 71
     2
 72
     6
 73
     3
 74
     0
 42
0.000000001
 43
0.0000000001
 40
697.5742821966966
 40
697.5742821966966
 40
697.5742821966966
 40
706.5899297885421
 40
706.5899297885421
 40
706.5899297885421
 10
58.83742733969406
 20
-464.202680703127
 30
-0.000000000000002
 10
54.32960354377123
 20
-464.202680703127
 30
-0.000000000000001
 10
49.8217797478484
 20
-464.202680703127
 30
0.0
  0
SPLINE
  5
1C8
330
1F
100
AcDbEntity
  8
Predeterminado
100
AcDbSpline
210
0.0
220
0.0
230
1.0
 70
    24
 71
     2
 72
     6
 73
     3
 74
     0
 42
0.000000001
 43
0.0000000001
 40
706.5899297885421
 40
706.5899297885421
 40
706.5899297885421
 40
711.5899297072841
 40
711.5899297072841
 40
711.5899297072841
 10
49.8217797478484
 20
-464.202680703127
 30
0.0
 10
49.8217797478484
 20
-461.7026807437561
 30
-0.0000000000000005
 10
49.8217797478484
 20
-459.2026807843852
 30
-0.000000000000001
  0
SPLINE
  5
1C9
330
1F
100
AcDbEntity
  8
Predeterminado
100
AcDbSpline
210
0.0
220
0.0
230
1.0
 70
    24
 71
     2
 72
     6
 73
     3
 74
     0
 42
0.000000001
 43
0.0000000001
 40
711.5899297072841
 40
711.5899297072841
 40
711.5899297072841
 40
728.11407560639
 40
728.11407560639
 40
728.11407560639
 10
49.8217797478484
 20
-459.2026807843852
 30
-0.000000000000001
 10
40.64169884529606
 20
-459.2026808250142
 30
-0.0000000000000015
 10
31.46161794274373
 20
-459.2026808656432
 30
-0.000000000000002
  0
SPLINE
  5
1CA
330
1F
100
AcDbEntity
  8
Predeterminado
100
AcDbSpline
210
0.0
220
0.0
230
1.0
 70
    24
 71
     2
 72
     6
 73
     3
 74
     0
 42
0.000000001
 43
0.0000000001
 40
728.11407560639
 40
728.11407560639
 40
728.11407560639
 40
741.4742372489784
 40
741.4742372489784
 40
741.4742372489784
 10
31.46161794274373
 20
-459.2026808656432
 30
-0.000000000000002
 10
31.46161794274373
 20
-465.8827616869374
 30
-0.0000000000000015
 10
31.46161794274373
 20
-472.5628425082318
 30
-0.000000000000001
  0
SPLINE
  5
1CB
330
1F
100
AcDbEntity
  8
Predeterminado
100
AcDbSpline
210
0.0
220
0.0
230
1.0
 70
    24
 71
     2
 72
     6
 73
     3
 74
     0
 42
0.000000001
 43
0.0000000001
 40
741.4742372489784
 40
741.4742372489784
 40
741.4742372489784
 40
746.4742372489784
 40
746.4742372489784
 40
746.4742372489784
 10
31.46161794274373
 20
-472.5628425082318
 30
-0.000000000000001
 10
33.9616179427437
 20
-472.5628425082318
 30
-0.0000000000000015
 10
36.46161794274367
 20
-472.5628425082318
 30
-0.000000000000002
  0
SPLINE
  5
1CC
330
1F
100
AcDbEntity
  8
Predeterminado
100
AcDbSpline
210
0.0
220
0.0
230
1.0
 70
    24
 71
     2
 72
     6
 73
     3
 74
     0
 42
0.000000001
 43
0.0000000001
 40
746.4742372489784
 40
746.4742372489784
 40
746.4742372489784
 40
755.4898848408241
 40
755.4898848408241
 40
755.4898848408241
 10
36.46161794274367
 20
-472.5628425082318
 30
-0.000000000000002
 10
36.46161794274364
 20
-477.0706663041545
 30
-0.000000000000001
 10
36.46161794274362
 20
-481.5784901000774
 30
0.0
  0
SPLINE
  5
1CD
330
1F
100
AcDbEntity
  8
Predeterminado
100
AcDbSpline
210
0.0
220
0.0
230
1.0
 70
    24
 71
     2
 72
     6
 73
     3
 74
     0
 42
0.000000001
 43
0.0000000001
 40
755.4898848408241
 40
755.4898848408241
 40
755.4898848408241
 40
760.4898848408241
 40
760.4898848408241
 40
760.4898848408241
 10
36.46161794274362
 20
-481.5784901000774
 30
0.0
 10
33.96161794274364
 20
-481.5784901000774
 30
-0.0000000000000005
 10
31.46161794274367
 20
-481.5784901000774
 30
-0.000000000000001
  0
SPLINE
  5
1CE
330
1F
100
AcDbEntity
  8
Predeterminado
100
AcDbSpline
210
0.0
220
0.0
230
1.0
 70
    24
 71
     2
 72
     6
 73
     3
 74
     0
 42
0.000000001
 43
0.0000000001
 40
760.4898848408241
 40
760.4898848408241
 40
760.4898848408241
 40
778.6062504922807
 40
778.6062504922807
 40
778.6062504922807
 10
31.46161794274367
 20
-481.5784901000774
 30
-0.000000000000001
 10
31.46161794274367
 20
-490.6366729258057
 30
-0.000000000000001
 10
31.46161794274367
 20
-499.694855751534
 30
-0.000000000000001
  0
SPLINE
  5
1CF
330
1F
100
AcDbEntity
  8
Predeterminado
100
AcDbSpline
210
0.0
220
0.0
230
1.0
 70
    24
 71
     2
 72
     6
 73
     3
 74
     0
 42
0.000000001
 43
0.0000000001
 40
778.6062504922807
 40
778.6062504922807
 40
778.6062504922807
 40
783.6062504922807
 40
783.6062504922807
 40
783.6062504922807
 10
31.46161794274367
 20
-499.694855751534
 30
-0.000000000000001
 10
33.96161794274364
 20
-499.694855751534
 30
-0.0000000000000015
 10
36.46161794274362
 20
-499.694855751534
 30
-0.000000000000002
  0
SPLINE
  5
1D0
330
1F
100
AcDbEntity
  8
Predeterminado
100
AcDbSpline
210
0.0
220
0.0
230
1.0
 70
    24
 71
     2
 72
     6
 73
     3
 74
     0
 42
0.000000001
 43
0.0000000001
 40
783.6062504922807
 40
783.6062504922807
 40
783.6062504922807
 40
792.6218980841263
 40
792.6218980841263
 40
792.6218980841263
 10
36.46161794274362
 20
-499.694855751534
 30
-0.000000000000002
 10
36.46161794274362
 20
-504.2026795474569
 30
-0.000000000000001
 10
36.46161794274362
 20
-508.7105033433797
 30
0.0
  0
SPLINE
  5
1D1
330
1F
100
AcDbEntity
  8
Predeterminado
100
AcDbSpline
210
0.0
220
0.0
230
1.0
 70
    24
 71
     2
 72
     6
 73
     3
 74
     0
 42
0.000000001
 43
0.0000000001
 40
792.6218980841263
 40
792.6218980841263
 40
792.6218980841263
 40
797.6218980841263
 40
797.6218980841263
 40
797.6218980841263
 10
36.46161794274362
 20
-508.7105033433797
 30
0.0
 10
33.96161794274364
 20
-508.7105033433797
 30
-0.0000000000000005
 10
31.46161794274367
 20
-508.7105033433797
 30
-0.000000000000001
  0
SPLINE
  5
1D2
330
1F
100
AcDbEntity
  8
Predeterminado
100
AcDbSpline
210
0.0
220
0.0
230
1.0
 70
    24
 71
     2
 72
     6
 73
     3
 74
     0
 42
0.000000001
 43
0.0000000001
 40
797.6218980841263
 40
797.6218980841263
 40
797.6218980841263
 40
815.7382637355829
 40
815.7382637355829
 40
815.7382637355829
 10
31.46161794274367
 20
-508.7105033433797
 30
-0.000000000000001
 10
31.46161794274364
 20
-517.768686169108
 30
-0.000000000000001
 10
31.46161794274362
 20
-526.8268689948363
 30
-0.000000000000001
  0
SPLINE
  5
1D3
330
1F
100
AcDbEntity
  8
Predeterminado
100
AcDbSpline
210
0.0
220
0.0
230
1.0
 70
    24
 71
     2
 72
     6
 73
     3
 74
     0
 42
0.000000001
 43
0.0000000001
 40
815.7382637355829
 40
815.7382637355829
 40
815.7382637355829
 40
820.7382637355829
 40
820.7382637355829
 40
820.7382637355829
 10
31.46161794274362
 20
-526.8268689948363
 30
-0.000000000000001
 10
33.96161794274359
 20
-526.8268689948363
 30
-0.0000000000000015
 10
36.46161794274356
 20
-526.8268689948363
 30
-0.000000000000002
  0
SPLINE
  5
1D4
330
1F
100
AcDbEntity
  8
Predeterminado
100
AcDbSpline
210
0.0
220
0.0
230
1.0
 70
    24
 71
     2
 72
     6
 73
     3
 74
     0
 42
0.000000001
 43
0.0000000001
 40
820.7382637355829
 40
820.7382637355829
 40
820.7382637355829
 40
829.7539113274286
 40
829.7539113274286
 40
829.7539113274286
 10
36.46161794274356
 20
-526.8268689948363
 30
-0.000000000000002
 10
36.46161794274356
 20
-531.3346927907592
 30
-0.000000000000001
 10
36.46161794274356
 20
-535.842516586682
 30
0.0
  0
SPLINE
  5
1D5
330
1F
100
AcDbEntity
  8
Predeterminado
100
AcDbSpline
210
0.0
220
0.0
230
1.0
 70
    24
 71
     2
 72
     6
 73
     3
 74
     0
 42
0.000000001
 43
0.0000000001
 40
829.7539113274286
 40
829.7539113274286
 40
829.7539113274286
 40
834.7539113274286
 40
834.7539113274286
 40
834.7539113274286
 10
36.46161794274356
 20
-535.842516586682
 30
0.0
 10
33.96161794274359
 20
-535.842516586682
 30
-0.0000000000000005
 10
31.46161794274362
 20
-535.842516586682
 30
-0.000000000000001
  0
SPLINE
  5
1D6
330
1F
100
AcDbEntity
  8
Predeterminado
100
AcDbSpline
210
0.0
220
0.0
230
1.0
 70
    24
 71
     2
 72
     6
 73
     3
 74
     0
 42
0.000000001
 43
0.0000000001
 40
834.7539113274286
 40
834.7539113274286
 40
834.7539113274286
 40
848.1140756063899
 40
848.1140756063899
 40
848.1140756063899
 10
31.46161794274362
 20
-535.842516586682
 30
-0.000000000000001
 10
31.46161794274362
 20
-542.5225987261626
 30
-0.0000000000000015
 10
31.46161794274362
 20
-549.2026808656433
 30
-0.000000000000002
  0
SPLINE
  5
1D7
330
1F
100
AcDbEntity
  8
Predeterminado
100
AcDbSpline
210
0.0
220
0.0
230
1.0
 70
    24
 71
     2
 72
     6
 73
     3
 74
     0
 42
0.000000001
 43
0.0000000001
 40
848.1140756063899
 40
848.1140756063899
 40
848.1140756063899
 40
864.6382215054957
 40
864.6382215054957
 40
864.6382215054957
 10
31.46161794274362
 20
-549.2026808656433
 30
-0.000000000000002
 10
40.64169884529595
 20
-549.2026808250142
 30
-0.0000000000000015
 10
49.82177974784828
 20
-549.2026807843852
 30
-0.000000000000001
  0
SPLINE
  5
1D8
330
1F
100
AcDbEntity
  8
Predeterminado
100
AcDbSpline
210
0.0
220
0.0
230
1.0
 70
    24
 71
     2
 72
     6
 73
     3
 74
     0
 42
0.000000001
 43
0.0000000001
 40
864.6382215054957
 40
864.6382215054957
 40
864.6382215054957
 40
869.6382215054957
 40
869.6382215054957
 40
869.6382215054957
 10
49.82177974784828
 20
-549.2026807843852
 30
-0.000000000000001
 10
49.82177974784828
 20
-546.7026807437561
 30
-0.0000000000000005
 10
49.82177974784828
 20
-544.202680703127
 30
0.0
  0
SPLINE
  5
1D9
330
1F
100
AcDbEntity
  8
Predeterminado
100
AcDbSpline
210
0.0
220
0.0
230
1.0
 70
    24
 71
     2
 72
     6
 73
     3
 74
     0
 42
0.000000001
 43
0.0000000001
 40
869.6382215054957
 40
869.6382215054957
 40
869.6382215054957
 40
878.6538690973413
 40
878.6538690973413
 40
878.6538690973413
 10
49.82177974784828
 20
-544.202680703127
 30
0.0
 10
54.32960354377111
 20
-544.202680703127
 30
-0.000000000000001
 10
58.83742733969395
 20
-544.202680703127
 30
-0.000000000000002
  0
SPLINE
  5
1DA
330
1F
100
AcDbEntity
  8
Predeterminado
100
AcDbSpline
210
0.0
220
0.0
230
1.0
 70
    24
 71
     2
 72
     6
 73
     3
 74
     0
 42
0.000000001
 43
0.0000000001
 40
878.6538690973413
 40
878.6538690973413
 40
878.6538690973413
 40
883.6538690973413
 40
883.6538690973413
 40
883.6538690973413
 10
58.83742733969395
 20
-544.202680703127
 30
-0.000000000000002
 10
58.83742733969395
 20
-546.7026807437561
 30
-0.0000000000000015
 10
58.83742733969395
 20
-549.2026807843852
 30
-0.000000000000001
  0
ENDSEC
  0
SECTION
  2
OBJECTS
  0
DICTIONARY
  5
C
330
0
100
AcDbDictionary
281
     1
  3
ACAD_DETAILVIEWSTYLE
350
220
  3
ACAD_GROUP
350
D
  3
ACAD_LAYOUT
350
1A
  3
ACAD_MATERIAL
350
43
  3
ACAD_MLEADERSTYLE
350
6B
  3
ACAD_MLINESTYLE
350
17
  3
ACAD_PLOTSETTINGS
350
19
  3
ACAD_PLOTSTYLENAME
350
E
  3
ACAD_SCALELIST
350
47
  3
ACAD_SECTIONVIEWSTYLE
350
221
  3
ACAD_TABLESTYLE
350
69
  3
ACAD_VISUALSTYLE
350
2A
  3
ACDB_RECOMPOSE_DATA
350
21D
  3
AcDbVariableDictionary
350
1DD
  0
DICTIONARY
  5
1DB
330
8
100
AcDbDictionary
280
     1
281
     1
  3
ACAD_XREC_ROUNDTRIP
360
1DC
  0
DICTIONARY
  5
220
102
{ACAD_REACTORS
330
C
102
}
330
C
100
AcDbDictionary
281
     1
  0
DICTIONARY
  5
D
102
{ACAD_REACTORS
330
C
102
}
330
C
100
AcDbDictionary
281
     1
  0
DICTIONARY
  5
1A
102
{ACAD_REACTORS
330
C
102
}
330
C
100
AcDbDictionary
281
     1
  3
Layout1
350
1E
  3
Layout2
350
26
  3
Model
350
22
  0
DICTIONARY
  5
43
102
{ACAD_REACTORS
330
C
102
}
330
C
100
AcDbDictionary
281
     1
  3
ByBlock
350
45
  3
ByLayer
350
44
  3
Global
350
46
  0
DICTIONARY
  5
6B
102
{ACAD_REACTORS
330
C
102
}
330
C
100
AcDbDictionary
281
     1
  3
Standard
350
6C
  0
DICTIONARY
  5
17
102
{ACAD_REACTORS
330
C
102
}
330
C
100
AcDbDictionary
281
     1
  3
Standard
350
18
  0
DICTIONARY
  5
19
102
{ACAD_REACTORS
330
C
102
}
330
C
100
AcDbDictionary
281
     1
  0
ACDBDICTIONARYWDFLT
  5
E
102
{ACAD_REACTORS
330
C
102
}
330
C
100
AcDbDictionary
281
     1
  3
Normal
350
F
100
AcDbDictionaryWithDefault
340
F
  0
DICTIONARY
  5
47
102
{ACAD_REACTORS
330
C
102
}
330
C
100
AcDbDictionary
281
     1
  3
A0
350
48
  3
A1
350
49
  3
A2
350
4A
  3
A3
350
4B
  3
A4
350
4C
  3
A5
350
4D
  3
A6
350
4E
  3
A7
350
4F
  3
A8
350
50
  3
A9
350
51
  3
B0
350
52
  3
B1
350
53
  3
B2
350
54
  3
B3
350
55
  3
B4
350
56
  3
B5
350
57
  3
B6
350
58
  3
B7
350
59
  3
B8
350
5A
  3
B9
350
5B
  3
C0
350
5C
  3
C1
350
5D
  3
C2
350
5E
  3
C3
350
5F
  3
C4
350
60
  3
C5
350
61
  3
C6
350
62
  3
C7
350
63
  3
C8
350
64
  3
C9
350
65
  3
D0
350
66
  3
D1
350
67
  3
D2
350
68
  0
DICTIONARY
  5
221
102
{ACAD_REACTORS
330
C
102
}
330
C
100
AcDbDictionary
281
     1
  0
DICTIONARY
  5
69
102
{ACAD_REACTORS
330
C
102
}
330
C
100
AcDbDictionary
281
     1
  3
Standard
350
6A
  0
DICTIONARY
  5
2A
102
{ACAD_REACTORS
330
C
102
}
330
C
100
AcDbDictionary
281
     1
  3
2dWireframe
350
2F
  3
Basic
350
32
  3
Brighten
350
36
  3
ColorChange
350
3A
  3
Conceptual
350
34
  3
Dim
350
35
  3
EdgeColorOff
350
3D
  3
Facepattern
350
39
  3
Flat
350
2B
  3
FlatWithEdges
350
2C
  3
Gouraud
350
2D
  3
GouraudWithEdges
350
2E
  3
Hidden
350
31
  3
JitterOff
350
3B
  3
Linepattern
350
38
  3
OverhangOff
350
3C
  3
Realistic
350
33
  3
Shaded
350
42
  3
Shaded with edges
350
41
  3
Shades of Gray
350
3E
  3
Sketchy
350
3F
  3
Thicken
350
37
  3
Wireframe
350
30
  3
X-Ray
350
40
  0
XRECORD
  5
21D
102
{ACAD_REACTORS
330
C
102
}
330
C
100
AcDbXrecord
280
     1
 90
        1
330
6A
  0
DICTIONARY
  5
1DD
102
{ACAD_REACTORS
330
C
102
}
330
C
100
AcDbDictionary
281
     1
  3
CANNOSCALE
350
1DE
  3
CMLEADERSTYLE
350
21F
  3
CTABLESTYLE
350
21E
  3
MSLTSCALE
350
1DF
  3
XCLIPFRAME
350
1E0
  0
XRECORD
  5
1DC
102
{ACAD_REACTORS
330
1DB
102
}
330
1DB
100
AcDbXrecord
280
     1
102
VTR_0.000_0.000_1.000_1.000_GRIDDISPLAY
 70
     3
102
VTR_0.000_0.000_1.000_1.000_GRIDMAJOR
 70
     5
102
VTR_0.000_0.000_1.000_1.000_DEFAULTLIGHTING
280
     1
102
VTR_0.000_0.000_1.000_1.000_DEFAULTLIGHTINGTYPE
 70
     1
102
VTR_0.000_0.000_1.000_1.000_BRIGHTNESS
141
0.0
102
VTR_0.000_0.000_1.000_1.000_CONTRAST
142
0.0
  0
LAYOUT
  5
1E
102
{ACAD_REACTORS
330
1A
102
}
330
1A
100
AcDbPlotSettings
  1

  2
none_device
  4

  6

 40
0.0
 41
0.0
 42
0.0
 43
0.0
 44
0.0
 45
0.0
 46
0.0
 47
0.0
 48
0.0
 49
0.0
140
0.0
141
0.0
142
1.0
143
1.0
 70
   688
 72
     0
 73
     0
 74
     5
  7

 75
    16
 76
     0
 77
     2
 78
   300
147
1.0
148
0.0
149
0.0
100
AcDbLayout
  1
Layout1
 70
     1
 71
     1
 10
0.0
 20
0.0
 11
12.0
 21
9.0
 12
0.0
 22
0.0
 32
0.0
 14
1.000000000000000E+20
 24
1.000000000000000E+20
 34
1.000000000000000E+20
 15
-1.000000000000000E+20
 25
-1.000000000000000E+20
 35
-1.000000000000000E+20
146
0.0
 13
0.0
 23
0.0
 33
0.0
 16
1.0
 26
0.0
 36
0.0
 17
0.0
 27
1.0
 37
0.0
 76
     0
330
1B
  0
LAYOUT
  5
26
102
{ACAD_REACTORS
330
1A
102
}
330
1A
100
AcDbPlotSettings
  1

  2
none_device
  4

  6

 40
0.0
 41
0.0
 42
0.0
 43
0.0
 44
0.0
 45
0.0
 46
0.0
 47
0.0
 48
0.0
 49
0.0
140
0.0
141
0.0
142
1.0
143
1.0
 70
   688
 72
     0
 73
     0
 74
     5
  7

 75
    16
 76
     0
 77
     2
 78
   300
147
1.0
148
0.0
149
0.0
100
AcDbLayout
  1
Layout2
 70
     1
 71
     2
 10
0.0
 20
0.0
 11
0.0
 21
0.0
 12
0.0
 22
0.0
 32
0.0
 14
0.0
 24
0.0
 34
0.0
 15
0.0
 25
0.0
 35
0.0
146
0.0
 13
0.0
 23
0.0
 33
0.0
 16
1.0
 26
0.0
 36
0.0
 17
0.0
 27
1.0
 37
0.0
 76
     0
330
23
  0
LAYOUT
  5
22
102
{ACAD_REACTORS
330
1A
102
}
330
1A
100
AcDbPlotSettings
  1

  2
none_device
  4
Letter_(8.50_x_11.00_Inches)
  6

 40
6.35
 41
6.35
 42
6.35000508
 43
6.35000508
 44
215.9
 45
279.4
 46
0.0
 47
0.0
 48
0.0
 49
0.0
140
0.0
141
0.0
142
1.0
143
1.0
 70
  1712
 72
     0
 73
     0
 74
     0
  7

 75
     0
 76
     0
 77
     2
 78
   300
147
1.0
148
0.0
149
0.0
100
AcDbLayout
  1
Model
 70
     1
 71
     0
 10
0.0
 20
0.0
 11
12.0
 21
9.0
 12
0.0
 22
0.0
 32
0.0
 14
-22.75171567889221
 24
-549.2026808656433
 34
-0.0000000000000071
 15
251.1825777506382
 25
-365.3431896909995
 35
0.0000000000000213
146
0.0
 13
0.0
 23
0.0
 33
0.0
 16
1.0
 26
0.0
 36
0.0
 17
0.0
 27
1.0
 37
0.0
 76
     0
330
1F
331
29
  0
MATERIAL
  5
45
102
{ACAD_REACTORS
330
43
102
}
102
{ACAD_XDICTIONARY
360
213
102
}
330
43
100
AcDbMaterial
  1
ByBlock
  0
MATERIAL
  5
44
102
{ACAD_REACTORS
330
43
102
}
102
{ACAD_XDICTIONARY
360
211
102
}
330
43
100
AcDbMaterial
  1
ByLayer
  0
MATERIAL
  5
46
102
{ACAD_REACTORS
330
43
102
}
102
{ACAD_XDICTIONARY
360
215
102
}
330
43
100
AcDbMaterial
  1
Global
  0
MLEADERSTYLE
  5
6C
102
{ACAD_REACTORS
330
6B
102
}
102
{ACAD_XDICTIONARY
360
21B
102
}
330
6B
100
AcDbMLeaderStyle
170
     2
171
     1
172
     0
 90
        2
 40
0.0
 41
0.0
173
     1
 91
-1056964608
340
14
 92
       -2
290
     1
 42
0.09
291
     1
 43
0.36
  3
Standard
341
0
 44
0.18
300

342
11
174
     1
178
     6
175
     1
176
     0
 93
-1056964608
 45
0.18
292
     0
297
     0
 46
0.18
343
0
 94
-1056964608
 47
1.0
 49
1.0
140
1.0
293
     1
141
0.0
294
     1
177
     0
142
1.0
295
     0
296
     0
143
0.125
1001
ACAD_MLEADERVER
1070
     2
  0
MLINESTYLE
  5
18
102
{ACAD_REACTORS
330
17
102
}
330
17
100
AcDbMlineStyle
  2
Standard
 70
     0
  3

 62
   256
 51
90.0
 52
90.0
 71
     2
 49
0.5
 62
   256
  6
BYLAYER
 49
-0.5
 62
   256
  6
BYLAYER
  0
ACDBPLACEHOLDER
  5
F
102
{ACAD_REACTORS
330
E
102
}
330
E
  0
SCALE
  5
48
102
{ACAD_REACTORS
330
47
102
}
330
47
100
AcDbScale
 70
     0
300
1:1
140
1.0
141
1.0
290
     1
  0
SCALE
  5
49
102
{ACAD_REACTORS
330
47
102
}
330
47
100
AcDbScale
 70
     0
300
1:2
140
1.0
141
2.0
290
     0
  0
SCALE
  5
4A
102
{ACAD_REACTORS
330
47
102
}
330
47
100
AcDbScale
 70
     0
300
1:4
140
1.0
141
4.0
290
     0
  0
SCALE
  5
4B
102
{ACAD_REACTORS
330
47
102
}
330
47
100
AcDbScale
 70
     0
300
1:5
140
1.0
141
5.0
290
     0
  0
SCALE
  5
4C
102
{ACAD_REACTORS
330
47
102
}
330
47
100
AcDbScale
 70
     0
300
1:8
140
1.0
141
8.0
290
     0
  0
SCALE
  5
4D
102
{ACAD_REACTORS
330
47
102
}
330
47
100
AcDbScale
 70
     0
300
1:10
140
1.0
141
10.0
290
     0
  0
SCALE
  5
4E
102
{ACAD_REACTORS
330
47
102
}
330
47
100
AcDbScale
 70
     0
300
1:16
140
1.0
141
16.0
290
     0
  0
SCALE
  5
4F
102
{ACAD_REACTORS
330
47
102
}
330
47
100
AcDbScale
 70
     0
300
1:20
140
1.0
141
20.0
290
     0
  0
SCALE
  5
50
102
{ACAD_REACTORS
330
47
102
}
330
47
100
AcDbScale
 70
     0
300
1:30
140
1.0
141
30.0
290
     0
  0
SCALE
  5
51
102
{ACAD_REACTORS
330
47
102
}
330
47
100
AcDbScale
 70
     0
300
1:40
140
1.0
141
40.0
290
     0
  0
SCALE
  5
52
102
{ACAD_REACTORS
330
47
102
}
330
47
100
AcDbScale
 70
     0
300
1:50
140
1.0
141
50.0
290
     0
  0
SCALE
  5
53
102
{ACAD_REACTORS
330
47
102
}
330
47
100
AcDbScale
 70
     0
300
1:100
140
1.0
141
100.0
290
     0
  0
SCALE
  5
54
102
{ACAD_REACTORS
330
47
102
}
330
47
100
AcDbScale
 70
     0
300
2:1
140
2.0
141
1.0
290
     0
  0
SCALE
  5
55
102
{ACAD_REACTORS
330
47
102
}
330
47
100
AcDbScale
 70
     0
300
4:1
140
4.0
141
1.0
290
     0
  0
SCALE
  5
56
102
{ACAD_REACTORS
330
47
102
}
330
47
100
AcDbScale
 70
     0
300
8:1
140
8.0
141
1.0
290
     0
  0
SCALE
  5
57
102
{ACAD_REACTORS
330
47
102
}
330
47
100
AcDbScale
 70
     0
300
10:1
140
10.0
141
1.0
290
     0
  0
SCALE
  5
58
102
{ACAD_REACTORS
330
47
102
}
330
47
100
AcDbScale
 70
     0
300
100:1
140
100.0
141
1.0
290
     0
  0
SCALE
  5
59
102
{ACAD_REACTORS
330
47
102
}
330
47
100
AcDbScale
 70
     0
300
1/128" = 1'-0"
140
0.0078125
141
12.0
290
     0
  0
SCALE
  5
5A
102
{ACAD_REACTORS
330
47
102
}
330
47
100
AcDbScale
 70
     0
300
1/64" = 1'-0"
140
0.015625
141
12.0
290
     0
  0
SCALE
  5
5B
102
{ACAD_REACTORS
330
47
102
}
330
47
100
AcDbScale
 70
     0
300
1/32" = 1'-0"
140
0.03125
141
12.0
290
     0
  0
SCALE
  5
5C
102
{ACAD_REACTORS
330
47
102
}
330
47
100
AcDbScale
 70
     0
300
1/16" = 1'-0"
140
0.0625
141
12.0
290
     0
  0
SCALE
  5
5D
102
{ACAD_REACTORS
330
47
102
}
330
47
100
AcDbScale
 70
     0
300
3/32" = 1'-0"
140
0.09375
141
12.0
290
     0
  0
SCALE
  5
5E
102
{ACAD_REACTORS
330
47
102
}
330
47
100
AcDbScale
 70
     0
300
1/8" = 1'-0"
140
0.125
141
12.0
290
     0
  0
SCALE
  5
5F
102
{ACAD_REACTORS
330
47
102
}
330
47
100
AcDbScale
 70
     0
300
3/16" = 1'-0"
140
0.1875
141
12.0
290
     0
  0
SCALE
  5
60
102
{ACAD_REACTORS
330
47
102
}
330
47
100
AcDbScale
 70
     0
300
1/4" = 1'-0"
140
0.25
141
12.0
290
     0
  0
SCALE
  5
61
102
{ACAD_REACTORS
330
47
102
}
330
47
100
AcDbScale
 70
     0
300
3/8" = 1'-0"
140
0.375
141
12.0
290
     0
  0
SCALE
  5
62
102
{ACAD_REACTORS
330
47
102
}
330
47
100
AcDbScale
 70
     0
300
1/2" = 1'-0"
140
0.5
141
12.0
290
     0
  0
SCALE
  5
63
102
{ACAD_REACTORS
330
47
102
}
330
47
100
AcDbScale
 70
     0
300
3/4" = 1'-0"
140
0.75
141
12.0
290
     0
  0
SCALE
  5
64
102
{ACAD_REACTORS
330
47
102
}
330
47
100
AcDbScale
 70
     0
300
1" = 1'-0"
140
1.0
141
12.0
290
     0
  0
SCALE
  5
65
102
{ACAD_REACTORS
330
47
102
}
330
47
100
AcDbScale
 70
     0
300
1-1/2" = 1'-0"
140
1.5
141
12.0
290
     0
  0
SCALE
  5
66
102
{ACAD_REACTORS
330
47
102
}
330
47
100
AcDbScale
 70
     0
300
3" = 1'-0"
140
3.0
141
12.0
290
     0
  0
SCALE
  5
67
102
{ACAD_REACTORS
330
47
102
}
330
47
100
AcDbScale
 70
     0
300
6" = 1'-0"
140
6.0
141
12.0
290
     0
  0
SCALE
  5
68
102
{ACAD_REACTORS
330
47
102
}
330
47
100
AcDbScale
 70
     0
300
1'-0" = 1'-0"
140
12.0
141
12.0
290
     0
  0
TABLESTYLE
  5
6A
102
{ACAD_REACTORS
330
69
102
}
102
{ACAD_XDICTIONARY
360
217
102
}
330
69
100
AcDbTableStyle
  3
Standard
 70
     0
 71
     0
 40
0.06
 41
0.06
280
     0
281
     0
  7
Standard
140
0.18
170
     2
 62
     0
 63
   257
283
     0
274
    -2
284
     1
 64
     0
275
    -2
285
     1
 65
     0
276
    -2
286
     1
 66
     0
277
    -2
287
     1
 67
     0
278
    -2
288
     1
 68
     0
279
    -2
289
     1
 69
     0
  7
Standard
140
0.25
170
     5
 62
     0
 63
   257
283
     0
274
    -2
284
     1
 64
     0
275
    -2
285
     1
 65
     0
276
    -2
286
     1
 66
     0
277
    -2
287
     1
 67
     0
278
    -2
288
     1
 68
     0
279
    -2
289
     1
 69
     0
  7
Standard
140
0.18
170
     5
 62
     0
 63
   257
283
     0
274
    -2
284
     1
 64
     0
275
    -2
285
     1
 65
     0
276
    -2
286
     1
 66
     0
277
    -2
287
     1
 67
     0
278
    -2
288
     1
 68
     0
279
    -2
289
     1
 69
     0
  0
VISUALSTYLE
  5
2F
102
{ACAD_REACTORS
330
2A
102
}
102
{ACAD_XDICTIONARY
360
1E9
102
}
330
2A
100
AcDbVisualStyle
  2
2dWireframe
 70
     4
 71
     0
 72
     2
 73
     0
 90
        0
 40
0.6
 41
30.0
 62
     5
 63
     7
421
 16777215
 74
     1
 91
        4
 64
     7
 65
   257
 75
     1
175
     1
 42
1.0
 92
        0
 66
   257
 43
1.0
 76
     1
 77
     6
 78
     2
 67
     7
 79
     5
170
     0
171
     0
290
     0
174
     0
 93
        1
 44
0.0
173
     0
291
     0
 45
0.0
1001
ACAD
1000
AcDbSavedByObjectVersion
1070
     0
  0
VISUALSTYLE
  5
32
102
{ACAD_REACTORS
330
2A
102
}
102
{ACAD_XDICTIONARY
360
1EF
102
}
330
2A
100
AcDbVisualStyle
  2
Basic
 70
     7
 71
     1
 72
     0
 73
     1
 90
        0
 40
0.6
 41
30.0
 62
     5
 63
     7
421
 16777215
 74
     0
 91
        4
 64
     7
 65
   257
 75
     1
175
     1
 42
1.0
 92
        8
 66
     7
 43
1.0
 76
     1
 77
     6
 78
     2
 67
     7
 79
     5
170
     0
171
     0
290
     0
174
     0
 93
        1
 44
0.0
173
     0
291
     1
 45
0.0
1001
ACAD
1000
AcDbSavedByObjectVersion
1070
     0
  0
VISUALSTYLE
  5
36
102
{ACAD_REACTORS
330
2A
102
}
102
{ACAD_XDICTIONARY
360
1F7
102
}
330
2A
100
AcDbVisualStyle
  2
Brighten
 70
    12
 71
     2
 72
     2
 73
     0
 90
        0
 40
0.6
 41
30.0
 62
     5
 63
     7
421
 16777215
 74
     1
 91
        4
 64
     7
 65
   257
 75
     1
175
     1
 42
1.0
 92
        8
 66
     7
 43
1.0
 76
     1
 77
     6
 78
     2
 67
     7
 79
     5
170
     0
171
     0
290
     0
174
     0
 93
        1
 44
50.0
173
     0
291
     1
 45
0.0
1001
ACAD
1000
AcDbSavedByObjectVersion
1070
     0
  0
VISUALSTYLE
  5
3A
102
{ACAD_REACTORS
330
2A
102
}
102
{ACAD_XDICTIONARY
360
1FF
102
}
330
2A
100
AcDbVisualStyle
  2
ColorChange
 70
    16
 71
     2
 72
     2
 73
     3
 90
        0
 40
0.6
 41
30.0
 62
     5
 63
     8
421
  8421504
 74
     1
 91
        4
 64
     7
 65
   257
 75
     1
175
     1
 42
1.0
 92
        8
 66
     8
424
  8421504
 43
1.0
 76
     1
 77
     6
 78
     2
 67
     7
 79
     5
170
     0
171
     0
290
     0
174
     0
 93
        1
 44
0.0
173
     0
291
     1
 45
0.0
1001
ACAD
1000
AcDbSavedByObjectVersion
1070
     0
  0
VISUALSTYLE
  5
34
102
{ACAD_REACTORS
330
2A
102
}
102
{ACAD_XDICTIONARY
360
1F3
102
}
330
2A
100
AcDbVisualStyle
  2
Conceptual
 70
     9
 71
     3
 72
     2
 73
     0
 90
        0
 40
0.6
 41
30.0
 62
     5
 63
     7
421
 16777215
 74
     2
 91
        2
 64
     7
 65
   257
 75
     1
175
     1
 42
179.0
 92
        8
 66
     7
 43
1.0
 76
     1
 77
     6
 78
     2
 67
     7
 79
     3
170
     0
171
     0
290
     0
174
     0
 93
        1
 44
0.0
173
     0
291
     0
 45
0.0
1001
ACAD
1000
AcDbSavedByObjectVersion
1070
     0
  0
VISUALSTYLE
  5
35
102
{ACAD_REACTORS
330
2A
102
}
102
{ACAD_XDICTIONARY
360
1F5
102
}
330
2A
100
AcDbVisualStyle
  2
Dim
 70
    11
 71
     2
 72
     2
 73
     0
 90
        0
 40
0.6
 41
30.0
 62
     5
 63
     7
421
 16777215
 74
     1
 91
        4
 64
     7
 65
   257
 75
     1
175
     1
 42
1.0
 92
        8
 66
     7
 43
1.0
 76
     1
 77
     6
 78
     2
 67
     7
 79
     5
170
     0
171
     0
290
     0
174
     0
 93
        1
 44
-50.0
173
     0
291
     1
 45
0.0
1001
ACAD
1000
AcDbSavedByObjectVersion
1070
     0
  0
VISUALSTYLE
  5
3D
102
{ACAD_REACTORS
330
2A
102
}
102
{ACAD_XDICTIONARY
360
205
102
}
330
2A
100
AcDbVisualStyle
  2
EdgeColorOff
 70
    22
 71
     2
 72
     2
 73
     0
 90
        0
 40
0.6
 41
30.0
 62
     5
 63
     7
421
 16777215
 74
     1
 91
        4
 64
     7
 65
   257
 75
     1
175
     1
 42
1.0
 92
        8
 66
     7
 43
1.0
 76
     1
 77
     6
 78
     2
 67
     7
 79
     5
170
     0
171
     0
290
     0
174
     0
 93
        1
 44
0.0
173
     0
291
     1
 45
0.0
1001
ACAD
1000
AcDbSavedByObjectVersion
1070
     0
  0
VISUALSTYLE
  5
39
102
{ACAD_REACTORS
330
2A
102
}
102
{ACAD_XDICTIONARY
360
1FD
102
}
330
2A
100
AcDbVisualStyle
  2
Facepattern
 70
    15
 71
     2
 72
     2
 73
     0
 90
        0
 40
0.6
 41
30.0
 62
     5
 63
     7
421
 16777215
 74
     1
 91
        4
 64
     7
 65
   257
 75
     1
175
     1
 42
1.0
 92
        8
 66
     7
 43
1.0
 76
     1
 77
     6
 78
     2
 67
     7
 79
     5
170
     0
171
     0
290
     0
174
     0
 93
        1
 44
0.0
173
     0
291
     1
 45
0.0
1001
ACAD
1000
AcDbSavedByObjectVersion
1070
     0
  0
VISUALSTYLE
  5
2B
102
{ACAD_REACTORS
330
2A
102
}
102
{ACAD_XDICTIONARY
360
1E1
102
}
330
2A
100
AcDbVisualStyle
  2
Flat
 70
     0
 71
     2
 72
     1
 73
     1
 90
        2
 40
0.6
 41
30.0
 62
     5
 63
     7
421
 16777215
 74
     0
 91
        0
 64
     7
 65
   257
 75
     1
175
     1
 42
1.0
 92
        8
 66
     7
 43
1.0
 76
     1
 77
     6
 78
     2
 67
     7
 79
     5
170
     0
171
     0
290
     0
174
     0
 93
       13
 44
0.0
173
     0
291
     1
 45
0.0
1001
ACAD
1000
AcDbSavedByObjectVersion
1070
     0
  0
VISUALSTYLE
  5
2C
102
{ACAD_REACTORS
330
2A
102
}
102
{ACAD_XDICTIONARY
360
1E3
102
}
330
2A
100
AcDbVisualStyle
  2
FlatWithEdges
 70
     1
 71
     2
 72
     1
 73
     1
 90
        2
 40
0.6
 41
30.0
 62
     5
 63
     7
421
 16777215
 74
     1
 91
        0
 64
     7
 65
   257
 75
     1
175
     1
 42
1.0
 92
        0
 66
   257
 43
1.0
 76
     1
 77
     6
 78
     2
 67
     7
 79
     5
170
     0
171
     0
290
     0
174
     0
 93
       13
 44
0.0
173
     0
291
     1
 45
0.0
1001
ACAD
1000
AcDbSavedByObjectVersion
1070
     0
  0
VISUALSTYLE
  5
2D
102
{ACAD_REACTORS
330
2A
102
}
102
{ACAD_XDICTIONARY
360
1E5
102
}
330
2A
100
AcDbVisualStyle
  2
Gouraud
 70
     2
 71
     2
 72
     2
 73
     1
 90
        2
 40
0.6
 41
30.0
 62
     5
 63
     7
421
 16777215
 74
     0
 91
        0
 64
     7
 65
   257
 75
     1
175
     1
 42
1.0
 92
        0
 66
     7
 43
1.0
 76
     1
 77
     6
 78
     2
 67
     7
 79
     5
170
     0
171
     0
290
     0
174
     0
 93
       13
 44
0.0
173
     0
291
     1
 45
0.0
1001
ACAD
1000
AcDbSavedByObjectVersion
1070
     0
  0
VISUALSTYLE
  5
2E
102
{ACAD_REACTORS
330
2A
102
}
102
{ACAD_XDICTIONARY
360
1E7
102
}
330
2A
100
AcDbVisualStyle
  2
GouraudWithEdges
 70
     3
 71
     2
 72
     2
 73
     1
 90
        2
 40
0.6
 41
30.0
 62
     5
 63
     7
421
 16777215
 74
     1
 91
        0
 64
     7
 65
   257
 75
     1
175
     1
 42
1.0
 92
        0
 66
   257
 43
1.0
 76
     1
 77
     6
 78
     2
 67
     7
 79
     5
170
     0
171
     0
290
     0
174
     0
 93
       13
 44
0.0
173
     0
291
     1
 45
0.0
1001
ACAD
1000
AcDbSavedByObjectVersion
1070
     0
  0
VISUALSTYLE
  5
31
102
{ACAD_REACTORS
330
2A
102
}
102
{ACAD_XDICTIONARY
360
1ED
102
}
330
2A
100
AcDbVisualStyle
  2
Hidden
 70
     6
 71
     1
 72
     2
 73
     2
 90
        0
 40
0.6
 41
30.0
 62
     5
 63
     7
421
 16777215
 74
     2
 91
        2
 64
     7
 65
   257
 75
     2
175
     1
 42
40.0
 92
        0
 66
   257
 43
1.0
 76
     1
 77
     6
 78
     2
 67
     7
 79
     3
170
     0
171
     0
290
     0
174
     0
 93
        1
 44
0.0
173
     0
291
     0
 45
0.0
1001
ACAD
1000
AcDbSavedByObjectVersion
1070
     0
  0
VISUALSTYLE
  5
3B
102
{ACAD_REACTORS
330
2A
102
}
102
{ACAD_XDICTIONARY
360
201
102
}
330
2A
100
AcDbVisualStyle
  2
JitterOff
 70
    20
 71
     2
 72
     2
 73
     0
 90
        0
 40
0.6
 41
30.0
 62
     5
 63
     7
421
 16777215
 74
     1
 91
        4
 64
     7
 65
   257
 75
     1
175
     1
 42
1.0
 92
       10
 66
     7
 43
1.0
 76
     1
 77
     6
 78
     2
 67
     7
 79
     5
170
     0
171
     0
290
     0
174
     0
 93
        1
 44
0.0
173
     0
291
     1
 45
0.0
1001
ACAD
1000
AcDbSavedByObjectVersion
1070
     0
  0
VISUALSTYLE
  5
38
102
{ACAD_REACTORS
330
2A
102
}
102
{ACAD_XDICTIONARY
360
1FB
102
}
330
2A
100
AcDbVisualStyle
  2
Linepattern
 70
    14
 71
     2
 72
     2
 73
     0
 90
        0
 40
0.6
 41
30.0
 62
     5
 63
     7
421
 16777215
 74
     1
 91
        4
 64
     7
 65
   257
 75
     7
175
     7
 42
1.0
 92
        8
 66
     7
 43
1.0
 76
     1
 77
     6
 78
     2
 67
     7
 79
     5
170
     0
171
     0
290
     0
174
     0
 93
        1
 44
0.0
173
     0
291
     1
 45
0.0
1001
ACAD
1000
AcDbSavedByObjectVersion
1070
     0
  0
VISUALSTYLE
  5
3C
102
{ACAD_REACTORS
330
2A
102
}
102
{ACAD_XDICTIONARY
360
203
102
}
330
2A
100
AcDbVisualStyle
  2
OverhangOff
 70
    21
 71
     2
 72
     2
 73
     0
 90
        0
 40
0.6
 41
30.0
 62
     5
 63
     7
421
 16777215
 74
     1
 91
        4
 64
     7
 65
   257
 75
     1
175
     1
 42
1.0
 92
        9
 66
     7
 43
1.0
 76
     1
 77
     6
 78
     2
 67
     7
 79
     5
170
     0
171
     0
290
     0
174
     0
 93
        1
 44
0.0
173
     0
291
     1
 45
0.0
1001
ACAD
1000
AcDbSavedByObjectVersion
1070
     0
  0
VISUALSTYLE
  5
33
102
{ACAD_REACTORS
330
2A
102
}
102
{ACAD_XDICTIONARY
360
1F1
102
}
330
2A
100
AcDbVisualStyle
  2
Realistic
 70
     8
 71
     2
 72
     3
 73
     0
 90
        2
 40
0.6
 41
30.0
 62
     5
 63
     7
421
 16777215
 74
     0
 91
        0
 64
     7
 65
   257
 75
     1
175
     1
 42
1.0
 92
        8
 66
   257
 43
1.0
 76
     1
 77
     6
 78
     2
 67
     7
 79
     3
170
     0
171
     0
290
     0
174
     0
 93
       13
 44
0.0
173
     0
291
     0
 45
0.0
1001
ACAD
1000
AcDbSavedByObjectVersion
1070
     0
  0
VISUALSTYLE
  5
42
102
{ACAD_REACTORS
330
2A
102
}
102
{ACAD_XDICTIONARY
360
20F
102
}
330
2A
100
AcDbVisualStyle
  2
Shaded
 70
    27
 71
     2
 72
     2
 73
     1
 90
        2
 40
0.6
 41
30.0
 62
     5
 63
     7
421
 16777215
 74
     0
 91
        4
 64
     7
 65
   257
 75
     1
175
     1
 42
1.0
 92
        8
 66
   257
 43
1.0
 76
     1
 77
     6
 78
     2
 67
     8
425
  7895160
 79
     3
170
     0
171
     0
290
     0
174
     0
 93
        5
 44
0.0
173
     0
291
     0
 45
0.0
1001
ACAD
1000
AcDbSavedByObjectVersion
1070
     0
  0
VISUALSTYLE
  5
41
102
{ACAD_REACTORS
330
2A
102
}
102
{ACAD_XDICTIONARY
360
20D
102
}
330
2A
100
AcDbVisualStyle
  2
Shaded with edges
 70
    26
 71
     2
 72
     2
 73
     1
 90
        2
 40
0.6
 41
30.0
 62
     5
 63
     7
421
 16777215
 74
     1
 91
       10
 64
     7
 65
   257
 75
     2
175
     1
 42
1.0
 92
        8
 66
   257
 43
1.0
 76
     1
 77
     6
 78
     2
 67
     7
 79
     3
170
     0
171
     0
290
     0
174
     0
 93
        5
 44
0.0
173
     0
291
     0
 45
0.0
1001
ACAD
1000
AcDbSavedByObjectVersion
1070
     0
  0
VISUALSTYLE
  5
3E
102
{ACAD_REACTORS
330
2A
102
}
102
{ACAD_XDICTIONARY
360
207
102
}
330
2A
100
AcDbVisualStyle
  2
Shades of Gray
 70
    23
 71
     2
 72
     2
 73
     3
 90
        0
 40
0.6
 41
30.0
 62
     5
 63
     7
421
 16777215
 74
     2
 91
        2
 64
     7
 65
     7
 75
     1
175
     1
 42
40.0
 92
        8
 66
     7
 43
1.0
 76
     1
 77
     6
 78
     2
 67
     7
 79
     3
170
     0
171
     0
290
     0
174
     0
 93
        1
 44
0.0
173
     0
291
     0
 45
0.0
1001
ACAD
1000
AcDbSavedByObjectVersion
1070
     0
  0
VISUALSTYLE
  5
3F
102
{ACAD_REACTORS
330
2A
102
}
102
{ACAD_XDICTIONARY
360
209
102
}
330
2A
100
AcDbVisualStyle
  2
Sketchy
 70
    24
 71
     1
 72
     2
 73
     2
 90
        0
 40
0.6
 41
30.0
 62
     5
 63
     7
421
 16777215
 74
     2
 91
        2
 64
     7
 65
     7
 75
     1
175
     1
 42
40.0
 92
       11
 66
     7
 43
1.0
 76
     1
 77
     6
 78
     2
 67
     7
 79
     6
170
     0
171
     0
290
     0
174
     0
 93
        1
 44
0.0
173
     0
291
     0
 45
0.0
1001
ACAD
1000
AcDbSavedByObjectVersion
1070
     0
  0
VISUALSTYLE
  5
37
102
{ACAD_REACTORS
330
2A
102
}
102
{ACAD_XDICTIONARY
360
1F9
102
}
330
2A
100
AcDbVisualStyle
  2
Thicken
 70
    13
 71
     2
 72
     2
 73
     0
 90
        0
 40
0.6
 41
30.0
 62
     5
 63
     7
421
 16777215
 74
     1
 91
        4
 64
     7
 65
   257
 75
     1
175
     1
 42
1.0
 92
       12
 66
     7
 43
1.0
 76
     1
 77
     6
 78
     2
 67
     7
 79
     5
170
     0
171
     0
290
     0
174
     0
 93
        1
 44
0.0
173
     0
291
     1
 45
0.0
1001
ACAD
1000
AcDbSavedByObjectVersion
1070
     0
  0
VISUALSTYLE
  5
30
102
{ACAD_REACTORS
330
2A
102
}
102
{ACAD_XDICTIONARY
360
1EB
102
}
330
2A
100
AcDbVisualStyle
  2
Wireframe
 70
     5
 71
     0
 72
     2
 73
     0
 90
        0
 40
0.6
 41
30.0
 62
     5
 63
     7
421
 16777215
 74
     1
 91
        4
 64
     7
 65
   257
 75
     1
175
     1
 42
1.0
 92
        0
 66
   257
 43
1.0
 76
     1
 77
     6
 78
     2
 67
     7
 79
     3
170
     0
171
     0
290
     0
174
     0
 93
        1
 44
0.0
173
     0
291
     0
 45
0.0
1001
ACAD
1000
AcDbSavedByObjectVersion
1070
     0
  0
VISUALSTYLE
  5
40
102
{ACAD_REACTORS
330
2A
102
}
102
{ACAD_XDICTIONARY
360
20B
102
}
330
2A
100
AcDbVisualStyle
  2
X-Ray
 70
    25
 71
     2
 72
     2
 73
     1
 90
        1
 40
0.5
 41
30.0
 62
     5
 63
     7
421
 16777215
 74
     1
 91
        0
 64
     7
 65
   257
 75
     1
175
     1
 42
1.0
 92
        8
 66
     7
 43
1.0
 76
     1
 77
     6
 78
     2
 67
     7
 79
     3
170
     0
171
     0
290
     0
174
     0
 93
       13
 44
0.0
173
     0
291
     0
 45
0.0
1001
ACAD
1000
AcDbSavedByObjectVersion
1070
     0
  0
DICTIONARYVAR
  5
1DE
102
{ACAD_REACTORS
330
1DD
102
}
330
1DD
100
DictionaryVariables
280
     0
  1
1:1
  0
DICTIONARYVAR
  5
21F
102
{ACAD_REACTORS
330
1DD
102
}
330
1DD
100
DictionaryVariables
280
     0
  1
Standard
  0
DICTIONARYVAR
  5
21E
102
{ACAD_REACTORS
330
1DD
102
}
330
1DD
100
DictionaryVariables
280
     0
  1
Standard
  0
DICTIONARYVAR
  5
1DF
102
{ACAD_REACTORS
330
1DD
102
}
330
1DD
100
DictionaryVariables
280
     0
  1
1
  0
DICTIONARYVAR
  5
1E0
102
{ACAD_REACTORS
330
1DD
102
}
330
1DD
100
DictionaryVariables
280
     0
  1
2
  0
DICTIONARY
  5
213
330
45
100
AcDbDictionary
280
     1
281
     1
  3
ACAD_XREC_ROUNDTRIP
360
214
  0
DICTIONARY
  5
211
330
44
100
AcDbDictionary
280
     1
281
     1
  3
ACAD_XREC_ROUNDTRIP
360
212
  0
DICTIONARY
  5
215
330
46
100
AcDbDictionary
280
     1
281
     1
  3
ACAD_XREC_ROUNDTRIP
360
216
  0
DICTIONARY
  5
21B
330
6C
100
AcDbDictionary
280
     1
281
     1
  3
ACAD_XREC_ROUNDTRIP
360
21C
  0
DICTIONARY
  5
217
330
6A
100
AcDbDictionary
280
     1
281
     1
  3
ACAD_ROUNDTRIP_2008_TABLESTYLE_CELLSTYLEMAP
360
219
  3
ACAD_XREC_ROUNDTRIP
360
218
  0
DICTIONARY
  5
1E9
330
2F
100
AcDbDictionary
280
     1
281
     1
  3
ACAD_XREC_ROUNDTRIP
360
1EA
  0
DICTIONARY
  5
1EF
330
32
100
AcDbDictionary
280
     1
281
     1
  3
ACAD_XREC_ROUNDTRIP
360
1F0
  0
DICTIONARY
  5
1F7
330
36
100
AcDbDictionary
280
     1
281
     1
  3
ACAD_XREC_ROUNDTRIP
360
1F8
  0
DICTIONARY
  5
1FF
330
3A
100
AcDbDictionary
280
     1
281
     1
  3
ACAD_XREC_ROUNDTRIP
360
200
  0
DICTIONARY
  5
1F3
330
34
100
AcDbDictionary
280
     1
281
     1
  3
ACAD_XREC_ROUNDTRIP
360
1F4
  0
DICTIONARY
  5
1F5
330
35
100
AcDbDictionary
280
     1
281
     1
  3
ACAD_XREC_ROUNDTRIP
360
1F6
  0
DICTIONARY
  5
205
330
3D
100
AcDbDictionary
280
     1
281
     1
  3
ACAD_XREC_ROUNDTRIP
360
206
  0
DICTIONARY
  5
1FD
330
39
100
AcDbDictionary
280
     1
281
     1
  3
ACAD_XREC_ROUNDTRIP
360
1FE
  0
DICTIONARY
  5
1E1
330
2B
100
AcDbDictionary
280
     1
281
     1
  3
ACAD_XREC_ROUNDTRIP
360
1E2
  0
DICTIONARY
  5
1E3
330
2C
100
AcDbDictionary
280
     1
281
     1
  3
ACAD_XREC_ROUNDTRIP
360
1E4
  0
DICTIONARY
  5
1E5
330
2D
100
AcDbDictionary
280
     1
281
     1
  3
ACAD_XREC_ROUNDTRIP
360
1E6
  0
DICTIONARY
  5
1E7
330
2E
100
AcDbDictionary
280
     1
281
     1
  3
ACAD_XREC_ROUNDTRIP
360
1E8
  0
DICTIONARY
  5
1ED
330
31
100
AcDbDictionary
280
     1
281
     1
  3
ACAD_XREC_ROUNDTRIP
360
1EE
  0
DICTIONARY
  5
201
330
3B
100
AcDbDictionary
280
     1
281
     1
  3
ACAD_XREC_ROUNDTRIP
360
202
  0
DICTIONARY
  5
1FB
330
38
100
AcDbDictionary
280
     1
281
     1
  3
ACAD_XREC_ROUNDTRIP
360
1FC
  0
DICTIONARY
  5
203
330
3C
100
AcDbDictionary
280
     1
281
     1
  3
ACAD_XREC_ROUNDTRIP
360
204
  0
DICTIONARY
  5
1F1
330
33
100
AcDbDictionary
280
     1
281
     1
  3
ACAD_XREC_ROUNDTRIP
360
1F2
  0
DICTIONARY
  5
20F
330
42
100
AcDbDictionary
280
     1
281
     1
  3
ACAD_XREC_ROUNDTRIP
360
210
  0
DICTIONARY
  5
20D
330
41
100
AcDbDictionary
280
     1
281
     1
  3
ACAD_XREC_ROUNDTRIP
360
20E
  0
DICTIONARY
  5
207
330
3E
100
AcDbDictionary
280
     1
281
     1
  3
ACAD_XREC_ROUNDTRIP
360
208
  0
DICTIONARY
  5
209
330
3F
100
AcDbDictionary
280
     1
281
     1
  3
ACAD_XREC_ROUNDTRIP
360
20A
  0
DICTIONARY
  5
1F9
330
37
100
AcDbDictionary
280
     1
281
     1
  3
ACAD_XREC_ROUNDTRIP
360
1FA
  0
DICTIONARY
  5
1EB
330
30
100
AcDbDictionary
280
     1
281
     1
  3
ACAD_XREC_ROUNDTRIP
360
1EC
  0
DICTIONARY
  5
20B
330
40
100
AcDbDictionary
280
     1
281
     1
  3
ACAD_XREC_ROUNDTRIP
360
20C
  0
XRECORD
  5
214
102
{ACAD_REACTORS
330
213
102
}
330
213
100
AcDbXrecord
280
     1
102
MATERIAL
148
0.0
149
0.0
149
0.0
 93
        0
 94
      127
282
     0
 72
     1
 77
     1
171
     1
175
     1
179
     1
273
     0
  0
XRECORD
  5
212
102
{ACAD_REACTORS
330
211
102
}
330
211
100
AcDbXrecord
280
     1
102
MATERIAL
148
0.0
149
0.0
149
0.0
 93
        0
 94
      127
282
     0
 72
     1
 77
     1
171
     1
175
     1
179
     1
273
     0
  0
XRECORD
  5
216
102
{ACAD_REACTORS
330
215
102
}
330
215
100
AcDbXrecord
280
     1
102
MATERIAL
148
0.0
149
0.0
149
0.0
 93
        0
 94
      127
282
     0
 72
     1
 77
     1
171
     1
175
     1
179
     1
273
     0
  0
XRECORD
  5
21C
102
{ACAD_REACTORS
330
21B
102
}
330
21B
100
AcDbXrecord
280
     1
102
ACAD_ROUNDTRIP_2010_MLEADER_STYLE
  0
CELLSTYLEMAP
  5
219
102
{ACAD_REACTORS
330
217
102
}
330
217
100
AcDbCellStyleMap
 90
        3
300
CELLSTYLE
  1
TABLEFORMAT_BEGIN
 90
        5
170
     1
 91
        0
 92
    32768
 62
   257
 93
        1
300
CONTENTFORMAT
  1
CONTENTFORMAT_BEGIN
 90
        0
 91
        0
 92
        4
 93
        0
300

 40
0.0
140
1.0
 94
        5
 62
     0
340
11
144
0.25
309
CONTENTFORMAT_END
171
     1
301
MARGIN
  1
CELLMARGIN_BEGIN
 40
0.06
 40
0.06
 40
0.06
 40
0.06
 40
0.06
 40
0.06
309
CELLMARGIN_END
 94
        6
 95
        1
302
GRIDFORMAT
  1
GRIDFORMAT_BEGIN
 90
        0
 91
        1
 62
     0
 92
       -2
340
14
 93
        0
 40
0.045
309
GRIDFORMAT_END
 95
        2
302
GRIDFORMAT
  1
GRIDFORMAT_BEGIN
 90
        0
 91
        1
 62
     0
 92
       -2
340
14
 93
        0
 40
0.045
309
GRIDFORMAT_END
 95
        4
302
GRIDFORMAT
  1
GRIDFORMAT_BEGIN
 90
        0
 91
        1
 62
     0
 92
       -2
340
14
 93
        0
 40
0.045
309
GRIDFORMAT_END
 95
        8
302
GRIDFORMAT
  1
GRIDFORMAT_BEGIN
 90
        0
 91
        1
 62
     0
 92
       -2
340
14
 93
        0
 40
0.045
309
GRIDFORMAT_END
 95
       16
302
GRIDFORMAT
  1
GRIDFORMAT_BEGIN
 90
        0
 91
        1
 62
     0
 92
       -2
340
14
 93
        0
 40
0.045
309
GRIDFORMAT_END
 95
       32
302
GRIDFORMAT
  1
GRIDFORMAT_BEGIN
 90
        0
 91
        1
 62
     0
 92
       -2
340
14
 93
        0
 40
0.045
309
GRIDFORMAT_END
309
TABLEFORMAT_END
  1
CELLSTYLE_BEGIN
 90
        1
 91
        1
300
_TITLE
309
CELLSTYLE_END
300
CELLSTYLE
  1
TABLEFORMAT_BEGIN
 90
        5
170
     1
 91
        0
 92
        0
 62
   257
 93
        1
300
CONTENTFORMAT
  1
CONTENTFORMAT_BEGIN
 90
        0
 91
        0
 92
        4
 93
        0
300

 40
0.0
140
1.0
 94
        5
 62
     0
340
11
144
0.18
309
CONTENTFORMAT_END
171
     1
301
MARGIN
  1
CELLMARGIN_BEGIN
 40
0.06
 40
0.06
 40
0.06
 40
0.06
 40
0.06
 40
0.06
309
CELLMARGIN_END
 94
        6
 95
        1
302
GRIDFORMAT
  1
GRIDFORMAT_BEGIN
 90
        0
 91
        1
 62
     0
 92
       -2
340
14
 93
        0
 40
0.045
309
GRIDFORMAT_END
 95
        2
302
GRIDFORMAT
  1
GRIDFORMAT_BEGIN
 90
        0
 91
        1
 62
     0
 92
       -2
340
14
 93
        0
 40
0.045
309
GRIDFORMAT_END
 95
        4
302
GRIDFORMAT
  1
GRIDFORMAT_BEGIN
 90
        0
 91
        1
 62
     0
 92
       -2
340
14
 93
        0
 40
0.045
309
GRIDFORMAT_END
 95
        8
302
GRIDFORMAT
  1
GRIDFORMAT_BEGIN
 90
        0
 91
        1
 62
     0
 92
       -2
340
14
 93
        0
 40
0.045
309
GRIDFORMAT_END
 95
       16
302
GRIDFORMAT
  1
GRIDFORMAT_BEGIN
 90
        0
 91
        1
 62
     0
 92
       -2
340
14
 93
        0
 40
0.045
309
GRIDFORMAT_END
 95
       32
302
GRIDFORMAT
  1
GRIDFORMAT_BEGIN
 90
        0
 91
        1
 62
     0
 92
       -2
340
14
 93
        0
 40
0.045
309
GRIDFORMAT_END
309
TABLEFORMAT_END
  1
CELLSTYLE_BEGIN
 90
        2
 91
        1
300
_HEADER
309
CELLSTYLE_END
300
CELLSTYLE
  1
TABLEFORMAT_BEGIN
 90
        5
170
     1
 91
        0
 92
        0
 62
   257
 93
        1
300
CONTENTFORMAT
  1
CONTENTFORMAT_BEGIN
 90
        0
 91
        0
 92
        4
 93
        0
300

 40
0.0
140
1.0
 94
        2
 62
     0
340
11
144
0.18
309
CONTENTFORMAT_END
171
     1
301
MARGIN
  1
CELLMARGIN_BEGIN
 40
0.06
 40
0.06
 40
0.06
 40
0.06
 40
0.06
 40
0.06
309
CELLMARGIN_END
 94
        6
 95
        1
302
GRIDFORMAT
  1
GRIDFORMAT_BEGIN
 90
        0
 91
        1
 62
     0
 92
       -2
340
14
 93
        0
 40
0.045
309
GRIDFORMAT_END
 95
        2
302
GRIDFORMAT
  1
GRIDFORMAT_BEGIN
 90
        0
 91
        1
 62
     0
 92
       -2
340
14
 93
        0
 40
0.045
309
GRIDFORMAT_END
 95
        4
302
GRIDFORMAT
  1
GRIDFORMAT_BEGIN
 90
        0
 91
        1
 62
     0
 92
       -2
340
14
 93
        0
 40
0.045
309
GRIDFORMAT_END
 95
        8
302
GRIDFORMAT
  1
GRIDFORMAT_BEGIN
 90
        0
 91
        1
 62
     0
 92
       -2
340
14
 93
        0
 40
0.045
309
GRIDFORMAT_END
 95
       16
302
GRIDFORMAT
  1
GRIDFORMAT_BEGIN
 90
        0
 91
        1
 62
     0
 92
       -2
340
14
 93
        0
 40
0.045
309
GRIDFORMAT_END
 95
       32
302
GRIDFORMAT
  1
GRIDFORMAT_BEGIN
 90
        0
 91
        1
 62
     0
 92
       -2
340
14
 93
        0
 40
0.045
309
GRIDFORMAT_END
309
TABLEFORMAT_END
  1
CELLSTYLE_BEGIN
 90
        3
 91
        2
300
_DATA
309
CELLSTYLE_END
  0
XRECORD
  5
218
102
{ACAD_REACTORS
330
217
102
}
330
217
100
AcDbXrecord
280
     1
102
ACAD_ROUNDTRIP_PRE2007_TABLESTYLE
 90
        4
 91
        0
  1

 92
        4
 93
        0
  2

 94
        4
 95
        0
  3

  0
XRECORD
  5
1EA
102
{ACAD_REACTORS
330
1E9
102
}
330
1E9
100
AcDbXrecord
280
     1
102
RTVSPropertyOp0
 70
     1
102
RTVSPropertyOp1
 70
     1
102
RTVSPropertyOp2
 70
     1
102
RTVSPropertyOp3
 70
     1
102
RTVSPropertyOp4
 70
     1
102
RTVSPropertyOp5
 70
     1
102
RTVSPropertyOp6
 70
     1
102
RTVSPropertyOp7
 70
     1
102
RTVSPropertyOp8
 70
     1
102
RTVSPropertyOp9
 70
     1
102
RTVSPropertyOp10
 70
     1
102
RTVSPropertyOp11
 70
     1
102
RTVSPropertyOp12
 70
     1
102
RTVSPropertyOp13
 70
     1
102
RTVSPropertyOp14
 70
     1
102
RTVSPropertyOp15
 70
     1
102
RTVSPropertyOp16
 70
     1
102
RTVSPropertyOp17
 70
     1
102
RTVSPropertyOp18
 70
     1
102
RTVSPropertyOp19
 70
     1
102
RTVSPropertyOp20
 70
     1
102
RTVSPropertyOp21
 70
     1
102
RTVSPropertyOp22
 70
     1
102
RTVSPropertyOp23
 70
     1
102
RTVSPropertyOp24
 70
     1
102
RTVSPropertyOp25
 70
     1
102
RTVSPropertyOp26
 70
     1
102
RTVSPropertyOp27
 70
     1
102
RTVSPropertyOp28
 70
     1
102
RTVSPropertyOp29
 70
     1
102
RTVSPropertyOp30
 70
     1
102
RTVSPropertyOp31
 70
     1
102
RTVSPropertyOp32
 70
     1
102
RTVSPropertyOp33
 70
     1
102
RTVSPropertyOp34
 70
     1
102
RTVSPropertyOp35
 70
     1
102
RTVSPropertyOp36
 70
     1
102
RTVSPropertyOp37
 70
     1
102
RTVSPropertyOp38
 70
     1
102
RTVSPropertyOp39
 70
     1
102
RTVSPropertyOp40
 70
     1
102
RTVSPropertyOp41
 70
     1
102
RTVSPropertyOp42
 70
     1
102
RTVSPropertyOp43
 70
     1
102
RTVSPropertyOp44
 70
     1
102
RTVSPropertyOp45
 70
     1
102
RTVSPropertyOp46
 70
     1
102
RTVSPropertyOp47
 70
     1
102
RTVSPropertyOp48
 70
     1
102
RTVSPropertyOp49
 70
     1
102
RTVSPropertyOp50
 70
     1
102
RTVSPropertyOp51
 70
     0
102
RTVSPropertyOp52
 70
     0
102
RTVSPropertyOp53
 70
     1
102
RTVSPropertyOp54
 70
     1
102
RTVSPropertyOp55
 70
     1
102
RTVSPropertyOp56
 70
     1
102
RTVSPropertyOp57
 70
     1
102
RTVSPost2010Prop28
280
     1
102
RTVSPost2010PropOp28
 70
     1
102
RTVSPost2010Prop29
280
     1
102
RTVSPost2010PropOp29
 70
     1
102
RTVSPost2010Prop30
280
     0
102
RTVSPost2010PropOp30
 70
     1
102
RTVSPost2010Prop31
280
     0
102
RTVSPost2010PropOp31
 70
     1
102
RTVSPost2010Prop32
280
     0
102
RTVSPost2010PropOp32
 70
     1
102
RTVSPost2010Prop33
280
     0
102
RTVSPost2010PropOp33
 70
     1
102
RTVSPost2010Prop34
280
     0
102
RTVSPost2010PropOp34
 70
     1
102
RTVSPost2010Prop35
280
     0
102
RTVSPost2010PropOp35
 70
     1
102
RTVSPost2010Prop36
280
     0
102
RTVSPost2010PropOp36
 70
     1
102
RTVSPost2010Prop37
 90
       50
102
RTVSPost2010PropOp37
 70
     1
102
RTVSPost2010Prop38
140
0.0
102
RTVSPost2010PropOp38
 70
     1
102
RTVSPost2010Prop39
140
1.0
102
RTVSPost2010PropOp39
 70
     1
102
RTVSPost2010Prop40
 90
        0
102
RTVSPost2010PropOp40
 70
     1
102
RTVSPost2010Prop41ColorIndex
 90
       18
102
RTVSPost2010Prop41ColorRGB
 90
        0
102
RTVSPost2010PropOp41
 70
     1
102
RTVSPost2010Prop42
 90
       50
102
RTVSPost2010PropOp42
 70
     1
102
RTVSPost2010Prop43
 90
        3
102
RTVSPost2010PropOp43
 70
     1
102
RTVSPost2010Prop44ColorIndex
 90
        5
102
RTVSPost2010Prop44ColorRGB
 90
      255
102
RTVSPost2010PropOp44
 70
     1
102
RTVSPost2010Prop45
280
     0
102
RTVSPost2010PropOp45
 70
     1
102
RTVSPost2010Prop46
 90
       50
102
RTVSPost2010PropOp46
 70
     1
102
RTVSPost2010Prop47
 90
       50
102
RTVSPost2010PropOp47
 70
     1
102
RTVSPost2010Prop48
 90
       50
102
RTVSPost2010PropOp48
 70
     1
102
RTVSPost2010Prop49
280
     0
102
RTVSPost2010PropOp49
 70
     1
102
RTVSPost2010Prop50
 90
       50
102
RTVSPost2010PropOp50
 70
     1
102
RTVSPost2010Prop51ColorIndex
 90
      256
102
RTVSPost2010Prop51ColorRGB
 90
-16777216
102
RTVSPost2010PropOp51
 70
     0
102
RTVSPost2010Prop52
140
1.0
102
RTVSPost2010PropOp52
 70
     0
102
RTVSPost2010Prop53
 90
        2
102
RTVSPost2010PropOp53
 70
     1
102
RTVSPost2010Prop54
  1
strokes_ogs.tif
102
RTVSPost2010PropOp54
 70
     1
102
RTVSPost2010Prop55
280
     0
102
RTVSPost2010PropOp55
 70
     1
102
RTVSPost2010Prop56
140
1.0
102
RTVSPost2010PropOp56
 70
     1
102
RTVSPost2010Prop57
140
1.0
102
RTVSPost2010PropOp57
 70
     1
  0
XRECORD
  5
1F0
102
{ACAD_REACTORS
330
1EF
102
}
330
1EF
100
AcDbXrecord
280
     1
102
RTVSPropertyOp0
 70
     1
102
RTVSPropertyOp1
 70
     1
102
RTVSPropertyOp2
 70
     1
102
RTVSPropertyOp3
 70
     1
102
RTVSPropertyOp4
 70
     1
102
RTVSPropertyOp5
 70
     1
102
RTVSPropertyOp6
 70
     1
102
RTVSPropertyOp7
 70
     1
102
RTVSPropertyOp8
 70
     1
102
RTVSPropertyOp9
 70
     1
102
RTVSPropertyOp10
 70
     1
102
RTVSPropertyOp11
 70
     1
102
RTVSPropertyOp12
 70
     1
102
RTVSPropertyOp13
 70
     1
102
RTVSPropertyOp14
 70
     1
102
RTVSPropertyOp15
 70
     1
102
RTVSPropertyOp16
 70
     1
102
RTVSPropertyOp17
 70
     1
102
RTVSPropertyOp18
 70
     1
102
RTVSPropertyOp19
 70
     1
102
RTVSPropertyOp20
 70
     1
102
RTVSPropertyOp21
 70
     1
102
RTVSPropertyOp22
 70
     1
102
RTVSPropertyOp23
 70
     1
102
RTVSPropertyOp24
 70
     1
102
RTVSPropertyOp25
 70
     1
102
RTVSPropertyOp26
 70
     1
102
RTVSPropertyOp27
 70
     1
102
RTVSPropertyOp28
 70
     1
102
RTVSPropertyOp29
 70
     1
102
RTVSPropertyOp30
 70
     1
102
RTVSPropertyOp31
 70
     1
102
RTVSPropertyOp32
 70
     1
102
RTVSPropertyOp33
 70
     1
102
RTVSPropertyOp34
 70
     1
102
RTVSPropertyOp35
 70
     1
102
RTVSPropertyOp36
 70
     1
102
RTVSPropertyOp37
 70
     1
102
RTVSPropertyOp38
 70
     1
102
RTVSPropertyOp39
 70
     1
102
RTVSPropertyOp40
 70
     1
102
RTVSPropertyOp41
 70
     1
102
RTVSPropertyOp42
 70
     1
102
RTVSPropertyOp43
 70
     1
102
RTVSPropertyOp44
 70
     1
102
RTVSPropertyOp45
 70
     1
102
RTVSPropertyOp46
 70
     1
102
RTVSPropertyOp47
 70
     1
102
RTVSPropertyOp48
 70
     1
102
RTVSPropertyOp49
 70
     1
102
RTVSPropertyOp50
 70
     1
102
RTVSPropertyOp51
 70
     0
102
RTVSPropertyOp52
 70
     0
102
RTVSPropertyOp53
 70
     1
102
RTVSPropertyOp54
 70
     1
102
RTVSPropertyOp55
 70
     1
102
RTVSPropertyOp56
 70
     1
102
RTVSPropertyOp57
 70
     1
102
RTVSPost2010Prop28
280
     0
102
RTVSPost2010PropOp28
 70
     1
102
RTVSPost2010Prop29
280
     1
102
RTVSPost2010PropOp29
 70
     1
102
RTVSPost2010Prop30
280
     1
102
RTVSPost2010PropOp30
 70
     1
102
RTVSPost2010Prop31
280
     0
102
RTVSPost2010PropOp31
 70
     1
102
RTVSPost2010Prop32
280
     0
102
RTVSPost2010PropOp32
 70
     1
102
RTVSPost2010Prop33
280
     0
102
RTVSPost2010PropOp33
 70
     1
102
RTVSPost2010Prop34
280
     0
102
RTVSPost2010PropOp34
 70
     1
102
RTVSPost2010Prop35
280
     0
102
RTVSPost2010PropOp35
 70
     1
102
RTVSPost2010Prop36
280
     0
102
RTVSPost2010PropOp36
 70
     1
102
RTVSPost2010Prop37
 90
       50
102
RTVSPost2010PropOp37
 70
     1
102
RTVSPost2010Prop38
140
0.0
102
RTVSPost2010PropOp38
 70
     1
102
RTVSPost2010Prop39
140
1.0
102
RTVSPost2010PropOp39
 70
     1
102
RTVSPost2010Prop40
 90
        0
102
RTVSPost2010PropOp40
 70
     1
102
RTVSPost2010Prop41ColorIndex
 90
       18
102
RTVSPost2010Prop41ColorRGB
 90
        0
102
RTVSPost2010PropOp41
 70
     1
102
RTVSPost2010Prop42
 90
       50
102
RTVSPost2010PropOp42
 70
     1
102
RTVSPost2010Prop43
 90
        3
102
RTVSPost2010PropOp43
 70
     1
102
RTVSPost2010Prop44ColorIndex
 90
        5
102
RTVSPost2010Prop44ColorRGB
 90
      255
102
RTVSPost2010PropOp44
 70
     1
102
RTVSPost2010Prop45
280
     0
102
RTVSPost2010PropOp45
 70
     1
102
RTVSPost2010Prop46
 90
       50
102
RTVSPost2010PropOp46
 70
     1
102
RTVSPost2010Prop47
 90
       50
102
RTVSPost2010PropOp47
 70
     1
102
RTVSPost2010Prop48
 90
       50
102
RTVSPost2010PropOp48
 70
     1
102
RTVSPost2010Prop49
280
     0
102
RTVSPost2010PropOp49
 70
     1
102
RTVSPost2010Prop50
 90
       50
102
RTVSPost2010PropOp50
 70
     1
102
RTVSPost2010Prop51ColorIndex
 90
      256
102
RTVSPost2010Prop51ColorRGB
 90
-16777216
102
RTVSPost2010PropOp51
 70
     0
102
RTVSPost2010Prop52
140
1.0
102
RTVSPost2010PropOp52
 70
     0
102
RTVSPost2010Prop53
 90
        2
102
RTVSPost2010PropOp53
 70
     1
102
RTVSPost2010Prop54
  1
strokes_ogs.tif
102
RTVSPost2010PropOp54
 70
     1
102
RTVSPost2010Prop55
280
     0
102
RTVSPost2010PropOp55
 70
     1
102
RTVSPost2010Prop56
140
1.0
102
RTVSPost2010PropOp56
 70
     1
102
RTVSPost2010Prop57
140
1.0
102
RTVSPost2010PropOp57
 70
     1
  0
XRECORD
  5
1F8
102
{ACAD_REACTORS
330
1F7
102
}
330
1F7
100
AcDbXrecord
280
     1
102
RTVSPropertyOp0
 70
     1
102
RTVSPropertyOp1
 70
     1
102
RTVSPropertyOp2
 70
     1
102
RTVSPropertyOp3
 70
     1
102
RTVSPropertyOp4
 70
     1
102
RTVSPropertyOp5
 70
     1
102
RTVSPropertyOp6
 70
     1
102
RTVSPropertyOp7
 70
     1
102
RTVSPropertyOp8
 70
     1
102
RTVSPropertyOp9
 70
     1
102
RTVSPropertyOp10
 70
     1
102
RTVSPropertyOp11
 70
     1
102
RTVSPropertyOp12
 70
     1
102
RTVSPropertyOp13
 70
     1
102
RTVSPropertyOp14
 70
     1
102
RTVSPropertyOp15
 70
     1
102
RTVSPropertyOp16
 70
     1
102
RTVSPropertyOp17
 70
     1
102
RTVSPropertyOp18
 70
     1
102
RTVSPropertyOp19
 70
     1
102
RTVSPropertyOp20
 70
     1
102
RTVSPropertyOp21
 70
     1
102
RTVSPropertyOp22
 70
     1
102
RTVSPropertyOp23
 70
     1
102
RTVSPropertyOp24
 70
     1
102
RTVSPropertyOp25
 70
     1
102
RTVSPropertyOp26
 70
     1
102
RTVSPropertyOp27
 70
     1
102
RTVSPropertyOp28
 70
     1
102
RTVSPropertyOp29
 70
     1
102
RTVSPropertyOp30
 70
     1
102
RTVSPropertyOp31
 70
     1
102
RTVSPropertyOp32
 70
     1
102
RTVSPropertyOp33
 70
     1
102
RTVSPropertyOp34
 70
     1
102
RTVSPropertyOp35
 70
     1
102
RTVSPropertyOp36
 70
     1
102
RTVSPropertyOp37
 70
     1
102
RTVSPropertyOp38
 70
     1
102
RTVSPropertyOp39
 70
     1
102
RTVSPropertyOp40
 70
     1
102
RTVSPropertyOp41
 70
     1
102
RTVSPropertyOp42
 70
     1
102
RTVSPropertyOp43
 70
     1
102
RTVSPropertyOp44
 70
     1
102
RTVSPropertyOp45
 70
     1
102
RTVSPropertyOp46
 70
     1
102
RTVSPropertyOp47
 70
     1
102
RTVSPropertyOp48
 70
     1
102
RTVSPropertyOp49
 70
     1
102
RTVSPropertyOp50
 70
     1
102
RTVSPropertyOp51
 70
     0
102
RTVSPropertyOp52
 70
     0
102
RTVSPropertyOp53
 70
     1
102
RTVSPropertyOp54
 70
     1
102
RTVSPropertyOp55
 70
     1
102
RTVSPropertyOp56
 70
     1
102
RTVSPropertyOp57
 70
     1
102
RTVSPost2010Prop28
280
     0
102
RTVSPost2010PropOp28
 70
     1
102
RTVSPost2010Prop29
280
     1
102
RTVSPost2010PropOp29
 70
     1
102
RTVSPost2010Prop30
280
     1
102
RTVSPost2010PropOp30
 70
     1
102
RTVSPost2010Prop31
280
     0
102
RTVSPost2010PropOp31
 70
     1
102
RTVSPost2010Prop32
280
     0
102
RTVSPost2010PropOp32
 70
     1
102
RTVSPost2010Prop33
280
     0
102
RTVSPost2010PropOp33
 70
     1
102
RTVSPost2010Prop34
280
     0
102
RTVSPost2010PropOp34
 70
     1
102
RTVSPost2010Prop35
280
     0
102
RTVSPost2010PropOp35
 70
     1
102
RTVSPost2010Prop36
280
     0
102
RTVSPost2010PropOp36
 70
     1
102
RTVSPost2010Prop37
 90
       50
102
RTVSPost2010PropOp37
 70
     1
102
RTVSPost2010Prop38
140
0.0
102
RTVSPost2010PropOp38
 70
     1
102
RTVSPost2010Prop39
140
1.0
102
RTVSPost2010PropOp39
 70
     1
102
RTVSPost2010Prop40
 90
        0
102
RTVSPost2010PropOp40
 70
     1
102
RTVSPost2010Prop41ColorIndex
 90
       18
102
RTVSPost2010Prop41ColorRGB
 90
        0
102
RTVSPost2010PropOp41
 70
     1
102
RTVSPost2010Prop42
 90
       50
102
RTVSPost2010PropOp42
 70
     1
102
RTVSPost2010Prop43
 90
        3
102
RTVSPost2010PropOp43
 70
     1
102
RTVSPost2010Prop44ColorIndex
 90
        5
102
RTVSPost2010Prop44ColorRGB
 90
      255
102
RTVSPost2010PropOp44
 70
     1
102
RTVSPost2010Prop45
280
     0
102
RTVSPost2010PropOp45
 70
     1
102
RTVSPost2010Prop46
 90
       50
102
RTVSPost2010PropOp46
 70
     1
102
RTVSPost2010Prop47
 90
       50
102
RTVSPost2010PropOp47
 70
     1
102
RTVSPost2010Prop48
 90
       50
102
RTVSPost2010PropOp48
 70
     1
102
RTVSPost2010Prop49
280
     0
102
RTVSPost2010PropOp49
 70
     1
102
RTVSPost2010Prop50
 90
       50
102
RTVSPost2010PropOp50
 70
     1
102
RTVSPost2010Prop51ColorIndex
 90
      256
102
RTVSPost2010Prop51ColorRGB
 90
-16777216
102
RTVSPost2010PropOp51
 70
     0
102
RTVSPost2010Prop52
140
1.0
102
RTVSPost2010PropOp52
 70
     0
102
RTVSPost2010Prop53
 90
        2
102
RTVSPost2010PropOp53
 70
     1
102
RTVSPost2010Prop54
  1
strokes_ogs.tif
102
RTVSPost2010PropOp54
 70
     1
102
RTVSPost2010Prop55
280
     0
102
RTVSPost2010PropOp55
 70
     1
102
RTVSPost2010Prop56
140
1.0
102
RTVSPost2010PropOp56
 70
     1
102
RTVSPost2010Prop57
140
1.0
102
RTVSPost2010PropOp57
 70
     1
  0
XRECORD
  5
200
102
{ACAD_REACTORS
330
1FF
102
}
330
1FF
100
AcDbXrecord
280
     1
102
RTVSPropertyOp0
 70
     1
102
RTVSPropertyOp1
 70
     1
102
RTVSPropertyOp2
 70
     1
102
RTVSPropertyOp3
 70
     1
102
RTVSPropertyOp4
 70
     1
102
RTVSPropertyOp5
 70
     1
102
RTVSPropertyOp6
 70
     1
102
RTVSPropertyOp7
 70
     1
102
RTVSPropertyOp8
 70
     1
102
RTVSPropertyOp9
 70
     1
102
RTVSPropertyOp10
 70
     1
102
RTVSPropertyOp11
 70
     1
102
RTVSPropertyOp12
 70
     1
102
RTVSPropertyOp13
 70
     1
102
RTVSPropertyOp14
 70
     1
102
RTVSPropertyOp15
 70
     1
102
RTVSPropertyOp16
 70
     1
102
RTVSPropertyOp17
 70
     1
102
RTVSPropertyOp18
 70
     1
102
RTVSPropertyOp19
 70
     1
102
RTVSPropertyOp20
 70
     1
102
RTVSPropertyOp21
 70
     1
102
RTVSPropertyOp22
 70
     1
102
RTVSPropertyOp23
 70
     1
102
RTVSPropertyOp24
 70
     1
102
RTVSPropertyOp25
 70
     1
102
RTVSPropertyOp26
 70
     1
102
RTVSPropertyOp27
 70
     1
102
RTVSPropertyOp28
 70
     1
102
RTVSPropertyOp29
 70
     1
102
RTVSPropertyOp30
 70
     1
102
RTVSPropertyOp31
 70
     1
102
RTVSPropertyOp32
 70
     1
102
RTVSPropertyOp33
 70
     1
102
RTVSPropertyOp34
 70
     1
102
RTVSPropertyOp35
 70
     1
102
RTVSPropertyOp36
 70
     1
102
RTVSPropertyOp37
 70
     1
102
RTVSPropertyOp38
 70
     1
102
RTVSPropertyOp39
 70
     1
102
RTVSPropertyOp40
 70
     1
102
RTVSPropertyOp41
 70
     1
102
RTVSPropertyOp42
 70
     1
102
RTVSPropertyOp43
 70
     1
102
RTVSPropertyOp44
 70
     1
102
RTVSPropertyOp45
 70
     1
102
RTVSPropertyOp46
 70
     1
102
RTVSPropertyOp47
 70
     1
102
RTVSPropertyOp48
 70
     1
102
RTVSPropertyOp49
 70
     1
102
RTVSPropertyOp50
 70
     1
102
RTVSPropertyOp51
 70
     0
102
RTVSPropertyOp52
 70
     0
102
RTVSPropertyOp53
 70
     1
102
RTVSPropertyOp54
 70
     1
102
RTVSPropertyOp55
 70
     1
102
RTVSPropertyOp56
 70
     1
102
RTVSPropertyOp57
 70
     1
102
RTVSPost2010Prop28
280
     0
102
RTVSPost2010PropOp28
 70
     1
102
RTVSPost2010Prop29
280
     1
102
RTVSPost2010PropOp29
 70
     1
102
RTVSPost2010Prop30
280
     1
102
RTVSPost2010PropOp30
 70
     1
102
RTVSPost2010Prop31
280
     0
102
RTVSPost2010PropOp31
 70
     1
102
RTVSPost2010Prop32
280
     0
102
RTVSPost2010PropOp32
 70
     1
102
RTVSPost2010Prop33
280
     0
102
RTVSPost2010PropOp33
 70
     1
102
RTVSPost2010Prop34
280
     0
102
RTVSPost2010PropOp34
 70
     1
102
RTVSPost2010Prop35
280
     0
102
RTVSPost2010PropOp35
 70
     1
102
RTVSPost2010Prop36
280
     0
102
RTVSPost2010PropOp36
 70
     1
102
RTVSPost2010Prop37
 90
       50
102
RTVSPost2010PropOp37
 70
     1
102
RTVSPost2010Prop38
140
0.0
102
RTVSPost2010PropOp38
 70
     1
102
RTVSPost2010Prop39
140
1.0
102
RTVSPost2010PropOp39
 70
     1
102
RTVSPost2010Prop40
 90
        0
102
RTVSPost2010PropOp40
 70
     1
102
RTVSPost2010Prop41ColorIndex
 90
       18
102
RTVSPost2010Prop41ColorRGB
 90
        0
102
RTVSPost2010PropOp41
 70
     1
102
RTVSPost2010Prop42
 90
       50
102
RTVSPost2010PropOp42
 70
     1
102
RTVSPost2010Prop43
 90
        3
102
RTVSPost2010PropOp43
 70
     1
102
RTVSPost2010Prop44ColorIndex
 90
        5
102
RTVSPost2010Prop44ColorRGB
 90
      255
102
RTVSPost2010PropOp44
 70
     1
102
RTVSPost2010Prop45
280
     0
102
RTVSPost2010PropOp45
 70
     1
102
RTVSPost2010Prop46
 90
       50
102
RTVSPost2010PropOp46
 70
     1
102
RTVSPost2010Prop47
 90
       50
102
RTVSPost2010PropOp47
 70
     1
102
RTVSPost2010Prop48
 90
       50
102
RTVSPost2010PropOp48
 70
     1
102
RTVSPost2010Prop49
280
     0
102
RTVSPost2010PropOp49
 70
     1
102
RTVSPost2010Prop50
 90
       50
102
RTVSPost2010PropOp50
 70
     1
102
RTVSPost2010Prop51ColorIndex
 90
      256
102
RTVSPost2010Prop51ColorRGB
 90
-16777216
102
RTVSPost2010PropOp51
 70
     0
102
RTVSPost2010Prop52
140
1.0
102
RTVSPost2010PropOp52
 70
     0
102
RTVSPost2010Prop53
 90
        2
102
RTVSPost2010PropOp53
 70
     1
102
RTVSPost2010Prop54
  1
strokes_ogs.tif
102
RTVSPost2010PropOp54
 70
     1
102
RTVSPost2010Prop55
280
     0
102
RTVSPost2010PropOp55
 70
     1
102
RTVSPost2010Prop56
140
1.0
102
RTVSPost2010PropOp56
 70
     1
102
RTVSPost2010Prop57
140
1.0
102
RTVSPost2010PropOp57
 70
     1
  0
XRECORD
  5
1F4
102
{ACAD_REACTORS
330
1F3
102
}
330
1F3
100
AcDbXrecord
280
     1
102
RTVSPropertyOp0
 70
     1
102
RTVSPropertyOp1
 70
     1
102
RTVSPropertyOp2
 70
     1
102
RTVSPropertyOp3
 70
     1
102
RTVSPropertyOp4
 70
     1
102
RTVSPropertyOp5
 70
     1
102
RTVSPropertyOp6
 70
     1
102
RTVSPropertyOp7
 70
     1
102
RTVSPropertyOp8
 70
     1
102
RTVSPropertyOp9
 70
     1
102
RTVSPropertyOp10
 70
     1
102
RTVSPropertyOp11
 70
     1
102
RTVSPropertyOp12
 70
     1
102
RTVSPropertyOp13
 70
     1
102
RTVSPropertyOp14
 70
     1
102
RTVSPropertyOp15
 70
     1
102
RTVSPropertyOp16
 70
     1
102
RTVSPropertyOp17
 70
     1
102
RTVSPropertyOp18
 70
     1
102
RTVSPropertyOp19
 70
     1
102
RTVSPropertyOp20
 70
     1
102
RTVSPropertyOp21
 70
     1
102
RTVSPropertyOp22
 70
     1
102
RTVSPropertyOp23
 70
     1
102
RTVSPropertyOp24
 70
     1
102
RTVSPropertyOp25
 70
     1
102
RTVSPropertyOp26
 70
     1
102
RTVSPropertyOp27
 70
     1
102
RTVSPropertyOp28
 70
     1
102
RTVSPropertyOp29
 70
     1
102
RTVSPropertyOp30
 70
     1
102
RTVSPropertyOp31
 70
     1
102
RTVSPropertyOp32
 70
     1
102
RTVSPropertyOp33
 70
     1
102
RTVSPropertyOp34
 70
     1
102
RTVSPropertyOp35
 70
     1
102
RTVSPropertyOp36
 70
     1
102
RTVSPropertyOp37
 70
     1
102
RTVSPropertyOp38
 70
     1
102
RTVSPropertyOp39
 70
     1
102
RTVSPropertyOp40
 70
     1
102
RTVSPropertyOp41
 70
     1
102
RTVSPropertyOp42
 70
     1
102
RTVSPropertyOp43
 70
     1
102
RTVSPropertyOp44
 70
     1
102
RTVSPropertyOp45
 70
     1
102
RTVSPropertyOp46
 70
     1
102
RTVSPropertyOp47
 70
     1
102
RTVSPropertyOp48
 70
     1
102
RTVSPropertyOp49
 70
     1
102
RTVSPropertyOp50
 70
     1
102
RTVSPropertyOp51
 70
     0
102
RTVSPropertyOp52
 70
     0
102
RTVSPropertyOp53
 70
     1
102
RTVSPropertyOp54
 70
     1
102
RTVSPropertyOp55
 70
     1
102
RTVSPropertyOp56
 70
     1
102
RTVSPropertyOp57
 70
     1
102
RTVSPost2010Prop28
280
     0
102
RTVSPost2010PropOp28
 70
     1
102
RTVSPost2010Prop29
280
     1
102
RTVSPost2010PropOp29
 70
     1
102
RTVSPost2010Prop30
280
     1
102
RTVSPost2010PropOp30
 70
     1
102
RTVSPost2010Prop31
280
     0
102
RTVSPost2010PropOp31
 70
     1
102
RTVSPost2010Prop32
280
     0
102
RTVSPost2010PropOp32
 70
     1
102
RTVSPost2010Prop33
280
     0
102
RTVSPost2010PropOp33
 70
     1
102
RTVSPost2010Prop34
280
     0
102
RTVSPost2010PropOp34
 70
     1
102
RTVSPost2010Prop35
280
     0
102
RTVSPost2010PropOp35
 70
     1
102
RTVSPost2010Prop36
280
     0
102
RTVSPost2010PropOp36
 70
     1
102
RTVSPost2010Prop37
 90
       50
102
RTVSPost2010PropOp37
 70
     1
102
RTVSPost2010Prop38
140
0.0
102
RTVSPost2010PropOp38
 70
     1
102
RTVSPost2010Prop39
140
1.0
102
RTVSPost2010PropOp39
 70
     1
102
RTVSPost2010Prop40
 90
        0
102
RTVSPost2010PropOp40
 70
     1
102
RTVSPost2010Prop41ColorIndex
 90
       18
102
RTVSPost2010Prop41ColorRGB
 90
        0
102
RTVSPost2010PropOp41
 70
     1
102
RTVSPost2010Prop42
 90
       50
102
RTVSPost2010PropOp42
 70
     1
102
RTVSPost2010Prop43
 90
        3
102
RTVSPost2010PropOp43
 70
     1
102
RTVSPost2010Prop44ColorIndex
 90
        5
102
RTVSPost2010Prop44ColorRGB
 90
      255
102
RTVSPost2010PropOp44
 70
     1
102
RTVSPost2010Prop45
280
     0
102
RTVSPost2010PropOp45
 70
     1
102
RTVSPost2010Prop46
 90
       50
102
RTVSPost2010PropOp46
 70
     1
102
RTVSPost2010Prop47
 90
       50
102
RTVSPost2010PropOp47
 70
     1
102
RTVSPost2010Prop48
 90
       50
102
RTVSPost2010PropOp48
 70
     1
102
RTVSPost2010Prop49
280
     0
102
RTVSPost2010PropOp49
 70
     1
102
RTVSPost2010Prop50
 90
       50
102
RTVSPost2010PropOp50
 70
     1
102
RTVSPost2010Prop51ColorIndex
 90
      256
102
RTVSPost2010Prop51ColorRGB
 90
-16777216
102
RTVSPost2010PropOp51
 70
     0
102
RTVSPost2010Prop52
140
1.0
102
RTVSPost2010PropOp52
 70
     0
102
RTVSPost2010Prop53
 90
        2
102
RTVSPost2010PropOp53
 70
     1
102
RTVSPost2010Prop54
  1
strokes_ogs.tif
102
RTVSPost2010PropOp54
 70
     1
102
RTVSPost2010Prop55
280
     0
102
RTVSPost2010PropOp55
 70
     1
102
RTVSPost2010Prop56
140
1.0
102
RTVSPost2010PropOp56
 70
     1
102
RTVSPost2010Prop57
140
1.0
102
RTVSPost2010PropOp57
 70
     1
  0
XRECORD
  5
1F6
102
{ACAD_REACTORS
330
1F5
102
}
330
1F5
100
AcDbXrecord
280
     1
102
RTVSPropertyOp0
 70
     1
102
RTVSPropertyOp1
 70
     1
102
RTVSPropertyOp2
 70
     1
102
RTVSPropertyOp3
 70
     1
102
RTVSPropertyOp4
 70
     1
102
RTVSPropertyOp5
 70
     1
102
RTVSPropertyOp6
 70
     1
102
RTVSPropertyOp7
 70
     1
102
RTVSPropertyOp8
 70
     1
102
RTVSPropertyOp9
 70
     1
102
RTVSPropertyOp10
 70
     1
102
RTVSPropertyOp11
 70
     1
102
RTVSPropertyOp12
 70
     1
102
RTVSPropertyOp13
 70
     1
102
RTVSPropertyOp14
 70
     1
102
RTVSPropertyOp15
 70
     1
102
RTVSPropertyOp16
 70
     1
102
RTVSPropertyOp17
 70
     1
102
RTVSPropertyOp18
 70
     1
102
RTVSPropertyOp19
 70
     1
102
RTVSPropertyOp20
 70
     1
102
RTVSPropertyOp21
 70
     1
102
RTVSPropertyOp22
 70
     1
102
RTVSPropertyOp23
 70
     1
102
RTVSPropertyOp24
 70
     1
102
RTVSPropertyOp25
 70
     1
102
RTVSPropertyOp26
 70
     1
102
RTVSPropertyOp27
 70
     1
102
RTVSPropertyOp28
 70
     1
102
RTVSPropertyOp29
 70
     1
102
RTVSPropertyOp30
 70
     1
102
RTVSPropertyOp31
 70
     1
102
RTVSPropertyOp32
 70
     1
102
RTVSPropertyOp33
 70
     1
102
RTVSPropertyOp34
 70
     1
102
RTVSPropertyOp35
 70
     1
102
RTVSPropertyOp36
 70
     1
102
RTVSPropertyOp37
 70
     1
102
RTVSPropertyOp38
 70
     1
102
RTVSPropertyOp39
 70
     1
102
RTVSPropertyOp40
 70
     1
102
RTVSPropertyOp41
 70
     1
102
RTVSPropertyOp42
 70
     1
102
RTVSPropertyOp43
 70
     1
102
RTVSPropertyOp44
 70
     1
102
RTVSPropertyOp45
 70
     1
102
RTVSPropertyOp46
 70
     1
102
RTVSPropertyOp47
 70
     1
102
RTVSPropertyOp48
 70
     1
102
RTVSPropertyOp49
 70
     1
102
RTVSPropertyOp50
 70
     1
102
RTVSPropertyOp51
 70
     0
102
RTVSPropertyOp52
 70
     0
102
RTVSPropertyOp53
 70
     1
102
RTVSPropertyOp54
 70
     1
102
RTVSPropertyOp55
 70
     1
102
RTVSPropertyOp56
 70
     1
102
RTVSPropertyOp57
 70
     1
102
RTVSPost2010Prop28
280
     0
102
RTVSPost2010PropOp28
 70
     1
102
RTVSPost2010Prop29
280
     1
102
RTVSPost2010PropOp29
 70
     1
102
RTVSPost2010Prop30
280
     1
102
RTVSPost2010PropOp30
 70
     1
102
RTVSPost2010Prop31
280
     0
102
RTVSPost2010PropOp31
 70
     1
102
RTVSPost2010Prop32
280
     0
102
RTVSPost2010PropOp32
 70
     1
102
RTVSPost2010Prop33
280
     0
102
RTVSPost2010PropOp33
 70
     1
102
RTVSPost2010Prop34
280
     0
102
RTVSPost2010PropOp34
 70
     1
102
RTVSPost2010Prop35
280
     0
102
RTVSPost2010PropOp35
 70
     1
102
RTVSPost2010Prop36
280
     0
102
RTVSPost2010PropOp36
 70
     1
102
RTVSPost2010Prop37
 90
       50
102
RTVSPost2010PropOp37
 70
     1
102
RTVSPost2010Prop38
140
0.0
102
RTVSPost2010PropOp38
 70
     1
102
RTVSPost2010Prop39
140
1.0
102
RTVSPost2010PropOp39
 70
     1
102
RTVSPost2010Prop40
 90
        0
102
RTVSPost2010PropOp40
 70
     1
102
RTVSPost2010Prop41ColorIndex
 90
       18
102
RTVSPost2010Prop41ColorRGB
 90
        0
102
RTVSPost2010PropOp41
 70
     1
102
RTVSPost2010Prop42
 90
       50
102
RTVSPost2010PropOp42
 70
     1
102
RTVSPost2010Prop43
 90
        3
102
RTVSPost2010PropOp43
 70
     1
102
RTVSPost2010Prop44ColorIndex
 90
        5
102
RTVSPost2010Prop44ColorRGB
 90
      255
102
RTVSPost2010PropOp44
 70
     1
102
RTVSPost2010Prop45
280
     0
102
RTVSPost2010PropOp45
 70
     1
102
RTVSPost2010Prop46
 90
       50
102
RTVSPost2010PropOp46
 70
     1
102
RTVSPost2010Prop47
 90
       50
102
RTVSPost2010PropOp47
 70
     1
102
RTVSPost2010Prop48
 90
       50
102
RTVSPost2010PropOp48
 70
     1
102
RTVSPost2010Prop49
280
     0
102
RTVSPost2010PropOp49
 70
     1
102
RTVSPost2010Prop50
 90
       50
102
RTVSPost2010PropOp50
 70
     1
102
RTVSPost2010Prop51ColorIndex
 90
      256
102
RTVSPost2010Prop51ColorRGB
 90
-16777216
102
RTVSPost2010PropOp51
 70
     0
102
RTVSPost2010Prop52
140
1.0
102
RTVSPost2010PropOp52
 70
     0
102
RTVSPost2010Prop53
 90
        2
102
RTVSPost2010PropOp53
 70
     1
102
RTVSPost2010Prop54
  1
strokes_ogs.tif
102
RTVSPost2010PropOp54
 70
     1
102
RTVSPost2010Prop55
280
     0
102
RTVSPost2010PropOp55
 70
     1
102
RTVSPost2010Prop56
140
1.0
102
RTVSPost2010PropOp56
 70
     1
102
RTVSPost2010Prop57
140
1.0
102
RTVSPost2010PropOp57
 70
     1
  0
XRECORD
  5
206
102
{ACAD_REACTORS
330
205
102
}
330
205
100
AcDbXrecord
280
     1
102
RTVSPropertyOp0
 70
     0
102
RTVSPropertyOp1
 70
     0
102
RTVSPropertyOp2
 70
     0
102
RTVSPropertyOp3
 70
     0
102
RTVSPropertyOp4
 70
     0
102
RTVSPropertyOp5
 70
     0
102
RTVSPropertyOp6
 70
     0
102
RTVSPropertyOp7
 70
     0
102
RTVSPropertyOp8
 70
     0
102
RTVSPropertyOp9
 70
     0
102
RTVSPropertyOp10
 70
     0
102
RTVSPropertyOp11
 70
     0
102
RTVSPropertyOp12
 70
     0
102
RTVSPropertyOp13
 70
     0
102
RTVSPropertyOp14
 70
     2
102
RTVSPropertyOp15
 70
     0
102
RTVSPropertyOp16
 70
     0
102
RTVSPropertyOp17
 70
     0
102
RTVSPropertyOp18
 70
     0
102
RTVSPropertyOp19
 70
     0
102
RTVSPropertyOp20
 70
     0
102
RTVSPropertyOp21
 70
     0
102
RTVSPropertyOp22
 70
     0
102
RTVSPropertyOp23
 70
     0
102
RTVSPropertyOp24
 70
     0
102
RTVSPropertyOp25
 70
     0
102
RTVSPropertyOp26
 70
     0
102
RTVSPropertyOp27
 70
     0
102
RTVSPropertyOp28
 70
     0
102
RTVSPropertyOp29
 70
     0
102
RTVSPropertyOp30
 70
     0
102
RTVSPropertyOp31
 70
     0
102
RTVSPropertyOp32
 70
     0
102
RTVSPropertyOp33
 70
     0
102
RTVSPropertyOp34
 70
     0
102
RTVSPropertyOp35
 70
     0
102
RTVSPropertyOp36
 70
     0
102
RTVSPropertyOp37
 70
     0
102
RTVSPropertyOp38
 70
     0
102
RTVSPropertyOp39
 70
     0
102
RTVSPropertyOp40
 70
     0
102
RTVSPropertyOp41
 70
     0
102
RTVSPropertyOp42
 70
     0
102
RTVSPropertyOp43
 70
     0
102
RTVSPropertyOp44
 70
     0
102
RTVSPropertyOp45
 70
     0
102
RTVSPropertyOp46
 70
     0
102
RTVSPropertyOp47
 70
     0
102
RTVSPropertyOp48
 70
     0
102
RTVSPropertyOp49
 70
     0
102
RTVSPropertyOp50
 70
     0
102
RTVSPropertyOp51
 70
     0
102
RTVSPropertyOp52
 70
     0
102
RTVSPropertyOp53
 70
     0
102
RTVSPropertyOp54
 70
     0
102
RTVSPropertyOp55
 70
     0
102
RTVSPropertyOp56
 70
     0
102
RTVSPropertyOp57
 70
     0
102
RTVSPost2010Prop28
280
     0
102
RTVSPost2010PropOp28
 70
     0
102
RTVSPost2010Prop29
280
     1
102
RTVSPost2010PropOp29
 70
     0
102
RTVSPost2010Prop30
280
     1
102
RTVSPost2010PropOp30
 70
     0
102
RTVSPost2010Prop31
280
     0
102
RTVSPost2010PropOp31
 70
     0
102
RTVSPost2010Prop32
280
     0
102
RTVSPost2010PropOp32
 70
     0
102
RTVSPost2010Prop33
280
     0
102
RTVSPost2010PropOp33
 70
     0
102
RTVSPost2010Prop34
280
     0
102
RTVSPost2010PropOp34
 70
     0
102
RTVSPost2010Prop35
280
     0
102
RTVSPost2010PropOp35
 70
     0
102
RTVSPost2010Prop36
280
     0
102
RTVSPost2010PropOp36
 70
     0
102
RTVSPost2010Prop37
 90
       50
102
RTVSPost2010PropOp37
 70
     0
102
RTVSPost2010Prop38
140
0.0
102
RTVSPost2010PropOp38
 70
     0
102
RTVSPost2010Prop39
140
1.0
102
RTVSPost2010PropOp39
 70
     0
102
RTVSPost2010Prop40
 90
        0
102
RTVSPost2010PropOp40
 70
     0
102
RTVSPost2010Prop41ColorIndex
 90
       18
102
RTVSPost2010Prop41ColorRGB
 90
        0
102
RTVSPost2010PropOp41
 70
     0
102
RTVSPost2010Prop42
 90
       50
102
RTVSPost2010PropOp42
 70
     0
102
RTVSPost2010Prop43
 90
        3
102
RTVSPost2010PropOp43
 70
     0
102
RTVSPost2010Prop44ColorIndex
 90
        5
102
RTVSPost2010Prop44ColorRGB
 90
      255
102
RTVSPost2010PropOp44
 70
     0
102
RTVSPost2010Prop45
280
     0
102
RTVSPost2010PropOp45
 70
     0
102
RTVSPost2010Prop46
 90
       50
102
RTVSPost2010PropOp46
 70
     0
102
RTVSPost2010Prop47
 90
       50
102
RTVSPost2010PropOp47
 70
     0
102
RTVSPost2010Prop48
 90
       50
102
RTVSPost2010PropOp48
 70
     0
102
RTVSPost2010Prop49
280
     0
102
RTVSPost2010PropOp49
 70
     0
102
RTVSPost2010Prop50
 90
       50
102
RTVSPost2010PropOp50
 70
     0
102
RTVSPost2010Prop51ColorIndex
 90
      256
102
RTVSPost2010Prop51ColorRGB
 90
-16777216
102
RTVSPost2010PropOp51
 70
     0
102
RTVSPost2010Prop52
140
1.0
102
RTVSPost2010PropOp52
 70
     0
102
RTVSPost2010Prop53
 90
        2
102
RTVSPost2010PropOp53
 70
     0
102
RTVSPost2010Prop54
  1
strokes_ogs.tif
102
RTVSPost2010PropOp54
 70
     0
102
RTVSPost2010Prop55
280
     0
102
RTVSPost2010PropOp55
 70
     0
102
RTVSPost2010Prop56
140
1.0
102
RTVSPost2010PropOp56
 70
     0
102
RTVSPost2010Prop57
140
1.0
102
RTVSPost2010PropOp57
 70
     0
  0
XRECORD
  5
1FE
102
{ACAD_REACTORS
330
1FD
102
}
330
1FD
100
AcDbXrecord
280
     1
102
RTVSPropertyOp0
 70
     1
102
RTVSPropertyOp1
 70
     1
102
RTVSPropertyOp2
 70
     1
102
RTVSPropertyOp3
 70
     1
102
RTVSPropertyOp4
 70
     1
102
RTVSPropertyOp5
 70
     1
102
RTVSPropertyOp6
 70
     1
102
RTVSPropertyOp7
 70
     1
102
RTVSPropertyOp8
 70
     1
102
RTVSPropertyOp9
 70
     1
102
RTVSPropertyOp10
 70
     1
102
RTVSPropertyOp11
 70
     1
102
RTVSPropertyOp12
 70
     1
102
RTVSPropertyOp13
 70
     1
102
RTVSPropertyOp14
 70
     1
102
RTVSPropertyOp15
 70
     1
102
RTVSPropertyOp16
 70
     1
102
RTVSPropertyOp17
 70
     1
102
RTVSPropertyOp18
 70
     1
102
RTVSPropertyOp19
 70
     1
102
RTVSPropertyOp20
 70
     1
102
RTVSPropertyOp21
 70
     1
102
RTVSPropertyOp22
 70
     1
102
RTVSPropertyOp23
 70
     1
102
RTVSPropertyOp24
 70
     1
102
RTVSPropertyOp25
 70
     1
102
RTVSPropertyOp26
 70
     1
102
RTVSPropertyOp27
 70
     1
102
RTVSPropertyOp28
 70
     1
102
RTVSPropertyOp29
 70
     1
102
RTVSPropertyOp30
 70
     1
102
RTVSPropertyOp31
 70
     1
102
RTVSPropertyOp32
 70
     1
102
RTVSPropertyOp33
 70
     1
102
RTVSPropertyOp34
 70
     1
102
RTVSPropertyOp35
 70
     1
102
RTVSPropertyOp36
 70
     1
102
RTVSPropertyOp37
 70
     1
102
RTVSPropertyOp38
 70
     1
102
RTVSPropertyOp39
 70
     1
102
RTVSPropertyOp40
 70
     1
102
RTVSPropertyOp41
 70
     1
102
RTVSPropertyOp42
 70
     1
102
RTVSPropertyOp43
 70
     1
102
RTVSPropertyOp44
 70
     1
102
RTVSPropertyOp45
 70
     1
102
RTVSPropertyOp46
 70
     1
102
RTVSPropertyOp47
 70
     1
102
RTVSPropertyOp48
 70
     1
102
RTVSPropertyOp49
 70
     1
102
RTVSPropertyOp50
 70
     1
102
RTVSPropertyOp51
 70
     0
102
RTVSPropertyOp52
 70
     0
102
RTVSPropertyOp53
 70
     1
102
RTVSPropertyOp54
 70
     1
102
RTVSPropertyOp55
 70
     1
102
RTVSPropertyOp56
 70
     1
102
RTVSPropertyOp57
 70
     1
102
RTVSPost2010Prop28
280
     0
102
RTVSPost2010PropOp28
 70
     1
102
RTVSPost2010Prop29
280
     1
102
RTVSPost2010PropOp29
 70
     1
102
RTVSPost2010Prop30
280
     1
102
RTVSPost2010PropOp30
 70
     1
102
RTVSPost2010Prop31
280
     0
102
RTVSPost2010PropOp31
 70
     1
102
RTVSPost2010Prop32
280
     0
102
RTVSPost2010PropOp32
 70
     1
102
RTVSPost2010Prop33
280
     0
102
RTVSPost2010PropOp33
 70
     1
102
RTVSPost2010Prop34
280
     0
102
RTVSPost2010PropOp34
 70
     1
102
RTVSPost2010Prop35
280
     0
102
RTVSPost2010PropOp35
 70
     1
102
RTVSPost2010Prop36
280
     0
102
RTVSPost2010PropOp36
 70
     1
102
RTVSPost2010Prop37
 90
       50
102
RTVSPost2010PropOp37
 70
     1
102
RTVSPost2010Prop38
140
0.0
102
RTVSPost2010PropOp38
 70
     1
102
RTVSPost2010Prop39
140
1.0
102
RTVSPost2010PropOp39
 70
     1
102
RTVSPost2010Prop40
 90
        0
102
RTVSPost2010PropOp40
 70
     1
102
RTVSPost2010Prop41ColorIndex
 90
       18
102
RTVSPost2010Prop41ColorRGB
 90
        0
102
RTVSPost2010PropOp41
 70
     1
102
RTVSPost2010Prop42
 90
       50
102
RTVSPost2010PropOp42
 70
     1
102
RTVSPost2010Prop43
 90
        3
102
RTVSPost2010PropOp43
 70
     1
102
RTVSPost2010Prop44ColorIndex
 90
        5
102
RTVSPost2010Prop44ColorRGB
 90
      255
102
RTVSPost2010PropOp44
 70
     1
102
RTVSPost2010Prop45
280
     0
102
RTVSPost2010PropOp45
 70
     1
102
RTVSPost2010Prop46
 90
       50
102
RTVSPost2010PropOp46
 70
     1
102
RTVSPost2010Prop47
 90
       50
102
RTVSPost2010PropOp47
 70
     1
102
RTVSPost2010Prop48
 90
       50
102
RTVSPost2010PropOp48
 70
     1
102
RTVSPost2010Prop49
280
     0
102
RTVSPost2010PropOp49
 70
     1
102
RTVSPost2010Prop50
 90
       50
102
RTVSPost2010PropOp50
 70
     1
102
RTVSPost2010Prop51ColorIndex
 90
      256
102
RTVSPost2010Prop51ColorRGB
 90
-16777216
102
RTVSPost2010PropOp51
 70
     0
102
RTVSPost2010Prop52
140
1.0
102
RTVSPost2010PropOp52
 70
     0
102
RTVSPost2010Prop53
 90
        2
102
RTVSPost2010PropOp53
 70
     1
102
RTVSPost2010Prop54
  1
strokes_ogs.tif
102
RTVSPost2010PropOp54
 70
     1
102
RTVSPost2010Prop55
280
     0
102
RTVSPost2010PropOp55
 70
     1
102
RTVSPost2010Prop56
140
1.0
102
RTVSPost2010PropOp56
 70
     1
102
RTVSPost2010Prop57
140
1.0
102
RTVSPost2010PropOp57
 70
     1
  0
XRECORD
  5
1E2
102
{ACAD_REACTORS
330
1E1
102
}
330
1E1
100
AcDbXrecord
280
     1
102
RTVSPropertyOp0
 70
     1
102
RTVSPropertyOp1
 70
     1
102
RTVSPropertyOp2
 70
     1
102
RTVSPropertyOp3
 70
     1
102
RTVSPropertyOp4
 70
     1
102
RTVSPropertyOp5
 70
     1
102
RTVSPropertyOp6
 70
     1
102
RTVSPropertyOp7
 70
     1
102
RTVSPropertyOp8
 70
     1
102
RTVSPropertyOp9
 70
     1
102
RTVSPropertyOp10
 70
     1
102
RTVSPropertyOp11
 70
     1
102
RTVSPropertyOp12
 70
     1
102
RTVSPropertyOp13
 70
     1
102
RTVSPropertyOp14
 70
     1
102
RTVSPropertyOp15
 70
     1
102
RTVSPropertyOp16
 70
     1
102
RTVSPropertyOp17
 70
     1
102
RTVSPropertyOp18
 70
     1
102
RTVSPropertyOp19
 70
     1
102
RTVSPropertyOp20
 70
     1
102
RTVSPropertyOp21
 70
     1
102
RTVSPropertyOp22
 70
     1
102
RTVSPropertyOp23
 70
     1
102
RTVSPropertyOp24
 70
     1
102
RTVSPropertyOp25
 70
     1
102
RTVSPropertyOp26
 70
     1
102
RTVSPropertyOp27
 70
     1
102
RTVSPropertyOp28
 70
     1
102
RTVSPropertyOp29
 70
     1
102
RTVSPropertyOp30
 70
     1
102
RTVSPropertyOp31
 70
     1
102
RTVSPropertyOp32
 70
     1
102
RTVSPropertyOp33
 70
     1
102
RTVSPropertyOp34
 70
     1
102
RTVSPropertyOp35
 70
     1
102
RTVSPropertyOp36
 70
     1
102
RTVSPropertyOp37
 70
     1
102
RTVSPropertyOp38
 70
     1
102
RTVSPropertyOp39
 70
     1
102
RTVSPropertyOp40
 70
     1
102
RTVSPropertyOp41
 70
     1
102
RTVSPropertyOp42
 70
     1
102
RTVSPropertyOp43
 70
     1
102
RTVSPropertyOp44
 70
     1
102
RTVSPropertyOp45
 70
     1
102
RTVSPropertyOp46
 70
     1
102
RTVSPropertyOp47
 70
     1
102
RTVSPropertyOp48
 70
     1
102
RTVSPropertyOp49
 70
     1
102
RTVSPropertyOp50
 70
     1
102
RTVSPropertyOp51
 70
     0
102
RTVSPropertyOp52
 70
     0
102
RTVSPropertyOp53
 70
     1
102
RTVSPropertyOp54
 70
     1
102
RTVSPropertyOp55
 70
     1
102
RTVSPropertyOp56
 70
     1
102
RTVSPropertyOp57
 70
     1
102
RTVSPost2010Prop28
280
     0
102
RTVSPost2010PropOp28
 70
     1
102
RTVSPost2010Prop29
280
     1
102
RTVSPost2010PropOp29
 70
     1
102
RTVSPost2010Prop30
280
     1
102
RTVSPost2010PropOp30
 70
     1
102
RTVSPost2010Prop31
280
     0
102
RTVSPost2010PropOp31
 70
     1
102
RTVSPost2010Prop32
280
     0
102
RTVSPost2010PropOp32
 70
     1
102
RTVSPost2010Prop33
280
     0
102
RTVSPost2010PropOp33
 70
     1
102
RTVSPost2010Prop34
280
     0
102
RTVSPost2010PropOp34
 70
     1
102
RTVSPost2010Prop35
280
     0
102
RTVSPost2010PropOp35
 70
     1
102
RTVSPost2010Prop36
280
     0
102
RTVSPost2010PropOp36
 70
     1
102
RTVSPost2010Prop37
 90
       50
102
RTVSPost2010PropOp37
 70
     1
102
RTVSPost2010Prop38
140
0.0
102
RTVSPost2010PropOp38
 70
     1
102
RTVSPost2010Prop39
140
1.0
102
RTVSPost2010PropOp39
 70
     1
102
RTVSPost2010Prop40
 90
        0
102
RTVSPost2010PropOp40
 70
     1
102
RTVSPost2010Prop41ColorIndex
 90
       18
102
RTVSPost2010Prop41ColorRGB
 90
        0
102
RTVSPost2010PropOp41
 70
     1
102
RTVSPost2010Prop42
 90
       50
102
RTVSPost2010PropOp42
 70
     1
102
RTVSPost2010Prop43
 90
        3
102
RTVSPost2010PropOp43
 70
     1
102
RTVSPost2010Prop44ColorIndex
 90
        5
102
RTVSPost2010Prop44ColorRGB
 90
      255
102
RTVSPost2010PropOp44
 70
     1
102
RTVSPost2010Prop45
280
     0
102
RTVSPost2010PropOp45
 70
     1
102
RTVSPost2010Prop46
 90
       50
102
RTVSPost2010PropOp46
 70
     1
102
RTVSPost2010Prop47
 90
       50
102
RTVSPost2010PropOp47
 70
     1
102
RTVSPost2010Prop48
 90
       50
102
RTVSPost2010PropOp48
 70
     1
102
RTVSPost2010Prop49
280
     0
102
RTVSPost2010PropOp49
 70
     1
102
RTVSPost2010Prop50
 90
       50
102
RTVSPost2010PropOp50
 70
     1
102
RTVSPost2010Prop51ColorIndex
 90
      256
102
RTVSPost2010Prop51ColorRGB
 90
-16777216
102
RTVSPost2010PropOp51
 70
     0
102
RTVSPost2010Prop52
140
1.0
102
RTVSPost2010PropOp52
 70
     0
102
RTVSPost2010Prop53
 90
        2
102
RTVSPost2010PropOp53
 70
     1
102
RTVSPost2010Prop54
  1
strokes_ogs.tif
102
RTVSPost2010PropOp54
 70
     1
102
RTVSPost2010Prop55
280
     0
102
RTVSPost2010PropOp55
 70
     1
102
RTVSPost2010Prop56
140
1.0
102
RTVSPost2010PropOp56
 70
     1
102
RTVSPost2010Prop57
140
1.0
102
RTVSPost2010PropOp57
 70
     1
  0
XRECORD
  5
1E4
102
{ACAD_REACTORS
330
1E3
102
}
330
1E3
100
AcDbXrecord
280
     1
102
RTVSPropertyOp0
 70
     1
102
RTVSPropertyOp1
 70
     1
102
RTVSPropertyOp2
 70
     1
102
RTVSPropertyOp3
 70
     1
102
RTVSPropertyOp4
 70
     1
102
RTVSPropertyOp5
 70
     1
102
RTVSPropertyOp6
 70
     1
102
RTVSPropertyOp7
 70
     1
102
RTVSPropertyOp8
 70
     1
102
RTVSPropertyOp9
 70
     1
102
RTVSPropertyOp10
 70
     1
102
RTVSPropertyOp11
 70
     1
102
RTVSPropertyOp12
 70
     1
102
RTVSPropertyOp13
 70
     1
102
RTVSPropertyOp14
 70
     1
102
RTVSPropertyOp15
 70
     1
102
RTVSPropertyOp16
 70
     1
102
RTVSPropertyOp17
 70
     1
102
RTVSPropertyOp18
 70
     1
102
RTVSPropertyOp19
 70
     1
102
RTVSPropertyOp20
 70
     1
102
RTVSPropertyOp21
 70
     1
102
RTVSPropertyOp22
 70
     1
102
RTVSPropertyOp23
 70
     1
102
RTVSPropertyOp24
 70
     1
102
RTVSPropertyOp25
 70
     1
102
RTVSPropertyOp26
 70
     1
102
RTVSPropertyOp27
 70
     1
102
RTVSPropertyOp28
 70
     1
102
RTVSPropertyOp29
 70
     1
102
RTVSPropertyOp30
 70
     1
102
RTVSPropertyOp31
 70
     1
102
RTVSPropertyOp32
 70
     1
102
RTVSPropertyOp33
 70
     1
102
RTVSPropertyOp34
 70
     1
102
RTVSPropertyOp35
 70
     1
102
RTVSPropertyOp36
 70
     1
102
RTVSPropertyOp37
 70
     1
102
RTVSPropertyOp38
 70
     1
102
RTVSPropertyOp39
 70
     1
102
RTVSPropertyOp40
 70
     1
102
RTVSPropertyOp41
 70
     1
102
RTVSPropertyOp42
 70
     1
102
RTVSPropertyOp43
 70
     1
102
RTVSPropertyOp44
 70
     1
102
RTVSPropertyOp45
 70
     1
102
RTVSPropertyOp46
 70
     1
102
RTVSPropertyOp47
 70
     1
102
RTVSPropertyOp48
 70
     1
102
RTVSPropertyOp49
 70
     1
102
RTVSPropertyOp50
 70
     1
102
RTVSPropertyOp51
 70
     0
102
RTVSPropertyOp52
 70
     0
102
RTVSPropertyOp53
 70
     1
102
RTVSPropertyOp54
 70
     1
102
RTVSPropertyOp55
 70
     1
102
RTVSPropertyOp56
 70
     1
102
RTVSPropertyOp57
 70
     1
102
RTVSPost2010Prop28
280
     0
102
RTVSPost2010PropOp28
 70
     1
102
RTVSPost2010Prop29
280
     1
102
RTVSPost2010PropOp29
 70
     1
102
RTVSPost2010Prop30
280
     1
102
RTVSPost2010PropOp30
 70
     1
102
RTVSPost2010Prop31
280
     0
102
RTVSPost2010PropOp31
 70
     1
102
RTVSPost2010Prop32
280
     0
102
RTVSPost2010PropOp32
 70
     1
102
RTVSPost2010Prop33
280
     0
102
RTVSPost2010PropOp33
 70
     1
102
RTVSPost2010Prop34
280
     0
102
RTVSPost2010PropOp34
 70
     1
102
RTVSPost2010Prop35
280
     0
102
RTVSPost2010PropOp35
 70
     1
102
RTVSPost2010Prop36
280
     0
102
RTVSPost2010PropOp36
 70
     1
102
RTVSPost2010Prop37
 90
       50
102
RTVSPost2010PropOp37
 70
     1
102
RTVSPost2010Prop38
140
0.0
102
RTVSPost2010PropOp38
 70
     1
102
RTVSPost2010Prop39
140
1.0
102
RTVSPost2010PropOp39
 70
     1
102
RTVSPost2010Prop40
 90
        0
102
RTVSPost2010PropOp40
 70
     1
102
RTVSPost2010Prop41ColorIndex
 90
       18
102
RTVSPost2010Prop41ColorRGB
 90
        0
102
RTVSPost2010PropOp41
 70
     1
102
RTVSPost2010Prop42
 90
       50
102
RTVSPost2010PropOp42
 70
     1
102
RTVSPost2010Prop43
 90
        3
102
RTVSPost2010PropOp43
 70
     1
102
RTVSPost2010Prop44ColorIndex
 90
        5
102
RTVSPost2010Prop44ColorRGB
 90
      255
102
RTVSPost2010PropOp44
 70
     1
102
RTVSPost2010Prop45
280
     0
102
RTVSPost2010PropOp45
 70
     1
102
RTVSPost2010Prop46
 90
       50
102
RTVSPost2010PropOp46
 70
     1
102
RTVSPost2010Prop47
 90
       50
102
RTVSPost2010PropOp47
 70
     1
102
RTVSPost2010Prop48
 90
       50
102
RTVSPost2010PropOp48
 70
     1
102
RTVSPost2010Prop49
280
     0
102
RTVSPost2010PropOp49
 70
     1
102
RTVSPost2010Prop50
 90
       50
102
RTVSPost2010PropOp50
 70
     1
102
RTVSPost2010Prop51ColorIndex
 90
      256
102
RTVSPost2010Prop51ColorRGB
 90
-16777216
102
RTVSPost2010PropOp51
 70
     0
102
RTVSPost2010Prop52
140
1.0
102
RTVSPost2010PropOp52
 70
     0
102
RTVSPost2010Prop53
 90
        2
102
RTVSPost2010PropOp53
 70
     1
102
RTVSPost2010Prop54
  1
strokes_ogs.tif
102
RTVSPost2010PropOp54
 70
     1
102
RTVSPost2010Prop55
280
     0
102
RTVSPost2010PropOp55
 70
     1
102
RTVSPost2010Prop56
140
1.0
102
RTVSPost2010PropOp56
 70
     1
102
RTVSPost2010Prop57
140
1.0
102
RTVSPost2010PropOp57
 70
     1
  0
XRECORD
  5
1E6
102
{ACAD_REACTORS
330
1E5
102
}
330
1E5
100
AcDbXrecord
280
     1
102
RTVSPropertyOp0
 70
     1
102
RTVSPropertyOp1
 70
     1
102
RTVSPropertyOp2
 70
     1
102
RTVSPropertyOp3
 70
     1
102
RTVSPropertyOp4
 70
     1
102
RTVSPropertyOp5
 70
     1
102
RTVSPropertyOp6
 70
     1
102
RTVSPropertyOp7
 70
     1
102
RTVSPropertyOp8
 70
     1
102
RTVSPropertyOp9
 70
     1
102
RTVSPropertyOp10
 70
     1
102
RTVSPropertyOp11
 70
     1
102
RTVSPropertyOp12
 70
     1
102
RTVSPropertyOp13
 70
     1
102
RTVSPropertyOp14
 70
     1
102
RTVSPropertyOp15
 70
     1
102
RTVSPropertyOp16
 70
     1
102
RTVSPropertyOp17
 70
     1
102
RTVSPropertyOp18
 70
     1
102
RTVSPropertyOp19
 70
     1
102
RTVSPropertyOp20
 70
     1
102
RTVSPropertyOp21
 70
     1
102
RTVSPropertyOp22
 70
     1
102
RTVSPropertyOp23
 70
     1
102
RTVSPropertyOp24
 70
     1
102
RTVSPropertyOp25
 70
     1
102
RTVSPropertyOp26
 70
     1
102
RTVSPropertyOp27
 70
     1
102
RTVSPropertyOp28
 70
     1
102
RTVSPropertyOp29
 70
     1
102
RTVSPropertyOp30
 70
     1
102
RTVSPropertyOp31
 70
     1
102
RTVSPropertyOp32
 70
     1
102
RTVSPropertyOp33
 70
     1
102
RTVSPropertyOp34
 70
     1
102
RTVSPropertyOp35
 70
     1
102
RTVSPropertyOp36
 70
     1
102
RTVSPropertyOp37
 70
     1
102
RTVSPropertyOp38
 70
     1
102
RTVSPropertyOp39
 70
     1
102
RTVSPropertyOp40
 70
     1
102
RTVSPropertyOp41
 70
     1
102
RTVSPropertyOp42
 70
     1
102
RTVSPropertyOp43
 70
     1
102
RTVSPropertyOp44
 70
     1
102
RTVSPropertyOp45
 70
     1
102
RTVSPropertyOp46
 70
     1
102
RTVSPropertyOp47
 70
     1
102
RTVSPropertyOp48
 70
     1
102
RTVSPropertyOp49
 70
     1
102
RTVSPropertyOp50
 70
     1
102
RTVSPropertyOp51
 70
     0
102
RTVSPropertyOp52
 70
     0
102
RTVSPropertyOp53
 70
     1
102
RTVSPropertyOp54
 70
     1
102
RTVSPropertyOp55
 70
     1
102
RTVSPropertyOp56
 70
     1
102
RTVSPropertyOp57
 70
     1
102
RTVSPost2010Prop28
280
     0
102
RTVSPost2010PropOp28
 70
     1
102
RTVSPost2010Prop29
280
     1
102
RTVSPost2010PropOp29
 70
     1
102
RTVSPost2010Prop30
280
     1
102
RTVSPost2010PropOp30
 70
     1
102
RTVSPost2010Prop31
280
     0
102
RTVSPost2010PropOp31
 70
     1
102
RTVSPost2010Prop32
280
     0
102
RTVSPost2010PropOp32
 70
     1
102
RTVSPost2010Prop33
280
     0
102
RTVSPost2010PropOp33
 70
     1
102
RTVSPost2010Prop34
280
     0
102
RTVSPost2010PropOp34
 70
     1
102
RTVSPost2010Prop35
280
     0
102
RTVSPost2010PropOp35
 70
     1
102
RTVSPost2010Prop36
280
     0
102
RTVSPost2010PropOp36
 70
     1
102
RTVSPost2010Prop37
 90
       50
102
RTVSPost2010PropOp37
 70
     1
102
RTVSPost2010Prop38
140
0.0
102
RTVSPost2010PropOp38
 70
     1
102
RTVSPost2010Prop39
140
1.0
102
RTVSPost2010PropOp39
 70
     1
102
RTVSPost2010Prop40
 90
        0
102
RTVSPost2010PropOp40
 70
     1
102
RTVSPost2010Prop41ColorIndex
 90
       18
102
RTVSPost2010Prop41ColorRGB
 90
        0
102
RTVSPost2010PropOp41
 70
     1
102
RTVSPost2010Prop42
 90
       50
102
RTVSPost2010PropOp42
 70
     1
102
RTVSPost2010Prop43
 90
        3
102
RTVSPost2010PropOp43
 70
     1
102
RTVSPost2010Prop44ColorIndex
 90
        5
102
RTVSPost2010Prop44ColorRGB
 90
      255
102
RTVSPost2010PropOp44
 70
     1
102
RTVSPost2010Prop45
280
     0
102
RTVSPost2010PropOp45
 70
     1
102
RTVSPost2010Prop46
 90
       50
102
RTVSPost2010PropOp46
 70
     1
102
RTVSPost2010Prop47
 90
       50
102
RTVSPost2010PropOp47
 70
     1
102
RTVSPost2010Prop48
 90
       50
102
RTVSPost2010PropOp48
 70
     1
102
RTVSPost2010Prop49
280
     0
102
RTVSPost2010PropOp49
 70
     1
102
RTVSPost2010Prop50
 90
       50
102
RTVSPost2010PropOp50
 70
     1
102
RTVSPost2010Prop51ColorIndex
 90
      256
102
RTVSPost2010Prop51ColorRGB
 90
-16777216
102
RTVSPost2010PropOp51
 70
     0
102
RTVSPost2010Prop52
140
1.0
102
RTVSPost2010PropOp52
 70
     0
102
RTVSPost2010Prop53
 90
        2
102
RTVSPost2010PropOp53
 70
     1
102
RTVSPost2010Prop54
  1
strokes_ogs.tif
102
RTVSPost2010PropOp54
 70
     1
102
RTVSPost2010Prop55
280
     0
102
RTVSPost2010PropOp55
 70
     1
102
RTVSPost2010Prop56
140
1.0
102
RTVSPost2010PropOp56
 70
     1
102
RTVSPost2010Prop57
140
1.0
102
RTVSPost2010PropOp57
 70
     1
  0
XRECORD
  5
1E8
102
{ACAD_REACTORS
330
1E7
102
}
330
1E7
100
AcDbXrecord
280
     1
102
RTVSPropertyOp0
 70
     1
102
RTVSPropertyOp1
 70
     1
102
RTVSPropertyOp2
 70
     1
102
RTVSPropertyOp3
 70
     1
102
RTVSPropertyOp4
 70
     1
102
RTVSPropertyOp5
 70
     1
102
RTVSPropertyOp6
 70
     1
102
RTVSPropertyOp7
 70
     1
102
RTVSPropertyOp8
 70
     1
102
RTVSPropertyOp9
 70
     1
102
RTVSPropertyOp10
 70
     1
102
RTVSPropertyOp11
 70
     1
102
RTVSPropertyOp12
 70
     1
102
RTVSPropertyOp13
 70
     1
102
RTVSPropertyOp14
 70
     1
102
RTVSPropertyOp15
 70
     1
102
RTVSPropertyOp16
 70
     1
102
RTVSPropertyOp17
 70
     1
102
RTVSPropertyOp18
 70
     1
102
RTVSPropertyOp19
 70
     1
102
RTVSPropertyOp20
 70
     1
102
RTVSPropertyOp21
 70
     1
102
RTVSPropertyOp22
 70
     1
102
RTVSPropertyOp23
 70
     1
102
RTVSPropertyOp24
 70
     1
102
RTVSPropertyOp25
 70
     1
102
RTVSPropertyOp26
 70
     1
102
RTVSPropertyOp27
 70
     1
102
RTVSPropertyOp28
 70
     1
102
RTVSPropertyOp29
 70
     1
102
RTVSPropertyOp30
 70
     1
102
RTVSPropertyOp31
 70
     1
102
RTVSPropertyOp32
 70
     1
102
RTVSPropertyOp33
 70
     1
102
RTVSPropertyOp34
 70
     1
102
RTVSPropertyOp35
 70
     1
102
RTVSPropertyOp36
 70
     1
102
RTVSPropertyOp37
 70
     1
102
RTVSPropertyOp38
 70
     1
102
RTVSPropertyOp39
 70
     1
102
RTVSPropertyOp40
 70
     1
102
RTVSPropertyOp41
 70
     1
102
RTVSPropertyOp42
 70
     1
102
RTVSPropertyOp43
 70
     1
102
RTVSPropertyOp44
 70
     1
102
RTVSPropertyOp45
 70
     1
102
RTVSPropertyOp46
 70
     1
102
RTVSPropertyOp47
 70
     1
102
RTVSPropertyOp48
 70
     1
102
RTVSPropertyOp49
 70
     1
102
RTVSPropertyOp50
 70
     1
102
RTVSPropertyOp51
 70
     0
102
RTVSPropertyOp52
 70
     0
102
RTVSPropertyOp53
 70
     1
102
RTVSPropertyOp54
 70
     1
102
RTVSPropertyOp55
 70
     1
102
RTVSPropertyOp56
 70
     1
102
RTVSPropertyOp57
 70
     1
102
RTVSPost2010Prop28
280
     0
102
RTVSPost2010PropOp28
 70
     1
102
RTVSPost2010Prop29
280
     1
102
RTVSPost2010PropOp29
 70
     1
102
RTVSPost2010Prop30
280
     1
102
RTVSPost2010PropOp30
 70
     1
102
RTVSPost2010Prop31
280
     0
102
RTVSPost2010PropOp31
 70
     1
102
RTVSPost2010Prop32
280
     0
102
RTVSPost2010PropOp32
 70
     1
102
RTVSPost2010Prop33
280
     0
102
RTVSPost2010PropOp33
 70
     1
102
RTVSPost2010Prop34
280
     0
102
RTVSPost2010PropOp34
 70
     1
102
RTVSPost2010Prop35
280
     0
102
RTVSPost2010PropOp35
 70
     1
102
RTVSPost2010Prop36
280
     0
102
RTVSPost2010PropOp36
 70
     1
102
RTVSPost2010Prop37
 90
       50
102
RTVSPost2010PropOp37
 70
     1
102
RTVSPost2010Prop38
140
0.0
102
RTVSPost2010PropOp38
 70
     1
102
RTVSPost2010Prop39
140
1.0
102
RTVSPost2010PropOp39
 70
     1
102
RTVSPost2010Prop40
 90
        0
102
RTVSPost2010PropOp40
 70
     1
102
RTVSPost2010Prop41ColorIndex
 90
       18
102
RTVSPost2010Prop41ColorRGB
 90
        0
102
RTVSPost2010PropOp41
 70
     1
102
RTVSPost2010Prop42
 90
       50
102
RTVSPost2010PropOp42
 70
     1
102
RTVSPost2010Prop43
 90
        3
102
RTVSPost2010PropOp43
 70
     1
102
RTVSPost2010Prop44ColorIndex
 90
        5
102
RTVSPost2010Prop44ColorRGB
 90
      255
102
RTVSPost2010PropOp44
 70
     1
102
RTVSPost2010Prop45
280
     0
102
RTVSPost2010PropOp45
 70
     1
102
RTVSPost2010Prop46
 90
       50
102
RTVSPost2010PropOp46
 70
     1
102
RTVSPost2010Prop47
 90
       50
102
RTVSPost2010PropOp47
 70
     1
102
RTVSPost2010Prop48
 90
       50
102
RTVSPost2010PropOp48
 70
     1
102
RTVSPost2010Prop49
280
     0
102
RTVSPost2010PropOp49
 70
     1
102
RTVSPost2010Prop50
 90
       50
102
RTVSPost2010PropOp50
 70
     1
102
RTVSPost2010Prop51ColorIndex
 90
      256
102
RTVSPost2010Prop51ColorRGB
 90
-16777216
102
RTVSPost2010PropOp51
 70
     0
102
RTVSPost2010Prop52
140
1.0
102
RTVSPost2010PropOp52
 70
     0
102
RTVSPost2010Prop53
 90
        2
102
RTVSPost2010PropOp53
 70
     1
102
RTVSPost2010Prop54
  1
strokes_ogs.tif
102
RTVSPost2010PropOp54
 70
     1
102
RTVSPost2010Prop55
280
     0
102
RTVSPost2010PropOp55
 70
     1
102
RTVSPost2010Prop56
140
1.0
102
RTVSPost2010PropOp56
 70
     1
102
RTVSPost2010Prop57
140
1.0
102
RTVSPost2010PropOp57
 70
     1
  0
XRECORD
  5
1EE
102
{ACAD_REACTORS
330
1ED
102
}
330
1ED
100
AcDbXrecord
280
     1
102
RTVSPropertyOp0
 70
     1
102
RTVSPropertyOp1
 70
     1
102
RTVSPropertyOp2
 70
     1
102
RTVSPropertyOp3
 70
     1
102
RTVSPropertyOp4
 70
     1
102
RTVSPropertyOp5
 70
     1
102
RTVSPropertyOp6
 70
     1
102
RTVSPropertyOp7
 70
     1
102
RTVSPropertyOp8
 70
     1
102
RTVSPropertyOp9
 70
     1
102
RTVSPropertyOp10
 70
     1
102
RTVSPropertyOp11
 70
     1
102
RTVSPropertyOp12
 70
     1
102
RTVSPropertyOp13
 70
     1
102
RTVSPropertyOp14
 70
     1
102
RTVSPropertyOp15
 70
     1
102
RTVSPropertyOp16
 70
     1
102
RTVSPropertyOp17
 70
     1
102
RTVSPropertyOp18
 70
     1
102
RTVSPropertyOp19
 70
     1
102
RTVSPropertyOp20
 70
     1
102
RTVSPropertyOp21
 70
     1
102
RTVSPropertyOp22
 70
     1
102
RTVSPropertyOp23
 70
     1
102
RTVSPropertyOp24
 70
     1
102
RTVSPropertyOp25
 70
     1
102
RTVSPropertyOp26
 70
     1
102
RTVSPropertyOp27
 70
     1
102
RTVSPropertyOp28
 70
     1
102
RTVSPropertyOp29
 70
     1
102
RTVSPropertyOp30
 70
     1
102
RTVSPropertyOp31
 70
     1
102
RTVSPropertyOp32
 70
     1
102
RTVSPropertyOp33
 70
     1
102
RTVSPropertyOp34
 70
     1
102
RTVSPropertyOp35
 70
     1
102
RTVSPropertyOp36
 70
     1
102
RTVSPropertyOp37
 70
     1
102
RTVSPropertyOp38
 70
     1
102
RTVSPropertyOp39
 70
     1
102
RTVSPropertyOp40
 70
     1
102
RTVSPropertyOp41
 70
     1
102
RTVSPropertyOp42
 70
     1
102
RTVSPropertyOp43
 70
     1
102
RTVSPropertyOp44
 70
     1
102
RTVSPropertyOp45
 70
     1
102
RTVSPropertyOp46
 70
     1
102
RTVSPropertyOp47
 70
     1
102
RTVSPropertyOp48
 70
     1
102
RTVSPropertyOp49
 70
     1
102
RTVSPropertyOp50
 70
     1
102
RTVSPropertyOp51
 70
     0
102
RTVSPropertyOp52
 70
     0
102
RTVSPropertyOp53
 70
     1
102
RTVSPropertyOp54
 70
     1
102
RTVSPropertyOp55
 70
     1
102
RTVSPropertyOp56
 70
     1
102
RTVSPropertyOp57
 70
     1
102
RTVSPost2010Prop28
280
     0
102
RTVSPost2010PropOp28
 70
     1
102
RTVSPost2010Prop29
280
     1
102
RTVSPost2010PropOp29
 70
     1
102
RTVSPost2010Prop30
280
     1
102
RTVSPost2010PropOp30
 70
     1
102
RTVSPost2010Prop31
280
     0
102
RTVSPost2010PropOp31
 70
     1
102
RTVSPost2010Prop32
280
     0
102
RTVSPost2010PropOp32
 70
     1
102
RTVSPost2010Prop33
280
     0
102
RTVSPost2010PropOp33
 70
     1
102
RTVSPost2010Prop34
280
     0
102
RTVSPost2010PropOp34
 70
     1
102
RTVSPost2010Prop35
280
     0
102
RTVSPost2010PropOp35
 70
     1
102
RTVSPost2010Prop36
280
     0
102
RTVSPost2010PropOp36
 70
     1
102
RTVSPost2010Prop37
 90
       50
102
RTVSPost2010PropOp37
 70
     1
102
RTVSPost2010Prop38
140
0.0
102
RTVSPost2010PropOp38
 70
     1
102
RTVSPost2010Prop39
140
1.0
102
RTVSPost2010PropOp39
 70
     1
102
RTVSPost2010Prop40
 90
        0
102
RTVSPost2010PropOp40
 70
     1
102
RTVSPost2010Prop41ColorIndex
 90
       18
102
RTVSPost2010Prop41ColorRGB
 90
        0
102
RTVSPost2010PropOp41
 70
     1
102
RTVSPost2010Prop42
 90
       50
102
RTVSPost2010PropOp42
 70
     1
102
RTVSPost2010Prop43
 90
        3
102
RTVSPost2010PropOp43
 70
     1
102
RTVSPost2010Prop44ColorIndex
 90
        5
102
RTVSPost2010Prop44ColorRGB
 90
      255
102
RTVSPost2010PropOp44
 70
     1
102
RTVSPost2010Prop45
280
     0
102
RTVSPost2010PropOp45
 70
     1
102
RTVSPost2010Prop46
 90
       50
102
RTVSPost2010PropOp46
 70
     1
102
RTVSPost2010Prop47
 90
       50
102
RTVSPost2010PropOp47
 70
     1
102
RTVSPost2010Prop48
 90
       50
102
RTVSPost2010PropOp48
 70
     1
102
RTVSPost2010Prop49
280
     0
102
RTVSPost2010PropOp49
 70
     1
102
RTVSPost2010Prop50
 90
       50
102
RTVSPost2010PropOp50
 70
     1
102
RTVSPost2010Prop51ColorIndex
 90
      256
102
RTVSPost2010Prop51ColorRGB
 90
-16777216
102
RTVSPost2010PropOp51
 70
     0
102
RTVSPost2010Prop52
140
1.0
102
RTVSPost2010PropOp52
 70
     0
102
RTVSPost2010Prop53
 90
        2
102
RTVSPost2010PropOp53
 70
     1
102
RTVSPost2010Prop54
  1
strokes_ogs.tif
102
RTVSPost2010PropOp54
 70
     1
102
RTVSPost2010Prop55
280
     0
102
RTVSPost2010PropOp55
 70
     1
102
RTVSPost2010Prop56
140
1.0
102
RTVSPost2010PropOp56
 70
     1
102
RTVSPost2010Prop57
140
1.0
102
RTVSPost2010PropOp57
 70
     1
  0
XRECORD
  5
202
102
{ACAD_REACTORS
330
201
102
}
330
201
100
AcDbXrecord
280
     1
102
RTVSPropertyOp0
 70
     0
102
RTVSPropertyOp1
 70
     0
102
RTVSPropertyOp2
 70
     0
102
RTVSPropertyOp3
 70
     0
102
RTVSPropertyOp4
 70
     0
102
RTVSPropertyOp5
 70
     0
102
RTVSPropertyOp6
 70
     0
102
RTVSPropertyOp7
 70
     0
102
RTVSPropertyOp8
 70
     0
102
RTVSPropertyOp9
 70
     0
102
RTVSPropertyOp10
 70
     0
102
RTVSPropertyOp11
 70
     0
102
RTVSPropertyOp12
 70
     0
102
RTVSPropertyOp13
 70
     0
102
RTVSPropertyOp14
 70
     2
102
RTVSPropertyOp15
 70
     0
102
RTVSPropertyOp16
 70
     0
102
RTVSPropertyOp17
 70
     0
102
RTVSPropertyOp18
 70
     0
102
RTVSPropertyOp19
 70
     0
102
RTVSPropertyOp20
 70
     0
102
RTVSPropertyOp21
 70
     0
102
RTVSPropertyOp22
 70
     0
102
RTVSPropertyOp23
 70
     0
102
RTVSPropertyOp24
 70
     0
102
RTVSPropertyOp25
 70
     0
102
RTVSPropertyOp26
 70
     0
102
RTVSPropertyOp27
 70
     0
102
RTVSPropertyOp28
 70
     0
102
RTVSPropertyOp29
 70
     0
102
RTVSPropertyOp30
 70
     0
102
RTVSPropertyOp31
 70
     0
102
RTVSPropertyOp32
 70
     0
102
RTVSPropertyOp33
 70
     0
102
RTVSPropertyOp34
 70
     0
102
RTVSPropertyOp35
 70
     0
102
RTVSPropertyOp36
 70
     0
102
RTVSPropertyOp37
 70
     0
102
RTVSPropertyOp38
 70
     0
102
RTVSPropertyOp39
 70
     0
102
RTVSPropertyOp40
 70
     0
102
RTVSPropertyOp41
 70
     0
102
RTVSPropertyOp42
 70
     0
102
RTVSPropertyOp43
 70
     0
102
RTVSPropertyOp44
 70
     0
102
RTVSPropertyOp45
 70
     0
102
RTVSPropertyOp46
 70
     0
102
RTVSPropertyOp47
 70
     0
102
RTVSPropertyOp48
 70
     0
102
RTVSPropertyOp49
 70
     0
102
RTVSPropertyOp50
 70
     0
102
RTVSPropertyOp51
 70
     0
102
RTVSPropertyOp52
 70
     0
102
RTVSPropertyOp53
 70
     0
102
RTVSPropertyOp54
 70
     0
102
RTVSPropertyOp55
 70
     0
102
RTVSPropertyOp56
 70
     0
102
RTVSPropertyOp57
 70
     0
102
RTVSPost2010Prop28
280
     0
102
RTVSPost2010PropOp28
 70
     0
102
RTVSPost2010Prop29
280
     1
102
RTVSPost2010PropOp29
 70
     0
102
RTVSPost2010Prop30
280
     1
102
RTVSPost2010PropOp30
 70
     0
102
RTVSPost2010Prop31
280
     0
102
RTVSPost2010PropOp31
 70
     0
102
RTVSPost2010Prop32
280
     0
102
RTVSPost2010PropOp32
 70
     0
102
RTVSPost2010Prop33
280
     0
102
RTVSPost2010PropOp33
 70
     0
102
RTVSPost2010Prop34
280
     0
102
RTVSPost2010PropOp34
 70
     0
102
RTVSPost2010Prop35
280
     0
102
RTVSPost2010PropOp35
 70
     0
102
RTVSPost2010Prop36
280
     0
102
RTVSPost2010PropOp36
 70
     0
102
RTVSPost2010Prop37
 90
       50
102
RTVSPost2010PropOp37
 70
     0
102
RTVSPost2010Prop38
140
0.0
102
RTVSPost2010PropOp38
 70
     0
102
RTVSPost2010Prop39
140
1.0
102
RTVSPost2010PropOp39
 70
     0
102
RTVSPost2010Prop40
 90
        0
102
RTVSPost2010PropOp40
 70
     0
102
RTVSPost2010Prop41ColorIndex
 90
       18
102
RTVSPost2010Prop41ColorRGB
 90
        0
102
RTVSPost2010PropOp41
 70
     0
102
RTVSPost2010Prop42
 90
       50
102
RTVSPost2010PropOp42
 70
     0
102
RTVSPost2010Prop43
 90
        3
102
RTVSPost2010PropOp43
 70
     0
102
RTVSPost2010Prop44ColorIndex
 90
        5
102
RTVSPost2010Prop44ColorRGB
 90
      255
102
RTVSPost2010PropOp44
 70
     0
102
RTVSPost2010Prop45
280
     0
102
RTVSPost2010PropOp45
 70
     0
102
RTVSPost2010Prop46
 90
       50
102
RTVSPost2010PropOp46
 70
     0
102
RTVSPost2010Prop47
 90
       50
102
RTVSPost2010PropOp47
 70
     0
102
RTVSPost2010Prop48
 90
       50
102
RTVSPost2010PropOp48
 70
     0
102
RTVSPost2010Prop49
280
     0
102
RTVSPost2010PropOp49
 70
     0
102
RTVSPost2010Prop50
 90
       50
102
RTVSPost2010PropOp50
 70
     0
102
RTVSPost2010Prop51ColorIndex
 90
      256
102
RTVSPost2010Prop51ColorRGB
 90
-16777216
102
RTVSPost2010PropOp51
 70
     0
102
RTVSPost2010Prop52
140
1.0
102
RTVSPost2010PropOp52
 70
     0
102
RTVSPost2010Prop53
 90
        2
102
RTVSPost2010PropOp53
 70
     0
102
RTVSPost2010Prop54
  1
strokes_ogs.tif
102
RTVSPost2010PropOp54
 70
     0
102
RTVSPost2010Prop55
280
     0
102
RTVSPost2010PropOp55
 70
     0
102
RTVSPost2010Prop56
140
1.0
102
RTVSPost2010PropOp56
 70
     0
102
RTVSPost2010Prop57
140
1.0
102
RTVSPost2010PropOp57
 70
     0
  0
XRECORD
  5
1FC
102
{ACAD_REACTORS
330
1FB
102
}
330
1FB
100
AcDbXrecord
280
     1
102
RTVSPropertyOp0
 70
     1
102
RTVSPropertyOp1
 70
     1
102
RTVSPropertyOp2
 70
     1
102
RTVSPropertyOp3
 70
     1
102
RTVSPropertyOp4
 70
     1
102
RTVSPropertyOp5
 70
     1
102
RTVSPropertyOp6
 70
     1
102
RTVSPropertyOp7
 70
     1
102
RTVSPropertyOp8
 70
     1
102
RTVSPropertyOp9
 70
     1
102
RTVSPropertyOp10
 70
     1
102
RTVSPropertyOp11
 70
     1
102
RTVSPropertyOp12
 70
     1
102
RTVSPropertyOp13
 70
     1
102
RTVSPropertyOp14
 70
     1
102
RTVSPropertyOp15
 70
     1
102
RTVSPropertyOp16
 70
     1
102
RTVSPropertyOp17
 70
     1
102
RTVSPropertyOp18
 70
     1
102
RTVSPropertyOp19
 70
     1
102
RTVSPropertyOp20
 70
     1
102
RTVSPropertyOp21
 70
     1
102
RTVSPropertyOp22
 70
     1
102
RTVSPropertyOp23
 70
     1
102
RTVSPropertyOp24
 70
     1
102
RTVSPropertyOp25
 70
     1
102
RTVSPropertyOp26
 70
     1
102
RTVSPropertyOp27
 70
     1
102
RTVSPropertyOp28
 70
     1
102
RTVSPropertyOp29
 70
     1
102
RTVSPropertyOp30
 70
     1
102
RTVSPropertyOp31
 70
     1
102
RTVSPropertyOp32
 70
     1
102
RTVSPropertyOp33
 70
     1
102
RTVSPropertyOp34
 70
     1
102
RTVSPropertyOp35
 70
     1
102
RTVSPropertyOp36
 70
     1
102
RTVSPropertyOp37
 70
     1
102
RTVSPropertyOp38
 70
     1
102
RTVSPropertyOp39
 70
     1
102
RTVSPropertyOp40
 70
     1
102
RTVSPropertyOp41
 70
     1
102
RTVSPropertyOp42
 70
     1
102
RTVSPropertyOp43
 70
     1
102
RTVSPropertyOp44
 70
     1
102
RTVSPropertyOp45
 70
     1
102
RTVSPropertyOp46
 70
     1
102
RTVSPropertyOp47
 70
     1
102
RTVSPropertyOp48
 70
     1
102
RTVSPropertyOp49
 70
     1
102
RTVSPropertyOp50
 70
     1
102
RTVSPropertyOp51
 70
     0
102
RTVSPropertyOp52
 70
     0
102
RTVSPropertyOp53
 70
     1
102
RTVSPropertyOp54
 70
     1
102
RTVSPropertyOp55
 70
     1
102
RTVSPropertyOp56
 70
     1
102
RTVSPropertyOp57
 70
     1
102
RTVSPost2010Prop28
280
     0
102
RTVSPost2010PropOp28
 70
     1
102
RTVSPost2010Prop29
280
     1
102
RTVSPost2010PropOp29
 70
     1
102
RTVSPost2010Prop30
280
     1
102
RTVSPost2010PropOp30
 70
     1
102
RTVSPost2010Prop31
280
     0
102
RTVSPost2010PropOp31
 70
     1
102
RTVSPost2010Prop32
280
     0
102
RTVSPost2010PropOp32
 70
     1
102
RTVSPost2010Prop33
280
     0
102
RTVSPost2010PropOp33
 70
     1
102
RTVSPost2010Prop34
280
     0
102
RTVSPost2010PropOp34
 70
     1
102
RTVSPost2010Prop35
280
     0
102
RTVSPost2010PropOp35
 70
     1
102
RTVSPost2010Prop36
280
     0
102
RTVSPost2010PropOp36
 70
     1
102
RTVSPost2010Prop37
 90
       50
102
RTVSPost2010PropOp37
 70
     1
102
RTVSPost2010Prop38
140
0.0
102
RTVSPost2010PropOp38
 70
     1
102
RTVSPost2010Prop39
140
1.0
102
RTVSPost2010PropOp39
 70
     1
102
RTVSPost2010Prop40
 90
        0
102
RTVSPost2010PropOp40
 70
     1
102
RTVSPost2010Prop41ColorIndex
 90
       18
102
RTVSPost2010Prop41ColorRGB
 90
        0
102
RTVSPost2010PropOp41
 70
     1
102
RTVSPost2010Prop42
 90
       50
102
RTVSPost2010PropOp42
 70
     1
102
RTVSPost2010Prop43
 90
        3
102
RTVSPost2010PropOp43
 70
     1
102
RTVSPost2010Prop44ColorIndex
 90
        5
102
RTVSPost2010Prop44ColorRGB
 90
      255
102
RTVSPost2010PropOp44
 70
     1
102
RTVSPost2010Prop45
280
     0
102
RTVSPost2010PropOp45
 70
     1
102
RTVSPost2010Prop46
 90
       50
102
RTVSPost2010PropOp46
 70
     1
102
RTVSPost2010Prop47
 90
       50
102
RTVSPost2010PropOp47
 70
     1
102
RTVSPost2010Prop48
 90
       50
102
RTVSPost2010PropOp48
 70
     1
102
RTVSPost2010Prop49
280
     0
102
RTVSPost2010PropOp49
 70
     1
102
RTVSPost2010Prop50
 90
       50
102
RTVSPost2010PropOp50
 70
     1
102
RTVSPost2010Prop51ColorIndex
 90
      256
102
RTVSPost2010Prop51ColorRGB
 90
-16777216
102
RTVSPost2010PropOp51
 70
     0
102
RTVSPost2010Prop52
140
1.0
102
RTVSPost2010PropOp52
 70
     0
102
RTVSPost2010Prop53
 90
        2
102
RTVSPost2010PropOp53
 70
     1
102
RTVSPost2010Prop54
  1
strokes_ogs.tif
102
RTVSPost2010PropOp54
 70
     1
102
RTVSPost2010Prop55
280
     0
102
RTVSPost2010PropOp55
 70
     1
102
RTVSPost2010Prop56
140
1.0
102
RTVSPost2010PropOp56
 70
     1
102
RTVSPost2010Prop57
140
1.0
102
RTVSPost2010PropOp57
 70
     1
  0
XRECORD
  5
204
102
{ACAD_REACTORS
330
203
102
}
330
203
100
AcDbXrecord
280
     1
102
RTVSPropertyOp0
 70
     0
102
RTVSPropertyOp1
 70
     0
102
RTVSPropertyOp2
 70
     0
102
RTVSPropertyOp3
 70
     0
102
RTVSPropertyOp4
 70
     0
102
RTVSPropertyOp5
 70
     0
102
RTVSPropertyOp6
 70
     0
102
RTVSPropertyOp7
 70
     0
102
RTVSPropertyOp8
 70
     0
102
RTVSPropertyOp9
 70
     0
102
RTVSPropertyOp10
 70
     0
102
RTVSPropertyOp11
 70
     0
102
RTVSPropertyOp12
 70
     0
102
RTVSPropertyOp13
 70
     0
102
RTVSPropertyOp14
 70
     2
102
RTVSPropertyOp15
 70
     0
102
RTVSPropertyOp16
 70
     0
102
RTVSPropertyOp17
 70
     0
102
RTVSPropertyOp18
 70
     0
102
RTVSPropertyOp19
 70
     0
102
RTVSPropertyOp20
 70
     0
102
RTVSPropertyOp21
 70
     0
102
RTVSPropertyOp22
 70
     0
102
RTVSPropertyOp23
 70
     0
102
RTVSPropertyOp24
 70
     0
102
RTVSPropertyOp25
 70
     0
102
RTVSPropertyOp26
 70
     0
102
RTVSPropertyOp27
 70
     0
102
RTVSPropertyOp28
 70
     0
102
RTVSPropertyOp29
 70
     0
102
RTVSPropertyOp30
 70
     0
102
RTVSPropertyOp31
 70
     0
102
RTVSPropertyOp32
 70
     0
102
RTVSPropertyOp33
 70
     0
102
RTVSPropertyOp34
 70
     0
102
RTVSPropertyOp35
 70
     0
102
RTVSPropertyOp36
 70
     0
102
RTVSPropertyOp37
 70
     0
102
RTVSPropertyOp38
 70
     0
102
RTVSPropertyOp39
 70
     0
102
RTVSPropertyOp40
 70
     0
102
RTVSPropertyOp41
 70
     0
102
RTVSPropertyOp42
 70
     0
102
RTVSPropertyOp43
 70
     0
102
RTVSPropertyOp44
 70
     0
102
RTVSPropertyOp45
 70
     0
102
RTVSPropertyOp46
 70
     0
102
RTVSPropertyOp47
 70
     0
102
RTVSPropertyOp48
 70
     0
102
RTVSPropertyOp49
 70
     0
102
RTVSPropertyOp50
 70
     0
102
RTVSPropertyOp51
 70
     0
102
RTVSPropertyOp52
 70
     0
102
RTVSPropertyOp53
 70
     0
102
RTVSPropertyOp54
 70
     0
102
RTVSPropertyOp55
 70
     0
102
RTVSPropertyOp56
 70
     0
102
RTVSPropertyOp57
 70
     0
102
RTVSPost2010Prop28
280
     0
102
RTVSPost2010PropOp28
 70
     0
102
RTVSPost2010Prop29
280
     1
102
RTVSPost2010PropOp29
 70
     0
102
RTVSPost2010Prop30
280
     1
102
RTVSPost2010PropOp30
 70
     0
102
RTVSPost2010Prop31
280
     0
102
RTVSPost2010PropOp31
 70
     0
102
RTVSPost2010Prop32
280
     0
102
RTVSPost2010PropOp32
 70
     0
102
RTVSPost2010Prop33
280
     0
102
RTVSPost2010PropOp33
 70
     0
102
RTVSPost2010Prop34
280
     0
102
RTVSPost2010PropOp34
 70
     0
102
RTVSPost2010Prop35
280
     0
102
RTVSPost2010PropOp35
 70
     0
102
RTVSPost2010Prop36
280
     0
102
RTVSPost2010PropOp36
 70
     0
102
RTVSPost2010Prop37
 90
       50
102
RTVSPost2010PropOp37
 70
     0
102
RTVSPost2010Prop38
140
0.0
102
RTVSPost2010PropOp38
 70
     0
102
RTVSPost2010Prop39
140
1.0
102
RTVSPost2010PropOp39
 70
     0
102
RTVSPost2010Prop40
 90
        0
102
RTVSPost2010PropOp40
 70
     0
102
RTVSPost2010Prop41ColorIndex
 90
       18
102
RTVSPost2010Prop41ColorRGB
 90
        0
102
RTVSPost2010PropOp41
 70
     0
102
RTVSPost2010Prop42
 90
       50
102
RTVSPost2010PropOp42
 70
     0
102
RTVSPost2010Prop43
 90
        3
102
RTVSPost2010PropOp43
 70
     0
102
RTVSPost2010Prop44ColorIndex
 90
        5
102
RTVSPost2010Prop44ColorRGB
 90
      255
102
RTVSPost2010PropOp44
 70
     0
102
RTVSPost2010Prop45
280
     0
102
RTVSPost2010PropOp45
 70
     0
102
RTVSPost2010Prop46
 90
       50
102
RTVSPost2010PropOp46
 70
     0
102
RTVSPost2010Prop47
 90
       50
102
RTVSPost2010PropOp47
 70
     0
102
RTVSPost2010Prop48
 90
       50
102
RTVSPost2010PropOp48
 70
     0
102
RTVSPost2010Prop49
280
     0
102
RTVSPost2010PropOp49
 70
     0
102
RTVSPost2010Prop50
 90
       50
102
RTVSPost2010PropOp50
 70
     0
102
RTVSPost2010Prop51ColorIndex
 90
      256
102
RTVSPost2010Prop51ColorRGB
 90
-16777216
102
RTVSPost2010PropOp51
 70
     0
102
RTVSPost2010Prop52
140
1.0
102
RTVSPost2010PropOp52
 70
     0
102
RTVSPost2010Prop53
 90
        2
102
RTVSPost2010PropOp53
 70
     0
102
RTVSPost2010Prop54
  1
strokes_ogs.tif
102
RTVSPost2010PropOp54
 70
     0
102
RTVSPost2010Prop55
280
     0
102
RTVSPost2010PropOp55
 70
     0
102
RTVSPost2010Prop56
140
1.0
102
RTVSPost2010PropOp56
 70
     0
102
RTVSPost2010Prop57
140
1.0
102
RTVSPost2010PropOp57
 70
     0
  0
XRECORD
  5
1F2
102
{ACAD_REACTORS
330
1F1
102
}
330
1F1
100
AcDbXrecord
280
     1
102
RTVSPropertyOp0
 70
     1
102
RTVSPropertyOp1
 70
     1
102
RTVSPropertyOp2
 70
     1
102
RTVSPropertyOp3
 70
     1
102
RTVSPropertyOp4
 70
     1
102
RTVSPropertyOp5
 70
     1
102
RTVSPropertyOp6
 70
     1
102
RTVSPropertyOp7
 70
     1
102
RTVSPropertyOp8
 70
     1
102
RTVSPropertyOp9
 70
     1
102
RTVSPropertyOp10
 70
     1
102
RTVSPropertyOp11
 70
     1
102
RTVSPropertyOp12
 70
     1
102
RTVSPropertyOp13
 70
     1
102
RTVSPropertyOp14
 70
     1
102
RTVSPropertyOp15
 70
     1
102
RTVSPropertyOp16
 70
     1
102
RTVSPropertyOp17
 70
     1
102
RTVSPropertyOp18
 70
     1
102
RTVSPropertyOp19
 70
     1
102
RTVSPropertyOp20
 70
     1
102
RTVSPropertyOp21
 70
     1
102
RTVSPropertyOp22
 70
     1
102
RTVSPropertyOp23
 70
     1
102
RTVSPropertyOp24
 70
     1
102
RTVSPropertyOp25
 70
     1
102
RTVSPropertyOp26
 70
     1
102
RTVSPropertyOp27
 70
     1
102
RTVSPropertyOp28
 70
     1
102
RTVSPropertyOp29
 70
     1
102
RTVSPropertyOp30
 70
     1
102
RTVSPropertyOp31
 70
     1
102
RTVSPropertyOp32
 70
     1
102
RTVSPropertyOp33
 70
     1
102
RTVSPropertyOp34
 70
     1
102
RTVSPropertyOp35
 70
     1
102
RTVSPropertyOp36
 70
     1
102
RTVSPropertyOp37
 70
     1
102
RTVSPropertyOp38
 70
     1
102
RTVSPropertyOp39
 70
     1
102
RTVSPropertyOp40
 70
     1
102
RTVSPropertyOp41
 70
     1
102
RTVSPropertyOp42
 70
     1
102
RTVSPropertyOp43
 70
     1
102
RTVSPropertyOp44
 70
     1
102
RTVSPropertyOp45
 70
     1
102
RTVSPropertyOp46
 70
     1
102
RTVSPropertyOp47
 70
     1
102
RTVSPropertyOp48
 70
     1
102
RTVSPropertyOp49
 70
     1
102
RTVSPropertyOp50
 70
     1
102
RTVSPropertyOp51
 70
     0
102
RTVSPropertyOp52
 70
     0
102
RTVSPropertyOp53
 70
     1
102
RTVSPropertyOp54
 70
     1
102
RTVSPropertyOp55
 70
     1
102
RTVSPropertyOp56
 70
     1
102
RTVSPropertyOp57
 70
     1
102
RTVSPost2010Prop28
280
     0
102
RTVSPost2010PropOp28
 70
     1
102
RTVSPost2010Prop29
280
     1
102
RTVSPost2010PropOp29
 70
     1
102
RTVSPost2010Prop30
280
     1
102
RTVSPost2010PropOp30
 70
     1
102
RTVSPost2010Prop31
280
     0
102
RTVSPost2010PropOp31
 70
     1
102
RTVSPost2010Prop32
280
     0
102
RTVSPost2010PropOp32
 70
     1
102
RTVSPost2010Prop33
280
     0
102
RTVSPost2010PropOp33
 70
     1
102
RTVSPost2010Prop34
280
     0
102
RTVSPost2010PropOp34
 70
     1
102
RTVSPost2010Prop35
280
     0
102
RTVSPost2010PropOp35
 70
     1
102
RTVSPost2010Prop36
280
     0
102
RTVSPost2010PropOp36
 70
     1
102
RTVSPost2010Prop37
 90
       50
102
RTVSPost2010PropOp37
 70
     1
102
RTVSPost2010Prop38
140
0.0
102
RTVSPost2010PropOp38
 70
     1
102
RTVSPost2010Prop39
140
1.0
102
RTVSPost2010PropOp39
 70
     1
102
RTVSPost2010Prop40
 90
        0
102
RTVSPost2010PropOp40
 70
     1
102
RTVSPost2010Prop41ColorIndex
 90
       18
102
RTVSPost2010Prop41ColorRGB
 90
        0
102
RTVSPost2010PropOp41
 70
     1
102
RTVSPost2010Prop42
 90
       50
102
RTVSPost2010PropOp42
 70
     1
102
RTVSPost2010Prop43
 90
        3
102
RTVSPost2010PropOp43
 70
     1
102
RTVSPost2010Prop44ColorIndex
 90
        5
102
RTVSPost2010Prop44ColorRGB
 90
      255
102
RTVSPost2010PropOp44
 70
     1
102
RTVSPost2010Prop45
280
     0
102
RTVSPost2010PropOp45
 70
     1
102
RTVSPost2010Prop46
 90
       50
102
RTVSPost2010PropOp46
 70
     1
102
RTVSPost2010Prop47
 90
       50
102
RTVSPost2010PropOp47
 70
     1
102
RTVSPost2010Prop48
 90
       50
102
RTVSPost2010PropOp48
 70
     1
102
RTVSPost2010Prop49
280
     0
102
RTVSPost2010PropOp49
 70
     1
102
RTVSPost2010Prop50
 90
       50
102
RTVSPost2010PropOp50
 70
     1
102
RTVSPost2010Prop51ColorIndex
 90
      256
102
RTVSPost2010Prop51ColorRGB
 90
-16777216
102
RTVSPost2010PropOp51
 70
     0
102
RTVSPost2010Prop52
140
1.0
102
RTVSPost2010PropOp52
 70
     0
102
RTVSPost2010Prop53
 90
        2
102
RTVSPost2010PropOp53
 70
     1
102
RTVSPost2010Prop54
  1
strokes_ogs.tif
102
RTVSPost2010PropOp54
 70
     1
102
RTVSPost2010Prop55
280
     0
102
RTVSPost2010PropOp55
 70
     1
102
RTVSPost2010Prop56
140
1.0
102
RTVSPost2010PropOp56
 70
     1
102
RTVSPost2010Prop57
140
1.0
102
RTVSPost2010PropOp57
 70
     1
  0
XRECORD
  5
210
102
{ACAD_REACTORS
330
20F
102
}
330
20F
100
AcDbXrecord
280
     1
102
RTVSPropertyOp0
 70
     1
102
RTVSPropertyOp1
 70
     1
102
RTVSPropertyOp2
 70
     1
102
RTVSPropertyOp3
 70
     1
102
RTVSPropertyOp4
 70
     1
102
RTVSPropertyOp5
 70
     1
102
RTVSPropertyOp6
 70
     1
102
RTVSPropertyOp7
 70
     1
102
RTVSPropertyOp8
 70
     1
102
RTVSPropertyOp9
 70
     1
102
RTVSPropertyOp10
 70
     1
102
RTVSPropertyOp11
 70
     1
102
RTVSPropertyOp12
 70
     1
102
RTVSPropertyOp13
 70
     1
102
RTVSPropertyOp14
 70
     1
102
RTVSPropertyOp15
 70
     1
102
RTVSPropertyOp16
 70
     1
102
RTVSPropertyOp17
 70
     1
102
RTVSPropertyOp18
 70
     1
102
RTVSPropertyOp19
 70
     1
102
RTVSPropertyOp20
 70
     1
102
RTVSPropertyOp21
 70
     1
102
RTVSPropertyOp22
 70
     1
102
RTVSPropertyOp23
 70
     1
102
RTVSPropertyOp24
 70
     1
102
RTVSPropertyOp25
 70
     1
102
RTVSPropertyOp26
 70
     1
102
RTVSPropertyOp27
 70
     1
102
RTVSPropertyOp28
 70
     1
102
RTVSPropertyOp29
 70
     1
102
RTVSPropertyOp30
 70
     1
102
RTVSPropertyOp31
 70
     1
102
RTVSPropertyOp32
 70
     1
102
RTVSPropertyOp33
 70
     1
102
RTVSPropertyOp34
 70
     1
102
RTVSPropertyOp35
 70
     1
102
RTVSPropertyOp36
 70
     1
102
RTVSPropertyOp37
 70
     1
102
RTVSPropertyOp38
 70
     1
102
RTVSPropertyOp39
 70
     1
102
RTVSPropertyOp40
 70
     1
102
RTVSPropertyOp41
 70
     1
102
RTVSPropertyOp42
 70
     1
102
RTVSPropertyOp43
 70
     1
102
RTVSPropertyOp44
 70
     1
102
RTVSPropertyOp45
 70
     1
102
RTVSPropertyOp46
 70
     1
102
RTVSPropertyOp47
 70
     1
102
RTVSPropertyOp48
 70
     1
102
RTVSPropertyOp49
 70
     1
102
RTVSPropertyOp50
 70
     1
102
RTVSPropertyOp51
 70
     0
102
RTVSPropertyOp52
 70
     0
102
RTVSPropertyOp53
 70
     1
102
RTVSPropertyOp54
 70
     1
102
RTVSPropertyOp55
 70
     1
102
RTVSPropertyOp56
 70
     1
102
RTVSPropertyOp57
 70
     1
102
RTVSPost2010Prop28
280
     0
102
RTVSPost2010PropOp28
 70
     1
102
RTVSPost2010Prop29
280
     1
102
RTVSPost2010PropOp29
 70
     1
102
RTVSPost2010Prop30
280
     1
102
RTVSPost2010PropOp30
 70
     1
102
RTVSPost2010Prop31
280
     0
102
RTVSPost2010PropOp31
 70
     1
102
RTVSPost2010Prop32
280
     0
102
RTVSPost2010PropOp32
 70
     1
102
RTVSPost2010Prop33
280
     0
102
RTVSPost2010PropOp33
 70
     1
102
RTVSPost2010Prop34
280
     0
102
RTVSPost2010PropOp34
 70
     1
102
RTVSPost2010Prop35
280
     0
102
RTVSPost2010PropOp35
 70
     1
102
RTVSPost2010Prop36
280
     0
102
RTVSPost2010PropOp36
 70
     1
102
RTVSPost2010Prop37
 90
       50
102
RTVSPost2010PropOp37
 70
     1
102
RTVSPost2010Prop38
140
0.0
102
RTVSPost2010PropOp38
 70
     1
102
RTVSPost2010Prop39
140
1.0
102
RTVSPost2010PropOp39
 70
     1
102
RTVSPost2010Prop40
 90
        0
102
RTVSPost2010PropOp40
 70
     1
102
RTVSPost2010Prop41ColorIndex
 90
       18
102
RTVSPost2010Prop41ColorRGB
 90
        0
102
RTVSPost2010PropOp41
 70
     1
102
RTVSPost2010Prop42
 90
       50
102
RTVSPost2010PropOp42
 70
     1
102
RTVSPost2010Prop43
 90
        3
102
RTVSPost2010PropOp43
 70
     1
102
RTVSPost2010Prop44ColorIndex
 90
        5
102
RTVSPost2010Prop44ColorRGB
 90
      255
102
RTVSPost2010PropOp44
 70
     1
102
RTVSPost2010Prop45
280
     0
102
RTVSPost2010PropOp45
 70
     1
102
RTVSPost2010Prop46
 90
       50
102
RTVSPost2010PropOp46
 70
     1
102
RTVSPost2010Prop47
 90
       50
102
RTVSPost2010PropOp47
 70
     1
102
RTVSPost2010Prop48
 90
       50
102
RTVSPost2010PropOp48
 70
     1
102
RTVSPost2010Prop49
280
     0
102
RTVSPost2010PropOp49
 70
     1
102
RTVSPost2010Prop50
 90
       50
102
RTVSPost2010PropOp50
 70
     1
102
RTVSPost2010Prop51ColorIndex
 90
      256
102
RTVSPost2010Prop51ColorRGB
 90
-16777216
102
RTVSPost2010PropOp51
 70
     0
102
RTVSPost2010Prop52
140
1.0
102
RTVSPost2010PropOp52
 70
     0
102
RTVSPost2010Prop53
 90
        2
102
RTVSPost2010PropOp53
 70
     1
102
RTVSPost2010Prop54
  1
strokes_ogs.tif
102
RTVSPost2010PropOp54
 70
     1
102
RTVSPost2010Prop55
280
     0
102
RTVSPost2010PropOp55
 70
     1
102
RTVSPost2010Prop56
140
1.0
102
RTVSPost2010PropOp56
 70
     1
102
RTVSPost2010Prop57
140
1.0
102
RTVSPost2010PropOp57
 70
     1
  0
XRECORD
  5
20E
102
{ACAD_REACTORS
330
20D
102
}
330
20D
100
AcDbXrecord
280
     1
102
RTVSPropertyOp0
 70
     1
102
RTVSPropertyOp1
 70
     1
102
RTVSPropertyOp2
 70
     1
102
RTVSPropertyOp3
 70
     1
102
RTVSPropertyOp4
 70
     1
102
RTVSPropertyOp5
 70
     1
102
RTVSPropertyOp6
 70
     1
102
RTVSPropertyOp7
 70
     1
102
RTVSPropertyOp8
 70
     1
102
RTVSPropertyOp9
 70
     1
102
RTVSPropertyOp10
 70
     1
102
RTVSPropertyOp11
 70
     1
102
RTVSPropertyOp12
 70
     1
102
RTVSPropertyOp13
 70
     1
102
RTVSPropertyOp14
 70
     1
102
RTVSPropertyOp15
 70
     1
102
RTVSPropertyOp16
 70
     1
102
RTVSPropertyOp17
 70
     1
102
RTVSPropertyOp18
 70
     1
102
RTVSPropertyOp19
 70
     1
102
RTVSPropertyOp20
 70
     1
102
RTVSPropertyOp21
 70
     1
102
RTVSPropertyOp22
 70
     1
102
RTVSPropertyOp23
 70
     1
102
RTVSPropertyOp24
 70
     1
102
RTVSPropertyOp25
 70
     1
102
RTVSPropertyOp26
 70
     1
102
RTVSPropertyOp27
 70
     1
102
RTVSPropertyOp28
 70
     1
102
RTVSPropertyOp29
 70
     1
102
RTVSPropertyOp30
 70
     1
102
RTVSPropertyOp31
 70
     1
102
RTVSPropertyOp32
 70
     1
102
RTVSPropertyOp33
 70
     1
102
RTVSPropertyOp34
 70
     1
102
RTVSPropertyOp35
 70
     1
102
RTVSPropertyOp36
 70
     1
102
RTVSPropertyOp37
 70
     1
102
RTVSPropertyOp38
 70
     1
102
RTVSPropertyOp39
 70
     1
102
RTVSPropertyOp40
 70
     1
102
RTVSPropertyOp41
 70
     1
102
RTVSPropertyOp42
 70
     1
102
RTVSPropertyOp43
 70
     1
102
RTVSPropertyOp44
 70
     1
102
RTVSPropertyOp45
 70
     1
102
RTVSPropertyOp46
 70
     1
102
RTVSPropertyOp47
 70
     1
102
RTVSPropertyOp48
 70
     1
102
RTVSPropertyOp49
 70
     1
102
RTVSPropertyOp50
 70
     1
102
RTVSPropertyOp51
 70
     0
102
RTVSPropertyOp52
 70
     0
102
RTVSPropertyOp53
 70
     1
102
RTVSPropertyOp54
 70
     1
102
RTVSPropertyOp55
 70
     1
102
RTVSPropertyOp56
 70
     1
102
RTVSPropertyOp57
 70
     1
102
RTVSPost2010Prop28
280
     0
102
RTVSPost2010PropOp28
 70
     1
102
RTVSPost2010Prop29
280
     1
102
RTVSPost2010PropOp29
 70
     1
102
RTVSPost2010Prop30
280
     1
102
RTVSPost2010PropOp30
 70
     1
102
RTVSPost2010Prop31
280
     0
102
RTVSPost2010PropOp31
 70
     1
102
RTVSPost2010Prop32
280
     0
102
RTVSPost2010PropOp32
 70
     1
102
RTVSPost2010Prop33
280
     0
102
RTVSPost2010PropOp33
 70
     1
102
RTVSPost2010Prop34
280
     0
102
RTVSPost2010PropOp34
 70
     1
102
RTVSPost2010Prop35
280
     0
102
RTVSPost2010PropOp35
 70
     1
102
RTVSPost2010Prop36
280
     0
102
RTVSPost2010PropOp36
 70
     1
102
RTVSPost2010Prop37
 90
       50
102
RTVSPost2010PropOp37
 70
     1
102
RTVSPost2010Prop38
140
0.0
102
RTVSPost2010PropOp38
 70
     1
102
RTVSPost2010Prop39
140
1.0
102
RTVSPost2010PropOp39
 70
     1
102
RTVSPost2010Prop40
 90
        0
102
RTVSPost2010PropOp40
 70
     1
102
RTVSPost2010Prop41ColorIndex
 90
       18
102
RTVSPost2010Prop41ColorRGB
 90
        0
102
RTVSPost2010PropOp41
 70
     1
102
RTVSPost2010Prop42
 90
       50
102
RTVSPost2010PropOp42
 70
     1
102
RTVSPost2010Prop43
 90
        3
102
RTVSPost2010PropOp43
 70
     1
102
RTVSPost2010Prop44ColorIndex
 90
        5
102
RTVSPost2010Prop44ColorRGB
 90
      255
102
RTVSPost2010PropOp44
 70
     1
102
RTVSPost2010Prop45
280
     0
102
RTVSPost2010PropOp45
 70
     1
102
RTVSPost2010Prop46
 90
       50
102
RTVSPost2010PropOp46
 70
     1
102
RTVSPost2010Prop47
 90
       50
102
RTVSPost2010PropOp47
 70
     1
102
RTVSPost2010Prop48
 90
       50
102
RTVSPost2010PropOp48
 70
     1
102
RTVSPost2010Prop49
280
     0
102
RTVSPost2010PropOp49
 70
     1
102
RTVSPost2010Prop50
 90
       50
102
RTVSPost2010PropOp50
 70
     1
102
RTVSPost2010Prop51ColorIndex
 90
      256
102
RTVSPost2010Prop51ColorRGB
 90
-16777216
102
RTVSPost2010PropOp51
 70
     0
102
RTVSPost2010Prop52
140
1.0
102
RTVSPost2010PropOp52
 70
     0
102
RTVSPost2010Prop53
 90
        2
102
RTVSPost2010PropOp53
 70
     1
102
RTVSPost2010Prop54
  1
strokes_ogs.tif
102
RTVSPost2010PropOp54
 70
     1
102
RTVSPost2010Prop55
280
     0
102
RTVSPost2010PropOp55
 70
     1
102
RTVSPost2010Prop56
140
1.0
102
RTVSPost2010PropOp56
 70
     1
102
RTVSPost2010Prop57
140
1.0
102
RTVSPost2010PropOp57
 70
     1
  0
XRECORD
  5
208
102
{ACAD_REACTORS
330
207
102
}
330
207
100
AcDbXrecord
280
     1
102
RTVSPropertyOp0
 70
     1
102
RTVSPropertyOp1
 70
     1
102
RTVSPropertyOp2
 70
     1
102
RTVSPropertyOp3
 70
     1
102
RTVSPropertyOp4
 70
     1
102
RTVSPropertyOp5
 70
     1
102
RTVSPropertyOp6
 70
     1
102
RTVSPropertyOp7
 70
     1
102
RTVSPropertyOp8
 70
     1
102
RTVSPropertyOp9
 70
     1
102
RTVSPropertyOp10
 70
     1
102
RTVSPropertyOp11
 70
     1
102
RTVSPropertyOp12
 70
     1
102
RTVSPropertyOp13
 70
     1
102
RTVSPropertyOp14
 70
     1
102
RTVSPropertyOp15
 70
     1
102
RTVSPropertyOp16
 70
     1
102
RTVSPropertyOp17
 70
     1
102
RTVSPropertyOp18
 70
     1
102
RTVSPropertyOp19
 70
     1
102
RTVSPropertyOp20
 70
     1
102
RTVSPropertyOp21
 70
     1
102
RTVSPropertyOp22
 70
     1
102
RTVSPropertyOp23
 70
     1
102
RTVSPropertyOp24
 70
     1
102
RTVSPropertyOp25
 70
     1
102
RTVSPropertyOp26
 70
     1
102
RTVSPropertyOp27
 70
     1
102
RTVSPropertyOp28
 70
     1
102
RTVSPropertyOp29
 70
     1
102
RTVSPropertyOp30
 70
     1
102
RTVSPropertyOp31
 70
     1
102
RTVSPropertyOp32
 70
     1
102
RTVSPropertyOp33
 70
     1
102
RTVSPropertyOp34
 70
     1
102
RTVSPropertyOp35
 70
     1
102
RTVSPropertyOp36
 70
     1
102
RTVSPropertyOp37
 70
     1
102
RTVSPropertyOp38
 70
     1
102
RTVSPropertyOp39
 70
     1
102
RTVSPropertyOp40
 70
     1
102
RTVSPropertyOp41
 70
     1
102
RTVSPropertyOp42
 70
     1
102
RTVSPropertyOp43
 70
     1
102
RTVSPropertyOp44
 70
     1
102
RTVSPropertyOp45
 70
     1
102
RTVSPropertyOp46
 70
     1
102
RTVSPropertyOp47
 70
     1
102
RTVSPropertyOp48
 70
     1
102
RTVSPropertyOp49
 70
     1
102
RTVSPropertyOp50
 70
     1
102
RTVSPropertyOp51
 70
     0
102
RTVSPropertyOp52
 70
     0
102
RTVSPropertyOp53
 70
     1
102
RTVSPropertyOp54
 70
     1
102
RTVSPropertyOp55
 70
     1
102
RTVSPropertyOp56
 70
     1
102
RTVSPropertyOp57
 70
     1
102
RTVSPost2010Prop28
280
     0
102
RTVSPost2010PropOp28
 70
     1
102
RTVSPost2010Prop29
280
     1
102
RTVSPost2010PropOp29
 70
     1
102
RTVSPost2010Prop30
280
     1
102
RTVSPost2010PropOp30
 70
     1
102
RTVSPost2010Prop31
280
     0
102
RTVSPost2010PropOp31
 70
     1
102
RTVSPost2010Prop32
280
     0
102
RTVSPost2010PropOp32
 70
     1
102
RTVSPost2010Prop33
280
     0
102
RTVSPost2010PropOp33
 70
     1
102
RTVSPost2010Prop34
280
     0
102
RTVSPost2010PropOp34
 70
     1
102
RTVSPost2010Prop35
280
     0
102
RTVSPost2010PropOp35
 70
     1
102
RTVSPost2010Prop36
280
     0
102
RTVSPost2010PropOp36
 70
     1
102
RTVSPost2010Prop37
 90
       50
102
RTVSPost2010PropOp37
 70
     1
102
RTVSPost2010Prop38
140
0.0
102
RTVSPost2010PropOp38
 70
     1
102
RTVSPost2010Prop39
140
1.0
102
RTVSPost2010PropOp39
 70
     1
102
RTVSPost2010Prop40
 90
        0
102
RTVSPost2010PropOp40
 70
     1
102
RTVSPost2010Prop41ColorIndex
 90
       18
102
RTVSPost2010Prop41ColorRGB
 90
        0
102
RTVSPost2010PropOp41
 70
     1
102
RTVSPost2010Prop42
 90
       50
102
RTVSPost2010PropOp42
 70
     1
102
RTVSPost2010Prop43
 90
        3
102
RTVSPost2010PropOp43
 70
     1
102
RTVSPost2010Prop44ColorIndex
 90
        5
102
RTVSPost2010Prop44ColorRGB
 90
      255
102
RTVSPost2010PropOp44
 70
     1
102
RTVSPost2010Prop45
280
     0
102
RTVSPost2010PropOp45
 70
     1
102
RTVSPost2010Prop46
 90
       50
102
RTVSPost2010PropOp46
 70
     1
102
RTVSPost2010Prop47
 90
       50
102
RTVSPost2010PropOp47
 70
     1
102
RTVSPost2010Prop48
 90
       50
102
RTVSPost2010PropOp48
 70
     1
102
RTVSPost2010Prop49
280
     0
102
RTVSPost2010PropOp49
 70
     1
102
RTVSPost2010Prop50
 90
       50
102
RTVSPost2010PropOp50
 70
     1
102
RTVSPost2010Prop51ColorIndex
 90
      256
102
RTVSPost2010Prop51ColorRGB
 90
-16777216
102
RTVSPost2010PropOp51
 70
     0
102
RTVSPost2010Prop52
140
1.0
102
RTVSPost2010PropOp52
 70
     0
102
RTVSPost2010Prop53
 90
        2
102
RTVSPost2010PropOp53
 70
     1
102
RTVSPost2010Prop54
  1
strokes_ogs.tif
102
RTVSPost2010PropOp54
 70
     1
102
RTVSPost2010Prop55
280
     0
102
RTVSPost2010PropOp55
 70
     1
102
RTVSPost2010Prop56
140
1.0
102
RTVSPost2010PropOp56
 70
     1
102
RTVSPost2010Prop57
140
1.0
102
RTVSPost2010PropOp57
 70
     1
  0
XRECORD
  5
20A
102
{ACAD_REACTORS
330
209
102
}
330
209
100
AcDbXrecord
280
     1
102
RTVSPropertyOp0
 70
     1
102
RTVSPropertyOp1
 70
     1
102
RTVSPropertyOp2
 70
     1
102
RTVSPropertyOp3
 70
     1
102
RTVSPropertyOp4
 70
     1
102
RTVSPropertyOp5
 70
     1
102
RTVSPropertyOp6
 70
     1
102
RTVSPropertyOp7
 70
     1
102
RTVSPropertyOp8
 70
     1
102
RTVSPropertyOp9
 70
     1
102
RTVSPropertyOp10
 70
     1
102
RTVSPropertyOp11
 70
     1
102
RTVSPropertyOp12
 70
     1
102
RTVSPropertyOp13
 70
     1
102
RTVSPropertyOp14
 70
     1
102
RTVSPropertyOp15
 70
     1
102
RTVSPropertyOp16
 70
     1
102
RTVSPropertyOp17
 70
     1
102
RTVSPropertyOp18
 70
     1
102
RTVSPropertyOp19
 70
     1
102
RTVSPropertyOp20
 70
     1
102
RTVSPropertyOp21
 70
     1
102
RTVSPropertyOp22
 70
     1
102
RTVSPropertyOp23
 70
     1
102
RTVSPropertyOp24
 70
     1
102
RTVSPropertyOp25
 70
     1
102
RTVSPropertyOp26
 70
     1
102
RTVSPropertyOp27
 70
     1
102
RTVSPropertyOp28
 70
     1
102
RTVSPropertyOp29
 70
     1
102
RTVSPropertyOp30
 70
     1
102
RTVSPropertyOp31
 70
     1
102
RTVSPropertyOp32
 70
     1
102
RTVSPropertyOp33
 70
     1
102
RTVSPropertyOp34
 70
     1
102
RTVSPropertyOp35
 70
     1
102
RTVSPropertyOp36
 70
     1
102
RTVSPropertyOp37
 70
     1
102
RTVSPropertyOp38
 70
     1
102
RTVSPropertyOp39
 70
     1
102
RTVSPropertyOp40
 70
     1
102
RTVSPropertyOp41
 70
     1
102
RTVSPropertyOp42
 70
     1
102
RTVSPropertyOp43
 70
     1
102
RTVSPropertyOp44
 70
     1
102
RTVSPropertyOp45
 70
     1
102
RTVSPropertyOp46
 70
     1
102
RTVSPropertyOp47
 70
     1
102
RTVSPropertyOp48
 70
     1
102
RTVSPropertyOp49
 70
     1
102
RTVSPropertyOp50
 70
     1
102
RTVSPropertyOp51
 70
     0
102
RTVSPropertyOp52
 70
     0
102
RTVSPropertyOp53
 70
     1
102
RTVSPropertyOp54
 70
     1
102
RTVSPropertyOp55
 70
     1
102
RTVSPropertyOp56
 70
     1
102
RTVSPropertyOp57
 70
     1
102
RTVSPost2010Prop28
280
     0
102
RTVSPost2010PropOp28
 70
     1
102
RTVSPost2010Prop29
280
     1
102
RTVSPost2010PropOp29
 70
     1
102
RTVSPost2010Prop30
280
     1
102
RTVSPost2010PropOp30
 70
     1
102
RTVSPost2010Prop31
280
     0
102
RTVSPost2010PropOp31
 70
     1
102
RTVSPost2010Prop32
280
     0
102
RTVSPost2010PropOp32
 70
     1
102
RTVSPost2010Prop33
280
     0
102
RTVSPost2010PropOp33
 70
     1
102
RTVSPost2010Prop34
280
     0
102
RTVSPost2010PropOp34
 70
     1
102
RTVSPost2010Prop35
280
     0
102
RTVSPost2010PropOp35
 70
     1
102
RTVSPost2010Prop36
280
     0
102
RTVSPost2010PropOp36
 70
     1
102
RTVSPost2010Prop37
 90
       50
102
RTVSPost2010PropOp37
 70
     1
102
RTVSPost2010Prop38
140
0.0
102
RTVSPost2010PropOp38
 70
     1
102
RTVSPost2010Prop39
140
1.0
102
RTVSPost2010PropOp39
 70
     1
102
RTVSPost2010Prop40
 90
        0
102
RTVSPost2010PropOp40
 70
     1
102
RTVSPost2010Prop41ColorIndex
 90
       18
102
RTVSPost2010Prop41ColorRGB
 90
        0
102
RTVSPost2010PropOp41
 70
     1
102
RTVSPost2010Prop42
 90
       50
102
RTVSPost2010PropOp42
 70
     1
102
RTVSPost2010Prop43
 90
        3
102
RTVSPost2010PropOp43
 70
     1
102
RTVSPost2010Prop44ColorIndex
 90
        5
102
RTVSPost2010Prop44ColorRGB
 90
      255
102
RTVSPost2010PropOp44
 70
     1
102
RTVSPost2010Prop45
280
     0
102
RTVSPost2010PropOp45
 70
     1
102
RTVSPost2010Prop46
 90
       50
102
RTVSPost2010PropOp46
 70
     1
102
RTVSPost2010Prop47
 90
       50
102
RTVSPost2010PropOp47
 70
     1
102
RTVSPost2010Prop48
 90
       50
102
RTVSPost2010PropOp48
 70
     1
102
RTVSPost2010Prop49
280
     0
102
RTVSPost2010PropOp49
 70
     1
102
RTVSPost2010Prop50
 90
       50
102
RTVSPost2010PropOp50
 70
     1
102
RTVSPost2010Prop51ColorIndex
 90
      256
102
RTVSPost2010Prop51ColorRGB
 90
-16777216
102
RTVSPost2010PropOp51
 70
     0
102
RTVSPost2010Prop52
140
1.0
102
RTVSPost2010PropOp52
 70
     0
102
RTVSPost2010Prop53
 90
        2
102
RTVSPost2010PropOp53
 70
     1
102
RTVSPost2010Prop54
  1
strokes_ogs.tif
102
RTVSPost2010PropOp54
 70
     1
102
RTVSPost2010Prop55
280
     0
102
RTVSPost2010PropOp55
 70
     1
102
RTVSPost2010Prop56
140
1.0
102
RTVSPost2010PropOp56
 70
     1
102
RTVSPost2010Prop57
140
1.0
102
RTVSPost2010PropOp57
 70
     1
  0
XRECORD
  5
1FA
102
{ACAD_REACTORS
330
1F9
102
}
330
1F9
100
AcDbXrecord
280
     1
102
RTVSPropertyOp0
 70
     1
102
RTVSPropertyOp1
 70
     1
102
RTVSPropertyOp2
 70
     1
102
RTVSPropertyOp3
 70
     1
102
RTVSPropertyOp4
 70
     1
102
RTVSPropertyOp5
 70
     1
102
RTVSPropertyOp6
 70
     1
102
RTVSPropertyOp7
 70
     1
102
RTVSPropertyOp8
 70
     1
102
RTVSPropertyOp9
 70
     1
102
RTVSPropertyOp10
 70
     1
102
RTVSPropertyOp11
 70
     1
102
RTVSPropertyOp12
 70
     1
102
RTVSPropertyOp13
 70
     1
102
RTVSPropertyOp14
 70
     1
102
RTVSPropertyOp15
 70
     1
102
RTVSPropertyOp16
 70
     1
102
RTVSPropertyOp17
 70
     1
102
RTVSPropertyOp18
 70
     1
102
RTVSPropertyOp19
 70
     1
102
RTVSPropertyOp20
 70
     1
102
RTVSPropertyOp21
 70
     1
102
RTVSPropertyOp22
 70
     1
102
RTVSPropertyOp23
 70
     1
102
RTVSPropertyOp24
 70
     1
102
RTVSPropertyOp25
 70
     1
102
RTVSPropertyOp26
 70
     1
102
RTVSPropertyOp27
 70
     1
102
RTVSPropertyOp28
 70
     1
102
RTVSPropertyOp29
 70
     1
102
RTVSPropertyOp30
 70
     1
102
RTVSPropertyOp31
 70
     1
102
RTVSPropertyOp32
 70
     1
102
RTVSPropertyOp33
 70
     1
102
RTVSPropertyOp34
 70
     1
102
RTVSPropertyOp35
 70
     1
102
RTVSPropertyOp36
 70
     1
102
RTVSPropertyOp37
 70
     1
102
RTVSPropertyOp38
 70
     1
102
RTVSPropertyOp39
 70
     1
102
RTVSPropertyOp40
 70
     1
102
RTVSPropertyOp41
 70
     1
102
RTVSPropertyOp42
 70
     1
102
RTVSPropertyOp43
 70
     1
102
RTVSPropertyOp44
 70
     1
102
RTVSPropertyOp45
 70
     1
102
RTVSPropertyOp46
 70
     1
102
RTVSPropertyOp47
 70
     1
102
RTVSPropertyOp48
 70
     1
102
RTVSPropertyOp49
 70
     1
102
RTVSPropertyOp50
 70
     1
102
RTVSPropertyOp51
 70
     0
102
RTVSPropertyOp52
 70
     0
102
RTVSPropertyOp53
 70
     1
102
RTVSPropertyOp54
 70
     1
102
RTVSPropertyOp55
 70
     1
102
RTVSPropertyOp56
 70
     1
102
RTVSPropertyOp57
 70
     1
102
RTVSPost2010Prop28
280
     0
102
RTVSPost2010PropOp28
 70
     1
102
RTVSPost2010Prop29
280
     1
102
RTVSPost2010PropOp29
 70
     1
102
RTVSPost2010Prop30
280
     1
102
RTVSPost2010PropOp30
 70
     1
102
RTVSPost2010Prop31
280
     0
102
RTVSPost2010PropOp31
 70
     1
102
RTVSPost2010Prop32
280
     0
102
RTVSPost2010PropOp32
 70
     1
102
RTVSPost2010Prop33
280
     0
102
RTVSPost2010PropOp33
 70
     1
102
RTVSPost2010Prop34
280
     0
102
RTVSPost2010PropOp34
 70
     1
102
RTVSPost2010Prop35
280
     0
102
RTVSPost2010PropOp35
 70
     1
102
RTVSPost2010Prop36
280
     0
102
RTVSPost2010PropOp36
 70
     1
102
RTVSPost2010Prop37
 90
       50
102
RTVSPost2010PropOp37
 70
     1
102
RTVSPost2010Prop38
140
0.0
102
RTVSPost2010PropOp38
 70
     1
102
RTVSPost2010Prop39
140
1.0
102
RTVSPost2010PropOp39
 70
     1
102
RTVSPost2010Prop40
 90
        0
102
RTVSPost2010PropOp40
 70
     1
102
RTVSPost2010Prop41ColorIndex
 90
       18
102
RTVSPost2010Prop41ColorRGB
 90
        0
102
RTVSPost2010PropOp41
 70
     1
102
RTVSPost2010Prop42
 90
       50
102
RTVSPost2010PropOp42
 70
     1
102
RTVSPost2010Prop43
 90
        3
102
RTVSPost2010PropOp43
 70
     1
102
RTVSPost2010Prop44ColorIndex
 90
        5
102
RTVSPost2010Prop44ColorRGB
 90
      255
102
RTVSPost2010PropOp44
 70
     1
102
RTVSPost2010Prop45
280
     0
102
RTVSPost2010PropOp45
 70
     1
102
RTVSPost2010Prop46
 90
       50
102
RTVSPost2010PropOp46
 70
     1
102
RTVSPost2010Prop47
 90
       50
102
RTVSPost2010PropOp47
 70
     1
102
RTVSPost2010Prop48
 90
       50
102
RTVSPost2010PropOp48
 70
     1
102
RTVSPost2010Prop49
280
     0
102
RTVSPost2010PropOp49
 70
     1
102
RTVSPost2010Prop50
 90
       50
102
RTVSPost2010PropOp50
 70
     1
102
RTVSPost2010Prop51ColorIndex
 90
      256
102
RTVSPost2010Prop51ColorRGB
 90
-16777216
102
RTVSPost2010PropOp51
 70
     0
102
RTVSPost2010Prop52
140
1.0
102
RTVSPost2010PropOp52
 70
     0
102
RTVSPost2010Prop53
 90
        2
102
RTVSPost2010PropOp53
 70
     1
102
RTVSPost2010Prop54
  1
strokes_ogs.tif
102
RTVSPost2010PropOp54
 70
     1
102
RTVSPost2010Prop55
280
     0
102
RTVSPost2010PropOp55
 70
     1
102
RTVSPost2010Prop56
140
1.0
102
RTVSPost2010PropOp56
 70
     1
102
RTVSPost2010Prop57
140
1.0
102
RTVSPost2010PropOp57
 70
     1
  0
XRECORD
  5
1EC
102
{ACAD_REACTORS
330
1EB
102
}
330
1EB
100
AcDbXrecord
280
     1
102
RTVSPropertyOp0
 70
     1
102
RTVSPropertyOp1
 70
     1
102
RTVSPropertyOp2
 70
     1
102
RTVSPropertyOp3
 70
     1
102
RTVSPropertyOp4
 70
     1
102
RTVSPropertyOp5
 70
     1
102
RTVSPropertyOp6
 70
     1
102
RTVSPropertyOp7
 70
     1
102
RTVSPropertyOp8
 70
     1
102
RTVSPropertyOp9
 70
     1
102
RTVSPropertyOp10
 70
     1
102
RTVSPropertyOp11
 70
     1
102
RTVSPropertyOp12
 70
     1
102
RTVSPropertyOp13
 70
     1
102
RTVSPropertyOp14
 70
     1
102
RTVSPropertyOp15
 70
     1
102
RTVSPropertyOp16
 70
     1
102
RTVSPropertyOp17
 70
     1
102
RTVSPropertyOp18
 70
     1
102
RTVSPropertyOp19
 70
     1
102
RTVSPropertyOp20
 70
     1
102
RTVSPropertyOp21
 70
     1
102
RTVSPropertyOp22
 70
     1
102
RTVSPropertyOp23
 70
     1
102
RTVSPropertyOp24
 70
     1
102
RTVSPropertyOp25
 70
     1
102
RTVSPropertyOp26
 70
     1
102
RTVSPropertyOp27
 70
     1
102
RTVSPropertyOp28
 70
     1
102
RTVSPropertyOp29
 70
     1
102
RTVSPropertyOp30
 70
     1
102
RTVSPropertyOp31
 70
     1
102
RTVSPropertyOp32
 70
     1
102
RTVSPropertyOp33
 70
     1
102
RTVSPropertyOp34
 70
     1
102
RTVSPropertyOp35
 70
     1
102
RTVSPropertyOp36
 70
     1
102
RTVSPropertyOp37
 70
     1
102
RTVSPropertyOp38
 70
     1
102
RTVSPropertyOp39
 70
     1
102
RTVSPropertyOp40
 70
     1
102
RTVSPropertyOp41
 70
     1
102
RTVSPropertyOp42
 70
     1
102
RTVSPropertyOp43
 70
     1
102
RTVSPropertyOp44
 70
     1
102
RTVSPropertyOp45
 70
     1
102
RTVSPropertyOp46
 70
     1
102
RTVSPropertyOp47
 70
     1
102
RTVSPropertyOp48
 70
     1
102
RTVSPropertyOp49
 70
     1
102
RTVSPropertyOp50
 70
     1
102
RTVSPropertyOp51
 70
     0
102
RTVSPropertyOp52
 70
     0
102
RTVSPropertyOp53
 70
     1
102
RTVSPropertyOp54
 70
     1
102
RTVSPropertyOp55
 70
     1
102
RTVSPropertyOp56
 70
     1
102
RTVSPropertyOp57
 70
     1
102
RTVSPost2010Prop28
280
     0
102
RTVSPost2010PropOp28
 70
     1
102
RTVSPost2010Prop29
280
     1
102
RTVSPost2010PropOp29
 70
     1
102
RTVSPost2010Prop30
280
     1
102
RTVSPost2010PropOp30
 70
     1
102
RTVSPost2010Prop31
280
     0
102
RTVSPost2010PropOp31
 70
     1
102
RTVSPost2010Prop32
280
     0
102
RTVSPost2010PropOp32
 70
     1
102
RTVSPost2010Prop33
280
     0
102
RTVSPost2010PropOp33
 70
     1
102
RTVSPost2010Prop34
280
     0
102
RTVSPost2010PropOp34
 70
     1
102
RTVSPost2010Prop35
280
     0
102
RTVSPost2010PropOp35
 70
     1
102
RTVSPost2010Prop36
280
     0
102
RTVSPost2010PropOp36
 70
     1
102
RTVSPost2010Prop37
 90
       50
102
RTVSPost2010PropOp37
 70
     1
102
RTVSPost2010Prop38
140
0.0
102
RTVSPost2010PropOp38
 70
     1
102
RTVSPost2010Prop39
140
1.0
102
RTVSPost2010PropOp39
 70
     1
102
RTVSPost2010Prop40
 90
        0
102
RTVSPost2010PropOp40
 70
     1
102
RTVSPost2010Prop41ColorIndex
 90
       18
102
RTVSPost2010Prop41ColorRGB
 90
        0
102
RTVSPost2010PropOp41
 70
     1
102
RTVSPost2010Prop42
 90
       50
102
RTVSPost2010PropOp42
 70
     1
102
RTVSPost2010Prop43
 90
        3
102
RTVSPost2010PropOp43
 70
     1
102
RTVSPost2010Prop44ColorIndex
 90
        5
102
RTVSPost2010Prop44ColorRGB
 90
      255
102
RTVSPost2010PropOp44
 70
     1
102
RTVSPost2010Prop45
280
     0
102
RTVSPost2010PropOp45
 70
     1
102
RTVSPost2010Prop46
 90
       50
102
RTVSPost2010PropOp46
 70
     1
102
RTVSPost2010Prop47
 90
       50
102
RTVSPost2010PropOp47
 70
     1
102
RTVSPost2010Prop48
 90
       50
102
RTVSPost2010PropOp48
 70
     1
102
RTVSPost2010Prop49
280
     0
102
RTVSPost2010PropOp49
 70
     1
102
RTVSPost2010Prop50
 90
       50
102
RTVSPost2010PropOp50
 70
     1
102
RTVSPost2010Prop51ColorIndex
 90
      256
102
RTVSPost2010Prop51ColorRGB
 90
-16777216
102
RTVSPost2010PropOp51
 70
     0
102
RTVSPost2010Prop52
140
1.0
102
RTVSPost2010PropOp52
 70
     0
102
RTVSPost2010Prop53
 90
        2
102
RTVSPost2010PropOp53
 70
     1
102
RTVSPost2010Prop54
  1
strokes_ogs.tif
102
RTVSPost2010PropOp54
 70
     1
102
RTVSPost2010Prop55
280
     0
102
RTVSPost2010PropOp55
 70
     1
102
RTVSPost2010Prop56
140
1.0
102
RTVSPost2010PropOp56
 70
     1
102
RTVSPost2010Prop57
140
1.0
102
RTVSPost2010PropOp57
 70
     1
  0
XRECORD
  5
20C
102
{ACAD_REACTORS
330
20B
102
}
330
20B
100
AcDbXrecord
280
     1
102
RTVSPropertyOp0
 70
     1
102
RTVSPropertyOp1
 70
     1
102
RTVSPropertyOp2
 70
     1
102
RTVSPropertyOp3
 70
     1
102
RTVSPropertyOp4
 70
     1
102
RTVSPropertyOp5
 70
     1
102
RTVSPropertyOp6
 70
     1
102
RTVSPropertyOp7
 70
     1
102
RTVSPropertyOp8
 70
     1
102
RTVSPropertyOp9
 70
     1
102
RTVSPropertyOp10
 70
     1
102
RTVSPropertyOp11
 70
     1
102
RTVSPropertyOp12
 70
     1
102
RTVSPropertyOp13
 70
     1
102
RTVSPropertyOp14
 70
     1
102
RTVSPropertyOp15
 70
     1
102
RTVSPropertyOp16
 70
     1
102
RTVSPropertyOp17
 70
     1
102
RTVSPropertyOp18
 70
     1
102
RTVSPropertyOp19
 70
     1
102
RTVSPropertyOp20
 70
     1
102
RTVSPropertyOp21
 70
     1
102
RTVSPropertyOp22
 70
     1
102
RTVSPropertyOp23
 70
     1
102
RTVSPropertyOp24
 70
     1
102
RTVSPropertyOp25
 70
     1
102
RTVSPropertyOp26
 70
     1
102
RTVSPropertyOp27
 70
     1
102
RTVSPropertyOp28
 70
     1
102
RTVSPropertyOp29
 70
     1
102
RTVSPropertyOp30
 70
     1
102
RTVSPropertyOp31
 70
     1
102
RTVSPropertyOp32
 70
     1
102
RTVSPropertyOp33
 70
     1
102
RTVSPropertyOp34
 70
     1
102
RTVSPropertyOp35
 70
     1
102
RTVSPropertyOp36
 70
     1
102
RTVSPropertyOp37
 70
     1
102
RTVSPropertyOp38
 70
     1
102
RTVSPropertyOp39
 70
     1
102
RTVSPropertyOp40
 70
     1
102
RTVSPropertyOp41
 70
     1
102
RTVSPropertyOp42
 70
     1
102
RTVSPropertyOp43
 70
     1
102
RTVSPropertyOp44
 70
     1
102
RTVSPropertyOp45
 70
     1
102
RTVSPropertyOp46
 70
     1
102
RTVSPropertyOp47
 70
     1
102
RTVSPropertyOp48
 70
     1
102
RTVSPropertyOp49
 70
     1
102
RTVSPropertyOp50
 70
     1
102
RTVSPropertyOp51
 70
     0
102
RTVSPropertyOp52
 70
     0
102
RTVSPropertyOp53
 70
     1
102
RTVSPropertyOp54
 70
     1
102
RTVSPropertyOp55
 70
     1
102
RTVSPropertyOp56
 70
     1
102
RTVSPropertyOp57
 70
     1
102
RTVSPost2010Prop28
280
     0
102
RTVSPost2010PropOp28
 70
     1
102
RTVSPost2010Prop29
280
     1
102
RTVSPost2010PropOp29
 70
     1
102
RTVSPost2010Prop30
280
     1
102
RTVSPost2010PropOp30
 70
     1
102
RTVSPost2010Prop31
280
     0
102
RTVSPost2010PropOp31
 70
     1
102
RTVSPost2010Prop32
280
     0
102
RTVSPost2010PropOp32
 70
     1
102
RTVSPost2010Prop33
280
     0
102
RTVSPost2010PropOp33
 70
     1
102
RTVSPost2010Prop34
280
     0
102
RTVSPost2010PropOp34
 70
     1
102
RTVSPost2010Prop35
280
     0
102
RTVSPost2010PropOp35
 70
     1
102
RTVSPost2010Prop36
280
     0
102
RTVSPost2010PropOp36
 70
     1
102
RTVSPost2010Prop37
 90
       50
102
RTVSPost2010PropOp37
 70
     1
102
RTVSPost2010Prop38
140
0.0
102
RTVSPost2010PropOp38
 70
     1
102
RTVSPost2010Prop39
140
1.0
102
RTVSPost2010PropOp39
 70
     1
102
RTVSPost2010Prop40
 90
        0
102
RTVSPost2010PropOp40
 70
     1
102
RTVSPost2010Prop41ColorIndex
 90
       18
102
RTVSPost2010Prop41ColorRGB
 90
        0
102
RTVSPost2010PropOp41
 70
     1
102
RTVSPost2010Prop42
 90
       50
102
RTVSPost2010PropOp42
 70
     1
102
RTVSPost2010Prop43
 90
        3
102
RTVSPost2010PropOp43
 70
     1
102
RTVSPost2010Prop44ColorIndex
 90
        5
102
RTVSPost2010Prop44ColorRGB
 90
      255
102
RTVSPost2010PropOp44
 70
     1
102
RTVSPost2010Prop45
280
     0
102
RTVSPost2010PropOp45
 70
     1
102
RTVSPost2010Prop46
 90
       50
102
RTVSPost2010PropOp46
 70
     1
102
RTVSPost2010Prop47
 90
       50
102
RTVSPost2010PropOp47
 70
     1
102
RTVSPost2010Prop48
 90
       50
102
RTVSPost2010PropOp48
 70
     1
102
RTVSPost2010Prop49
280
     0
102
RTVSPost2010PropOp49
 70
     1
102
RTVSPost2010Prop50
 90
       50
102
RTVSPost2010PropOp50
 70
     1
102
RTVSPost2010Prop51ColorIndex
 90
      256
102
RTVSPost2010Prop51ColorRGB
 90
-16777216
102
RTVSPost2010PropOp51
 70
     0
102
RTVSPost2010Prop52
140
1.0
102
RTVSPost2010PropOp52
 70
     0
102
RTVSPost2010Prop53
 90
        2
102
RTVSPost2010PropOp53
 70
     1
102
RTVSPost2010Prop54
  1
strokes_ogs.tif
102
RTVSPost2010PropOp54
 70
     1
102
RTVSPost2010Prop55
280
     0
102
RTVSPost2010PropOp55
 70
     1
102
RTVSPost2010Prop56
140
1.0
102
RTVSPost2010PropOp56
 70
     1
102
RTVSPost2010Prop57
140
1.0
102
RTVSPost2010PropOp57
 70
     1
  0
ENDSEC
  0
EOF
