  0
SECTION
  2
HEADER
  9
$ACADVER
  1
AC1021
  9
$ACADMAINTVER
 70
    50
  9
$DWGCODEPAGE
  3
ANSI_1252
  9
$LASTSAVEDBY
  1
FAB
  9
$CUSTOMPROPERTYTAG
  1
AmdtFileType
  9
$CUSTOMPROPERTY
  1
84
  9
$INSBASE
 10
0.0
 20
0.0
 30
0.0
  9
$EXTMIN
 10
97.39510178959031
 20
180.5474783630458
 30
0.0
  9
$EXTMAX
 10
377.3951017895902
 20
461.4323824286797
 30
0.0
  9
$LIMMIN
 10
0.0
 20
0.0
  9
$LIMMAX
 10
420.0
 20
297.0
  9
$ORTHOMODE
 70
     0
  9
$REGENMODE
 70
     1
  9
$FILLMODE
 70
     1
  9
$QTEXTMODE
 70
     0
  9
$MIRRTEXT
 70
     1
  9
$LTSCALE
 40
1.0
  9
$ATTMODE
 70
     1
  9
$TEXTSIZE
 40
2.5
  9
$TRACEWID
 40
1.0
  9
$TEXTSTYLE
  7
STANDARD
  9
$CLAYER
  8
0
  9
$CELTYPE
  6
ByLayer
  9
$CECOLOR
 62
   256
  9
$CELTSCALE
 40
1.0
  9
$DISPSILH
 70
     0
  9
$DIMSCALE
 40
1.0
  9
$DIMASZ
 40
3.5
  9
$DIMEXO
 40
1.0
  9
$DIMDLI
 40
10.0
  9
$DIMRND
 40
0.0
  9
$DIMDLE
 40
0.0
  9
$DIMEXE
 40
1.0
  9
$DIMTP
 40
0.1
  9
$DIMTM
 40
0.1
  9
$DIMTXT
 40
3.5
  9
$DIMCEN
 40
0.0
  9
$DIMTSZ
 40
0.0
  9
$DIMTOL
 70
     0
  9
$DIMLIM
 70
     0
  9
$DIMTIH
 70
     0
  9
$DIMTOH
 70
     0
  9
$DIMSE1
 70
     0
  9
$DIMSE2
 70
     0
  9
$DIMTAD
 70
     1
  9
$DIMZIN
 70
     8
  9
$DIMBLK
  1

  9
$DIMASO
 70
     1
  9
$DIMSHO
 70
     1
  9
$DIMPOST
  1

  9
$DIMAPOST
  1
"
  9
$DIMALT
 70
     0
  9
$DIMALTD
 70
     2
  9
$DIMALTF
 40
0.0393701
  9
$DIMLFAC
 40
1.0
  9
$DIMTOFL
 70
     1
  9
$DIMTVP
 40
0.0
  9
$DIMTIX
 70
     0
  9
$DIMSOXD
 70
     0
  9
$DIMSAH
 70
     0
  9
$DIMBLK1
  1

  9
$DIMBLK2
  1

  9
$DIMSTYLE
  2
AM_ISO
  9
$DIMCLRD
 70
   256
  9
$DIMCLRE
 70
   256
  9
$DIMCLRT
 70
   140
  9
$DIMTFAC
 40
0.71
  9
$DIMGAP
 40
1.5
  9
$DIMJUST
 70
     0
  9
$DIMSD1
 70
     0
  9
$DIMSD2
 70
     0
  9
$DIMTOLJ
 70
     0
  9
$DIMTZIN
 70
     8
  9
$DIMALTZ
 70
     0
  9
$DIMALTTZ
 70
     0
  9
$DIMUPT
 70
     0
  9
$DIMDEC
 70
     2
  9
$DIMTDEC
 70
     3
  9
$DIMALTU
 70
     2
  9
$DIMALTTD
 70
     4
  9
$DIMTXSTY
  7
STANDARD
  9
$DIMAUNIT
 70
     0
  9
$DIMADEC
 70
     0
  9
$DIMALTRND
 40
0.0
  9
$DIMAZIN
 70
     2
  9
$DIMDSEP
 70
    46
  9
$DIMATFIT
 70
     3
  9
$DIMFRAC
 70
     0
  9
$DIMLDRBLK
  1

  9
$DIMLUNIT
 70
     2
  9
$DIMLWD
 70
    -1
  9
$DIMLWE
 70
    -1
  9
$DIMTMOVE
 70
     0
  9
$DIMFXL
 40
1.0
  9
$DIMFXLON
 70
     0
  9
$DIMJOGANG
 40
0.7853981633974483
  9
$DIMTFILL
 70
     0
  9
$DIMTFILLCLR
 70
     0
  9
$DIMARCSYM
 70
     1
  9
$DIMLTYPE
  6
ByBlock
  9
$DIMLTEX1
  6
ByBlock
  9
$DIMLTEX2
  6
ByBlock
  9
$LUNITS
 70
     2
  9
$LUPREC
 70
     2
  9
$SKETCHINC
 40
1.0
  9
$FILLETRAD
 40
2.5
  9
$AUNITS
 70
     0
  9
$AUPREC
 70
     0
  9
$MENU
  1
.
  9
$ELEVATION
 40
0.0
  9
$PELEVATION
 40
0.0
  9
$THICKNESS
 40
0.0
  9
$LIMCHECK
 70
     0
  9
$CHAMFERA
 40
2.5
  9
$CHAMFERB
 40
2.5
  9
$CHAMFERC
 40
20.0
  9
$CHAMFERD
 40
0.0
  9
$SKPOLY
 70
     0
  9
$TDCREATE
 40
2457840.794346608
  9
$TDUCREATE
 40
2457840.565179942
  9
$TDUPDATE
 40
2457840.832785151
  9
$TDUUPDATE
 40
2457840.603618484
  9
$TDINDWG
 40
0.0041660764
  9
$TDUSRTIMER
 40
0.0041653588
  9
$USRTIMER
 70
     1
  9
$ANGBASE
 50
0.0
  9
$ANGDIR
 70
     0
  9
$PDMODE
 70
     0
  9
$PDSIZE
 40
0.0
  9
$PLINEWID
 40
0.0
  9
$SPLFRAME
 70
     0
  9
$SPLINETYPE
 70
     6
  9
$SPLINESEGS
 70
     8
  9
$HANDSEED
  5
54D
  9
$SURFTAB1
 70
     6
  9
$SURFTAB2
 70
     6
  9
$SURFTYPE
 70
     6
  9
$SURFU
 70
     6
  9
$SURFV
 70
     6
  9
$UCSBASE
  2

  9
$UCSNAME
  2

  9
$UCSORG
 10
0.0
 20
0.0
 30
0.0
  9
$UCSXDIR
 10
1.0
 20
0.0
 30
0.0
  9
$UCSYDIR
 10
0.0
 20
1.0
 30
0.0
  9
$UCSORTHOREF
  2

  9
$UCSORTHOVIEW
 70
     0
  9
$UCSORGTOP
 10
0.0
 20
0.0
 30
0.0
  9
$UCSORGBOTTOM
 10
0.0
 20
0.0
 30
0.0
  9
$UCSORGLEFT
 10
0.0
 20
0.0
 30
0.0
  9
$UCSORGRIGHT
 10
0.0
 20
0.0
 30
0.0
  9
$UCSORGFRONT
 10
0.0
 20
0.0
 30
0.0
  9
$UCSORGBACK
 10
0.0
 20
0.0
 30
0.0
  9
$PUCSBASE
  2

  9
$PUCSNAME
  2

  9
$PUCSORG
 10
0.0
 20
0.0
 30
0.0
  9
$PUCSXDIR
 10
1.0
 20
0.0
 30
0.0
  9
$PUCSYDIR
 10
0.0
 20
1.0
 30
0.0
  9
$PUCSORTHOREF
  2

  9
$PUCSORTHOVIEW
 70
     0
  9
$PUCSORGTOP
 10
0.0
 20
0.0
 30
0.0
  9
$PUCSORGBOTTOM
 10
0.0
 20
0.0
 30
0.0
  9
$PUCSORGLEFT
 10
0.0
 20
0.0
 30
0.0
  9
$PUCSORGRIGHT
 10
0.0
 20
0.0
 30
0.0
  9
$PUCSORGFRONT
 10
0.0
 20
0.0
 30
0.0
  9
$PUCSORGBACK
 10
0.0
 20
0.0
 30
0.0
  9
$USERI1
 70
     0
  9
$USERI2
 70
     0
  9
$USERI3
 70
     0
  9
$USERI4
 70
     0
  9
$USERI5
 70
     0
  9
$USERR1
 40
0.0
  9
$USERR2
 40
0.0
  9
$USERR3
 40
0.0
  9
$USERR4
 40
0.0
  9
$USERR5
 40
0.0
  9
$WORLDVIEW
 70
     1
  9
$SHADEDGE
 70
     3
  9
$SHADEDIF
 70
    70
  9
$TILEMODE
 70
     1
  9
$MAXACTVP
 70
    64
  9
$PINSBASE
 10
0.0
 20
0.0
 30
0.0
  9
$PLIMCHECK
 70
     0
  9
$PEXTMIN
 10
1.000000000000000E+20
 20
1.000000000000000E+20
 30
1.000000000000000E+20
  9
$PEXTMAX
 10
-1.000000000000000E+20
 20
-1.000000000000000E+20
 30
-1.000000000000000E+20
  9
$PLIMMIN
 10
0.0
 20
0.0
  9
$PLIMMAX
 10
420.0
 20
297.0
  9
$UNITMODE
 70
     0
  9
$VISRETAIN
 70
     1
  9
$PLINEGEN
 70
     0
  9
$PSLTSCALE
 70
     1
  9
$TREEDEPTH
 70
  3020
  9
$CMLSTYLE
  2
Standard
  9
$CMLJUST
 70
     0
  9
$CMLSCALE
 40
20.0
  9
$PROXYGRAPHICS
 70
     1
  9
$MEASUREMENT
 70
     1
  9
$CELWEIGHT
370
    -1
  9
$ENDCAPS
280
     0
  9
$JOINSTYLE
280
     0
  9
$LWDISPLAY
290
     0
  9
$INSUNITS
 70
     4
  9
$HYPERLINKBASE
  1

  9
$STYLESHEET
  1

  9
$XEDIT
290
     1
  9
$CEPSNTYPE
380
     0
  9
$PSTYLEMODE
290
     1
  9
$FINGERPRINTGUID
  2
{DF992E8E-81ED-48A7-8110-245C3D94047F}
  9
$VERSIONGUID
  2
{8F00B9E0-0CF0-46CC-9EB5-8A04533852BD}
  9
$EXTNAMES
290
     1
  9
$PSVPSCALE
 40
0.0
  9
$OLESTARTUP
290
     0
  9
$SORTENTS
280
   127
  9
$INDEXCTL
280
     0
  9
$HIDETEXT
280
     0
  9
$XCLIPFRAME
290
     0
  9
$HALOGAP
280
     0
  9
$OBSCOLOR
 70
   257
  9
$OBSLTYPE
280
     0
  9
$INTERSECTIONDISPLAY
280
     0
  9
$INTERSECTIONCOLOR
 70
   257
  9
$DIMASSOC
280
     2
  9
$PROJECTNAME
  1

  9
$CAMERADISPLAY
290
     0
  9
$LENSLENGTH
 40
50.0
  9
$CAMERAHEIGHT
 40
0.0
  9
$STEPSPERSEC
 40
2.0
  9
$STEPSIZE
 40
6.0
  9
$3DDWFPREC
 40
2.0
  9
$PSOLWIDTH
 40
0.25
  9
$PSOLHEIGHT
 40
4.0
  9
$LOFTANG1
 40
1.570796326794896
  9
$LOFTANG2
 40
1.570796326794896
  9
$LOFTMAG1
 40
0.0
  9
$LOFTMAG2
 40
0.0
  9
$LOFTPARAM
 70
     7
  9
$LOFTNORMALS
280
     1
  9
$LATITUDE
 40
37.795
  9
$LONGITUDE
 40
-122.394
  9
$NORTHDIRECTION
 40
0.0
  9
$TIMEZONE
 70
 -8000
  9
$LIGHTGLYPHDISPLAY
280
     1
  9
$TILEMODELIGHTSYNCH
280
     1
  9
$CMATERIAL
347
26B
  9
$SOLIDHIST
280
     1
  9
$SHOWHIST
280
     1
  9
$DWFFRAME
280
     2
  9
$DGNFRAME
280
     0
  9
$REALWORLDSCALE
290
     1
  9
$INTERFERECOLOR
 62
     1
  9
$INTERFEREOBJVS
345
278
  9
$INTERFEREVPVS
346
275
  9
$CSHADOW
280
     0
  9
$SHADOWPLANELOCATION
 40
0.0
  0
ENDSEC
  0
SECTION
  2
CLASSES
  0
CLASS
  1
ACDBDICTIONARYWDFLT
  2
AcDbDictionaryWithDefault
  3
ObjectDBX Classes
 90
        0
 91
        1
280
     0
281
     0
  0
CLASS
  1
ACME_DOCUMENT
  2
AcMeDbDoc
  3
AcMeServices
 90
     1024
 91
        2
280
     0
281
     0
  0
CLASS
  1
AMGSETTINGSOBJ
  2
AmgSettingsObj
  3
"AcadM|Product Description: AutoCAD Mechanical|Company: Autodesk, Inc."
 90
     1024
 91
        4
280
     0
281
     0
  0
CLASS
  1
ACMESCOPE
  2
AcMeScope
  3
AcMeServices
 90
     1024
 91
        1
280
     0
281
     0
  0
CLASS
  1
ACMECOMMANDHISTORY
  2
AcMeCommandHistory
  3
AcMeServices
 90
     1024
 91
        1
280
     0
281
     0
  0
CLASS
  1
ACIMSYSVARMAN
  2
AcImSysVarManager
  3
AcMeServices
 90
     1024
 91
        5
280
     0
281
     0
  0
CLASS
  1
ACIMREALSYSVAR
  2
AcImRealSysVar
  3
AcMeServices
 90
     1024
 91
        3
280
     0
281
     0
  0
CLASS
  1
ACIMINTSYSVAR
  2
AcImIntSysVar
  3
AcMeServices
 90
     1024
 91
       27
280
     0
281
     0
  0
CLASS
  1
ACMEDRAWINGMAN
  2
AcMeDrawingMan
  3
AcMeServices
 90
     1024
 91
        1
280
     0
281
     0
  0
CLASS
  1
ACMEVIEW
  2
AcMeView
  3
AcMeServices
 90
     1024
 91
        1
280
     0
281
     0
  0
CLASS
  1
ACDBENTITYCACHE
  2
AcMeEntityCache
  3
AcMeServices
 90
     1024
 91
        1
280
     0
281
     0
  0
CLASS
  1
GSMANAGER
  2
AcMeGSManager
  3
AcMeServices
 90
     1024
 91
        1
280
     0
281
     0
  0
CLASS
  1
AMDTINTERNALREACTOR
  2
AmdtInternalReactor
  3
AcMeServices
 90
     1024
 91
        2
280
     0
281
     0
  0
CLASS
  1
ACMESTATEMGR
  2
AcMeStateMgr
  3
AcMeServices
 90
     1024
 91
        1
280
     0
281
     0
  0
CLASS
  1
ACGREFMASTER
  2
AcGrefMaster
  3
AcAttribServices
 90
     1024
 91
        1
280
     0
281
     0
  0
CLASS
  1
ACME_DATABASE
  2
AcMeDbDatabase
  3
AcMeServices
 90
     1024
 91
        1
280
     0
281
     0
  0
CLASS
  1
ACRFINSADJUSTERMGR
  2
AcRfInsAdjusterMgr
  3
AcMeServices
 90
     1024
 91
        1
280
     0
281
     0
  0
CLASS
  1
ACGREFACADMASTER
  2
AcGrefacadMaster
  3
AcGrefServices
 90
     1024
 91
        1
280
     0
281
     0
  0
CLASS
  1
AMIMASTER
  2
AmiMaster
  3
AmiServices
 90
     1024
 91
        1
280
     0
281
     0
  0
CLASS
  1
ACMDATADICTIONARY
  2
AcmDataDictionary
  3
"AcmSymBB|Product Description: AutoCAD Mechanical|Company: Autodesk, Inc."
 90
     1024
 91
        1
280
     0
281
     0
  0
CLASS
  1
ACMDATAENTRYBLOCK
  2
AcmDataEntryBlock
  3
AcmSymBB|Product Description: AutoCAD Mechanical|Company: Autodesk, Inc.
 90
     1024
 91
        1
280
     0
281
     0
  0
CLASS
  1
ACIMSTRSYSVAR
  2
AcImStrSysVar
  3
AcMeServices
 90
     1024
 91
        5
280
     0
281
     0
  0
CLASS
  1
ACMSTANDARDISO
  2
AcmStandardISO
  3
"Amdt_StdImp|Product Description: AutoCAD Mechanical|Company: Autodesk, Inc."
 90
     1024
 91
        1
280
     0
281
     0
  0
CLASS
  1
AMGOBJPROPCFG
  2
AmgObjPropCfg
  3
"AmgLay|Product Description: AutoCAD Mechanical|Company: Autodesk, Inc."
 90
     1025
 91
        1
280
     0
281
     0
  0
CLASS
  1
AMDTEDGESTANDARDISO
  2
AmdtEdgeStdISO
  3
"Amdt_StdImp|Product Description: AutoCAD Mechanical|Company: Autodesk, Inc."
 90
     1024
 91
        0
280
     0
281
     0
  0
CLASS
  1
ACMSURFSTANDARDISO
  2
AcmSurfTextStdISO
  3
"Amdt_StdImp|Product Description: AutoCAD Mechanical|Company: Autodesk, Inc."
 90
     1024
 91
        0
280
     0
281
     0
  0
CLASS
  1
ACMFCFSTANDARDISO
  2
AcmFCFStdISO
  3
"Amdt_StdImp|Product Description: AutoCAD Mechanical|Company: Autodesk, Inc."
 90
     1024
 91
        1
280
     0
281
     0
  0
CLASS
  1
ACMWELDSTANDARDISO
  2
AcmWeldingStdISO
  3
"Amdt_StdImp|Product Description: AutoCAD Mechanical|Company: Autodesk, Inc."
 90
     1024
 91
        1
280
     0
281
     0
  0
CLASS
  1
ACMIDSTANDARDISO
  2
AcmIdStdISO
  3
"Amdt_StdImp|Product Description: AutoCAD Mechanical|Company: Autodesk, Inc."
 90
     1024
 91
        1
280
     0
281
     0
  0
CLASS
  1
ACMDATUMSTANDARDISO
  2
AcmDatumStdISO
  3
"Amdt_StdImp|Product Description: AutoCAD Mechanical|Company: Autodesk, Inc."
 90
     1024
 91
        1
280
     0
281
     0
  0
CLASS
  1
ACMBOMSTANDARDISO
  2
AcmBOMStdISO
  3
"Amdt_StdImp|Product Description: AutoCAD Mechanical|Company: Autodesk, Inc."
 90
     1024
 91
        1
280
     0
281
     0
  0
CLASS
  1
ACMDETAILSTANDARDISO
  2
AmdtDetailSymStdISO
  3
"Amdt_StdImp|Product Description: AutoCAD Mechanical|Company: Autodesk, Inc."
 90
     1024
 91
        1
280
     0
281
     0
  0
CLASS
  1
ACMSECTIONSTANDARDISO
  2
AmdtSectionSymStdISO
  3
"Amdt_StdImp|Product Description: AutoCAD Mechanical|Company: Autodesk, Inc."
 90
     1024
 91
        0
280
     0
281
     0
  0
CLASS
  1
ACMCENTERLINESTANDARDISO
  2
AmdtCenterLineStdISO
  3
"Amdt_StdImp|Product Description: AutoCAD Mechanical|Company: Autodesk, Inc."
 90
     1024
 91
        1
280
     0
281
     0
  0
CLASS
  1
ACMNOTESTANDARDISO
  2
AmdtNoteStdISO
  3
"Amdt_StdImp|Product Description: AutoCAD Mechanical|Company: Autodesk, Inc."
 90
     1024
 91
        1
280
     0
281
     0
  0
CLASS
  1
ACAMGLAYSTD
  2
AcAmgLayStd
  3
"AmgLay|Product Description: AutoCAD Mechanical|Company: Autodesk, Inc."
 90
     1024
 91
        1
280
     0
281
     0
  0
CLASS
  1
ACAMGDIMSTD
  2
AcAmgDimStd
  3
"AmgDim|Product Description: AutoCAD Mechanical|Company: Autodesk, Inc."
 90
     1024
 91
        1
280
     0
281
     0
  0
CLASS
  1
ACAMGHOLECHARTSTDISO
  2
AcAmgHoleChartStdISO
  3
AmgDim|Product Description: AutoCAD Mechanical|Company: Autodesk, Inc.
 90
     1024
 91
        1
280
     0
281
     0
  0
CLASS
  1
ACAMGTITLESTD
  2
AcAmgTitleStd
  3
"AmgTitle|Product Description: AutoCAD Mechanical|Company: Autodesk, Inc."
 90
     4095
 91
        1
280
     0
281
     0
  0
CLASS
  1
LAYER_INDEX
  2
AcDbLayerIndex
  3
ObjectDBX Classes
 90
        0
 91
        0
280
     0
281
     0
  0
CLASS
  1
IDBUFFER
  2
AcDbIdBuffer
  3
ObjectDBX Classes
 90
        0
 91
        0
280
     0
281
     0
  0
CLASS
  1
DICTIONARYVAR
  2
AcDbDictionaryVar
  3
ObjectDBX Classes
 90
        0
 91
        9
280
     0
281
     0
  0
CLASS
  1
AM_DRAWING_MGR
  2
AcDmDwgMgr
  3
AcMechDwgViewMgmt
 90
     1024
 91
        1
280
     0
281
     0
  0
CLASS
  1
AM_DWG_DOCUMENT
  2
AcDmDwgDocument
  3
AcMechDwgViewMgmt
 90
     1024
 91
        1
280
     0
281
     0
  0
CLASS
  1
AM_DWG_SHEET
  2
AcDmSheet
  3
AcMechDwgViewMgmt
 90
     1024
 91
        2
280
     0
281
     0
  0
CLASS
  1
AM_VIEWDIMPARMAP
  2
AcDmViewDimParMap
  3
AcMechDwgViewMgmt
 90
     1024
 91
        2
280
     0
281
     0
  0
CLASS
  1
AM_DWGMGR_NAME
  2
AcDmDwgMgrName
  3
AcMechDwgViewMgmt
 90
     1024
 91
        1
280
     0
281
     0
  0
CLASS
  1
AMDTMENUSTATEMGR
  2
AmdtMenuStateMgr
  3
McadcomServices
 90
     1024
 91
        1
280
     0
281
     0
  0
CLASS
  1
AMDTMCOMMENUSTATE
  2
AmdtMcomMenuState
  3
McadcomServices
 90
     1024
 91
        1
280
     0
281
     0
  0
CLASS
  1
MAPIAMMOUDLE
  2
MApiAmModule
  3
MApiAmServices
 90
     1024
 91
        1
280
     0
281
     0
  0
CLASS
  1
AMDTADMENUSTATE
  2
AmdtAdMenuState
  3
DesignerServices
 90
     1024
 91
        1
280
     0
281
     0
  0
CLASS
  1
ADAPPL
  2
AcAdAppl
  3
DesignerServices
 90
     1024
 91
        1
280
     0
281
     0
  0
CLASS
  1
DEPMGR
  2
AcAdDepMgr
  3
DesignerServices
 90
     1024
 91
        1
280
     0
281
     0
  0
CLASS
  1
PARAMMGR
  2
AcAdParamMgr
  3
DesignerServices
 90
     1024
 91
        1
280
     0
281
     0
  0
CLASS
  1
PARAMSCOPE
  2
AcAdParamScope
  3
DesignerServices
 90
     1024
 91
        1
280
     0
281
     0
  0
CLASS
  1
NAMEDAPPL
  2
AcAdNamedAppl
  3
DesignerServices
 90
     1024
 91
        1
280
     0
281
     0
  0
CLASS
  1
AMDTDMMENUSTATE
  2
AmdtDmMenuState
  3
AcMechDwgViewMgmt
 90
     1024
 91
        1
280
     0
281
     0
  0
CLASS
  1
AMDTAMMENUSTATE
  2
AmdtAmMenuState
  3
DesignerAssemblies
 90
     1024
 91
        1
280
     0
281
     0
  0
CLASS
  1
ACAMPROJECT
  2
AcAmProject
  3
DesignerAssemblies
 90
     1024
 91
        1
280
     0
281
     0
  0
CLASS
  1
ACAMGRCOMPDEF
  2
AcAmGrCompDef
  3
DesignerAssemblies
 90
     1024
 91
        1
280
     0
281
     0
  0
CLASS
  1
ACCMCONTEXT
  2
AcCmContext
  3
DesignerAssemblies
 90
     1024
 91
        1
280
     0
281
     0
  0
CLASS
  1
ACAMCOMPDEF
  2
AcAmCompDef
  3
DesignerAssemblies
 90
     1024
 91
        1
280
     0
281
     0
  0
CLASS
  1
ACAMCOMPDEFMGR
  2
AcAmCompDefMgr
  3
DesignerAssemblies
 90
     1024
 91
        1
280
     0
281
     0
  0
CLASS
  1
AMCONTEXTMGR
  2
AcAmContextMgr
  3
DesignerAssemblies
 90
     1024
 91
        1
280
     0
281
     0
  0
CLASS
  1
ACAMCONTEXTMODELER
  2
AcAmContextModeler
  3
DesignerAssemblies
 90
     1024
 91
        1
280
     0
281
     0
  0
CLASS
  1
ACMTHREADLINESTANDARDISO
  2
AmdtThreadLineStdISO
  3
"Amdt_StdImp|Product Description: AutoCAD Mechanical|Company: Autodesk, Inc."
 90
     1024
 91
        1
280
     0
281
     0
  0
CLASS
  1
CATALOGSTATE
  2
AcAmCatalogState
  3
DesignerAssemblies
 90
     1024
 91
        1
280
     0
281
     0
  0
CLASS
  1
ACAMGRCOMPDEFSET
  2
AcAmGrCompDefSet
  3
DesignerAssemblies
 90
     1024
 91
        1
280
     0
281
     0
  0
CLASS
  1
AMDTBROWSERDBTAB
  2
AmdtBrowserDbTab
  3
McadcomServices
 90
     1024
 91
        1
280
     0
281
     0
  0
CLASS
  1
CBROWSERAPPOBJECT
  2
CBrowserAppObject
  3
McadcomServices
 90
     1024
 91
        3
280
     0
281
     0
  0
CLASS
  1
DM_PLACEHOLDER
  2
AcDmSelsetPlaceholder
  3
AcMechDwgViewMgmt
 90
     1024
 91
        1
280
     0
281
     0
  0
CLASS
  1
TABLESTYLE
  2
AcDbTableStyle
  3
ObjectDBX Classes
 90
     4095
 91
        1
280
     0
281
     0
  0
CLASS
  1
VAACXREFPANELOBJECT
  2
VaAcXREFPanelObject
  3
VAAC_ADDIN
 90
        0
 91
        0
280
     0
281
     0
  0
CLASS
  1
VAACIMAGEINVENTORY
  2
VaAcImageInventory
  3
VAAC_ADDIN
 90
        0
 91
        0
280
     0
281
     0
  0
CLASS
  1
AMDTNOTETEMPLATEDB
  2
AmdtNoteTemplateDB
  3
AcmSymBB|Product Description: AutoCAD Mechanical|Company: Autodesk, Inc.
 90
     1024
 91
        6
280
     0
281
     0
  0
CLASS
  1
MATERIAL
  2
AcDbMaterial
  3
ObjectDBX Classes
 90
     1153
 91
        3
280
     0
281
     0
  0
CLASS
  1
VISUALSTYLE
  2
AcDbVisualStyle
  3
ObjectDBX Classes
 90
     4095
 91
       16
280
     0
281
     0
  0
CLASS
  1
ACRFATTGENMGR
  2
AcRfAttGeneralMgr
  3
AcAttribServices
 90
     1024
 91
        1
280
     0
281
     0
  0
CLASS
  1
ACRFOBJATTMGR
  2
AcRfObjAttGroupMgr
  3
AcAttribServices
 90
     1024
 91
        1
280
     0
281
     0
  0
CLASS
  1
ACRFMCADAPIATTHOLDER
  2
AcRfMCADAPIAttHolder
  3
AcAttribServices
 90
     1024
 91
        1
280
     0
281
     0
  0
CLASS
  1
AMDTSYSATTR
  2
AmdtSystemAttribute
  3
AcAttribServices
 90
     1024
 91
        1
280
     0
281
     0
  0
CLASS
  1
ACMTAPERSTANDARDISO
  2
AcmTaperStdISO
  3
"Amdt_StdImp|Product Description: AutoCAD Mechanical|Company: Autodesk, Inc."
 90
     1024
 91
        1
280
     0
281
     0
  0
CLASS
  1
CAMSSTRUCTBTNSTATE
  2
StructBtnState
  3
DesignerAssemblies
 90
     1024
 91
        1
280
     0
281
     0
  0
CLASS
  1
SCALE
  2
AcDbScale
  3
ObjectDBX Classes
 90
     1153
 91
       33
280
     0
281
     0
  0
CLASS
  1
MLEADERSTYLE
  2
AcDbMLeaderStyle
  3
ACDB_MLEADERSTYLE_CLASS
 90
     4095
 91
        1
280
     0
281
     0
  0
CLASS
  1
ACMANOOTATIONVIEWSTANDARDISO
  2
AmdtAnViewStdISO
  3
"Amdt_StdImp|Product Description: AutoCAD Mechanical|Company: Autodesk, Inc."
 90
     1024
 91
        1
280
     0
281
     0
  0
CLASS
  1
ACMSURFSTANDARDISO2002
  2
AcmSurfTextStdISO2002
  3
"Amdt_StdImp|Product Description: AutoCAD Mechanical|Company: Autodesk, Inc."
 90
     1024
 91
        1
280
     0
281
     0
  0
CLASS
  1
CELLSTYLEMAP
  2
AcDbCellStyleMap
  3
ObjectDBX Classes
 90
     1152
 91
        2
280
     0
281
     0
  0
CLASS
  1
ACMSECTIONSTANDARDISO2001
  2
AmdtSectionSymStdISO2001
  3
"Amdt_StdImp|Product Description: AutoCAD Mechanical|Company: Autodesk, Inc."
 90
     1024
 91
        1
280
     0
281
     0
  0
CLASS
  1
EXACXREFPANELOBJECT
  2
ExAcXREFPanelObject
  3
EXAC_ESW
 90
     1025
 91
        0
280
     0
281
     0
  0
CLASS
  1
NPOCOLLECTION
  2
AcDbImpNonPersistentObjectsCollection
  3
ObjectDBX Classes
 90
     1153
 91
        0
280
     0
281
     0
  0
CLASS
  1
AMDTEDGESTANDARDISO13715
  2
AmdtEdgeStdISO13715
  3
"Amdt_StdImp|Product Description: AutoCAD Mechanical|Company: Autodesk, Inc."
 90
     1024
 91
        1
280
     0
281
     0
  0
CLASS
  1
SORTENTSTABLE
  2
AcDbSortentsTable
  3
ObjectDBX Classes
 90
        0
 91
        0
280
     0
281
     0
  0
CLASS
  1
ACAMGFILTERDAT
  2
AcAmgFilterDat
  3
"AcadM|Product Description: AutoCAD Mechanical|Company: Autodesk, Inc."
 90
     1024
 91
        6
280
     0
281
     0
  0
ENDSEC
  0
SECTION
  2
TABLES
  0
TABLE
  2
VPORT
  5
8
330
0
100
AcDbSymbolTable
 70
     1
  0
VPORT
  5
269
330
8
100
AcDbSymbolTableRecord
100
AcDbViewportTableRecord
  2
*Active
 70
     0
 10
0.0
 20
0.0
 11
1.0
 21
1.0
 12
232.4715122687336
 22
332.4742475551744
 13
0.0
 23
0.0
 14
2.5
 24
2.5
 15
10.0
 25
10.0
 16
0.0
 26
0.0
 36
1.0
 17
0.0
 27
0.0
 37
0.0
 40
365.1368164378413
 41
2.144404332129963
 42
50.0
 43
0.0
 44
0.0
 50
0.0
 51
0.0
 71
     0
 72
   100
 73
     1
 74
     3
 75
     0
 76
     0
 77
     0
 78
     0
281
     0
 65
     1
110
0.0
120
0.0
130
0.0
111
1.0
121
0.0
131
0.0
112
0.0
122
1.0
132
0.0
 79
     0
146
0.0
348
274
 60
     3
 61
     5
292
     1
282
     0
141
0.0
142
0.0
 63
   250
421
  3355443
  0
ENDTAB
  0
TABLE
  2
LTYPE
  5
5
330
0
100
AcDbSymbolTable
 70
    14
  0
LTYPE
  5
14
330
5
100
AcDbSymbolTableRecord
100
AcDbLinetypeTableRecord
  2
ByBlock
 70
     0
  3

 72
    65
 73
     0
 40
0.0
  0
LTYPE
  5
15
330
5
100
AcDbSymbolTableRecord
100
AcDbLinetypeTableRecord
  2
ByLayer
 70
     0
  3

 72
    65
 73
     0
 40
0.0
  0
LTYPE
  5
16
330
5
100
AcDbSymbolTableRecord
100
AcDbLinetypeTableRecord
  2
Continuous
 70
     0
  3
Solid line
 72
    65
 73
     0
 40
0.0
  0
LTYPE
  5
64
330
5
100
AcDbSymbolTableRecord
100
AcDbLinetypeTableRecord
  2
AM_ISO02W050
 70
     0
  3
__ __ __ __ __ __ __ __ __ __ __ __ __ __ __
 72
    65
 73
     2
 40
7.5
 49
6.0
 74
     0
 49
-1.5
 74
     0
  0
LTYPE
  5
65
330
5
100
AcDbSymbolTableRecord
100
AcDbLinetypeTableRecord
  2
AM_ISO08W050
 70
     0
  3
____ . ____ . ____ . ____ . ____ . ____ . ____
 72
    65
 73
     4
 40
18.0
 49
12.0
 74
     0
 49
-1.5
 74
     0
 49
3.0
 74
     0
 49
-1.5
 74
     0
  0
LTYPE
  5
66
330
5
100
AcDbSymbolTableRecord
100
AcDbLinetypeTableRecord
  2
AM_ISO09W050
 70
     0
  3
_____ . . _____ . . _____ . . ____ .. ____
 72
    65
 73
     6
 40
22.5
 49
12.0
 74
     0
 49
-1.5
 74
     0
 49
3.0
 74
     0
 49
-1.5
 74
     0
 49
3.0
 74
     0
 49
-1.5
 74
     0
  0
LTYPE
  5
67
330
5
100
AcDbSymbolTableRecord
100
AcDbLinetypeTableRecord
  2
Amconstr
 70
     0
  3
_______________________
 72
    65
 73
     2
 40
9999.0
 49
9999.0
 74
     0
 49
0.0
 74
     0
  0
LTYPE
  5
68
330
5
100
AcDbSymbolTableRecord
100
AcDbLinetypeTableRecord
  2
AM_ISO08W050x2
 70
     0
  3
__ . __ . __ . __ . __ . __
 72
    65
 73
     4
 40
9.0
 49
6.0
 74
     0
 49
-0.75
 74
     0
 49
1.5
 74
     0
 49
-0.75
 74
     0
  0
LTYPE
  5
69
330
5
100
AcDbSymbolTableRecord
100
AcDbLinetypeTableRecord
  2
AM_ISO02W050x2
 70
     0
  3
 _ _ _ _ _ _ _ _ _ _ _ _
 72
    65
 73
     2
 40
3.75
 49
3.0
 74
     0
 49
-0.75
 74
     0
  0
LTYPE
  5
6C
330
5
100
AcDbSymbolTableRecord
100
AcDbLinetypeTableRecord
  2
Amzigzag
 70
     0
  3
/\/-/\/-/\/-/\/-/\/-/\/
 72
    65
 73
     2
 40
11.0001
 49
0.0001
 74
     4
 75
   136
340
22C
 46
0.04
 50
0.0
 44
0.0
 45
0.0
 49
-11.0
 74
     0
  0
LTYPE
  5
7A
330
5
100
AcDbSymbolTableRecord
100
AcDbLinetypeTableRecord
  2
ACISOWELD
 70
     0
  3
_ _ _ _ _
 72
    65
 73
     2
 40
2.0
 49
2.0
 74
     0
 49
-1.0
 74
     0
  0
LTYPE
  5
7B
330
5
100
AcDbSymbolTableRecord
100
AcDbLinetypeTableRecord
  2
ACISOTGB
 70
     0
  3
__ . . __ . .
 72
    65
 73
     6
 40
9.0
 49
4.0
 74
     0
 49
-1.0
 74
     0
 49
1.0
 74
     0
 49
-1.0
 74
     0
 49
1.0
 74
     0
 49
-1.0
 74
     0
  0
LTYPE
  5
7C
330
5
100
AcDbSymbolTableRecord
100
AcDbLinetypeTableRecord
  2
ACISOTGL
 70
     0
  3
_ _ _ _ _
 72
    65
 73
     2
 40
3.0
 49
2.0
 74
     0
 49
-1.0
 74
     0
  0
LTYPE
  5
7E
330
5
100
AcDbSymbolTableRecord
100
AcDbLinetypeTableRecord
  2
CENTER
 70
     0
  3
__ . __
 72
    65
 73
     4
 40
7.0
 49
4.0
 74
     0
 49
-1.0
 74
     0
 49
1.0
 74
     0
 49
-1.0
 74
     0
  0
LTYPE
  5
D8
330
5
100
AcDbSymbolTableRecord
100
AcDbLinetypeTableRecord
  2
HIDDEN
 70
     0
  3
Hidden __ __ __ __ __ __ __ __ __ __ __ __ __ _
 72
    65
 73
     2
 40
9.524999999999998
 49
6.349999999999999
 74
     0
 49
-3.174999999999999
 74
     0
  0
LTYPE
  5
D9
330
5
100
AcDbSymbolTableRecord
100
AcDbLinetypeTableRecord
  2
PHANTOM2
 70
     0
  3
Phantom (.5x) ___ _ _ ___ _ _ ___ _ _ ___ _ _
 72
    65
 73
     6
 40
31.75
 49
15.875
 74
     0
 49
-3.174999999999999
 74
     0
 49
3.174999999999999
 74
     0
 49
-3.174999999999999
 74
     0
 49
3.174999999999999
 74
     0
 49
-3.174999999999999
 74
     0
  0
ENDTAB
  0
TABLE
  2
LAYER
  5
2
330
0
100
AcDbSymbolTable
 70
     1
  0
LAYER
  5
10
102
{ACAD_XDICTIONARY
360
521
102
}
330
2
100
AcDbSymbolTableRecord
100
AcDbLayerTableRecord
  2
0
 70
     0
 62
     7
  6
Continuous
370
    -3
390
F
347
26D
  0
ENDTAB
  0
TABLE
  2
STYLE
  5
3
330
0
100
AcDbSymbolTable
 70
     8
  0
STYLE
  5
11
330
3
100
AcDbSymbolTableRecord
100
AcDbTextStyleTableRecord
  2
STANDARD
 70
     0
 40
0.0
 41
1.0
 50
0.0
 71
     0
 42
2.5
  3
ISOCP.SHX
  4

  0
STYLE
  5
6B
330
3
100
AcDbSymbolTableRecord
100
AcDbTextStyleTableRecord
  2

 70
     1
 40
0.0
 41
1.0
 50
0.0
 71
     0
 42
2.5
  3
ltypeshp.shx
  4

  0
STYLE
  5
6D
330
3
100
AcDbSymbolTableRecord
100
AcDbTextStyleTableRecord
  2
ACISOTS
 70
     0
 40
1.0
 41
1.0
 50
0.0
 71
     0
 42
2.5
  3
isocp.shx
  4

  0
STYLE
  5
79
330
3
100
AcDbSymbolTableRecord
100
AcDbTextStyleTableRecord
  2
ACISOGDT
 70
     0
 40
0.0
 41
1.0
 50
0.0
 71
     0
 42
2.5
  3
amgdt.shx
  4

  0
STYLE
  5
1ED
330
3
100
AcDbSymbolTableRecord
100
AcDbTextStyleTableRecord
  2
USER1
 70
     0
 40
0.0
 41
1.0
 50
0.0
 71
     0
 42
2.5
  3
TXT.SHX
  4

  0
STYLE
  5
1EE
330
3
100
AcDbSymbolTableRecord
100
AcDbTextStyleTableRecord
  2
USER2
 70
     0
 40
0.0
 41
1.0
 50
0.0
 71
     0
 42
2.5
  3
SIMPLEX.SHX
  4

  0
STYLE
  5
1EF
330
3
100
AcDbSymbolTableRecord
100
AcDbTextStyleTableRecord
  2
USER3
 70
     0
 40
0.0
 41
1.0
 50
0.0
 71
     0
 42
2.5
  3
ITALIC.SHX
  4

  0
STYLE
  5
22C
330
3
100
AcDbSymbolTableRecord
100
AcDbTextStyleTableRecord
  2

 70
     1
 40
0.0
 41
1.0
 50
0.0
 71
     0
 42
2.5
  3
genltshp.shx
  4

  0
ENDTAB
  0
TABLE
  2
VIEW
  5
6
330
0
100
AcDbSymbolTable
 70
     0
  0
ENDTAB
  0
TABLE
  2
UCS
  5
7
330
0
100
AcDbSymbolTable
 70
     0
  0
ENDTAB
  0
TABLE
  2
APPID
  5
9
330
0
100
AcDbSymbolTable
 70
    11
  0
APPID
  5
12
330
9
100
AcDbSymbolTableRecord
100
AcDbRegAppTableRecord
  2
ACAD
 70
     0
  0
APPID
  5
46
330
9
100
AcDbSymbolTableRecord
100
AcDbRegAppTableRecord
  2
MCAD_NO_VIS
 70
     0
  0
APPID
  5
47
330
9
100
AcDbSymbolTableRecord
100
AcDbRegAppTableRecord
  2
ACAD_TEMP_GRAPHIC
 70
     0
  0
APPID
  5
58
330
9
100
AcDbSymbolTableRecord
100
AcDbRegAppTableRecord
  2
ACATTRIBSERVICES
 70
     0
  0
APPID
  5
EE
330
9
100
AcDbSymbolTableRecord
100
AcDbRegAppTableRecord
  2
AD_DRAW
 70
     0
  0
APPID
  5
10C
330
9
100
AcDbSymbolTableRecord
100
AcDbRegAppTableRecord
  2
DESIGNERASSEMBLIES
 70
     0
  0
APPID
  5
111
330
9
100
AcDbSymbolTableRecord
100
AcDbRegAppTableRecord
  2
ACADM_DIM_EDIT
 70
     0
  0
APPID
  5
112
330
9
100
AcDbSymbolTableRecord
100
AcDbRegAppTableRecord
  2
AMDT_DM_ADJ
 70
     0
  0
APPID
  5
1A3
330
9
100
AcDbSymbolTableRecord
100
AcDbRegAppTableRecord
  2
ACAD_DSTYLE_DIMARC_LENGTH_SYMBOL
 70
     0
  0
APPID
  5
1A4
330
9
100
AcDbSymbolTableRecord
100
AcDbRegAppTableRecord
  2
ACAD_DSTYLE_DIMJOGGED_JOGANGLE_SYMBOL
 70
     0
  0
APPID
  5
2C6
330
9
100
AcDbSymbolTableRecord
100
AcDbRegAppTableRecord
  2
ACAD_MLEADERVER
 70
     0
  0
ENDTAB
  0
TABLE
  2
DIMSTYLE
  5
A
330
0
100
AcDbSymbolTable
 70
     8
100
AcDbDimStyleTable
 71
     1
340
81
  0
DIMSTYLE
105
27
330
A
100
AcDbSymbolTableRecord
100
AcDbDimStyleTableRecord
  2
ISO-25
 70
     0
 41
2.5
 42
0.625
 43
3.75
 44
1.25
 73
     0
 74
     0
 77
     1
 78
     8
140
2.5
141
2.5
143
0.03937007874016
147
0.625
171
     3
172
     1
271
     2
272
     2
274
     3
278
    44
283
     0
284
     8
340
11
  0
DIMSTYLE
105
81
102
{ACAD_REACTORS
330
62
102
}
330
A
100
AcDbSymbolTableRecord
100
AcDbDimStyleTableRecord
  2
AM_ISO
 70
     0
  4
"
 41
3.5
 42
1.0
 43
10.0
 44
1.0
 47
0.1
 48
0.1
 73
     0
 74
     0
 77
     1
 78
     8
 79
     2
 90
     1
140
3.5
141
0.0
143
0.0393701
146
0.71
147
1.5
172
     1
176
   256
177
   256
178
   140
271
     2
272
     3
274
     4
283
     0
284
     8
340
11
345
14
346
14
347
14
371
    -1
372
    -1
1001
ACAD_DSTYLE_DIMJOGGED_JOGANGLE_SYMBOL
1070
   384
1040
0.7853981633974483
  0
DIMSTYLE
105
82
330
A
100
AcDbSymbolTableRecord
100
AcDbDimStyleTableRecord
  2
AM_ISO$3
 70
     0
  4
"
 41
3.5
 42
1.0
 43
10.0
 44
1.0
 47
0.1
 48
0.1
 73
     0
 77
     1
 78
     8
 79
     2
 90
     1
140
3.5
141
0.0
143
0.0393701
146
0.71
147
1.5
176
   256
177
   256
178
   140
271
     2
272
     3
274
     4
283
     0
284
     8
288
     1
289
     0
340
11
345
14
346
14
347
14
371
    -1
372
    -1
1001
ACAD_DSTYLE_DIMJOGGED_JOGANGLE_SYMBOL
1070
   384
1040
0.7853981633974483
  0
DIMSTYLE
105
83
330
A
100
AcDbSymbolTableRecord
100
AcDbDimStyleTableRecord
  2
AM_ISO$4
 70
     0
  4
"
 41
3.5
 42
1.0
 43
10.0
 44
1.0
 47
0.1
 48
0.1
 73
     0
 74
     0
 77
     1
 78
     8
 79
     2
 90
     1
140
3.5
141
0.0
143
0.0393701
146
0.71
147
1.5
172
     1
176
   256
177
   256
178
   140
271
     2
272
     3
274
     4
283
     0
284
     8
340
11
345
14
346
14
347
14
371
    -1
372
    -1
1001
ACAD_DSTYLE_DIMJOGGED_JOGANGLE_SYMBOL
1070
   384
1040
0.7853981633974483
  0
DIMSTYLE
105
84
330
A
100
AcDbSymbolTableRecord
100
AcDbDimStyleTableRecord
  2
AM_ISO$6
 70
     0
  4
"
 41
3.5
 42
1.0
 43
10.0
 44
1.0
 47
0.1
 48
0.1
 73
     0
 74
     0
 78
     8
 79
     2
 90
     1
140
3.5
141
0.0
143
0.0393701
146
0.71
147
1.5
172
     1
176
   256
177
   256
178
   140
271
     2
272
     3
274
     4
283
     0
284
     8
340
11
345
14
346
14
347
14
371
    -1
372
    -1
1001
ACAD_DSTYLE_DIMJOGGED_JOGANGLE_SYMBOL
1070
   384
1040
0.7853981633974483
  0
DIMSTYLE
105
85
330
A
100
AcDbSymbolTableRecord
100
AcDbDimStyleTableRecord
  2
AM_ISO$7
 70
     0
  4
"
 41
3.5
 42
1.0
 43
10.0
 44
1.0
 47
0.1
 48
0.1
 73
     0
 74
     0
 77
     1
 78
     8
 79
     2
 90
     1
140
3.5
141
0.0
143
0.0393701
146
0.71
147
1.5
172
     1
176
   256
177
   256
178
   140
271
     2
272
     3
274
     4
283
     0
284
     8
340
11
345
14
346
14
347
14
371
    -1
372
    -1
1001
ACAD_DSTYLE_DIMJOGGED_JOGANGLE_SYMBOL
1070
   384
1040
0.7853981633974483
  0
DIMSTYLE
105
86
330
A
100
AcDbSymbolTableRecord
100
AcDbDimStyleTableRecord
  2
AM_ISO$SF
 70
     0
  4
"
 41
3.5
 42
1.0
 43
10.0
 44
1.0
 47
0.1
 48
0.1
 73
     0
 74
     0
 75
     1
 76
     1
 77
     1
 78
     8
 79
     2
 90
     1
140
3.5
141
0.0
143
0.0393701
146
0.71
147
1.5
172
     1
176
   256
177
   256
178
   140
271
     2
272
     3
274
     4
283
     0
284
     8
340
11
345
14
346
14
347
14
371
    -1
372
    -1
1001
ACAD_DSTYLE_DIMJOGGED_JOGANGLE_SYMBOL
1070
   384
1040
0.7853981633974483
  0
DIMSTYLE
105
8B
330
A
100
AcDbSymbolTableRecord
100
AcDbDimStyleTableRecord
  2
AM_ISO$SH
 70
     0
  4
"
 41
3.5
 42
1.0
 43
10.0
 44
1.0
 47
0.1
 48
0.1
 73
     0
 74
     0
 75
     1
 76
     1
 77
     1
 78
     8
 79
     2
 90
     1
140
3.5
141
0.0
143
0.0393701
144
2.0
146
0.71
147
1.5
172
     1
173
     1
176
   256
177
   256
178
   140
271
     2
272
     3
274
     4
283
     0
284
     8
340
11
343
87
345
14
346
14
347
14
371
    -1
372
    -1
1001
ACAD_DSTYLE_DIMJOGGED_JOGANGLE_SYMBOL
1070
   384
1040
0.7853981633974483
  0
ENDTAB
  0
TABLE
  2
BLOCK_RECORD
  5
1
330
0
100
AcDbSymbolTable
 70
     3
  0
BLOCK_RECORD
  5
1F
102
{ACAD_XDICTIONARY
360
8F
102
}
330
1
100
AcDbSymbolTableRecord
100
AcDbBlockTableRecord
  2
*Model_Space
340
22
 70
     0
280
     1
281
     0
  0
BLOCK_RECORD
  5
1B
330
1
100
AcDbSymbolTableRecord
100
AcDbBlockTableRecord
  2
*Paper_Space
340
1E
 70
     0
280
     1
281
     0
  0
BLOCK_RECORD
  5
23
330
1
100
AcDbSymbolTableRecord
100
AcDbBlockTableRecord
  2
*Paper_Space0
340
26
 70
     0
280
     1
281
     0
  0
BLOCK_RECORD
  5
87
330
1
100
AcDbSymbolTableRecord
100
AcDbBlockTableRecord
  2
GENAXEH
340
0
 70
     0
280
     1
281
     0
  0
ENDTAB
  0
ENDSEC
  0
SECTION
  2
BLOCKS
  0
BLOCK
  5
20
330
1F
100
AcDbEntity
  8
0
100
AcDbBlockBegin
  2
*Model_Space
 70
     0
 10
0.0
 20
0.0
 30
0.0
  3
*Model_Space
  1

  0
ENDBLK
  5
21
330
1F
100
AcDbEntity
  8
0
100
AcDbBlockEnd
  0
BLOCK
  5
1C
330
1B
100
AcDbEntity
 67
     1
  8
0
100
AcDbBlockBegin
  2
*Paper_Space
 70
     0
 10
0.0
 20
0.0
 30
0.0
  3
*Paper_Space
  1

  0
ENDBLK
  5
1D
330
1B
100
AcDbEntity
 67
     1
  8
0
100
AcDbBlockEnd
  0
BLOCK
  5
24
330
23
100
AcDbEntity
 67
     1
  8
0
100
AcDbBlockBegin
  2
*Paper_Space0
 70
     0
 10
0.0
 20
0.0
 30
0.0
  3
*Paper_Space0
  1

  0
ENDBLK
  5
25
330
23
100
AcDbEntity
 67
     1
  8
0
100
AcDbBlockEnd
  0
BLOCK
  5
89
330
87
100
AcDbEntity
  8
0
100
AcDbBlockBegin
  2
GENAXEH
 70
     0
 10
0.0
 20
0.0
 30
0.0
  3
GENAXEH
  1

  0
LINE
  5
88
330
87
100
AcDbEntity
  8
0
100
AcDbLine
 10
-1.0
 20
0.0
 30
0.0
 11
1.0
 21
0.0
 31
0.0
  0
ENDBLK
  5
8A
330
87
100
AcDbEntity
  8
0
100
AcDbBlockEnd
  0
ENDSEC
  0
SECTION
  2
ENTITIES
  0
LWPOLYLINE
  5
447
330
1F
100
AcDbEntity
  8
0
 62
     1
100
AcDbPolyline
 90
       10
 70
     0
 43
0.0
 10
234.9978342938216
 20
184.0272745098576
 42
-0.3374237249677257
 10
236.0874421587873
 20
183.1890963373479
 10
236.183357339356
 20
182.0927808068153
 10
236.6856369138245
 20
180.7127790177104
 42
0.3143657316110822
 10
236.9197111571775
 20
180.5482854948492
 42
0.0016978285813767
 10
237.8704924220055
 20
180.5482854948485
 42
0.3143657316110822
 10
238.1045666653585
 20
180.7127790177104
 10
238.6068462398271
 20
182.0927808068153
 10
238.7027614203958
 20
183.1890963373474
 42
-0.3374237249677219
 10
239.792369285361
 20
184.0272745098574
  0
LWPOLYLINE
  5
448
330
1F
100
AcDbEntity
  8
0
 62
     1
100
AcDbPolyline
 90
       10
 70
     0
 43
0.0
 10
239.7637810486072
 20
184.026775500329
 42
-0.3374237249677257
 10
240.8819771502694
 20
183.2271346894053
 10
241.0160947621443
 20
182.1348343962005
 10
241.5662297293557
 20
180.7732025712521
 42
0.3143657316110822
 10
241.8059021221629
 20
180.6169783266845
 42
0.0016978285813767
 10
242.7561041967333
 20
180.6501601143005
 42
0.3143657316110822
 10
242.9842951072233
 20
180.8227225054369
 10
243.4381073386576
 20
182.219412939091
 10
243.4957032300472
 20
183.3184080153514
 42
-0.3374237249677219
 10
244.5553953389735
 20
184.194102358456
  0
LWPOLYLINE
  5
449
330
1F
100
AcDbEntity
  8
0
 62
     1
100
AcDbPolyline
 90
       10
 70
     0
 43
0.0
 10
244.5268419325826
 20
184.1926059378364
 42
-0.3374237249677257
 10
245.6722639212367
 20
183.4324767276522
 10
245.8444205627666
 20
182.3455224714263
 10
246.441740668005
 20
181.0039195492696
 42
0.3143657316110822
 10
246.6867192063746
 20
180.8561549181733
 42
0.0016978285813767
 10
247.6351844158275
 20
180.9224780665089
 42
0.3143657316110822
 10
247.8572139779794
 20
181.1028990852272
 10
248.2620059660803
 20
182.514576511281
 10
248.2812123965691
 20
183.6149121770564
 42
-0.3374237249677219
 10
249.3096976778552
 20
184.5270557920888
  0
LWPOLYLINE
  5
44A
330
1F
100
AcDbEntity
  8
0
 62
     1
100
AcDbPolyline
 90
       10
 70
     0
 43
0.0
 10
249.2812138897539
 20
184.5245637835358
 42
-0.3374237249677257
 10
250.4524662451449
 20
183.8048722744444
 10
250.6624521699814
 20
182.7245883415263
 10
251.3062296707085
 20
181.4046488586642
 42
0.3143657316110822
 10
251.5562158860271
 20
181.2655238694807
 42
0.0016978285813767
 10
252.5017886716046
 20
181.364907573996
 42
0.3143657316110822
 10
252.7173863765988
 20
181.5529674050768
 10
253.0726649446819
 20
182.9779119120388
 10
253.0534585141927
 20
184.0782475778143
 42
-0.3374237249677219
 10
254.0494839169491
 20
185.0257291582844
  0
LWPOLYLINE
  5
44B
330
1F
100
AcDbEntity
  8
0
 62
     1
100
AcDbPolyline
 90
       10
 70
     0
 43
0.0
 10
254.0211044502471
 20
185.0222445979267
 42
-0.3374237249677257
 10
255.2167601817973
 20
184.3438676231718
 10
255.4643195544372
 20
183.2715701731289
 10
256.1537701069342
 20
181.9749022724996
 42
0.3143657316110822
 10
256.4084594295059
 20
181.8445864275978
 42
0.0016978285813767
 10
257.3499877564231
 20
181.976909604558
 42
0.3143657316110822
 10
257.5588909316662
 20
182.1723791260652
 10
257.8642232275233
 20
183.6088546385498
 10
257.8066273361328
 20
184.7078497148101
 42
-0.3374237249677219
 10
258.7689793568324
 20
185.6895149003607
  0
LWPOLYLINE
  5
44C
330
1F
100
AcDbEntity
  8
0
 62
     1
100
AcDbPolyline
 90
       10
 70
     0
 43
0.0
 10
258.7407387875369
 20
185.6850420335985
 42
-0.3374237249677257
 10
259.9593411729147
 20
185.0488060910283
 10
260.2441723803949
 20
183.9858015531282
 10
260.9784559953664
 20
182.7139850248328
 42
0.3143657316110822
 10
261.2375381254842
 20
182.5926370939961
 42
0.0016978285813767
 10
262.1738748865055
 20
182.7577385279925
 42
0.3143657316110822
 10
262.375829015657
 20
182.9603795904241
 10
262.6308430389181
 20
184.4066359842912
 10
262.5349278583489
 20
185.5029515148231
 42
-0.3374237249677219
 10
263.4624340192932
 20
186.5176042976394
  0
LWPOLYLINE
  5
44D
330
1F
100
AcDbEntity
  8
0
 62
     1
100
AcDbPolyline
 90
       10
 70
     0
 43
0.0
 10
263.4343667541889
 20
186.512148573972
 42
-0.3374237249677257
 10
264.6744311140983
 20
185.9188288190777
 10
264.9961871334685
 20
184.866412300607
 10
265.7744091994368
 20
183.6209966571765
 42
0.3143657316110822
 10
266.037568485433
 20
183.5087644841661
 42
0.0016978285813767
 10
266.9675728984471
 20
183.7064430245338
 42
0.3143657316110822
 10
267.1623319315099
 20
183.9160087409697
 10
267.3667169868691
 20
185.370283975582
 10
267.2325993749942
 20
186.4625842687863
 42
-0.3374237249677219
 10
268.1241296527974
 20
187.5089884507475
  0
LWPOLYLINE
  5
44E
330
1F
100
AcDbEntity
  8
0
 62
     1
100
AcDbPolyline
 90
       10
 70
     0
 43
0.0
 10
268.0962698875223
 20
187.5025565171339
 42
-0.3374237249677257
 10
269.3562853945587
 20
186.9528758186424
 10
269.7145742156713
 20
185.9123295270168
 10
270.535786588925
 20
184.6948321155713
 42
0.3143657316110822
 10
270.8027024117464
 20
184.5918524380021
 42
0.0016978285813767
 10
271.7252414096324
 20
184.8218672438894
 42
0.3143657316110822
 10
271.9125680627244
 20
185.0381022907853
 10
272.0660751384758
 20
186.4986245557833
 10
271.8939184969449
 20
187.5855788120087
 42
-0.3374237249677219
 10
272.7483866992934
 20
188.6624595108059
  0
LWPOLYLINE
  5
44F
330
1F
100
AcDbEntity
  8
0
 62
     1
100
AcDbPolyline
 90
       10
 70
     0
 43
0.0
 10
272.7207683766806
 20
188.6550592035654
 42
-0.3374237249677257
 10
273.9991998960391
 20
188.1496872627368
 10
274.3935849991558
 20
187.1222789433283
 10
275.2567871589158
 20
185.9341830969225
 42
0.3143657316110822
 10
275.5271343227473
 20
185.840581379669
 42
0.0016978285813767
 10
276.441083933843
 20
186.1026522134658
 42
0.3143657316110822
 10
276.6207499782932
 20
186.3252931417256
 10
276.7231920497102
 20
187.7902830157058
 10
276.5132061248733
 20
188.8705669486234
 42
-0.3374237249677219
 10
277.3295712138834
 20
189.9766121510053
  0
LWPOLYLINE
  5
450
330
1F
100
AcDbEntity
  8
0
 62
     1
100
AcDbPolyline
 90
       10
 70
     0
 43
0.0
 10
277.3022279826045
 20
189.9682524862732
 42
-0.3374237249677257
 10
278.5975179424063
 20
189.5078050209705
 10
279.0275188300293
 20
188.4947864125562
 10
279.9316590974308
 20
187.337539642967
 42
0.3143657316110822
 10
280.2051082258972
 20
187.253429925303
 42
0.0016978285813767
 10
281.1093549433835
 20
187.5472374940678
 42
0.3143657316110822
 10
281.2811414837924
 20
187.7760130500154
 10
281.3323937409914
 20
189.2436856684809
 10
281.084834368351
 20
190.3159831185231
 42
-0.3374237249677219
 10
281.8621017289133
 20
191.449845278784
  0
LWPOLYLINE
  5
451
330
1F
100
AcDbEntity
  8
0
 62
     1
100
AcDbPolyline
 90
       10
 70
     0
 43
0.0
 10
281.835066902483
 20
191.4405364415241
 42
-0.3374237249677257
 10
283.145637191436
 20
191.0255744360573
 10
283.6107299737209
 20
190.0281797457681
 10
284.5547067931193
 20
188.9031919799241
 42
0.3143657316110822
 10
284.8309247305797
 20
188.8286767365847
 42
0.0016978285813767
 10
285.7243668691203
 20
189.1538630810522
 42
0.3143657316110822
 10
285.8880646100492
 20
189.3884945369128
 10
285.8880646100502
 20
190.8570617668555
 10
285.6032334025686
 20
191.9200663047544
 42
-0.3374237249677219
 10
286.3404560541326
 20
193.0803639865102
  0
LWPOLYLINE
  5
452
330
1F
100
AcDbEntity
  8
0
 62
     1
100
AcDbPolyline
 90
       10
 70
     0
 43
0.0
 10
286.3137625703243
 20
193.070117318107
 42
-0.3374237249677257
 10
287.6380164604093
 20
192.7011463397595
 10
288.1376344934424
 20
191.7205907393885
 10
289.1202977744924
 20
190.629232601591
 42
0.3143657316110822
 10
289.3989479919369
 20
190.5644026179226
 42
0.0016978285813767
 10
290.2804970299107
 20
190.9205715486224
 42
0.3143657316110822
 10
290.4359065308795
 20
191.1607730421098
 10
290.384654273681
 20
192.6284456605752
 10
290.0628982543103
 20
193.6808621790452
 42
-0.3374237249677219
 10
290.7591780046355
 20
194.8661817383005
  0
LWPOLYLINE
  5
453
330
1F
100
AcDbEntity
  8
0
 62
     1
100
AcDbPolyline
 90
       10
 70
     0
 43
0.0
 10
290.7328583853459
 20
194.85500972274
 42
-0.3374237249677257
 10
292.069182477183
 20
194.5324793058136
 10
292.6027170533516
 20
193.569957451317
 10
293.622869572213
 20
192.5135585933464
 42
0.3143657316110822
 10
293.9036125772755
 20
192.458492854697
 42
0.0016978285813767
 10
294.7721944829714
 20
192.8452104346521
 42
0.3143657316110822
 10
294.9191264014407
 20
193.0906893172461
 10
294.8166843300242
 20
194.5556791912264
 10
294.4583955089111
 20
195.5962254828515
 42
-0.3374237249677219
 10
295.1128840483757
 20
196.805122790308
  0
LWPOLYLINE
  5
454
330
1F
100
AcDbEntity
  8
0
 62
     1
100
AcDbPolyline
 90
       10
 70
     0
 43
0.0
 10
295.0869703600074
 20
196.7930390389712
 42
-0.3374237249677257
 10
296.4337365485362
 20
196.517342137097
 10
297.0005376381437
 20
195.5740267130897
 10
298.0569364961143
 20
194.5538741942283
 42
0.3143657316110822
 10
298.3394302466881
 20
194.5086397897181
 42
0.0016978285813767
 10
299.1939867868482
 20
194.9254348631263
 42
0.3143657316110822
 10
299.3322621089096
 20
195.1758920566213
 10
299.1787550331592
 20
196.6364143216193
 10
298.784369930042
 20
197.6638226410274
 42
-0.3374237249677219
 10
299.3962698651767
 20
198.8948248415328
  0
LWPOLYLINE
  5
455
330
1F
100
AcDbEntity
  8
0
 62
     1
100
AcDbPolyline
 90
       10
 70
     0
 43
0.0
 10
299.3707936795668
 20
198.8818440766091
 42
-0.3374237249677257
 10
300.7263611376397
 20
198.6533165839938
 10
301.3257381808671
 20
197.7303568750127
 10
302.4170963186648
 20
196.7476935939627
 42
0.3143657316110822
 10
302.7009966396295
 20
196.7123456347464
 42
0.0016978285813767
 10
303.540486668745
 20
197.1587104010124
 42
0.3143657316110822
 10
303.6699369272174
 20
197.4138407618985
 10
303.4655518718587
 20
198.8681159965109
 10
303.0355509842348
 20
199.8811346049248
 42
-0.3374237249677219
 10
303.6041168092247
 20
201.1327419119185
  0
LWPOLYLINE
  5
456
330
1F
100
AcDbEntity
  8
0
 62
     1
100
AcDbPolyline
 90
       10
 70
     0
 43
0.0
 10
303.5791091651818
 20
201.1188799484704
 42
-0.3374237249677257
 10
304.9418263426606
 20
200.9378002906625
 10
305.5730490909077
 20
200.036320780942
 10
306.698036856752
 20
199.0923439615436
 42
0.3143657316110822
 10
306.9829978592979
 20
199.0669255136641
 42
0.0016978285813767
 10
307.8063985880817
 20
199.5423161460777
 42
0.3143657316110822
 10
307.9268660677663
 20
199.8018088373106
 10
307.6718520445056
 20
201.2480652311775
 10
307.2067592622206
 20
202.2454599214662
 42
-0.3374237249677219
 10
307.7312982671888
 20
203.5161474442399
  0
LWPOLYLINE
  5
457
330
1F
100
AcDbEntity
  8
0
 62
     1
100
AcDbPolyline
 90
       10
 70
     0
 43
0.0
 10
307.7067896326748
 20
203.5014211709346
 42
-0.3374237249677257
 10
309.0749962685882
 20
203.3680099656032
 10
309.7372956741697
 20
202.4891089690637
 10
310.8945424437584
 20
201.5849687016631
 42
0.3143657316110822
 10
311.1802169467992
 20
201.5695107335838
 42
0.0016978285813767
 10
311.9865251882984
 20
202.0733480418877
 42
0.3143657316110822
 10
312.0978631181265
 20
202.3368869115944
 10
311.7925308222702
 20
203.7733624240792
 10
311.2929127892371
 20
204.753918024449
 42
-0.3374237249677219
 10
311.7727859042052
 20
206.0421376259911
  0
LWPOLYLINE
  5
458
330
1F
100
AcDbEntity
  8
0
 62
     1
100
AcDbPolyline
 90
       10
 70
     0
 43
0.0
 10
311.7488061392151
 20
206.0265649845243
 42
-0.3374237249677257
 10
313.1208352845352
 20
205.940984772673
 10
313.8134044376434
 20
205.0857330947953
 10
315.0015002840492
 20
204.2225309350353
 42
0.3143657316110822
 10
315.2875402372074
 20
204.2170522799093
 42
0.0016978285813767
 10
316.0757736290311
 20
204.7487224159537
 42
0.3143657316110822
 10
316.1778463608871
 20
205.0159863826162
 10
315.822567792804
 20
206.4409308895784
 10
315.2890332166358
 20
207.4034527440746
 42
-0.3374237249677219
 10
315.7236557901319
 20
208.7076349272353
  0
LWPOLYLINE
  5
459
330
1F
100
AcDbEntity
  8
0
 62
     1
100
AcDbPolyline
 90
       10
 70
     0
 43
0.0
 10
315.7002341103171
 20
208.6912348904712
 42
-0.3374237249677257
 10
317.0744141588734
 20
208.6535899384054
 10
317.7964092706784
 20
207.8230295716168
 10
319.0139066821239
 20
207.0018171983635
 42
0.3143657316110822
 10
319.2999635897777
 20
207.0063245310886
 42
0.0016978285813767
 10
320.0691617909565
 20
207.5651797367096
 42
0.3143657316110822
 10
320.1618449649391
 20
207.8358431803541
 10
319.7570529768386
 20
209.2475206064083
 10
319.1902518872316
 20
210.1908360304152
 42
-0.3374237249677219
 10
319.5790943985976
 20
211.5093918500985
  0
LWPOLYLINE
  5
45A
330
1F
100
AcDbEntity
  8
0
 62
     1
100
AcDbPolyline
 90
       10
 70
     0
 43
0.0
 10
319.5562593396662
 20
211.4921843989565
 42
-0.3374237249677257
 10
320.9309160647467
 20
211.5025205712519
 10
321.6814574954192
 20
210.6976634254212
 10
322.9268731388497
 20
209.9194413594533
 42
0.3143657316110822
 10
323.2125984847203
 20
209.9339291885382
 42
0.0016978285813767
 10
323.961824345733
 20
210.5192885847538
 42
0.3143657316110822
 10
324.0450050416712
 20
210.7930217436662
 10
323.5911928102368
 20
212.1897121773205
 10
322.9918157670095
 20
213.1126718863007
 42
-0.3374237249677219
 10
323.3344044715432
 20
214.4439948853479
  0
LWPOLYLINE
  5
45B
330
1F
100
AcDbEntity
  8
0
 62
     1
100
AcDbPolyline
 90
       10
 70
     0
 43
0.0
 10
323.3121838544966
 20
214.4260009844562
 42
-0.3374237249677257
 10
324.6856424486314
 20
214.4843056880787
 10
325.4638157790501
 20
213.7061323576596
 10
326.7356323073459
 20
212.9718487426886
 42
0.3143657316110822
 10
327.0206779791128
 20
212.9962994169456
 42
0.0016978285813767
 10
327.7490186836562
 20
213.6074498334989
 42
0.3143657316110822
 10
327.8225955586845
 20
213.8839192059901
 10
327.3203159842164
 20
215.2639209950954
 10
326.6890932359688
 20
216.1654005048145
 42
-0.3374237249677219
 10
326.9850107421053
 20
217.5078686712264
  0
LWPOLYLINE
  5
45C
330
1F
100
AcDbEntity
  8
0
 62
     1
100
AcDbPolyline
 90
       10
 70
     0
 43
0.0
 10
326.9634316393435
 20
217.4891102433822
 42
-0.3374237249677257
 10
328.3340187548001
 20
217.5953124430313
 10
329.1388759006304
 20
216.8447710123583
 10
330.4355438012594
 20
216.1553204598614
 42
0.3143657316110822
 10
330.7195625146792
 20
216.1897041899102
 42
0.0016978285813767
 10
331.4261306917974
 20
216.8259010341586
 42
0.3143657316110822
 10
331.4900141038283
 20
217.1047697848863
 10
330.9398791366175
 20
218.4664016098342
 10
330.2775797310364
 20
219.3453026063727
 42
-0.3374237249677219
 10
330.5264655088763
 20
220.6972803494792
  0
LWPOLYLINE
  5
45D
330
1F
100
AcDbEntity
  8
0
 62
     1
100
AcDbPolyline
 90
       10
 70
     0
 43
0.0
 10
330.5055542112114
 20
220.6777802489365
 42
-0.3374237249677257
 10
331.8715999987134
 20
220.8317505535921
 10
332.7021603655016
 20
220.1097554417867
 10
334.0220998483642
 20
219.46597794106
 42
0.3143657316110822
 10
334.3047455703841
 20
219.5102528356216
 42
0.0016978285813767
 10
334.9886803755912
 20
220.17072099971
 42
0.3143657316110822
 10
335.042792492527
 20
220.4516493700563
 10
334.4454723872896
 20
221.7932522922134
 10
333.7529032341809
 20
222.6485039700907
 42
-0.3374237249677219
 10
333.9544540547426
 20
224.008344113268
  0
LWPOLYLINE
  5
45E
330
1F
100
AcDbEntity
  8
0
 62
     1
100
AcDbPolyline
 90
       10
 70
     0
 43
0.0
 10
333.9342360393698
 20
223.9881260978951
 42
-0.3374237249677257
 10
335.2940761825475
 20
224.1896769184574
 10
336.1493278604253
 20
223.4971077653478
 10
337.4909307825819
 20
222.8997876601103
 42
0.3143657316110822
 10
337.7718591529279
 20
222.9538997770466
 42
0.0016978285813767
 10
338.4323273170167
 20
223.6378345822533
 42
0.3143657316110822
 10
338.4766022115782
 20
223.9204803042736
 10
337.8328247108516
 20
225.2404197871361
 10
337.1108295990466
 20
226.0709801539243
 42
-0.3374237249677219
 10
337.2647999037013
 20
227.4370259414255
  0
LWPOLYLINE
  5
45F
330
1F
100
AcDbEntity
  8
0
 62
     1
100
AcDbPolyline
 90
       10
 70
     0
 43
0.0
 10
337.2452998031581
 20
227.4161146437615
 42
-0.3374237249677257
 10
338.5972775462642
 20
227.6650004216023
 10
339.4761785428031
 20
227.0027010160208
 10
340.8378103677519
 20
226.4525660488099
 42
0.3143657316110822
 10
341.1166791184783
 20
226.5164494608408
 42
0.0016978285813767
 10
341.752875962728
 20
227.2230176379582
 42
0.3143657316110822
 10
341.7872596927764
 20
227.5070363513783
 10
341.0978091402794
 20
228.8037042520074
 10
340.347267709607
 20
229.6085613978377
 42
-0.3374237249677219
 10
340.4534699092555
 20
230.9791485132943
  0
LWPOLYLINE
  5
460
330
1F
100
AcDbEntity
  8
0
 62
     1
100
AcDbPolyline
 90
       10
 70
     0
 43
0.0
 10
340.4347114814109
 20
230.9575694105325
 42
-0.3374237249677257
 10
341.7771796478223
 20
231.2534869166694
 10
342.6786591575424
 20
230.6222641684213
 10
344.0586609466472
 20
230.1199845939533
 42
0.3143657316110822
 10
344.3351303191385
 20
230.193561468982
 42
0.0016978285813767
 10
344.9462807356927
 20
230.9219021735249
 42
0.3143657316110822
 10
344.9707314099492
 20
231.2069478452919
 10
344.2364477949782
 20
232.4787643735878
 10
343.4582744645591
 20
233.2569377040059
 42
-0.3374237249677219
 10
343.5165791681811
 20
234.6303962981402
  0
LWPOLYLINE
  5
461
330
1F
100
AcDbEntity
  8
0
 62
     1
100
AcDbPolyline
 90
       10
 70
     0
 43
0.0
 10
343.4985852672894
 20
234.6081756810951
 42
-0.3374237249677257
 10
344.8299082663366
 20
234.9507643856292
 10
345.7528679753173
 20
234.3513873424014
 10
347.1495584089721
 20
233.8975751109671
 42
0.3143657316110822
 10
347.4232915678836
 20
233.9807558069057
 42
0.0016978285813767
 10
348.0086509641001
 20
234.7299816679175
 42
0.3143657316110822
 10
348.0231387931849
 20
235.015707013789
 10
347.2449167272166
 20
236.2611226572191
 10
346.4400595813863
 20
237.0116640878915
 42
-0.3374237249677219
 10
346.4503957536813
 20
238.3863208129716
  0
LWPOLYLINE
  5
462
330
1F
100
AcDbEntity
  8
0
 62
     1
100
AcDbPolyline
 90
       10
 70
     0
 43
0.0
 10
346.4331883025393
 20
238.3634857540402
 42
-0.3374237249677257
 10
347.7517441222222
 20
238.7523282654075
 10
348.6950595462295
 20
238.1855271757996
 10
350.1067369722837
 20
237.7807351876987
 42
0.3143657316110822
 10
350.3774004159272
 20
237.8734183616817
 42
0.0016978285813767
 10
350.9362556215497
 20
238.6426165628606
 42
0.3143657316110822
 10
350.9407629542743
 20
238.9286734705144
 10
350.119550581021
 20
240.1461708819598
 10
349.2889902142324
 20
240.8681659937644
 42
-0.3374237249677219
 10
349.2513452621661
 20
242.2423460423207
  0
LWPOLYLINE
  5
463
330
1F
100
AcDbEntity
  8
0
 62
     1
100
AcDbPolyline
 90
       10
 70
     0
 43
0.0
 10
349.2349452254016
 20
242.2189243625063
 42
-0.3374237249677257
 10
350.5391274085623
 20
242.6535469360029
 10
351.5016492630584
 20
242.1200123598338
 10
352.9265937700206
 20
241.7647337917511
 42
0.3143657316110822
 10
353.1938577366832
 20
241.8668065236071
 42
0.0016978285813767
 10
353.7255278727284
 20
242.6550399154308
 42
0.3143657316110822
 10
353.7200492176021
 20
242.9410798685891
 10
352.8568470578421
 20
244.1291757149944
 10
352.0015953799643
 20
244.8217448681027
 42
-0.3374237249677219
 10
351.9160151681126
 20
246.1937740134223
  0
LWPOLYLINE
  5
464
330
1F
100
AcDbEntity
  8
0
 62
     1
100
AcDbPolyline
 90
       10
 70
     0
 43
0.0
 10
351.9004425266457
 20
246.1697942484335
 42
-0.3374237249677257
 10
353.1886621281878
 20
246.649667363402
 10
354.1692177285586
 20
246.1500493303685
 10
355.6056932410434
 20
245.8447170345118
 42
0.3143657316110822
 10
355.8692321107492
 20
245.9560549643407
 42
0.0016978285813767
 10
356.373069419054
 20
246.7623632058391
 42
0.3143657316110822
 10
356.3576114509747
 20
247.0480377088799
 10
355.4534711835736
 20
248.2052844784695
 10
354.5745701870346
 20
248.8675838840496
 42
-0.3374237249677219
 10
354.4411589817032
 20
250.2357905199634
  0
LWPOLYLINE
  5
465
330
1F
100
AcDbEntity
  8
0
 62
     1
100
AcDbPolyline
 90
       10
 70
     0
 43
0.0
 10
354.4264327083975
 20
250.2112818854499
 42
-0.3374237249677257
 10
355.6971202311711
 20
250.7358208904185
 10
356.6945149214603
 20
250.2707281081331
 10
358.1407713153271
 20
250.0157140848724
 42
0.3143657316110822
 10
358.4002640065596
 20
250.136181564557
 42
0.0016978285813767
 10
358.8756546389741
 20
250.9595822933403
 42
0.3143657316110822
 10
358.8502361910942
 20
251.2445432958867
 10
357.9062593716958
 20
252.3695310617305
 10
357.0047798619758
 20
253.0007538099781
 42
-0.3374237249677219
 10
356.8237002041674
 20
254.3634709874565
  0
LWPOLYLINE
  5
466
330
1F
100
AcDbEntity
  8
0
 62
     1
100
AcDbPolyline
 90
       10
 70
     0
 43
0.0
 10
356.8098382407184
 20
254.3384633434135
 42
-0.3374237249677257
 10
358.0614455477121
 20
254.9070291684039
 10
359.074464156126
 20
254.47702828078
 10
360.5287393907383
 20
254.2726432254209
 42
0.3143657316110822
 10
360.783869751624
 20
254.4020934838942
 42
0.0016978285813767
 10
361.2302345178914
 20
255.2415835130088
 42
0.3143657316110822
 10
361.1948865586742
 20
255.5254838339739
 10
360.2122232776242
 20
256.6168419717711
 10
359.2892635686435
 20
257.2162190149985
 42
-0.3374237249677219
 10
359.0607360760282
 20
258.571786473071
  0
LWPOLYLINE
  5
467
330
1F
100
AcDbEntity
  8
0
 62
     1
100
AcDbPolyline
 90
       10
 70
     0
 43
0.0
 10
359.0477553111041
 20
258.546310287462
 42
-0.3374237249677257
 10
360.2787575116094
 20
259.1582102225972
 10
361.3061658310176
 20
258.7638251194795
 10
362.7666880960155
 20
258.6103180437286
 42
0.3143657316110822
 10
363.0171452895106
 20
258.7485933657905
 42
0.0016978285813767
 10
363.4339403629196
 20
259.6031499059506
 42
0.3143657316110822
 10
363.388705958409
 20
259.8856436565244
 10
362.3685534395477
 20
260.942042514495
 10
361.4252380155408
 20
261.508843604102
 42
-0.3374237249677219
 10
361.1495411136657
 20
262.8556097926308
  0
LWPOLYLINE
  5
468
330
1F
100
AcDbEntity
  8
0
 62
     1
100
AcDbPolyline
 90
       10
 70
     0
 43
0.0
 10
361.1374573623284
 20
262.8296961042626
 42
-0.3374237249677257
 10
362.3463546697853
 20
263.4841846437272
 10
363.3869009614109
 20
263.1258958226141
 10
364.8518908353913
 20
263.0234537511975
 42
0.3143657316110822
 10
365.0973697179848
 20
263.1703856696673
 42
0.0016978285813767
 10
365.4840872979407
 20
264.0389675753624
 42
0.3143657316110822
 10
365.4290215592905
 20
264.3197105804253
 10
364.3726227013199
 20
265.3398630992866
 10
363.4101008468237
 20
265.8733976754549
 42
-0.3374237249677219
 10
363.0875704298969
 20
267.2097217672914
  0
LWPOLYLINE
  5
469
330
1F
100
AcDbEntity
  8
0
 62
     1
100
AcDbPolyline
 90
       10
 70
     0
 43
0.0
 10
363.0763984143359
 20
267.1834021480032
 42
-0.3374237249677257
 10
364.2617179735917
 20
267.8796818983288
 10
365.3141344920618
 20
267.5579258789582
 10
366.7818071105271
 20
267.5066736217597
 42
0.3143657316110822
 10
367.022008604014
 20
267.6620831227284
 42
0.0016978285813767
 10
367.3781775347152
 20
268.5436321607014
 42
0.3143657316110822
 10
367.3133475510458
 20
268.8222823781463
 10
366.2219894132486
 20
269.8049456591967
 10
365.2414338128779
 20
270.3045636922294
 42
-0.3374237249677219
 10
364.8724628345303
 20
271.6288175823139
  0
LWPOLYLINE
  5
46A
330
1F
100
AcDbEntity
  8
0
 62
     1
100
AcDbPolyline
 90
       10
 70
     0
 43
0.0
 10
364.862216166126
 20
271.6021240985052
 42
-0.3374237249677257
 10
366.0225138478813
 20
272.3393467500701
 10
367.0855183857812
 20
272.0545155425885
 10
368.5540856157236
 20
272.054515542589
 42
0.3143657316110822
 10
368.788717071584
 20
272.2182132835188
 42
0.0016978285813767
 10
369.1139034160528
 20
273.111655422059
 42
0.3143657316110822
 10
369.0393881727128
 20
273.387873359519
 10
367.9144004068685
 20
274.3318501789178
 10
366.9170057165798
 20
274.7969429612027
 42
-0.3374237249677219
 10
366.5020437111125
 20
276.1075132501547
  0
LWPOLYLINE
  5
46B
330
1F
100
AcDbEntity
  8
0
 62
     1
100
AcDbPolyline
 90
       10
 70
     0
 43
0.0
 10
366.492734873852
 20
276.0804784237254
 42
-0.3374237249677257
 10
367.6265970341128
 20
276.8577457842877
 10
368.6988944841555
 20
276.6101864116478
 10
370.1665671026208
 20
276.6614386688463
 42
0.3143657316110822
 10
370.3953426585681
 20
276.8332252092561
 42
0.0016978285813767
 10
370.6891502273338
 20
277.7374719267415
 42
0.3143657316110822
 10
370.6050405096694
 20
278.0109210552083
 10
369.4477937400802
 20
278.9150613226099
 10
368.4347751316664
 20
279.3450622102324
 42
-0.3374237249677219
 10
367.9743276663635
 20
280.6403521700342
  0
LWPOLYLINE
  5
46C
330
1F
100
AcDbEntity
  8
0
 62
     1
100
AcDbPolyline
 90
       10
 70
     0
 43
0.0
 10
367.9659680016316
 20
280.6130089387553
 42
-0.3374237249677257
 10
369.0720132040128
 20
281.4293740277659
 10
370.1522971369309
 20
281.2193881029281
 10
371.6172870109113
 20
281.3218301743455
 42
0.3143657316110822
 10
371.8399279391706
 20
281.5014962187962
 42
0.0016978285813767
 10
372.1019987729687
 20
282.4154458298909
 42
0.3143657316110822
 10
372.0083970557139
 20
282.6857929937224
 10
370.8203012093086
 20
283.5489951534829
 10
369.7928928899005
 20
283.9433802565996
 42
-0.3374237249677219
 10
369.2875209490717
 20
285.2218117759581
  0
LWPOLYLINE
  5
46D
330
1F
100
AcDbEntity
  8
0
 62
     1
100
AcDbPolyline
 90
       10
 70
     0
 43
0.0
 10
369.2801206418308
 20
285.1941934533448
 42
-0.3374237249677257
 10
370.3570013406274
 20
286.0486616556938
 10
371.4439555968533
 20
285.8765050141629
 10
372.9044778618513
 20
286.0300120899138
 42
0.3143657316110822
 10
373.120712908747
 20
286.2173387430063
 42
0.0016978285813767
 10
373.3507277146355
 20
287.1398777408923
 42
0.3143657316110822
 10
373.2477480370653
 20
287.4067935637132
 10
372.0302506256198
 20
288.2280059369674
 10
370.9897043339947
 20
288.5862947580796
 42
-0.3374237249677219
 10
370.4400236355032
 20
289.8463102651159
  0
LWPOLYLINE
  5
46E
330
1F
100
AcDbEntity
  8
0
 62
     1
100
AcDbPolyline
 90
       10
 70
     0
 43
0.0
 10
370.4335917018884
 20
289.8184504998413
 42
-0.3374237249677257
 10
371.4799958838498
 20
290.709980777645
 10
372.5722961770543
 20
290.5758631657692
 10
374.0265714116667
 20
290.7802482211288
 42
0.3143657316110822
 10
374.2361371281022
 20
290.9750072541916
 42
0.0016978285813767
 10
374.4338156684712
 20
291.9050116672057
 42
0.3143657316110822
 10
374.3215834954599
 20
292.1681709532019
 10
373.0761678520293
 20
292.9463930191701
 10
372.0237513335592
 20
293.2681490385404
 42
-0.3374237249677219
 10
371.4304315786644
 20
294.5082133984498
  0
LWPOLYLINE
  5
46F
330
1F
100
AcDbEntity
  8
0
 62
     1
100
AcDbPolyline
 90
       10
 70
     0
 43
0.0
 10
371.4249758549968
 20
294.4801461333451
 42
-0.3374237249677257
 10
372.4396286378128
 20
295.4076522942898
 10
373.5359441683454
 20
295.311737113721
 10
374.9822005622123
 20
295.5667511369821
 42
0.3143657316110822
 10
375.1848416246435
 20
295.7687052661332
 42
0.0016978285813767
 10
375.3499430586412
 20
296.7050420271545
 42
0.3143657316110822
 10
375.2285951278036
 20
296.9641241572723
 10
373.9567785995082
 20
297.6984077722438
 10
372.8937740616089
 20
297.983238979724
 42
-0.3374237249677219
 10
372.2575381190381
 20
299.2018413651014
  0
LWPOLYLINE
  5
470
330
1F
100
AcDbEntity
  8
0
 62
     1
100
AcDbPolyline
 90
       10
 70
     0
 43
0.0
 10
372.2530652522755
 20
299.1736007958058
 42
-0.3374237249677257
 10
373.2347304378259
 20
300.1359528165059
 10
374.3337255140868
 20
300.0783569251154
 10
375.7702010265711
 20
300.3836892209725
 42
0.3143657316110822
 10
375.9656705480779
 20
300.5925923962156
 42
0.0016978285813767
 10
376.097993725039
 20
301.5341207231323
 42
0.3143657316110822
 10
375.9676778801368
 20
301.7888100457041
 10
374.6710099795077
 20
302.4782605982015
 10
373.598712529465
 20
302.7258199708414
 42
-0.3374237249677219
 10
372.9203355547097
 20
303.9214757023911
  0
LWPOLYLINE
  5
471
330
1F
100
AcDbEntity
  8
0
 62
     1
100
AcDbPolyline
 90
       10
 70
     0
 43
0.0
 10
372.9168509943515
 20
303.8930962356891
 42
-0.3374237249677257
 10
373.8643325748217
 20
304.889121638446
 10
374.9646682405978
 20
304.8699152079568
 10
376.3896127475596
 20
305.2251937760399
 42
0.3143657316110822
 10
376.5776725786395
 20
305.4407914810341
 42
0.0016978285813767
 10
376.6770562831566
 20
306.3863642666116
 42
0.3143657316110822
 10
376.5379312939722
 20
306.6363504819302
 10
375.2179918111101
 20
307.2801279826573
 10
374.137707878192
 20
307.4901139074938
 42
-0.3374237249677219
 10
373.4180163691003
 20
308.6613662628844
  0
LWPOLYLINE
  5
472
330
1F
100
AcDbEntity
  8
0
 62
     1
100
AcDbPolyline
 90
       10
 70
     0
 43
0.0
 10
373.4155243605469
 20
308.6328824747835
 42
-0.3374237249677257
 10
374.3276679755791
 20
309.66136775607
 10
375.4280036413552
 20
309.6805741865584
 10
376.839681067409
 20
310.0853661746597
 42
0.3143657316110822
 10
377.0201020861264
 20
310.307395736812
 42
0.0016978285813767
 10
377.0864252344636
 20
311.255860946265
 42
0.3143657316110822
 10
376.9386606033663
 20
311.5008394846342
 10
375.5970576812101
 20
312.0981595898721
 10
374.5101034249846
 20
312.2703162314029
 42
-0.3374237249677219
 10
373.7499742147997
 20
313.4157382200561
  0
LWPOLYLINE
  5
473
330
1F
100
AcDbEntity
  8
0
 62
     1
100
AcDbPolyline
 90
       10
 70
     0
 43
0.0
 10
373.7484777941795
 20
313.3871848136652
 42
-0.3374237249677257
 10
374.624172137284
 20
314.446876922592
 10
375.7231672135449
 20
314.5044728139816
 10
377.1198576471993
 20
314.9582850454159
 42
0.3143657316110822
 10
377.2924200383345
 20
315.1864759559058
 42
0.0016978285813767
 10
377.3256018259522
 20
316.1366780304762
 42
0.3143657316110822
 10
377.1693775813838
 20
316.3763504232835
 10
375.8077457564354
 20
316.9264853904948
 10
374.7154454632309
 20
317.0606030023697
 42
-0.3374237249677219
 10
373.9158046523071
 20
318.1787991040315
  0
LWPOLYLINE
  5
474
330
1F
100
AcDbEntity
  8
0
 62
     1
100
AcDbPolyline
 90
       10
 70
     0
 43
0.0
 10
373.9153056427785
 20
318.1502108672777
 42
-0.3374237249677257
 10
374.7534838152883
 20
319.2398187322434
 10
375.8497993458209
 20
319.3357339128121
 10
377.2298011349258
 20
319.8380134872806
 42
0.3143657316110822
 10
377.3942946577867
 20
320.0720877306336
 42
0.0016978285813767
 10
377.3942946577877
 20
321.0228689954616
 42
0.3143657316110822
 10
377.2298011349258
 20
321.2569432388146
 10
375.8497993458209
 20
321.7592228132831
 10
374.7534838152887
 20
321.8551379938518
 42
-0.3374237249677219
 10
373.9153056427785
 20
322.9447458588171
  0
LWPOLYLINE
  5
475
330
1F
100
AcDbEntity
  8
0
 62
     1
100
AcDbPolyline
 90
       10
 70
     0
 43
0.0
 10
373.9158046523075
 20
322.9161576220632
 42
-0.3374237249677257
 10
374.7154454632309
 20
324.0343537237251
 10
375.8077457564359
 20
324.1684713356004
 10
377.1693775813842
 20
324.7186063028113
 42
0.3143657316110822
 10
377.3256018259517
 20
324.9582786956186
 42
0.0016978285813767
 10
377.2924200383359
 20
325.9084807701894
 42
0.3143657316110822
 10
377.1198576471993
 20
326.1366716806789
 10
375.7231672135454
 20
326.5904839121136
 10
374.6241721372848
 20
326.6480798035028
 42
-0.3374237249677219
 10
373.7484777941804
 20
327.7077719124296
  0
LWPOLYLINE
  5
476
330
1F
100
AcDbEntity
  8
0
 62
     1
100
AcDbPolyline
 90
       10
 70
     0
 43
0.0
 10
373.7499742147993
 20
327.6792185060386
 42
-0.3374237249677257
 10
374.5101034249838
 20
328.8246404946927
 10
375.5970576812097
 20
328.9967971362226
 10
376.9386606033663
 20
329.5941172414611
 42
0.3143657316110822
 10
377.0864252344627
 20
329.8390957798302
 42
0.0016978285813767
 10
377.0201020861268
 20
330.7875609892832
 42
0.3143657316110822
 10
376.8396810674085
 20
331.0095905514355
 10
375.4280036413547
 20
331.4143825395364
 10
374.3276679755795
 20
331.4335889700252
 42
-0.3374237249677219
 10
373.4155243605469
 20
332.4620742513113
  0
LWPOLYLINE
  5
477
330
1F
100
AcDbEntity
  8
0
 62
     1
100
AcDbPolyline
 90
       10
 70
     0
 43
0.0
 10
373.4180163691003
 20
332.4335904632095
 42
-0.3374237249677257
 10
374.137707878192
 20
333.6048428186006
 10
375.2179918111101
 20
333.814828743437
 10
376.5379312939722
 20
334.4586062441646
 42
0.3143657316110822
 10
376.6770562831557
 20
334.7085924594827
 42
0.0016978285813767
 10
376.5776725786404
 20
335.6541652450606
 42
0.3143657316110822
 10
376.3896127475596
 20
335.8697629500544
 10
374.9646682405974
 20
336.2250415181376
 10
373.8643325748221
 20
336.2058350876488
 42
-0.3374237249677219
 10
372.916850994352
 20
337.2018604904048
  0
LWPOLYLINE
  5
478
330
1F
100
AcDbEntity
  8
0
 62
     1
100
AcDbPolyline
 90
       10
 70
     0
 43
0.0
 10
372.9203355547093
 20
337.1734810237027
 42
-0.3374237249677257
 10
373.5987125294641
 20
338.3691367552529
 10
374.6710099795073
 20
338.6166961278929
 10
375.9676778801363
 20
339.3061466803903
 42
0.3143657316110822
 10
376.0979937250381
 20
339.560836002962
 42
0.0016978285813767
 10
375.9656705480779
 20
340.5023643298788
 42
0.3143657316110822
 10
375.7702010265707
 20
340.7112675051218
 10
374.3337255140864
 20
341.016599800979
 10
373.2347304378259
 20
340.9590039095889
 42
-0.3374237249677219
 10
372.2530652522755
 20
341.9213559302885
  0
LWPOLYLINE
  5
479
330
1F
100
AcDbEntity
  8
0
 62
     1
100
AcDbPolyline
 90
       10
 70
     0
 43
0.0
 10
372.2575381190368
 20
341.893115360993
 42
-0.3374237249677257
 10
372.8937740616075
 20
343.1117177463708
 10
373.9567785995073
 20
343.396548953852
 10
375.2285951278027
 20
344.1308325688234
 42
0.3143657316110822
 10
375.3499430586394
 20
344.3899146989403
 42
0.0016978285813767
 10
375.184841624643
 20
345.3262514599615
 42
0.3143657316110822
 10
374.9822005622113
 20
345.5282055891136
 10
373.5359441683445
 20
345.7832196123746
 10
372.4396286378123
 20
345.687304431805
 42
-0.3374237249677219
 10
371.4249758549958
 20
346.6148105927492
  0
LWPOLYLINE
  5
47A
330
1F
100
AcDbEntity
  8
0
 62
     1
100
AcDbPolyline
 90
       10
 70
     0
 43
0.0
 10
371.4304315786644
 20
346.5867433276445
 42
-0.3374237249677257
 10
372.0237513335587
 20
347.8268076875539
 10
373.0761678520293
 20
348.1485637069237
 10
374.3215834954594
 20
348.9267857728925
 42
0.3143657316110822
 10
374.4338156684703
 20
349.1899450588886
 42
0.0016978285813767
 10
374.2361371281027
 20
350.1199494719027
 42
0.3143657316110822
 10
374.0265714116667
 20
350.3147085049651
 10
372.5722961770543
 20
350.5190935603247
 10
371.4799958838498
 20
350.3849759484498
 42
-0.3374237249677219
 10
370.4335917018884
 20
351.276506226253
  0
LWPOLYLINE
  5
47B
330
1F
100
AcDbEntity
  8
0
 62
     1
100
AcDbPolyline
 90
       10
 70
     0
 43
0.0
 10
370.4400236355018
 20
351.2486464609775
 42
-0.3374237249677257
 10
370.9897043339929
 20
352.5086619680143
 10
372.0302506256189
 20
352.8669507891269
 10
373.2477480370639
 20
353.6881631623807
 42
0.3143657316110822
 10
373.3507277146336
 20
353.9550789852015
 42
0.0016978285813767
 10
373.1207129087465
 20
354.8776179830881
 42
0.3143657316110822
 10
372.9044778618504
 20
355.06494463618
 10
371.4439555968525
 20
355.2184517119314
 10
370.357001340627
 20
355.0462950704006
 42
-0.3374237249677219
 10
369.2801206418299
 20
355.900763272749
  0
LWPOLYLINE
  5
47C
330
1F
100
AcDbEntity
  8
0
 62
     1
100
AcDbPolyline
 90
       10
 70
     0
 43
0.0
 10
369.2875209490708
 20
355.8731449501362
 42
-0.3374237249677257
 10
369.7928928898996
 20
357.1515764694942
 10
370.8203012093081
 20
357.5459615726114
 10
372.0083970557134
 20
358.4091637323715
 42
0.3143657316110822
 10
372.1019987729674
 20
358.679510896203
 42
0.0016978285813767
 10
371.8399279391702
 20
359.5934605072986
 42
0.3143657316110822
 10
371.6172870109108
 20
359.7731265517488
 10
370.1522971369304
 20
359.8755686231658
 10
369.0720132040128
 20
359.6655826983289
 42
-0.3374237249677219
 10
367.9659680016312
 20
360.481947787339
  0
LWPOLYLINE
  5
47D
330
1F
100
AcDbEntity
  8
0
 62
     1
100
AcDbPolyline
 90
       10
 70
     0
 43
0.0
 10
367.9743276663625
 20
360.4546045560602
 42
-0.3374237249677257
 10
368.434775131665
 20
361.7498945158619
 10
369.4477937400793
 20
362.1798954034854
 10
370.6050405096685
 20
363.0840356708865
 42
0.3143657316110822
 10
370.6891502273324
 20
363.3574847993529
 42
0.0016978285813767
 10
370.3953426585681
 20
364.2617315168392
 42
0.3143657316110822
 10
370.1665671026203
 20
364.4335180572481
 10
368.6988944841546
 20
364.484770314447
 10
367.6265970341124
 20
364.2372109418066
 42
-0.3374237249677219
 10
366.4927348738515
 20
365.0144783023689
  0
LWPOLYLINE
  5
47E
330
1F
100
AcDbEntity
  8
0
 62
     1
100
AcDbPolyline
 90
       10
 70
     0
 43
0.0
 10
366.5020437111111
 20
364.9874434759391
 42
-0.3374237249677257
 10
366.9170057165779
 20
366.2980137648925
 10
367.9144004068671
 20
366.7631065471766
 10
369.0393881727114
 20
367.7070833665758
 42
0.3143657316110822
 10
369.1139034160506
 20
367.9833013040358
 42
0.0016978285813767
 10
368.7887170715835
 20
368.876743442576
 42
0.3143657316110822
 10
368.5540856157227
 20
369.0404411835058
 10
367.0855183857802
 20
369.0404411835058
 10
366.0225138478809
 20
368.7556099760251
 42
-0.3374237249677219
 10
364.8622161661251
 20
369.4928326275887
  0
LWPOLYLINE
  5
47F
330
1F
100
AcDbEntity
  8
0
 62
     1
100
AcDbPolyline
 90
       10
 70
     0
 43
0.0
 10
364.872462834529
 20
369.4661391437804
 42
-0.3374237249677257
 10
365.241433812876
 20
370.7903930338649
 10
366.2219894132472
 20
371.2900110668976
 10
367.3133475510444
 20
372.2726743479485
 42
0.3143657316110822
 10
367.3781775347134
 20
372.551324565393
 42
0.0016978285813767
 10
367.0220086040131
 20
373.4328736033664
 42
0.3143657316110822
 10
366.7818071105262
 20
373.5882831043351
 10
365.3141344920605
 20
373.5370308471362
 10
364.2617179735907
 20
373.2152748277659
 42
-0.3374237249677219
 10
363.0763984143355
 20
373.9115545780911
  0
LWPOLYLINE
  5
480
330
1F
100
AcDbEntity
  8
0
 62
     1
100
AcDbPolyline
 90
       10
 70
     0
 43
0.0
 10
363.087570429896
 20
373.885234958802
 42
-0.3374237249677257
 10
363.4101008468219
 20
375.221559050639
 10
364.372622701319
 20
375.7550936268077
 10
365.4290215592892
 20
376.775246145669
 42
0.3143657316110822
 10
365.4840872979389
 20
377.0559891507315
 42
0.0016978285813767
 10
365.0973697179838
 20
377.9245710564274
 42
0.3143657316110822
 10
364.8518908353899
 20
378.0715029748968
 10
363.3869009614095
 20
377.9690609034802
 10
362.3463546697844
 20
377.6107720823671
 42
-0.3374237249677219
 10
361.137457362328
 20
378.2652606218313
  0
LWPOLYLINE
  5
481
330
1F
100
AcDbEntity
  8
0
 62
     1
100
AcDbPolyline
 90
       10
 70
     0
 43
0.0
 10
361.1495411136643
 20
378.2393469334635
 42
-0.3374237249677257
 10
361.4252380155385
 20
379.5861131219923
 10
362.3685534395463
 20
380.1529142115997
 10
363.3887059584072
 20
381.2093130695704
 42
0.3143657316110822
 10
363.4339403629174
 20
381.4918068201438
 42
0.0016978285813767
 10
363.0171452895097
 20
382.3463633603043
 42
0.3143657316110822
 10
362.7666880960142
 20
382.4846386823657
 10
361.3061658310162
 20
382.3311316066148
 10
360.2787575116081
 20
381.9367465034976
 42
-0.3374237249677219
 10
359.0477553111032
 20
382.5486464386323
  0
LWPOLYLINE
  5
482
330
1F
100
AcDbEntity
  8
0
 62
     1
100
AcDbPolyline
 90
       10
 70
     0
 43
0.0
 10
359.0607360760273
 20
382.5231702530233
 42
-0.3374237249677257
 10
359.2892635686426
 20
383.8787377110958
 10
360.2122232776233
 20
384.4781147543228
 10
361.1948865586737
 20
385.5694728921209
 42
0.3143657316110822
 10
361.23023451789
 20
385.8533732130851
 42
0.0016978285813767
 10
360.783869751624
 20
386.692863242201
 42
0.3143657316110822
 10
360.5287393907374
 20
386.8223135006739
 10
359.0744641561255
 20
386.6179284453143
 10
358.0614455477116
 20
386.1879275576908
 42
-0.3374237249677219
 10
356.8098382407179
 20
386.7564933826808
  0
LWPOLYLINE
  5
483
330
1F
100
AcDbEntity
  8
0
 62
     1
100
AcDbPolyline
 90
       10
 70
     0
 43
0.0
 10
356.8237002041651
 20
386.7314857386383
 42
-0.3374237249677257
 10
357.0047798619735
 20
388.0942029161166
 10
357.906259371694
 20
388.7254256643643
 10
358.8502361910923
 20
389.8504134302081
 42
0.3143657316110822
 10
358.8756546389718
 20
390.135374432754
 42
0.0016978285813767
 10
358.4002640065583
 20
390.9587751615383
 42
0.3143657316110822
 10
358.1407713153253
 20
391.0792426412223
 10
356.6945149214585
 20
390.8242286179617
 10
355.6971202311697
 20
390.3591358356763
 42
-0.3374237249677219
 10
354.4264327083956
 20
390.8836748406449
  0
LWPOLYLINE
  5
484
330
1F
100
AcDbEntity
  8
0
 62
     1
100
AcDbPolyline
 90
       10
 70
     0
 43
0.0
 10
354.441158981701
 20
390.85916620613
 42
-0.3374237249677257
 10
354.5745701870324
 20
392.2273728420443
 10
355.4534711835718
 20
392.8896722476253
 10
356.3576114509729
 20
394.0469190172145
 42
0.3143657316110822
 10
356.3730694190517
 20
394.3325935202553
 42
0.0016978285813767
 10
355.8692321107478
 20
395.1389017617536
 42
0.3143657316110822
 10
355.6056932410411
 20
395.2502396915826
 10
354.1692177285568
 20
394.9449073957263
 10
353.188662128186
 20
394.4452893626928
 42
-0.3374237249677219
 10
351.9004425266444
 20
394.9251624776608
  0
LWPOLYLINE
  5
485
330
1F
100
AcDbEntity
  8
0
 62
     1
100
AcDbPolyline
 90
       10
 70
     0
 43
0.0
 10
351.9160151681112
 20
394.9011827126711
 42
-0.3374237249677257
 10
352.0015953799625
 20
396.2732118579907
 10
352.8568470578407
 20
396.9657810110995
 10
353.7200492176002
 20
398.1538768575047
 42
0.3143657316110822
 10
353.7255278727262
 20
398.4399168106626
 42
0.0016978285813767
 10
353.1938577366818
 20
399.2281502024872
 42
0.3143657316110822
 10
352.9265937700193
 20
399.3302229343427
 10
351.5016492630571
 20
398.9749443662601
 10
350.539127408561
 20
398.4414097900914
 42
-0.3374237249677219
 10
349.2349452254002
 20
398.8760323635871
  0
LWPOLYLINE
  5
486
330
1F
100
AcDbEntity
  8
0
 62
     1
100
AcDbPolyline
 90
       10
 70
     0
 43
0.0
 10
349.2513452621647
 20
398.8526106837727
 42
-0.3374237249677257
 10
349.2889902142306
 20
400.226790732329
 10
350.1195505810192
 20
400.9487858441337
 10
350.9407629542725
 20
402.1662832555797
 42
0.3143657316110822
 10
350.9362556215478
 20
402.4523401632328
 42
0.0016978285813767
 10
350.3774004159263
 20
403.2215383644126
 42
0.3143657316110822
 10
350.1067369722818
 20
403.3142215383949
 10
348.6950595462281
 20
402.909429550294
 10
347.7517441222212
 20
402.3426284606865
 42
-0.3374237249677219
 10
346.4331883025379
 20
402.7314709720534
  0
LWPOLYLINE
  5
487
330
1F
100
AcDbEntity
  8
0
 62
     1
100
AcDbPolyline
 90
       10
 70
     0
 43
0.0
 10
346.4503957536795
 20
402.708635913122
 42
-0.3374237249677257
 10
346.440059581384
 20
404.0832926382026
 10
347.2449167272148
 20
404.833834068875
 10
348.0231387931831
 20
406.0792497123055
 42
0.3143657316110822
 10
348.0086509640978
 20
406.3649750581763
 42
0.0016978285813767
 10
347.4232915678822
 20
407.114200919189
 42
0.3143657316110822
 10
347.1495584089698
 20
407.1973816151269
 10
345.7528679753155
 20
406.7435693836927
 10
344.8299082663348
 20
406.1441923404653
 42
-0.3374237249677219
 10
343.498585267288
 20
406.486781044999
  0
LWPOLYLINE
  5
488
330
1F
100
AcDbEntity
  8
0
 62
     1
100
AcDbPolyline
 90
       10
 70
     0
 43
0.0
 10
343.5165791681793
 20
406.4645604279531
 42
-0.3374237249677257
 10
343.4582744645568
 20
407.8380190220874
 10
344.2364477949759
 20
408.6161923525063
 10
344.9707314099474
 20
409.8880088808017
 42
0.3143657316110822
 10
344.9462807356899
 20
410.1730545525687
 42
0.0016978285813767
 10
344.3351303191371
 20
410.9013952571118
 42
0.3143657316110822
 10
344.0586609466454
 20
410.9749721321407
 10
342.6786591575405
 20
410.4726925576727
 10
341.7771796478205
 20
409.841469809425
 42
-0.3374237249677219
 10
340.4347114814091
 20
410.1373873155613
  0
LWPOLYLINE
  5
489
330
1F
100
AcDbEntity
  8
0
 62
     1
100
AcDbPolyline
 90
       10
 70
     0
 43
0.0
 10
340.4534699092533
 20
410.1158082127991
 42
-0.3374237249677257
 10
340.3472677096038
 20
411.4863953282557
 10
341.0978091402767
 20
412.291252474086
 10
341.7872596927737
 20
413.5879203747157
 42
0.3143657316110822
 10
341.7528759627249
 20
413.8719390881353
 42
0.0016978285813767
 10
341.116679118476
 20
414.5785072652534
 42
0.3143657316110822
 10
340.8378103677492
 20
414.6423906772842
 10
339.4761785428004
 20
414.0922557100731
 10
338.5972775462619
 20
413.429956304492
 42
-0.3374237249677219
 10
337.2452998031554
 20
413.6788420823321
  0
LWPOLYLINE
  5
48A
330
1F
100
AcDbEntity
  8
0
 62
     1
100
AcDbPolyline
 90
       10
 70
     0
 43
0.0
 10
337.264799903699
 20
413.6579307846671
 42
-0.3374237249677257
 10
337.1108295990439
 20
415.0239765721688
 10
337.8328247108493
 20
415.854536938957
 10
338.4766022115759
 20
417.1744764218198
 42
0.3143657316110822
 10
338.4323273170139
 20
417.4571221438396
 42
0.0016978285813767
 10
337.771859152926
 20
418.1410569490473
 42
0.3143657316110822
 10
337.4909307825797
 20
418.1951690659826
 10
336.1493278604225
 20
417.5978489607449
 10
335.2940761825457
 20
416.9052798076367
 42
-0.3374237249677219
 10
333.934236039368
 20
417.1068306281978
  0
LWPOLYLINE
  5
48B
330
1F
100
AcDbEntity
  8
0
 62
     1
100
AcDbPolyline
 90
       10
 70
     0
 43
0.0
 10
333.9544540547399
 20
417.0866126128254
 42
-0.3374237249677257
 10
333.7529032341777
 20
418.4464527560031
 10
334.4454723872873
 20
419.3017044338809
 10
335.0427924925248
 20
420.6433073560375
 42
0.3143657316110822
 10
334.9886803755889
 20
420.9242357263835
 42
0.0016978285813767
 10
334.3047455703823
 20
421.5847038904723
 42
0.3143657316110822
 10
334.0220998483614
 20
421.6289787850342
 10
332.7021603654989
 20
420.9852012843076
 10
331.8715999987112
 20
420.2632061725027
 42
-0.3374237249677219
 10
330.5055542112095
 20
420.4171764771569
  0
LWPOLYLINE
  5
48C
330
1F
100
AcDbEntity
  8
0
 62
     1
100
AcDbPolyline
 90
       10
 70
     0
 43
0.0
 10
330.5264655088736
 20
420.3976763766137
 42
-0.3374237249677257
 10
330.2775797310337
 20
421.7496541197204
 10
330.9398791366152
 20
422.6285551162592
 10
331.4900141038256
 20
423.9901869412075
 42
0.3143657316110822
 10
331.4261306917947
 20
424.2690556919343
 42
0.0016978285813767
 10
330.7195625146774
 20
424.9052525361838
 42
0.3143657316110822
 10
330.4355438012572
 20
424.9396362662325
 10
329.1388759006281
 20
424.250185713735
 10
328.3340187547978
 20
423.4996442830626
 42
-0.3374237249677219
 10
326.9634316393413
 20
423.6058464827111
  0
LWPOLYLINE
  5
48D
330
1F
100
AcDbEntity
  8
0
 62
     1
100
AcDbPolyline
 90
       10
 70
     0
 43
0.0
 10
326.985010742103
 20
423.5870880548665
 42
-0.3374237249677257
 10
326.6890932359661
 20
424.9295562212783
 10
327.3203159842142
 20
425.8310357309979
 10
327.8225955586822
 20
427.2110375201028
 42
0.3143657316110822
 10
327.7490186836535
 20
427.4875068925941
 42
0.0016978285813767
 10
327.0206779791106
 20
428.0986573091483
 42
0.3143657316110822
 10
326.7356323073436
 20
428.1231079834047
 10
325.4638157790477
 20
427.3888243684337
 10
324.6856424486296
 20
426.6106510380149
 42
-0.3374237249677219
 10
323.3121838544953
 20
426.6689557416367
  0
LWPOLYLINE
  5
48E
330
1F
100
AcDbEntity
  8
0
 62
     1
100
AcDbPolyline
 90
       10
 70
     0
 43
0.0
 10
323.3344044715409
 20
426.6509618407448
 42
-0.3374237249677257
 10
322.9918157670068
 20
427.9822848397924
 10
323.5911928102346
 20
428.9052445487731
 10
324.0450050416689
 20
430.3019349824275
 42
0.3143657316110822
 10
323.9618243457303
 20
430.5756681413392
 42
0.0016978285813767
 10
323.2125984847185
 20
431.1610275375556
 42
0.3143657316110822
 10
322.9268731388474
 20
431.1755153666405
 10
321.6814574954169
 20
430.3972933006725
 10
320.9309160647449
 20
429.5924361548421
 42
-0.3374237249677219
 10
319.5562593396644
 20
429.6027723271366
  0
LWPOLYLINE
  5
48F
330
1F
100
AcDbEntity
  8
0
 62
     1
100
AcDbPolyline
 90
       10
 70
     0
 43
0.0
 10
319.5790943985949
 20
429.5855648759944
 42
-0.3374237249677257
 10
319.190251887228
 20
430.9041206956777
 10
319.7570529768354
 20
431.8474361196851
 10
320.1618449649359
 20
433.259113545739
 42
0.3143657316110822
 10
320.0691617909538
 20
433.5297769893828
 42
0.0016978285813767
 10
319.2999635897745
 20
434.0886321950052
 42
0.3143657316110822
 10
319.0139066821207
 20
434.0931395277297
 10
317.7964092706752
 20
433.2719271544761
 10
317.0744141588707
 20
432.441366787688
 42
-0.3374237249677219
 10
315.7002341103143
 20
432.4037218356217
  0
LWPOLYLINE
  5
490
330
1F
100
AcDbEntity
  8
0
 62
     1
100
AcDbPolyline
 90
       10
 70
     0
 43
0.0
 10
315.7236557901292
 20
432.3873217988576
 42
-0.3374237249677257
 10
315.2890332166326
 20
433.6915039820188
 10
315.8225677928012
 20
434.6540258365149
 10
316.1778463608848
 20
436.0789703434772
 42
0.3143657316110822
 10
316.0757736290284
 20
436.3462343101392
 42
0.0016978285813767
 10
315.2875402372047
 20
436.877904446185
 42
0.3143657316110822
 10
315.0015002840469
 20
436.8724257910582
 10
313.8134044376406
 20
436.0092236312981
 10
313.1208352845328
 20
435.1539719534208
 42
-0.3374237249677219
 10
311.7488061392137
 20
435.0683917415691
  0
LWPOLYLINE
  5
491
330
1F
100
AcDbEntity
  8
0
 62
     1
100
AcDbPolyline
 90
       10
 70
     0
 43
0.0
 10
311.7727859042024
 20
435.0528191001013
 42
-0.3374237249677257
 10
311.2929127892344
 20
436.3410387016434
 10
311.7925308222675
 20
437.3215943020142
 10
312.0978631181247
 20
438.7580698144987
 42
0.3143657316110822
 10
311.9865251882952
 20
439.0216086842047
 42
0.0016978285813767
 10
311.1802169467969
 20
439.5254459925098
 42
0.3143657316110822
 10
310.8945424437556
 20
439.5099880244303
 10
309.7372956741669
 20
438.6058477570291
 10
309.0749962685859
 20
437.7269467604902
 42
-0.3374237249677219
 10
307.7067896326721
 20
437.5935355551583
  0
LWPOLYLINE
  5
492
330
1F
100
AcDbEntity
  8
0
 62
     1
100
AcDbPolyline
 90
       10
 70
     0
 43
0.0
 10
307.731298267186
 20
437.5788092818528
 42
-0.3374237249677257
 10
307.206759262217
 20
438.8494968046266
 10
307.671852044502
 20
439.8468914949156
 10
307.9268660677631
 20
441.2931478887827
 42
0.3143657316110822
 10
307.8063985880781
 20
441.5526405800152
 42
0.0016978285813767
 10
306.9829978592952
 20
442.0280312124297
 42
0.3143657316110822
 10
306.6980368567493
 20
442.0026127645497
 10
305.5730490909045
 20
441.0586359451512
 10
304.9418263426578
 20
440.1571564354314
 42
-0.3374237249677219
 10
303.5791091651795
 20
439.9760767776225
  0
LWPOLYLINE
  5
493
330
1F
100
AcDbEntity
  8
0
 62
     1
100
AcDbPolyline
 90
       10
 70
     0
 43
0.0
 10
303.604116809222
 20
439.9622148141742
 42
-0.3374237249677257
 10
303.0355509842311
 20
441.2138221211677
 10
303.4655518718551
 20
442.226840729582
 10
303.6699369272146
 20
443.6811159641944
 42
0.3143657316110822
 10
303.5404866687413
 20
443.9362463250801
 42
0.0016978285813767
 10
302.7009966396267
 20
444.3826110913472
 42
0.3143657316110822
 10
302.4170963186616
 20
444.3472631321302
 10
301.3257381808639
 20
443.3645998510802
 10
300.726361137637
 20
442.4416401420995
 42
-0.3374237249677219
 10
299.3707936795645
 20
442.2131126494838
  0
LWPOLYLINE
  5
494
330
1F
100
AcDbEntity
  8
0
 62
     1
100
AcDbPolyline
 90
       10
 70
     0
 43
0.0
 10
299.3962698651735
 20
442.2001318845596
 42
-0.3374237249677257
 10
298.7843699300384
 20
443.4311340850646
 10
299.1787550331555
 20
444.4585424044731
 10
299.3322621089069
 20
445.9190646694714
 42
0.3143657316110822
 10
299.193986786845
 20
446.1695218629662
 42
0.0016978285813767
 10
298.339430246685
 20
446.5863169363748
 42
0.3143657316110822
 10
298.0569364961111
 20
446.5410825318643
 10
297.00053763814
 20
445.5209300130032
 10
296.433736548533
 20
444.577614588996
 42
-0.3374237249677219
 10
295.0869703600051
 20
444.3019176871213
  0
LWPOLYLINE
  5
495
330
1F
100
AcDbEntity
  8
0
 62
     1
100
AcDbPolyline
 90
       10
 70
     0
 43
0.0
 10
295.1128840483734
 20
444.2898339357845
 42
-0.3374237249677257
 10
294.4583955089083
 20
445.4987312432409
 10
294.8166843300219
 20
446.5392775348665
 10
294.9191264014384
 20
448.0042674088468
 42
0.3143657316110822
 10
294.7721944829686
 20
448.2497462914404
 42
0.0016978285813767
 10
293.9036125772736
 20
448.6364638713963
 42
0.3143657316110822
 10
293.6228695722107
 20
448.5813981327461
 10
292.6027170533494
 20
447.5249992747754
 10
292.0691824771811
 20
446.5624774202793
 42
-0.3374237249677219
 10
290.7328583853441
 20
446.2399470033528
  0
LWPOLYLINE
  5
496
330
1F
100
AcDbEntity
  8
0
 62
     1
100
AcDbPolyline
 90
       10
 70
     0
 43
0.0
 10
290.7591780046332
 20
446.228774987792
 42
-0.3374237249677257
 10
290.0628982543071
 20
447.4140945470472
 10
290.3846542736783
 20
448.4665110655174
 10
290.4359065308767
 20
449.9341836839827
 42
0.3143657316110822
 10
290.2804970299076
 20
450.1743851774696
 42
0.0016978285813767
 10
289.3989479919351
 20
450.5305541081712
 42
0.3143657316110822
 10
289.1202977744902
 20
450.4657241245014
 10
288.1376344934397
 20
449.3743659867042
 10
287.638016460407
 20
448.3938103863339
 42
-0.3374237249677219
 10
286.3137625703225
 20
448.0248394079861
  0
LWPOLYLINE
  5
497
330
1F
100
AcDbEntity
  8
0
 62
     1
100
AcDbPolyline
 90
       10
 70
     0
 43
0.0
 10
286.3404560541308
 20
448.014592739582
 42
-0.3374237249677257
 10
285.6032334025663
 20
449.1748904213373
 10
285.8880646100474
 20
450.2378949592372
 10
285.8880646100474
 20
451.7064621891797
 42
0.3143657316110822
 10
285.7243668691176
 20
451.94109364504
 42
0.0016978285813767
 10
284.8309247305774
 20
452.2662799895084
 42
0.3143657316110822
 10
284.554706793117
 20
452.1917647461683
 10
283.6107299737182
 20
451.0667769803245
 10
283.1456371914337
 20
450.0693822900358
 42
-0.3374237249677219
 10
281.8350669024813
 20
449.6544202845686
  0
LWPOLYLINE
  5
498
330
1F
100
AcDbEntity
  8
0
 62
     1
100
AcDbPolyline
 90
       10
 70
     0
 43
0.0
 10
281.8621017289106
 20
449.6451114473081
 42
-0.3374237249677257
 10
281.0848343683479
 20
450.7789736075689
 10
281.3323937409887
 20
451.8512710576118
 10
281.2811414837893
 20
453.3189436760773
 42
0.3143657316110822
 10
281.1093549433804
 20
453.5477192320241
 42
0.0016978285813767
 10
280.2051082258945
 20
453.8415268007899
 42
0.3143657316110822
 10
279.9316590974277
 20
453.7574170831255
 10
279.0275188300266
 20
452.6001703135363
 10
278.5975179424036
 20
451.5871517051224
 42
-0.3374237249677219
 10
277.3022279826018
 20
451.1267042398193
  0
LWPOLYLINE
  5
499
330
1F
100
AcDbEntity
  8
0
 62
     1
100
AcDbPolyline
 90
       10
 70
     0
 43
0.0
 10
277.3295712138802
 20
451.1183445750869
 42
-0.3374237249677257
 10
276.5132061248696
 20
452.2243897774687
 10
276.723192049707
 20
453.3046737103865
 10
276.62074997829
 20
454.7696635843668
 42
0.3143657316110822
 10
276.4410839338393
 20
454.9923045126262
 42
0.0016978285813767
 10
275.5271343227446
 20
455.2543753464243
 42
0.3143657316110822
 10
275.2567871589131
 20
455.1607736291697
 10
274.3935849991522
 20
453.9726777827642
 10
273.9991998960359
 20
452.9452694633561
 42
-0.3374237249677219
 10
272.7207683766774
 20
452.439897522527
  0
LWPOLYLINE
  5
49A
330
1F
100
AcDbEntity
  8
0
 62
     1
100
AcDbPolyline
 90
       10
 70
     0
 43
0.0
 10
272.7483866992907
 20
452.4324972152863
 42
-0.3374237249677257
 10
271.8939184969418
 20
453.509377914083
 10
272.0660751384726
 20
454.596332170309
 10
271.9125680627217
 20
456.0568544353069
 42
0.3143657316110822
 10
271.7252414096293
 20
456.2730894822023
 42
0.0016978285813767
 10
270.8027024117432
 20
456.5031042880908
 42
0.3143657316110822
 10
270.5357865889223
 20
456.4001246105209
 10
269.7145742156681
 20
455.1826271990754
 10
269.3562853945559
 20
454.1420809074503
 42
-0.3374237249677219
 10
268.0962698875192
 20
453.5924002089587
  0
LWPOLYLINE
  5
49B
330
1F
100
AcDbEntity
  8
0
 62
     1
100
AcDbPolyline
 90
       10
 70
     0
 43
0.0
 10
268.1241296527942
 20
453.5859682753442
 42
-0.3374237249677257
 10
267.2325993749905
 20
454.6323724573055
 10
267.3667169868659
 20
455.7246727505104
 10
267.1623319315063
 20
457.1789479851226
 42
0.3143657316110822
 10
266.9675728984434
 20
457.3885137015578
 42
0.0016978285813767
 10
266.0375684854298
 20
457.5861922419268
 42
0.3143657316110822
 10
265.7744091994332
 20
457.4739600689155
 10
264.9961871334653
 20
456.2285444254854
 10
264.6744311140951
 20
455.1761279070152
 42
-0.3374237249677219
 10
263.4343667541857
 20
454.5828081521205
  0
LWPOLYLINE
  5
49C
330
1F
100
AcDbEntity
  8
0
 62
     1
100
AcDbPolyline
 90
       10
 70
     0
 43
0.0
 10
263.4624340192913
 20
454.5773524284523
 42
-0.3374237249677257
 10
262.5349278583467
 20
455.5920052112684
 10
262.6308430389158
 20
456.6883207418007
 10
262.3758290156548
 20
458.1345771356678
 42
0.3143657316110822
 10
262.1738748865037
 20
458.3372181980989
 42
0.0016978285813767
 10
261.2375381254819
 20
458.5023196320967
 42
0.3143657316110822
 10
260.9784559953646
 20
458.3809717012591
 10
260.2441723803931
 20
457.1091551729637
 10
259.9593411729129
 20
456.0461506350642
 42
-0.3374237249677219
 10
258.7407387875351
 20
455.4099146924935
  0
LWPOLYLINE
  5
49D
330
1F
100
AcDbEntity
  8
0
 62
     1
100
AcDbPolyline
 90
       10
 70
     0
 43
0.0
 10
258.7689793568302
 20
455.4054418257311
 42
-0.3374237249677257
 10
257.8066273361301
 20
456.3871070112814
 10
257.8642232275202
 20
457.4861020875422
 10
257.5588909316634
 20
458.9225776000265
 42
0.3143657316110822
 10
257.3499877564204
 20
459.1180471215331
 42
0.0016978285813767
 10
256.4084594295032
 20
459.2503702984946
 42
0.3143657316110822
 10
256.1537701069314
 20
459.1200544535921
 10
255.464319554434
 20
457.8233865529629
 10
255.2167601817946
 20
456.7510891029204
 42
-0.3374237249677219
 10
254.0211044502448
 20
456.0727121281653
  0
LWPOLYLINE
  5
49E
330
1F
100
AcDbEntity
  8
0
 62
     1
100
AcDbPolyline
 90
       10
 70
     0
 43
0.0
 10
254.0494839169473
 20
456.0692275678076
 42
-0.3374237249677257
 10
253.0534585141904
 20
457.0167091482775
 10
253.0726649446797
 20
458.1170448140531
 10
252.7173863765966
 20
459.5419893210154
 42
0.3143657316110822
 10
252.5017886716018
 20
459.7300491520953
 42
0.0016978285813767
 10
251.5562158860244
 20
459.8294328566122
 42
0.3143657316110822
 10
251.3062296707062
 20
459.690307867428
 10
250.6624521699791
 20
458.3703683845657
 10
250.4524662451427
 20
457.2900844516481
 42
-0.3374237249677219
 10
249.281213889752
 20
456.5703929425564
  0
LWPOLYLINE
  5
49F
330
1F
100
AcDbEntity
  8
0
 62
     1
100
AcDbPolyline
 90
       10
 70
     0
 43
0.0
 10
249.3096976778525
 20
456.5679009340029
 42
-0.3374237249677257
 10
248.2812123965659
 20
457.4800445490349
 10
248.2620059660776
 20
458.5803802148108
 10
247.8572139779767
 20
459.9920576408646
 42
0.3143657316110822
 10
247.6351844158244
 20
460.1724786595822
 42
0.0016978285813767
 10
246.6867192063714
 20
460.2388018079192
 42
0.3143657316110822
 10
246.4417406680023
 20
460.0910371768224
 10
245.8444205627643
 20
458.7494342546657
 10
245.6722639212335
 20
457.6624799984402
 42
-0.3374237249677219
 10
244.5268419325798
 20
456.9023507882558
  0
LWPOLYLINE
  5
4A0
330
1F
100
AcDbEntity
  8
0
 62
     1
100
AcDbPolyline
 90
       10
 70
     0
 43
0.0
 10
244.5553953389703
 20
456.9008543676353
 42
-0.3374237249677257
 10
243.4957032300435
 20
457.7765487107395
 10
243.4381073386539
 20
458.8755437870005
 10
242.9842951072196
 20
460.2722342206546
 42
0.3143657316110822
 10
242.7561041967301
 20
460.4447966117903
 42
0.0016978285813767
 10
241.8059021221593
 20
460.4779783994078
 42
0.3143657316110822
 10
241.566229729352
 20
460.3217541548393
 10
241.0160947621407
 20
458.960122329891
 10
240.8819771502658
 20
457.8678220366866
 42
-0.3374237249677219
 10
239.763781048604
 20
457.0681812257626
  0
LWPOLYLINE
  5
4A1
330
1F
100
AcDbEntity
  8
0
 62
     1
100
AcDbPolyline
 90
       10
 70
     0
 43
0.0
 10
239.7923692853578
 20
457.0676822162339
 42
-0.3374237249677257
 10
238.7027614203921
 20
457.9058603887436
 10
238.6068462398234
 20
459.0021759192763
 10
238.1045666653549
 20
460.3821777083811
 42
0.3143657316110822
 10
237.8704924220019
 20
460.5466712312423
 42
0.0016978285813767
 10
236.9197111571739
 20
460.5466712312431
 42
0.3143657316110822
 10
236.6856369138209
 20
460.3821777083811
 10
236.1833573393524
 20
459.0021759192763
 10
236.0874421587837
 20
457.9058603887441
 42
-0.3374237249677219
 10
234.9978342938184
 20
457.0676822162341
  0
LWPOLYLINE
  5
4A2
330
1F
100
AcDbEntity
  8
0
 62
     1
100
AcDbPolyline
 90
       10
 70
     0
 43
0.0
 10
235.0264225305723
 20
457.0681812257626
 42
-0.3374237249677257
 10
233.9082264289104
 20
457.867822036686
 10
233.7741088170351
 20
458.960122329891
 10
233.2239738498242
 20
460.3217541548393
 42
0.3143657316110822
 10
232.9843014570169
 20
460.4779783994068
 42
0.0016978285813767
 10
232.0340993824461
 20
460.444796611791
 42
0.3143657316110822
 10
231.8059084719566
 20
460.2722342206546
 10
231.3520962405219
 20
458.8755437870005
 10
231.2945003491327
 20
457.77654871074
 42
-0.3374237249677219
 10
230.2348082402059
 20
456.9008543676355
  0
LWPOLYLINE
  5
4A3
330
1F
100
AcDbEntity
  8
0
 62
     1
100
AcDbPolyline
 90
       10
 70
     0
 43
0.0
 10
230.2633616465973
 20
456.9023507882548
 42
-0.3374237249677257
 10
229.1179396579437
 20
457.6624799984394
 10
228.9457830164133
 20
458.7494342546651
 10
228.3484629111754
 20
460.0910371768216
 42
0.3143657316110822
 10
228.1034843728062
 20
460.2388018079181
 42
0.0016978285813767
 10
227.1550191633533
 20
460.1724786595822
 42
0.3143657316110822
 10
226.9329896012009
 20
459.9920576408641
 10
226.5281976130996
 20
458.5803802148103
 10
226.5089911826108
 20
457.4800445490346
 42
-0.3374237249677219
 10
225.4805059013247
 20
456.5679009340025
  0
LWPOLYLINE
  5
4A4
330
1F
100
AcDbEntity
  8
0
 62
     1
100
AcDbPolyline
 90
       10
 70
     0
 43
0.0
 10
225.5089896894256
 20
456.5703929425559
 42
-0.3374237249677257
 10
224.3377373340345
 20
457.2900844516472
 10
224.127751409198
 20
458.3703683845652
 10
223.4839739084709
 20
459.6903078674276
 42
0.3143657316110822
 10
223.2339876931528
 20
459.8294328566111
 42
0.0016978285813767
 10
222.2884149075749
 20
459.7300491520956
 42
0.3143657316110822
 10
222.0728172025806
 20
459.5419893210149
 10
221.7175386344975
 20
458.1170448140527
 10
221.7367450649867
 20
457.0167091482775
 42
-0.3374237249677219
 10
220.7407196622303
 20
456.0692275678073
  0
LWPOLYLINE
  5
4A5
330
1F
100
AcDbEntity
  8
0
 62
     1
100
AcDbPolyline
 90
       10
 70
     0
 43
0.0
 10
220.7690991289332
 20
456.0727121281644
 42
-0.3374237249677257
 10
219.573443397383
 20
456.7510891029193
 10
219.3258840247431
 20
457.8233865529624
 10
218.6364334722457
 20
459.1200544535914
 42
0.3143657316110822
 10
218.381744149674
 20
459.2503702984934
 42
0.0016978285813767
 10
217.4402158227567
 20
459.1180471215333
 42
0.3143657316110822
 10
217.2313126475142
 20
458.9225776000261
 10
216.925980351657
 20
457.4861020875415
 10
216.9835762430476
 20
456.3871070112813
 42
-0.3374237249677219
 10
216.0212242223474
 20
455.4054418257306
  0
LWPOLYLINE
  5
4A6
330
1F
100
AcDbEntity
  8
0
 62
     1
100
AcDbPolyline
 90
       10
 70
     0
 43
0.0
 10
216.0494647916426
 20
455.4099146924926
 42
-0.3374237249677257
 10
214.8308624062647
 20
456.0461506350629
 10
214.546031198784
 20
457.1091551729629
 10
213.8117475838126
 20
458.3809717012583
 42
0.3143657316110822
 10
213.5526654536952
 20
458.5023196320952
 42
0.0016978285813767
 10
212.616328692674
 20
458.3372181980986
 42
0.3143657316110822
 10
212.4143745635219
 20
458.1345771356669
 10
212.1593605402609
 20
456.6883207417999
 10
212.2552757208305
 20
455.5920052112679
 42
-0.3374237249677219
 10
211.3277695598863
 20
454.5773524284517
  0
LWPOLYLINE
  5
4A7
330
1F
100
AcDbEntity
  8
0
 62
     1
100
AcDbPolyline
 90
       10
 70
     0
 43
0.0
 10
211.355836824991
 20
454.5828081521191
 42
-0.3374237249677257
 10
210.1157724650816
 20
455.1761279070139
 10
209.7940164457118
 20
456.2285444254842
 10
209.015794379743
 20
457.4739600689146
 42
0.3143657316110822
 10
208.7526350937469
 20
457.5861922419252
 42
0.0016978285813767
 10
207.8226306807328
 20
457.3885137015576
 42
0.3143657316110822
 10
207.6278716476704
 20
457.1789479851214
 10
207.4234865923104
 20
455.7246727505092
 10
207.5576042041862
 20
454.6323724573049
 42
-0.3374237249677219
 10
206.6660739263825
 20
453.5859682753436
  0
LWPOLYLINE
  5
4A8
330
1F
100
AcDbEntity
  8
0
 62
     1
100
AcDbPolyline
 90
       10
 70
     0
 43
0.0
 10
206.6939336916576
 20
453.5924002089578
 42
-0.3374237249677257
 10
205.4339181846208
 20
454.1420809074489
 10
205.0756293635081
 20
455.182627199075
 10
204.2544169902544
 20
456.40012461052
 42
0.3143657316110822
 10
203.9875011674335
 20
456.5031042880892
 42
0.0016978285813767
 10
203.064962169547
 20
456.2730894822021
 42
0.3143657316110822
 10
202.877635516455
 20
456.056854435306
 10
202.7241284407037
 20
454.596332170308
 10
202.8962850822349
 20
453.5093779140829
 42
-0.3374237249677219
 10
202.041816879886
 20
452.4324972152859
  0
LWPOLYLINE
  5
4A9
330
1F
100
AcDbEntity
  8
0
 62
     1
100
AcDbPolyline
 90
       10
 70
     0
 43
0.0
 10
202.0694352024993
 20
452.4398975225259
 42
-0.3374237249677257
 10
200.7910036831404
 20
452.9452694633547
 10
200.3966185800241
 20
453.9726777827633
 10
199.5334164202636
 20
455.1607736291686
 42
0.3143657316110822
 10
199.2630692564316
 20
455.2543753464225
 42
0.0016978285813767
 10
198.3491196453369
 20
454.9923045126258
 42
0.3143657316110822
 10
198.1694536008867
 20
454.7696635843659
 10
198.0670115294692
 20
453.3046737103855
 10
198.2769974543066
 20
452.2243897774679
 42
-0.3374237249677219
 10
197.4606323652965
 20
451.1183445750863
  0
LWPOLYLINE
  5
4AA
330
1F
100
AcDbEntity
  8
0
 62
     1
100
AcDbPolyline
 90
       10
 70
     0
 43
0.0
 10
197.4879755965748
 20
451.1267042398181
 42
-0.3374237249677257
 10
196.1926856367736
 20
451.5871517051208
 10
195.7626847491501
 20
452.6001703135354
 10
194.8585444817486
 20
453.757417083124
 42
0.3143657316110822
 10
194.5850953532822
 20
453.841526800788
 42
0.0016978285813767
 10
193.6808486357959
 20
453.5477192320237
 42
0.3143657316110822
 10
193.5090620953874
 20
453.3189436760759
 10
193.457809838188
 20
451.8512710576106
 10
193.7053692108284
 20
450.7789736075682
 42
-0.3374237249677219
 10
192.9281018502665
 20
449.6451114473074
  0
LWPOLYLINE
  5
4AB
330
1F
100
AcDbEntity
  8
0
 62
     1
100
AcDbPolyline
 90
       10
 70
     0
 43
0.0
 10
192.9551366766964
 20
449.654420284567
 42
-0.3374237249677257
 10
191.6445663877434
 20
450.0693822900339
 10
191.1794736054585
 20
451.0667769803232
 10
190.2354967860601
 20
452.1917647461672
 42
0.3143657316110822
 10
189.9592788486002
 20
452.2662799895064
 42
0.0016978285813767
 10
189.0658367100591
 20
451.9410936450391
 42
0.3143657316110822
 10
188.9021389691302
 20
451.7064621891782
 10
188.9021389691293
 20
450.2378949592358
 10
189.1869701766109
 20
449.1748904213364
 42
-0.3374237249677219
 10
188.4497475250468
 20
448.0145927395809
  0
LWPOLYLINE
  5
4AC
330
1F
100
AcDbEntity
  8
0
 62
     1
100
AcDbPolyline
 90
       10
 70
     0
 43
0.0
 10
188.4764410088546
 20
448.0248394079845
 42
-0.3374237249677257
 10
187.1521871187701
 20
448.3938103863316
 10
186.652569085737
 20
449.3743659867028
 10
185.6699058046865
 20
450.4657241244998
 42
0.3143657316110822
 10
185.3912555872416
 20
450.5305541081689
 42
0.0016978285813767
 10
184.5097065492686
 20
450.1743851774684
 42
0.3143657316110822
 10
184.3542970482999
 20
449.9341836839813
 10
184.4055493054984
 20
448.4665110655161
 10
184.7273053248691
 20
447.4140945470461
 42
-0.3374237249677219
 10
184.0310255745439
 20
446.2287749877906
  0
LWPOLYLINE
  5
4AD
330
1F
100
AcDbEntity
  8
0
 62
     1
100
AcDbPolyline
 90
       10
 70
     0
 43
0.0
 10
184.0573451938339
 20
446.2399470033512
 42
-0.3374237249677257
 10
182.7210211019965
 20
446.5624774202775
 10
182.1874865258287
 20
447.5249992747743
 10
181.1673340069669
 20
448.5813981327448
 42
0.3143657316110822
 10
180.8865910019044
 20
448.6364638713945
 42
0.0016978285813767
 10
180.018009096209
 20
448.2497462914394
 42
0.3143657316110822
 10
179.8710771777391
 20
448.0042674088455
 10
179.9735192491562
 20
446.5392775348651
 10
180.3318080702688
 20
445.49873124324
 42
-0.3374237249677219
 10
179.6773195308042
 20
444.2898339357835
  0
LWPOLYLINE
  5
4AE
330
1F
100
AcDbEntity
  8
0
 62
     1
100
AcDbPolyline
 90
       10
 70
     0
 43
0.0
 10
179.7032332191729
 20
444.3019176871199
 42
-0.3374237249677257
 10
178.3564670306436
 20
444.5776145889945
 10
177.7896659410366
 20
445.5209300130023
 10
176.733267083066
 20
446.5410825318632
 42
0.3143657316110822
 10
176.4507733324922
 20
446.5863169363735
 42
0.0016978285813767
 10
175.5962167923321
 20
446.1695218629658
 42
0.3143657316110822
 10
175.4579414702707
 20
445.9190646694702
 10
175.6114485460211
 20
444.4585424044722
 10
176.0058336491388
 20
443.4311340850642
 42
-0.3374237249677219
 10
175.3939337140036
 20
442.2001318845588
  0
LWPOLYLINE
  5
4AF
330
1F
100
AcDbEntity
  8
0
 62
     1
100
AcDbPolyline
 90
       10
 70
     0
 43
0.0
 10
175.4194098996127
 20
442.2131126494824
 42
-0.3374237249677257
 10
174.0638424415397
 20
442.4416401420972
 10
173.4644653983123
 20
443.3645998510784
 10
172.3731072605151
 20
444.3472631321284
 42
0.3143657316110822
 10
172.0892069395499
 20
444.3826110913447
 42
0.0016978285813767
 10
171.2497169104349
 20
443.9362463250792
 42
0.3143657316110822
 10
171.1202666519621
 20
443.6811159641925
 10
171.3246517073212
 20
442.2268407295802
 10
171.7546525949451
 20
441.2138221211668
 42
-0.3374237249677219
 10
171.1860867699547
 20
439.9622148141726
  0
LWPOLYLINE
  5
4B0
330
1F
100
AcDbEntity
  8
0
 62
     1
100
AcDbPolyline
 90
       10
 70
     0
 43
0.0
 10
171.2110944139972
 20
439.9760767776207
 42
-0.3374237249677257
 10
169.8483772365189
 20
440.157156435429
 10
169.2171544882717
 20
441.0586359451496
 10
168.0921667224274
 20
442.0026127645479
 42
0.3143657316110822
 10
167.8072057198815
 20
442.0280312124274
 42
0.0016978285813767
 10
166.9838049910977
 20
441.5526405800139
 42
0.3143657316110822
 10
166.8633375114132
 20
441.2931478887809
 10
167.1183515346742
 20
439.846891494914
 10
167.5834443169588
 20
438.8494968046253
 42
-0.3374237249677219
 10
167.0589053119906
 20
437.5788092818512
  0
LWPOLYLINE
  5
4B1
330
1F
100
AcDbEntity
  8
0
 62
     1
100
AcDbPolyline
 90
       10
 70
     0
 43
0.0
 10
167.083413946505
 20
437.5935355551566
 42
-0.3374237249677257
 10
165.7152073105912
 20
437.726946760488
 10
165.0529079050102
 20
438.6058477570269
 10
163.895661135421
 20
439.5099880244284
 42
0.3143657316110822
 10
163.6099866323807
 20
439.5254459925073
 42
0.0016978285813767
 10
162.8036783908815
 20
439.0216086842034
 42
0.3143657316110822
 10
162.6923404610525
 20
438.7580698144967
 10
162.9976727569096
 20
437.3215943020124
 10
163.4972907899428
 20
436.3410387016421
 42
-0.3374237249677219
 10
163.0174176749747
 20
435.0528191001
  0
LWPOLYLINE
  5
4B2
330
1F
100
AcDbEntity
  8
0
 62
     1
100
AcDbPolyline
 90
       10
 70
     0
 43
0.0
 10
163.0413974399639
 20
435.0683917415668
 42
-0.3374237249677257
 10
161.6693682946443
 20
435.1539719534181
 10
160.976799141536
 20
436.0092236312963
 10
159.7887032951303
 20
436.8724257910563
 42
0.3143657316110822
 10
159.5026633419725
 20
436.8779044461818
 42
0.0016978285813767
 10
158.7144299501483
 20
436.3462343101374
 42
0.3143657316110822
 10
158.6123572182923
 20
436.0789703434749
 10
158.9676357863754
 20
434.6540258365126
 10
159.5011703625441
 20
433.691503982017
 42
-0.3374237249677219
 10
159.0665477890479
 20
432.3873217988563
  0
LWPOLYLINE
  5
4B3
330
1F
100
AcDbEntity
  8
0
 62
     1
100
AcDbPolyline
 90
       10
 70
     0
 43
0.0
 10
159.0899694688637
 20
432.4037218356198
 42
-0.3374237249677257
 10
157.7157894203069
 20
432.4413667876857
 10
156.9937943085019
 20
433.2719271544744
 10
155.7762968970564
 20
434.0931395277281
 42
0.3143657316110822
 10
155.4902399894031
 20
434.0886321950025
 42
0.0016978285813767
 10
154.7210417882233
 20
433.5297769893815
 42
0.3143657316110822
 10
154.6283586142408
 20
433.259113545737
 10
155.0331506023417
 20
431.8474361196828
 10
155.5999516919492
 20
430.9041206956759
 42
-0.3374237249677219
 10
155.2111091805823
 20
429.5855648759931
  0
LWPOLYLINE
  5
4B4
330
1F
100
AcDbEntity
  8
0
 62
     1
100
AcDbPolyline
 90
       10
 70
     0
 43
0.0
 10
155.2339442395141
 20
429.6027723271346
 42
-0.3374237249677257
 10
153.8592875144331
 20
429.5924361548396
 10
153.1087460837607
 20
430.3972933006703
 10
151.8633304403306
 20
431.1755153666382
 42
0.3143657316110822
 10
151.5776050944596
 20
431.1610275375529
 42
0.0016978285813767
 10
150.8283792334468
 20
430.5756681413377
 42
0.3143657316110822
 10
150.7451985375096
 20
430.3019349824254
 10
151.199010768943
 20
428.9052445487706
 10
151.7983878121713
 20
427.9822848397904
 42
-0.3374237249677219
 10
151.4557991076372
 20
426.6509618407432
  0
LWPOLYLINE
  5
4B5
330
1F
100
AcDbEntity
  8
0
 62
     1
100
AcDbPolyline
 90
       10
 70
     0
 43
0.0
 10
151.4780197246823
 20
426.6689557416344
 42
-0.3374237249677257
 10
150.104561130548
 20
426.6106510380119
 10
149.3263878001294
 20
427.3888243684315
 10
148.054571271834
 20
428.1231079834021
 42
0.3143657316110822
 10
147.769525600067
 20
428.0986573091451
 42
0.0016978285813767
 10
147.0411848955236
 20
427.4875068925918
 42
0.3143657316110822
 10
146.9676080204949
 20
427.2110375201005
 10
147.469887594963
 20
425.8310357309957
 10
148.1011103432106
 20
424.9295562212761
 42
-0.3374237249677219
 10
147.8051928370742
 20
423.5870880548646
  0
LWPOLYLINE
  5
4B6
330
1F
100
AcDbEntity
  8
0
 62
     1
100
AcDbPolyline
 90
       10
 70
     0
 43
0.0
 10
147.8267719398363
 20
423.6058464827094
 42
-0.3374237249677257
 10
146.4561848243797
 20
423.4996442830598
 10
145.6513276785495
 20
424.2501857137328
 10
144.3546597779195
 20
424.9396362662301
 42
0.3143657316110822
 10
144.0706410645002
 20
424.9052525361808
 42
0.0016978285813767
 10
143.364072887382
 20
424.2690556919325
 42
0.3143657316110822
 10
143.3001894753511
 20
423.9901869412052
 10
143.8503244425624
 20
422.6285551162569
 10
144.5126238481434
 20
421.7496541197184
 42
-0.3374237249677219
 10
144.2637380703031
 20
420.3976763766119
  0
LWPOLYLINE
  5
4B7
330
1F
100
AcDbEntity
  8
0
 62
     1
100
AcDbPolyline
 90
       10
 70
     0
 43
0.0
 10
144.2846493679685
 20
420.417176477155
 42
-0.3374237249677257
 10
142.9186035804669
 20
420.2632061724999
 10
142.0880432136782
 20
420.9852012843054
 10
140.7681037308161
 20
421.6289787850315
 42
0.3143657316110822
 10
140.4854580087963
 20
421.5847038904695
 42
0.0016978285813767
 10
139.8015232035882
 20
420.9242357263816
 42
0.3143657316110822
 10
139.7474110866528
 20
420.6433073560353
 10
140.3447311918908
 20
419.3017044338786
 10
141.037300344999
 20
418.4464527560013
 42
-0.3374237249677219
 10
140.8357495244377
 20
417.0866126128236
  0
LWPOLYLINE
  5
4B8
330
1F
100
AcDbEntity
  8
0
 62
     1
100
AcDbPolyline
 90
       10
 70
     0
 43
0.0
 10
140.8559675398101
 20
417.1068306281955
 42
-0.3374237249677257
 10
139.4961273966328
 20
416.9052798076337
 10
138.640875718755
 20
417.5978489607424
 10
137.2992727965979
 20
418.1951690659799
 42
0.3143657316110822
 10
137.018344426252
 20
418.1410569490445
 42
0.0016978285813767
 10
136.3578762621632
 20
417.4571221438374
 42
0.3143657316110822
 10
136.3136013676017
 20
417.1744764218175
 10
136.9573788683283
 20
415.8545369389545
 10
137.6793739801333
 20
415.0239765721668
 42
-0.3374237249677219
 10
137.5254036754791
 20
413.6579307846651
  0
LWPOLYLINE
  5
4B9
330
1F
100
AcDbEntity
  8
0
 62
     1
100
AcDbPolyline
 90
       10
 70
     0
 43
0.0
 10
137.5449037760217
 20
413.67884208233
 42
-0.3374237249677257
 10
136.1929260329152
 20
413.4299563044893
 10
135.3140250363763
 20
414.0922557100708
 10
133.952393211428
 20
414.6423906772817
 42
0.3143657316110822
 10
133.6735244607011
 20
414.5785072652508
 42
0.0016978285813767
 10
133.0373276164514
 20
413.8719390881334
 42
0.3143657316110822
 10
133.0029438864035
 20
413.5879203747132
 10
133.6923944389004
 20
412.2912524740837
 10
134.4429358695729
 20
411.4863953282539
 42
-0.3374237249677219
 10
134.3367336699239
 20
410.1158082127969
  0
LWPOLYLINE
  5
4BA
330
1F
100
AcDbEntity
  8
0
 62
     1
100
AcDbPolyline
 90
       10
 70
     0
 43
0.0
 10
134.3554920977699
 20
410.1373873155581
 42
-0.3374237249677257
 10
133.013023931358
 20
409.8414698094217
 10
132.1115444216379
 20
410.4726925576693
 10
130.7315426325331
 20
410.9749721321374
 42
0.3143657316110822
 10
130.4550732600419
 20
410.9013952571082
 42
0.0016978285813767
 10
129.8439228434877
 20
410.1730545525657
 42
0.3143657316110822
 10
129.8194721692311
 20
409.8880088807987
 10
130.5537557842021
 20
408.6161923525029
 10
131.3319291146213
 20
407.8380190220847
 42
-0.3374237249677219
 10
131.2736244109992
 20
406.4645604279499
  0
LWPOLYLINE
  5
4BB
330
1F
100
AcDbEntity
  8
0
 62
     1
100
AcDbPolyline
 90
       10
 70
     0
 43
0.0
 10
131.2916183118914
 20
406.486781044996
 42
-0.3374237249677257
 10
129.9602953128442
 20
406.1441923404624
 10
129.0373356038631
 20
406.7435693836902
 10
127.6406451702091
 20
407.197381615124
 42
0.3143657316110822
 10
127.3669120112968
 20
407.1142009191858
 42
0.0016978285813767
 10
126.7815526150803
 20
406.364975058174
 42
0.3143657316110822
 10
126.7670647859959
 20
406.079249712303
 10
127.5452868519637
 20
404.8338340688725
 10
128.350143997794
 20
404.0832926382
 42
-0.3374237249677219
 10
128.3398078254995
 20
402.70863591312
  0
LWPOLYLINE
  5
4BC
330
1F
100
AcDbEntity
  8
0
 62
     1
100
AcDbPolyline
 90
       10
 70
     0
 43
0.0
 10
128.3570152766415
 20
402.7314709720513
 42
-0.3374237249677257
 10
127.0384594569582
 20
402.342628460684
 10
126.0951440329509
 20
402.9094295502915
 10
124.6834666068966
 20
403.3142215383919
 42
0.3143657316110822
 10
124.4128031632531
 20
403.2215383644098
 42
0.0016978285813767
 10
123.8539479576306
 20
402.452340163231
 42
0.3143657316110822
 10
123.849440624906
 20
402.1662832555767
 10
124.6706529981593
 20
400.9487858441312
 10
125.5012133649479
 20
400.2267907323272
 42
-0.3374237249677219
 10
125.5388583170138
 20
398.8526106837704
  0
LWPOLYLINE
  5
4BD
330
1F
100
AcDbEntity
  8
0
 62
     1
100
AcDbPolyline
 90
       10
 70
     0
 43
0.0
 10
125.5552583537783
 20
398.8760323635853
 42
-0.3374237249677257
 10
124.2510761706176
 20
398.4414097900886
 10
123.2885543161214
 20
398.9749443662578
 10
121.8636098091592
 20
399.3302229343404
 42
0.3143657316110822
 10
121.5963458424971
 20
399.2281502024845
 42
0.0016978285813767
 10
121.0646757064514
 20
398.4399168106612
 42
0.3143657316110822
 10
121.0701543615778
 20
398.1538768575025
 10
121.9333565213378
 20
396.9657810110972
 10
122.7886081992151
 20
396.2732118579889
 42
-0.3374237249677219
 10
122.8741884110672
 20
394.9011827126693
  0
LWPOLYLINE
  5
4BE
330
1F
100
AcDbEntity
  8
0
 62
     1
100
AcDbPolyline
 90
       10
 70
     0
 43
0.0
 10
122.8897610525346
 20
394.9251624776581
 42
-0.3374237249677257
 10
121.6015414509925
 20
394.4452893626896
 10
120.6209858506222
 20
394.9449073957231
 10
119.184510338137
 20
395.2502396915798
 42
0.3143657316110822
 10
118.9209714684311
 20
395.1389017617509
 42
0.0016978285813767
 10
118.4171341601263
 20
394.3325935202525
 42
0.3143657316110822
 10
118.4325921282056
 20
394.0469190172113
 10
119.3367323956067
 20
392.8896722476226
 10
120.2156333921457
 20
392.2273728420415
 42
-0.3374237249677219
 10
120.3490445974776
 20
390.8591662061277
  0
LWPOLYLINE
  5
4BF
330
1F
100
AcDbEntity
  8
0
 62
     1
100
AcDbPolyline
 90
       10
 70
     0
 43
0.0
 10
120.3637708707833
 20
390.8836748406421
 42
-0.3374237249677257
 10
119.0930833480092
 20
390.3591358356731
 10
118.0956886577205
 20
390.8242286179585
 10
116.6494322638532
 20
391.0792426412191
 42
0.3143657316110822
 10
116.3899395726212
 20
390.9587751615342
 42
0.0016978285813767
 10
115.9145489402067
 20
390.1353744327513
 42
0.3143657316110822
 10
115.9399673880866
 20
389.8504134302053
 10
116.883944207485
 20
388.7254256643611
 10
117.785423717205
 20
388.0942029161139
 42
-0.3374237249677219
 10
117.9665033750134
 20
386.7314857386356
  0
LWPOLYLINE
  5
4C0
330
1F
100
AcDbEntity
  8
0
 62
     1
100
AcDbPolyline
 90
       10
 70
     0
 43
0.0
 10
117.980365338462
 20
386.7564933826781
 42
-0.3374237249677257
 10
116.7287580314682
 20
386.1879275576876
 10
115.7157394230539
 20
386.6179284453116
 10
114.2614641884415
 20
386.8223135006707
 42
0.3143657316110822
 10
114.0063338275554
 20
386.6928632421979
 42
0.0016978285813767
 10
113.5599690612885
 20
385.8533732130828
 42
0.3143657316110822
 10
113.5953170205057
 20
385.5694728921177
 10
114.5779803015557
 20
384.4781147543205
 10
115.5009400105364
 20
383.8787377110931
 42
-0.3374237249677219
 10
115.7294675031521
 20
382.5231702530206
  0
LWPOLYLINE
  5
4C1
330
1F
100
AcDbEntity
  8
0
 62
     1
100
AcDbPolyline
 90
       10
 70
     0
 43
0.0
 10
115.7424482680758
 20
382.5486464386296
 42
-0.3374237249677257
 10
114.5114460675709
 20
381.936746503494
 10
113.4840377481628
 20
382.3311316066116
 10
112.0235154831644
 20
382.4846386823621
 42
0.3143657316110822
 10
111.7730582896693
 20
382.3463633603006
 42
0.0016978285813767
 10
111.3562632162607
 20
381.4918068201411
 42
0.3143657316110822
 10
111.4014976207713
 20
381.2093130695668
 10
112.4216501396327
 20
380.1529142115961
 10
113.3649655636395
 20
379.5861131219891
 42
-0.3374237249677219
 10
113.6406624655142
 20
378.2393469334607
  0
LWPOLYLINE
  5
4C2
330
1F
100
AcDbEntity
  8
0
 62
     1
100
AcDbPolyline
 90
       10
 70
     0
 43
0.0
 10
113.6527462168519
 20
378.265260621829
 42
-0.3374237249677257
 10
112.4438489093954
 20
377.6107720823639
 10
111.4033026177699
 20
377.9690609034775
 10
109.9383127437895
 20
378.0715029748941
 42
0.3143657316110822
 10
109.692833861196
 20
377.9245710564243
 42
0.0016978285813767
 10
109.3061162812396
 20
377.0559891507293
 42
0.3143657316110822
 10
109.3611820198898
 20
376.7752461456663
 10
110.4175808778604
 20
375.755093626805
 10
111.3801027323566
 20
375.2215590506372
 42
-0.3374237249677219
 10
111.7026331492839
 20
373.8852349587997
  0
LWPOLYLINE
  5
4C3
330
1F
100
AcDbEntity
  8
0
 62
     1
100
AcDbPolyline
 90
       10
 70
     0
 43
0.0
 10
111.7138051648439
 20
373.9115545780888
 42
-0.3374237249677257
 10
110.5284856055886
 20
373.2152748277627
 10
109.4760690871185
 20
373.5370308471339
 10
108.0083964686528
 20
373.5882831043324
 42
0.3143657316110822
 10
107.7681949751663
 20
373.4328736033636
 42
0.0016978285813767
 10
107.4120260444647
 20
372.5513245653907
 42
0.3143657316110822
 10
107.4768560281341
 20
372.2726743479458
 10
108.5682141659313
 20
371.2900110668953
 10
109.548769766302
 20
370.7903930338626
 42
-0.3374237249677219
 10
109.9177407446495
 20
369.4661391437782
  0
LWPOLYLINE
  5
4C4
330
1F
100
AcDbEntity
  8
0
 62
     1
100
AcDbPolyline
 90
       10
 70
     0
 43
0.0
 10
109.9279874130538
 20
369.4928326275864
 42
-0.3374237249677257
 10
108.7676897312985
 20
368.7556099760219
 10
107.7046851933987
 20
369.040441183503
 10
106.2361179634567
 20
369.040441183503
 42
0.3143657316110822
 10
106.0014865075959
 20
368.8767434425728
 42
0.0016978285813767
 10
105.6763001631279
 20
367.983301304033
 42
0.3143657316110822
 10
105.7508154064676
 20
367.7070833665731
 10
106.8758031723118
 20
366.7631065471738
 10
107.8731978626006
 20
366.2980137648893
 42
-0.3374237249677219
 10
108.2881598680674
 20
364.9874434759369
  0
LWPOLYLINE
  5
4C5
330
1F
100
AcDbEntity
  8
0
 62
     1
100
AcDbPolyline
 90
       10
 70
     0
 43
0.0
 10
108.2974687053279
 20
365.0144783023667
 42
-0.3374237249677257
 10
107.163606545067
 20
364.2372109418044
 10
106.0913090950243
 20
364.4847703144443
 10
104.6236364765586
 20
364.4335180572458
 42
0.3143657316110822
 10
104.3948609206118
 20
364.2617315168369
 42
0.0016978285813767
 10
104.101053351846
 20
363.3574847993506
 42
0.3143657316110822
 10
104.1851630695105
 20
363.0840356708842
 10
105.3424098390997
 20
362.1798954034826
 10
106.3554284475135
 20
361.7498945158597
 42
-0.3374237249677219
 10
106.8158759128168
 20
360.4546045560579
  0
LWPOLYLINE
  5
4C6
330
1F
100
AcDbEntity
  8
0
 62
     1
100
AcDbPolyline
 90
       10
 70
     0
 43
0.0
 10
106.8242355775492
 20
360.4819477873371
 42
-0.3374237249677257
 10
105.7181903751675
 20
359.6655826983262
 10
104.6379064422494
 20
359.875568623164
 10
103.1729165682695
 20
359.7731265517465
 42
0.3143657316110822
 10
102.9502756400102
 20
359.5934605072959
 42
0.0016978285813767
 10
102.6882048062121
 20
358.6795108962016
 42
0.3143657316110822
 10
102.7818065234664
 20
358.4091637323696
 10
103.9699023698717
 20
357.5459615726091
 10
104.9973106892803
 20
357.1515764694928
 42
-0.3374237249677219
 10
105.5026826301091
 20
355.8731449501344
  0
LWPOLYLINE
  5
4C7
330
1F
100
AcDbEntity
  8
0
 62
     1
100
AcDbPolyline
 90
       10
 70
     0
 43
0.0
 10
105.51008293735
 20
355.9007632727472
 42
-0.3374237249677257
 10
104.4332022385529
 20
355.0462950703978
 10
103.346247982327
 20
355.2184517119291
 10
101.885725717329
 20
355.0649446361782
 42
0.3143657316110822
 10
101.6694906704338
 20
354.8776179830853
 42
0.0016978285813767
 10
101.4394758645453
 20
353.9550789851997
 42
0.3143657316110822
 10
101.5424555421154
 20
353.6881631623788
 10
102.7599529535605
 20
352.8669507891247
 10
103.8004992451861
 20
352.5086619680124
 42
-0.3374237249677219
 10
104.3501799436776
 20
351.2486464609757
  0
LWPOLYLINE
  5
4C8
330
1F
100
AcDbEntity
  8
0
 62
     1
100
AcDbPolyline
 90
       10
 70
     0
 43
0.0
 10
104.3566118772919
 20
351.2765062262507
 42
-0.3374237249677257
 10
103.3102076953305
 20
350.3849759484471
 10
102.217907402126
 20
350.5190935603228
 10
100.7636321675136
 20
350.3147085049628
 42
0.3143657316110822
 10
100.5540664510786
 20
350.1199494719
 42
0.0016978285813767
 10
100.3563879107096
 20
349.1899450588864
 42
0.3143657316110822
 10
100.4686200837209
 20
348.9267857728902
 10
101.714035727151
 20
348.1485637069219
 10
102.7664522456211
 20
347.8268076875516
 42
-0.3374237249677219
 10
103.3597720005159
 20
346.5867433276422
  0
LWPOLYLINE
  5
4C9
330
1F
100
AcDbEntity
  8
0
 62
     1
100
AcDbPolyline
 90
       10
 70
     0
 43
0.0
 10
103.365227724184
 20
346.6148105927465
 42
-0.3374237249677257
 10
102.3505749413675
 20
345.6873044318019
 10
101.2542594108349
 20
345.7832196123705
 10
99.8080030169681
 20
345.5282055891095
 42
0.3143657316110822
 10
99.60536195453734
 20
345.3262514599584
 42
0.0016978285813767
 10
99.44026052053914
 20
344.3899146989371
 42
0.3143657316110822
 10
99.5616084513772
 20
344.1308325688193
 10
100.8334249796721
 20
343.3965489538479
 10
101.8964295175715
 20
343.1117177463676
 42
-0.3374237249677219
 10
102.5326654601426
 20
341.8931153609902
  0
LWPOLYLINE
  5
4CA
330
1F
100
AcDbEntity
  8
0
 62
     1
100
AcDbPolyline
 90
       10
 70
     0
 43
0.0
 10
102.5371383269048
 20
341.9213559302867
 42
-0.3374237249677257
 10
101.5554731413544
 20
340.9590039095862
 10
100.4564780650939
 20
341.0165998009767
 10
99.02000255260965
 20
340.7112675051195
 42
0.3143657316110822
 10
98.82453303110288
 20
340.5023643298765
 42
0.0016978285813767
 10
98.69220985414131
 20
339.5608360029597
 42
0.3143657316110822
 10
98.82252569904403
 20
339.306146680388
 10
100.119193599673
 20
338.6166961278906
 10
101.1914910497157
 20
338.3691367552507
 42
-0.3374237249677219
 10
101.8698680244706
 20
337.1734810237009
  0
LWPOLYLINE
  5
4CB
330
1F
100
AcDbEntity
  8
0
 62
     1
100
AcDbPolyline
 90
       10
 70
     0
 43
0.0
 10
101.8733525848283
 20
337.2018604904025
 42
-0.3374237249677257
 10
100.9258710043582
 20
336.205835087646
 10
99.82553533858254
 20
336.2250415181348
 10
98.40059083162032
 20
335.8697629500517
 42
0.3143657316110822
 10
98.21253100054036
 20
335.6541652450575
 42
0.0016978285813767
 10
98.11314729602372
 20
334.70859245948
 42
0.3143657316110822
 10
98.25227228520772
 20
334.4586062441619
 10
99.57221176807024
 20
333.8148287434348
 10
100.6524957009874
 20
333.6048428185979
 42
-0.3374237249677219
 10
101.3721872100795
 20
332.4335904632072
  0
LWPOLYLINE
  5
4CC
330
1F
100
AcDbEntity
  8
0
 62
     1
100
AcDbPolyline
 90
       10
 70
     0
 43
0.0
 10
101.374679218633
 20
332.462074251309
 42
-0.3374237249677257
 10
100.4625356036008
 20
331.4335889700225
 10
99.36219993782515
 20
331.4143825395337
 10
97.95052251177139
 20
331.0095905514328
 42
0.3143657316110822
 10
97.77010149305352
 20
330.7875609892804
 42
0.0016978285813767
 10
97.70377834471629
 20
329.8390957798275
 42
0.3143657316110822
 10
97.85154297581357
 20
329.5941172414583
 10
99.19314589797023
 20
328.9967971362204
 10
100.2801001541957
 20
328.82464049469
 42
-0.3374237249677219
 10
101.0402293643801
 20
327.6792185060368
  0
LWPOLYLINE
  5
4CD
330
1F
100
AcDbEntity
  8
0
 62
     1
100
AcDbPolyline
 90
       10
 70
     0
 43
0.0
 10
101.0417257850004
 20
327.7077719124278
 42
-0.3374237249677257
 10
100.1660314418964
 20
326.648079803501
 10
99.06703636563543
 20
326.5904839121114
 10
97.67034593198104
 20
326.1366716806766
 42
0.3143657316110822
 10
97.49778354084538
 20
325.9084807701867
 42
0.0016978285813767
 10
97.46460175322818
 20
324.9582786956163
 42
0.3143657316110822
 10
97.62082599779615
 20
324.718606302809
 10
98.98245782274489
 20
324.1684713355982
 10
100.0747581159494
 20
324.0343537237233
 42
-0.3374237249677219
 10
100.8743989268728
 20
322.9161576220614
  0
LWPOLYLINE
  5
4CE
330
1F
100
AcDbEntity
  8
0
 62
     1
100
AcDbPolyline
 90
       10
 70
     0
 43
0.0
 10
100.8748979364022
 20
322.9447458588148
 42
-0.3374237249677257
 10
100.0367197638925
 20
321.8551379938491
 10
98.94040423335992
 20
321.7592228132804
 10
97.56040244425504
 20
321.2569432388119
 42
0.3143657316110822
 10
97.39590892139359
 20
321.0228689954589
 42
0.0016978285813767
 10
97.39590892139313
 20
320.0720877306309
 42
0.3143657316110822
 10
97.56040244425504
 20
319.8380134872778
 10
98.94040423335992
 20
319.3357339128094
 10
100.036719763892
 20
319.2398187322407
 42
-0.3374237249677219
 10
100.8748979364022
 20
318.1502108672754
  0
LWPOLYLINE
  5
4CF
330
1F
100
AcDbEntity
  8
0
 62
     1
100
AcDbPolyline
 90
       10
 70
     0
 43
0.0
 10
100.8743989268732
 20
318.1787991040293
 42
-0.3374237249677257
 10
100.0747581159498
 20
317.060603002367
 10
98.98245782274489
 20
316.9264853904921
 10
97.6208259977966
 20
316.3763504232812
 42
0.3143657316110822
 10
97.46460175322908
 20
316.1366780304744
 42
0.0016978285813767
 10
97.49778354084492
 20
315.1864759559036
 42
0.3143657316110822
 10
97.67034593198104
 20
314.9582850454136
 10
99.06703636563543
 20
314.5044728139788
 10
100.1660314418959
 20
314.4468769225893
 42
-0.3374237249677219
 10
101.0417257850004
 20
313.3871848136629
  0
LWPOLYLINE
  5
4D0
330
1F
100
AcDbEntity
  8
0
 62
     1
100
AcDbPolyline
 90
       10
 70
     0
 43
0.0
 10
101.0402293643806
 20
313.4157382200539
 42
-0.3374237249677257
 10
100.2801001541961
 20
312.2703162314002
 10
99.19314589797068
 20
312.0981595898698
 10
97.85154297581403
 20
311.5008394846319
 42
0.3143657316110822
 10
97.70377834471766
 20
311.2558609462627
 42
0.0016978285813767
 10
97.77010149305306
 20
310.3073957368098
 42
0.3143657316110822
 10
97.95052251177139
 20
310.0853661746575
 10
99.36219993782515
 20
309.6805741865566
 10
100.4625356036008
 20
309.6613677560678
 42
-0.3374237249677219
 10
101.374679218633
 20
308.6328824747813
  0
LWPOLYLINE
  5
4D1
330
1F
100
AcDbEntity
  8
0
 62
     1
100
AcDbPolyline
 90
       10
 70
     0
 43
0.0
 10
101.37218721008
 20
308.6613662628821
 42
-0.3374237249677257
 10
100.6524957009887
 20
307.490113907491
 10
99.5722117680707
 20
307.2801279826546
 10
98.25227228520862
 20
306.6363504819275
 42
0.3143657316110822
 10
98.11314729602464
 20
306.3863642666094
 42
0.0016978285813767
 10
98.21253100054036
 20
305.4407914810318
 42
0.3143657316110822
 10
98.40059083162078
 20
305.2251937760372
 10
99.825535338583
 20
304.869915207954
 10
100.9258710043582
 20
304.8891216384433
 42
-0.3374237249677219
 10
101.8733525848288
 20
303.8930962356868
  0
LWPOLYLINE
  5
4D2
330
1F
100
AcDbEntity
  8
0
 62
     1
100
AcDbPolyline
 90
       10
 70
     0
 43
0.0
 10
101.8698680244711
 20
303.9214757023902
 42
-0.3374237249677257
 10
101.1914910497162
 20
302.7258199708395
 10
100.1191935996735
 20
302.4782605981997
 10
98.82252569904403
 20
301.7888100457022
 42
0.3143657316110822
 10
98.69220985414223
 20
301.5341207231305
 42
0.0016978285813767
 10
98.82453303110242
 20
300.5925923962137
 42
0.3143657316110822
 10
99.02000255260965
 20
300.3836892209707
 10
100.4564780650939
 20
300.0783569251136
 10
101.5554731413544
 20
300.1359528165036
 42
-0.3374237249677219
 10
102.5371383269052
 20
299.1736007958044
  0
LWPOLYLINE
  5
4D3
330
1F
100
AcDbEntity
  8
0
 62
     1
100
AcDbPolyline
 90
       10
 70
     0
 43
0.0
 10
102.5326654601426
 20
299.2018413651
 42
-0.3374237249677257
 10
101.8964295175724
 20
297.9832389797222
 10
100.8334249796726
 20
297.6984077722415
 10
99.5616084513772
 20
296.96412415727
 42
0.3143657316110822
 10
99.44026052054006
 20
296.7050420271531
 42
0.0016978285813767
 10
99.60536195453688
 20
295.7687052661309
 42
0.3143657316110822
 10
99.80800301696854
 20
295.5667511369798
 10
101.2542594108354
 20
295.3117371137188
 10
102.3505749413675
 20
295.4076522942875
 42
-0.3374237249677219
 10
103.365227724184
 20
294.4801461333433
  0
LWPOLYLINE
  5
4D4
330
1F
100
AcDbEntity
  8
0
 62
     1
100
AcDbPolyline
 90
       10
 70
     0
 43
0.0
 10
103.3597720005164
 20
294.508213398448
 42
-0.3374237249677257
 10
102.7664522456221
 20
293.2681490385381
 10
101.7140357271514
 20
292.9463930191683
 10
100.4686200837209
 20
292.1681709531996
 42
0.3143657316110822
 10
100.3563879107105
 20
291.9050116672039
 42
0.0016978285813767
 10
100.5540664510777
 20
290.9750072541898
 42
0.3143657316110822
 10
100.763632167514
 20
290.780248221127
 10
102.2179074021264
 20
290.5758631657674
 10
103.3102076953305
 20
290.7099807776427
 42
-0.3374237249677219
 10
104.3566118772919
 20
289.8184504998395
  0
LWPOLYLINE
  5
4D5
330
1F
100
AcDbEntity
  8
0
 62
     1
100
AcDbPolyline
 90
       10
 70
     0
 43
0.0
 10
104.3501799436781
 20
289.846310265115
 42
-0.3374237249677257
 10
103.8004992451865
 20
288.5862947580782
 10
102.7599529535609
 20
288.228005936966
 10
101.5424555421154
 20
287.4067935637119
 42
0.3143657316110822
 10
101.4394758645462
 20
287.1398777408909
 42
0.0016978285813767
 10
101.6694906704333
 20
286.2173387430049
 42
0.3143657316110822
 10
101.8857257173295
 20
286.0300120899129
 10
103.3462479823279
 20
285.8765050141616
 10
104.4332022385529
 20
286.0486616556924
 42
-0.3374237249677219
 10
105.51008293735
 20
285.1941934533435
  0
LWPOLYLINE
  5
4D6
330
1F
100
AcDbEntity
  8
0
 62
     1
100
AcDbPolyline
 90
       10
 70
     0
 43
0.0
 10
105.5026826301096
 20
285.2218117759568
 42
-0.3374237249677257
 10
104.9973106892812
 20
283.9433802565978
 10
103.9699023698726
 20
283.5489951534811
 10
102.7818065234669
 20
282.6857929937206
 42
0.3143657316110822
 10
102.688204806213
 20
282.4154458298891
 42
0.0016978285813767
 10
102.9502756400102
 20
281.5014962187939
 42
0.3143657316110822
 10
103.17291656827
 20
281.3218301743433
 10
104.6379064422503
 20
281.2193881029267
 10
105.7181903751675
 20
281.4293740277636
 42
-0.3374237249677219
 10
106.8242355775496
 20
280.613008938754
  0
LWPOLYLINE
  5
4D7
330
1F
100
AcDbEntity
  8
0
 62
     1
100
AcDbPolyline
 90
       10
 70
     0
 43
0.0
 10
106.8158759128173
 20
280.6403521700328
 42
-0.3374237249677257
 10
106.3554284475144
 20
279.345062210231
 10
105.3424098391001
 20
278.9150613226076
 10
104.1851630695114
 20
278.0109210552065
 42
0.3143657316110822
 10
104.101053351847
 20
277.7374719267401
 42
0.0016978285813767
 10
104.3948609206118
 20
276.8332252092538
 42
0.3143657316110822
 10
104.6236364765595
 20
276.6614386688449
 10
106.0913090950248
 20
276.610186411646
 10
107.163606545067
 20
276.8577457842863
 42
-0.3374237249677219
 10
108.2974687053279
 20
276.080478423724
  0
LWPOLYLINE
  5
4D8
330
1F
100
AcDbEntity
  8
0
 62
     1
100
AcDbPolyline
 90
       10
 70
     0
 43
0.0
 10
108.2881598680683
 20
276.1075132501534
 42
-0.3374237249677257
 10
107.8731978626015
 20
274.7969429612004
 10
106.8758031723123
 20
274.3318501789159
 10
105.750815406468
 20
273.3878733595167
 42
0.3143657316110822
 10
105.6763001631289
 20
273.1116554220572
 42
0.0016978285813767
 10
106.0014865075959
 20
272.2182132835166
 42
0.3143657316110822
 10
106.2361179634567
 20
272.0545155425867
 10
107.7046851933996
 20
272.0545155425867
 10
108.767689731299
 20
272.3393467500674
 42
-0.3374237249677219
 10
109.9279874130543
 20
271.6021240985039
  0
LWPOLYLINE
  5
4D9
330
1F
100
AcDbEntity
  8
0
 62
     1
100
AcDbPolyline
 90
       10
 70
     0
 43
0.0
 10
109.9177407446505
 20
271.6288175823121
 42
-0.3374237249677257
 10
109.5487697663034
 20
270.3045636922276
 10
108.5682141659322
 20
269.8049456591945
 10
107.476856028135
 20
268.822282378144
 42
0.3143657316110822
 10
107.412026044466
 20
268.5436321606995
 42
0.0016978285813767
 10
107.7681949751663
 20
267.6620831227261
 42
0.3143657316110822
 10
108.0083964686537
 20
267.5066736217574
 10
109.4760690871189
 20
267.5579258789559
 10
110.5284856055891
 20
267.8796818983266
 42
-0.3374237249677219
 10
111.7138051648444
 20
267.1834021480014
  0
LWPOLYLINE
  5
4DA
330
1F
100
AcDbEntity
  8
0
 62
     1
100
AcDbPolyline
 90
       10
 70
     0
 43
0.0
 10
111.7026331492843
 20
267.2097217672909
 42
-0.3374237249677257
 10
111.3801027323579
 20
265.8733976754539
 10
110.4175808778613
 20
265.3398630992862
 10
109.3611820198907
 20
264.3197105804244
 42
0.3143657316110822
 10
109.306116281241
 20
264.0389675753614
 42
0.0016978285813767
 10
109.692833861196
 20
263.1703856696664
 42
0.3143657316110822
 10
109.93831274379
 20
263.0234537511961
 10
111.4033026177708
 20
263.1258958226127
 10
112.4438489093959
 20
263.4841846437263
 42
-0.3374237249677219
 10
113.6527462168519
 20
262.8296961042616
  0
LWPOLYLINE
  5
4DB
330
1F
100
AcDbEntity
  8
0
 62
     1
100
AcDbPolyline
 90
       10
 70
     0
 43
0.0
 10
113.6406624655151
 20
262.8556097926295
 42
-0.3374237249677257
 10
113.3649655636409
 20
261.5088436041011
 10
112.4216501396336
 20
260.9420425144937
 10
111.4014976207722
 20
259.885643656523
 42
0.3143657316110822
 10
111.3562632162625
 20
259.6031499059492
 42
0.0016978285813767
 10
111.7730582896697
 20
258.7485933657887
 42
0.3143657316110822
 10
112.0235154831653
 20
258.6103180437273
 10
113.4840377481637
 20
258.7638251194781
 10
114.5114460675713
 20
259.1582102225954
 42
-0.3374237249677219
 10
115.7424482680767
 20
258.5463102874606
  0
LWPOLYLINE
  5
4DC
330
1F
100
AcDbEntity
  8
0
 62
     1
100
AcDbPolyline
 90
       10
 70
     0
 43
0.0
 10
115.7294675031526
 20
258.5717864730701
 42
-0.3374237249677257
 10
115.5009400105377
 20
257.2162190149971
 10
114.5779803015566
 20
256.6168419717698
 10
113.5953170205066
 20
255.5254838339725
 42
0.3143657316110822
 10
113.5599690612898
 20
255.2415835130079
 42
0.0016978285813767
 10
114.0063338275558
 20
254.4020934838924
 42
0.3143657316110822
 10
114.2614641884429
 20
254.2726432254195
 10
115.7157394230553
 20
254.4770282807787
 10
116.7287580314687
 20
254.9070291684021
 42
-0.3374237249677219
 10
117.9803653384624
 20
254.3384633434126
  0
LWPOLYLINE
  5
4DD
330
1F
100
AcDbEntity
  8
0
 62
     1
100
AcDbPolyline
 90
       10
 70
     0
 43
0.0
 10
117.9665033750138
 20
254.3634709874551
 42
-0.3374237249677257
 10
117.7854237172059
 20
253.0007538099768
 10
116.8839442074854
 20
252.3695310617296
 10
115.9399673880871
 20
251.2445432958854
 42
0.3143657316110822
 10
115.9145489402076
 20
250.9595822933389
 42
0.0016978285813767
 10
116.3899395726212
 20
250.1361815645556
 42
0.3143657316110822
 10
116.6494322638541
 20
250.0157140848711
 10
118.0956886577209
 20
250.2707281081322
 10
119.0930833480097
 20
250.7358208904167
 42
-0.3374237249677219
 10
120.3637708707833
 20
250.2112818854485
  0
LWPOLYLINE
  5
4DE
330
1F
100
AcDbEntity
  8
0
 62
     1
100
AcDbPolyline
 90
       10
 70
     0
 43
0.0
 10
120.349044597478
 20
250.2357905199625
 42
-0.3374237249677257
 10
120.2156333921466
 20
248.8675838840483
 10
119.3367323956076
 20
248.2052844784677
 10
118.4325921282061
 20
247.048037708878
 42
0.3143657316110822
 10
118.4171341601277
 20
246.7623632058372
 42
0.0016978285813767
 10
118.9209714684311
 20
245.9560549643385
 42
0.3143657316110822
 10
119.1845103381379
 20
245.8447170345099
 10
120.6209858506227
 20
246.1500493303666
 10
121.6015414509929
 20
246.6496673633998
 42
-0.3374237249677219
 10
122.8897610525346
 20
246.1697942484317
  0
LWPOLYLINE
  5
4DF
330
1F
100
AcDbEntity
  8
0
 62
     1
100
AcDbPolyline
 90
       10
 70
     0
 43
0.0
 10
122.8741884110682
 20
246.1937740134214
 42
-0.3374237249677257
 10
122.7886081992169
 20
244.8217448681013
 10
121.9333565213387
 20
244.1291757149935
 10
121.0701543615787
 20
242.9410798685873
 42
0.3143657316110822
 10
121.0646757064532
 20
242.6550399154295
 42
0.0016978285813767
 10
121.5963458424971
 20
241.8668065236058
 42
0.3143657316110822
 10
121.8636098091601
 20
241.7647337917493
 10
123.2885543161224
 20
242.1200123598329
 10
124.2510761706185
 20
242.6535469360011
 42
-0.3374237249677219
 10
125.5552583537792
 20
242.2189243625049
  0
LWPOLYLINE
  5
4E0
330
1F
100
AcDbEntity
  8
0
 62
     1
100
AcDbPolyline
 90
       10
 70
     0
 43
0.0
 10
125.5388583170147
 20
242.2423460423203
 42
-0.3374237249677257
 10
125.5012133649493
 20
240.8681659937634
 10
124.6706529981602
 20
240.1461708819587
 10
123.8494406249069
 20
238.9286734705132
 42
0.3143657316110822
 10
123.853947957632
 20
238.6426165628596
 42
0.0016978285813767
 10
124.4128031632531
 20
237.8734183616799
 42
0.3143657316110822
 10
124.6834666068975
 20
237.7807351876981
 10
126.0951440329513
 20
238.1855271757985
 10
127.0384594569586
 20
238.7523282654057
 42
-0.3374237249677219
 10
128.3570152766419
 20
238.363485754039
  0
LWPOLYLINE
  5
4E1
330
1F
100
AcDbEntity
  8
0
 62
     1
100
AcDbPolyline
 90
       10
 70
     0
 43
0.0
 10
128.3398078255
 20
238.3863208129711
 42
-0.3374237249677257
 10
128.3501439977949
 20
237.0116640878901
 10
127.5452868519642
 20
236.2611226572184
 10
126.7670647859963
 20
235.0157070137874
 42
0.3143657316110822
 10
126.7815526150812
 20
234.729981667917
 42
0.0016978285813767
 10
127.3669120112968
 20
233.9807558069043
 42
0.3143657316110822
 10
127.6406451702091
 20
233.8975751109664
 10
129.0373356038635
 20
234.3513873424003
 10
129.9602953128442
 20
234.9507643856283
 42
-0.3374237249677219
 10
131.2916183118914
 20
234.6081756810942
  0
LWPOLYLINE
  5
4E2
330
1F
100
AcDbEntity
  8
0
 62
     1
100
AcDbPolyline
 90
       10
 70
     0
 43
0.0
 10
131.2736244110001
 20
234.6303962981405
 42
-0.3374237249677257
 10
131.3319291146222
 20
233.2569377040055
 10
130.5537557842026
 20
232.478764373587
 10
129.8194721692321
 20
231.2069478452914
 42
0.3143657316110822
 10
129.843922843489
 20
230.9219021735249
 42
0.0016978285813767
 10
130.4550732600419
 20
230.1935614689811
 42
0.3143657316110822
 10
130.7315426325335
 20
230.1199845939528
 10
132.1115444216384
 20
230.6222641684207
 10
133.013023931358
 20
231.2534869166685
 42
-0.3374237249677219
 10
134.3554920977699
 20
230.9575694105321
  0
LWPOLYLINE
  5
4E3
330
1F
100
AcDbEntity
  8
0
 62
     1
100
AcDbPolyline
 90
       10
 70
     0
 43
0.0
 10
134.3367336699252
 20
230.9791485132938
 42
-0.3374237249677257
 10
134.4429358695747
 20
229.6085613978372
 10
133.6923944389013
 20
228.8037042520069
 10
133.0029438864044
 20
227.5070363513772
 42
0.3143657316110822
 10
133.0373276164532
 20
227.2230176379577
 42
0.0016978285813767
 10
133.6735244607016
 20
226.5164494608395
 42
0.3143657316110822
 10
133.9523932114289
 20
226.4525660488088
 10
135.3140250363776
 20
227.0027010160198
 10
136.1929260329161
 20
227.6650004216009
 42
-0.3374237249677219
 10
137.5449037760222
 20
227.416114643761
  0
LWPOLYLINE
  5
4E4
330
1F
100
AcDbEntity
  8
0
 62
     1
100
AcDbPolyline
 90
       10
 70
     0
 43
0.0
 10
137.52540367548
 20
227.4370259414255
 42
-0.3374237249677257
 10
137.6793739801351
 20
226.0709801539234
 10
136.9573788683297
 20
225.2404197871352
 10
136.313601367603
 20
223.9204803042727
 42
0.3143657316110822
 10
136.357876262165
 20
223.6378345822533
 42
0.0016978285813767
 10
137.0183444262529
 20
222.9538997770457
 42
0.3143657316110822
 10
137.2992727965993
 20
222.8997876601098
 10
138.6408757187564
 20
223.4971077653473
 10
139.4961273966332
 20
224.1896769184563
 42
-0.3374237249677219
 10
140.8559675398114
 20
223.9881260978947
  0
LWPOLYLINE
  5
4E5
330
1F
100
AcDbEntity
  8
0
 62
     1
100
AcDbPolyline
 90
       10
 70
     0
 43
0.0
 10
140.8357495244386
 20
224.008344113268
 42
-0.3374237249677257
 10
141.0373003450004
 20
222.6485039700902
 10
140.3447311918912
 20
221.7932522922125
 10
139.7474110866537
 20
220.4516493700559
 42
0.3143657316110822
 10
139.80152320359
 20
220.1707209997095
 42
0.0016978285813767
 10
140.4854580087963
 20
219.5102528356207
 42
0.3143657316110822
 10
140.7681037308161
 20
219.4659779410591
 10
142.0880432136791
 20
220.1097554417858
 10
142.9186035804669
 20
220.8317505535907
 42
-0.3374237249677219
 10
144.2846493679685
 20
220.6777802489365
  0
LWPOLYLINE
  5
4E6
330
1F
100
AcDbEntity
  8
0
 62
     1
100
AcDbPolyline
 90
       10
 70
     0
 43
0.0
 10
144.2637380703045
 20
220.6972803494792
 42
-0.3374237249677257
 10
144.5126238481448
 20
219.3453026063731
 10
143.8503244425633
 20
218.4664016098342
 10
143.3001894753529
 20
217.1047697848854
 42
0.3143657316110822
 10
143.3640728873838
 20
216.8259010341591
 42
0.0016978285813767
 10
144.0706410645011
 20
216.1897041899093
 42
0.3143657316110822
 10
144.3546597779209
 20
216.155320459861
 10
145.6513276785504
 20
216.8447710123579
 10
146.4561848243802
 20
217.5953124430304
 42
-0.3374237249677219
 10
147.8267719398372
 20
217.4891102433818
  0
LWPOLYLINE
  5
4E7
330
1F
100
AcDbEntity
  8
0
 62
     1
100
AcDbPolyline
 90
       10
 70
     0
 43
0.0
 10
147.805192837076
 20
217.5078686712262
 42
-0.3374237249677257
 10
148.1011103432124
 20
216.1654005048145
 10
147.4698875949648
 20
215.263920995095
 10
146.9676080204963
 20
213.8839192059896
 42
0.3143657316110822
 10
147.0411848955254
 20
213.6074498334987
 42
0.0016978285813767
 10
147.7695256000679
 20
212.9962994169447
 42
0.3143657316110822
 10
148.0545712718353
 20
212.9718487426879
 10
149.3263878001312
 20
213.7061323576592
 10
150.1045611305494
 20
214.4843056880778
 42
-0.3374237249677219
 10
151.4780197246837
 20
214.4260009844562
  0
LWPOLYLINE
  5
4E8
330
1F
100
AcDbEntity
  8
0
 62
     1
100
AcDbPolyline
 90
       10
 70
     0
 43
0.0
 10
151.4557991076376
 20
214.4439948853479
 42
-0.3374237249677257
 10
151.7983878121722
 20
213.1126718863007
 10
151.1990107689435
 20
212.1897121773201
 10
150.74519853751
 20
210.7930217436654
 42
0.3143657316110822
 10
150.8283792334478
 20
210.5192885847538
 42
0.0016978285813767
 10
151.5776050944596
 20
209.9339291885373
 42
0.3143657316110822
 10
151.8633304403311
 20
209.9194413594527
 10
153.1087460837616
 20
210.6976634254207
 10
153.8592875144336
 20
211.502520571251
 42
-0.3374237249677219
 10
155.2339442395141
 20
211.4921843989561
  0
LWPOLYLINE
  5
4E9
330
1F
100
AcDbEntity
  8
0
 62
     1
100
AcDbPolyline
 90
       10
 70
     0
 43
0.0
 10
155.2111091805832
 20
211.5093918500985
 42
-0.3374237249677257
 10
155.5999516919501
 20
210.1908360304152
 10
155.0331506023422
 20
209.2475206064079
 10
154.6283586142422
 20
207.8358431803539
 42
0.3143657316110822
 10
154.7210417882243
 20
207.5651797367101
 42
0.0016978285813767
 10
155.4902399894031
 20
207.0063245310877
 42
0.3143657316110822
 10
155.7762968970573
 20
207.001817198363
 10
156.9937943085024
 20
207.8230295716163
 10
157.7157894203069
 20
208.6535899384047
 42
-0.3374237249677219
 10
159.0899694688637
 20
208.6912348904708
  0
LWPOLYLINE
  5
4EA
330
1F
100
AcDbEntity
  8
0
 62
     1
100
AcDbPolyline
 90
       10
 70
     0
 43
0.0
 10
159.0665477890493
 20
208.7076349272353
 42
-0.3374237249677257
 10
159.501170362545
 20
207.4034527440746
 10
158.9676357863768
 20
206.440930889578
 10
158.6123572182937
 20
205.0159863826158
 42
0.3143657316110822
 10
158.7144299501497
 20
204.7487224159537
 42
0.0016978285813767
 10
159.5026633419729
 20
204.2170522799084
 42
0.3143657316110822
 10
159.7887032951316
 20
204.2225309350348
 10
160.9767991415374
 20
205.0857330947948
 10
161.6693682946456
 20
205.9409847726721
 42
-0.3374237249677219
 10
163.0413974399648
 20
206.026564984524
  0
LWPOLYLINE
  5
4EB
330
1F
100
AcDbEntity
  8
0
 62
     1
100
AcDbPolyline
 90
       10
 70
     0
 43
0.0
 10
163.0174176749751
 20
206.0421376259914
 42
-0.3374237249677257
 10
163.4972907899441
 20
204.7539180244493
 10
162.9976727569105
 20
203.7733624240788
 10
162.6923404610538
 20
202.336886911594
 42
0.3143657316110822
 10
162.8036783908828
 20
202.0733480418881
 42
0.0016978285813767
 10
163.6099866323807
 20
201.5695107335831
 42
0.3143657316110822
 10
163.8956611354219
 20
201.5849687016624
 10
165.0529079050111
 20
202.4891089690637
 10
165.7152073105917
 20
203.3680099656022
 42
-0.3374237249677219
 10
167.0834139465055
 20
203.5014211709341
  0
LWPOLYLINE
  5
4EC
330
1F
100
AcDbEntity
  8
0
 62
     1
100
AcDbPolyline
 90
       10
 70
     0
 43
0.0
 10
167.058905311992
 20
203.51614744424
 42
-0.3374237249677257
 10
167.583444316961
 20
202.245459921466
 10
167.1183515346761
 20
201.2480652311771
 10
166.863337511415
 20
199.80180883731
 42
0.3143657316110822
 10
166.9838049910995
 20
199.5423161460777
 42
0.0016978285813767
 10
167.8072057198824
 20
199.0669255136631
 42
0.3143657316110822
 10
168.0921667224288
 20
199.0923439615429
 10
169.2171544882735
 20
200.0363207809416
 10
169.8483772365202
 20
200.9378002906615
 42
-0.3374237249677219
 10
171.2110944139985
 20
201.1188799484701
  0
LWPOLYLINE
  5
4ED
330
1F
100
AcDbEntity
  8
0
 62
     1
100
AcDbPolyline
 90
       10
 70
     0
 43
0.0
 10
171.1860867699561
 20
201.1327419119186
 42
-0.3374237249677257
 10
171.7546525949469
 20
199.881134604925
 10
171.324651707323
 20
198.868115996511
 10
171.1202666519634
 20
197.4138407618987
 42
0.3143657316110822
 10
171.2497169104367
 20
197.1587104010126
 42
0.0016978285813767
 10
172.0892069395513
 20
196.7123456347456
 42
0.3143657316110822
 10
172.3731072605164
 20
196.7476935939627
 10
173.4644653983141
 20
197.7303568750126
 10
174.063842441541
 20
198.6533165839933
 42
-0.3374237249677219
 10
175.4194098996135
 20
198.8818440766088
  0
LWPOLYLINE
  5
4EE
330
1F
100
AcDbEntity
  8
0
 62
     1
100
AcDbPolyline
 90
       10
 70
     0
 43
0.0
 10
175.3939337140041
 20
198.8948248415331
 42
-0.3374237249677257
 10
176.0058336491397
 20
197.6638226410279
 10
175.6114485460221
 20
196.6364143216195
 10
175.4579414702716
 20
195.1758920566216
 42
0.3143657316110822
 10
175.596216792333
 20
194.9254348631266
 42
0.0016978285813767
 10
176.4507733324926
 20
194.5086397897177
 42
0.3143657316110822
 10
176.7332670830669
 20
194.5538741942283
 10
177.7896659410376
 20
195.5740267130894
 10
178.3564670306446
 20
196.5173421370966
 42
-0.3374237249677219
 10
179.7032332191729
 20
196.7930390389713
  0
LWPOLYLINE
  5
4EF
330
1F
100
AcDbEntity
  8
0
 62
     1
100
AcDbPolyline
 90
       10
 70
     0
 43
0.0
 10
179.6773195308046
 20
196.8051227903087
 42
-0.3374237249677257
 10
180.3318080702697
 20
195.596225482852
 10
179.9735192491571
 20
194.5556791912263
 10
179.87107717774
 20
193.0906893172461
 42
0.3143657316110822
 10
180.0180090962099
 20
192.8452104346527
 42
0.0016978285813767
 10
180.8865910019053
 20
192.4584928546966
 42
0.3143657316110822
 10
181.1673340069678
 20
192.5135585933468
 10
182.1874865258296
 20
193.5699574513171
 10
182.7210211019974
 20
194.5324793058133
 42
-0.3374237249677219
 10
184.0573451938339
 20
194.8550097227402
  0
LWPOLYLINE
  5
4F0
330
1F
100
AcDbEntity
  8
0
 62
     1
100
AcDbPolyline
 90
       10
 70
     0
 43
0.0
 10
184.0310255745453
 20
194.8661817383008
 42
-0.3374237249677257
 10
184.7273053248705
 20
193.6808621790454
 10
184.4055493055002
 20
192.628445660575
 10
184.3542970483013
 20
191.1607730421096
 42
0.3143657316110822
 10
184.50970654927
 20
190.9205715486232
 42
0.0016978285813767
 10
185.3912555872434
 20
190.5644026179215
 42
0.3143657316110822
 10
185.6699058046883
 20
190.6292326015909
 10
186.6525690857388
 20
191.7205907393883
 10
187.1521871187715
 20
192.7011463397588
 42
-0.3374237249677219
 10
188.476441008856
 20
193.0701173181064
  0
LWPOLYLINE
  5
4F1
330
1F
100
AcDbEntity
  8
0
 62
     1
100
AcDbPolyline
 90
       10
 70
     0
 43
0.0
 10
188.4497475250477
 20
193.0803639865107
 42
-0.3374237249677257
 10
189.1869701766122
 20
191.920066304755
 10
188.9021389691306
 20
190.8570617668555
 10
188.9021389691306
 20
189.3884945369129
 42
0.3143657316110822
 10
189.0658367100609
 20
189.1538630810526
 42
0.0016978285813767
 10
189.9592788486006
 20
188.8286767365841
 42
0.3143657316110822
 10
190.235496786061
 20
188.903191979924
 10
191.1794736054598
 20
190.0281797457681
 10
191.6445663877448
 20
191.0255744360568
 42
-0.3374237249677219
 10
192.9551366766968
 20
191.440536441524
  0
LWPOLYLINE
  5
4F2
330
1F
100
AcDbEntity
  8
0
 62
     1
100
AcDbPolyline
 90
       10
 70
     0
 43
0.0
 10
192.928101850267
 20
191.4498452787844
 42
-0.3374237249677257
 10
193.7053692108298
 20
190.3159831185237
 10
193.4578098381894
 20
189.2436856684808
 10
193.5090620953883
 20
187.7760130500155
 42
0.3143657316110822
 10
193.6808486357972
 20
187.5472374940684
 42
0.0016978285813767
 10
194.5850953532831
 20
187.2534299253026
 42
0.3143657316110822
 10
194.8585444817499
 20
187.3375396429672
 10
195.7626847491515
 20
188.4947864125562
 10
196.1926856367745
 20
189.50780502097
 42
-0.3374237249677219
 10
197.4879755965758
 20
189.9682524862732
  0
LWPOLYLINE
  5
4F3
330
1F
100
AcDbEntity
  8
0
 62
     1
100
AcDbPolyline
 90
       10
 70
     0
 43
0.0
 10
197.460632365297
 20
189.9766121510056
 42
-0.3374237249677257
 10
198.276997454308
 20
188.8705669486238
 10
198.0670115294701
 20
187.7902830157059
 10
198.1694536008876
 20
186.3252931417256
 42
0.3143657316110822
 10
198.3491196453378
 20
186.1026522134665
 42
0.0016978285813767
 10
199.2630692564326
 20
185.8405813796682
 42
0.3143657316110822
 10
199.5334164202645
 20
185.9341830969226
 10
200.3966185800245
 20
187.1222789433281
 10
200.7910036831413
 20
188.1496872627363
 42
-0.3374237249677219
 10
202.0694352024998
 20
188.6550592035653
  0
LWPOLYLINE
  5
4F4
330
1F
100
AcDbEntity
  8
0
 62
     1
100
AcDbPolyline
 90
       10
 70
     0
 43
0.0
 10
202.0418168798865
 20
188.662459510806
 42
-0.3374237249677257
 10
202.8962850822359
 20
187.5855788120091
 10
202.7241284407046
 20
186.4986245557834
 10
202.8776355164564
 20
185.0381022907852
 42
0.3143657316110822
 10
203.0649621695484
 20
184.82186724389
 42
0.0016978285813767
 10
203.987501167434
 20
184.5918524380014
 42
0.3143657316110822
 10
204.2544169902558
 20
184.6948321155713
 10
205.0756293635091
 20
185.9123295270166
 10
205.4339181846217
 20
186.952875818642
 42
-0.3374237249677219
 10
206.693933691658
 20
187.5025565171336
  0
LWPOLYLINE
  5
4F5
330
1F
100
AcDbEntity
  8
0
 62
     1
100
AcDbPolyline
 90
       10
 70
     0
 43
0.0
 10
206.666073926383
 20
187.508988450748
 42
-0.3374237249677257
 10
207.5576042041866
 20
186.4625842687868
 10
207.4234865923108
 20
185.3702839755819
 10
207.6278716476704
 20
183.9160087409698
 42
0.3143657316110822
 10
207.8226306807333
 20
183.7064430245343
 42
0.0016978285813767
 10
208.7526350937474
 20
183.5087644841654
 42
0.3143657316110822
 10
209.015794379743
 20
183.6209966571766
 10
209.7940164457118
 20
184.8664123006069
 10
210.115772465082
 20
185.918828819077
 42
-0.3374237249677219
 10
211.3558368249914
 20
186.5121485739719
  0
LWPOLYLINE
  5
4F6
330
1F
100
AcDbEntity
  8
0
 62
     1
100
AcDbPolyline
 90
       10
 70
     0
 43
0.0
 10
211.3277695598867
 20
186.5176042976397
 42
-0.3374237249677257
 10
212.2552757208314
 20
185.5029515148237
 10
212.1593605402618
 20
184.4066359842912
 10
212.4143745635233
 20
182.9603795904241
 42
0.3143657316110822
 10
212.6163286926749
 20
182.7577385279932
 42
0.0016978285813767
 10
213.5526654536961
 20
182.5926370939953
 42
0.3143657316110822
 10
213.8117475838139
 20
182.7139850248329
 10
214.5460311987849
 20
183.9858015531283
 10
214.8308624062656
 20
185.0488060910277
 42
-0.3374237249677219
 10
216.049464791643
 20
185.6850420335984
  0
LWPOLYLINE
  5
4F7
330
1F
100
AcDbEntity
  8
0
 62
     1
100
AcDbPolyline
 90
       10
 70
     0
 43
0.0
 10
216.0212242223474
 20
185.6895149003609
 42
-0.3374237249677257
 10
216.9835762430476
 20
184.7078497148105
 10
216.9259803516575
 20
183.6088546385498
 10
217.2313126475146
 20
182.1723791260652
 42
0.3143657316110822
 10
217.4402158227572
 20
181.9769096045587
 42
0.0016978285813767
 10
218.3817441496744
 20
181.8445864275972
 42
0.3143657316110822
 10
218.6364334722461
 20
181.9749022724997
 10
219.3258840247436
 20
183.2715701731289
 10
219.573443397383
 20
184.3438676231715
 42
-0.3374237249677219
 10
220.7690991289328
 20
185.0222445979265
  0
LWPOLYLINE
  5
4F8
330
1F
100
AcDbEntity
  8
0
 62
     1
100
AcDbPolyline
 90
       10
 70
     0
 43
0.0
 10
220.7407196622307
 20
185.0257291582846
 42
-0.3374237249677257
 10
221.7367450649872
 20
184.0782475778147
 10
221.7175386344984
 20
182.977911912039
 10
222.0728172025815
 20
181.5529674050768
 42
0.3143657316110822
 10
222.2884149075758
 20
181.3649075739969
 42
0.0016978285813767
 10
223.2339876931528
 20
181.26552386948
 42
0.3143657316110822
 10
223.4839739084714
 20
181.4046488586642
 10
224.127751409199
 20
182.7245883415265
 10
224.3377373340354
 20
183.804872274444
 42
-0.3374237249677219
 10
225.508989689426
 20
184.5245637835357
  0
LWPOLYLINE
  5
4F9
330
1F
100
AcDbEntity
  8
0
 62
     1
100
AcDbPolyline
 90
       10
 70
     0
 43
0.0
 10
225.4805059013247
 20
184.5270557920891
 42
-0.3374237249677257
 10
226.5089911826108
 20
183.6149121770569
 10
226.5281976130996
 20
182.514576511281
 10
226.9329896012004
 20
181.1028990852272
 42
0.3143657316110822
 10
227.1550191633528
 20
180.9224780665096
 42
0.0016978285813767
 10
228.1034843728057
 20
180.8561549181725
 42
0.3143657316110822
 10
228.3484629111749
 20
181.0039195492695
 10
228.9457830164129
 20
182.345522471426
 10
229.1179396579432
 20
183.4324767276515
 42
-0.3374237249677219
 10
230.2633616465964
 20
184.1926059378361
  0
LWPOLYLINE
  5
4FA
330
1F
100
AcDbEntity
  8
0
 62
     1
100
AcDbPolyline
 90
       10
 70
     0
 43
0.0
 10
230.2348082402059
 20
184.1941023584562
 42
-0.3374237249677257
 10
231.2945003491332
 20
183.3184080153519
 10
231.3520962405223
 20
182.219412939091
 10
231.8059084719571
 20
180.8227225054369
 42
0.3143657316110822
 10
232.0340993824466
 20
180.6501601143013
 42
0.0016978285813767
 10
232.9843014570174
 20
180.616978326684
 42
0.3143657316110822
 10
233.2239738498247
 20
180.7732025712521
 10
233.7741088170355
 20
182.1348343962005
 10
233.9082264289109
 20
183.2271346894049
 42
-0.3374237249677219
 10
235.0264225305723
 20
184.0267755003286
  0
LWPOLYLINE
  5
501
330
1F
100
AcDbEntity
  8
0
 62
     1
100
AcDbPolyline
 90
      163
 70
     0
 43
0.0
 10
358.4665744243066
 20
431.8353708511387
 42
-0.2151879180592233
 10
359.2814489967977
 20
431.380378399379
 10
359.6764773551472
 20
429.9061124955882
 10
360.4107609701186
 20
428.634295967293
 42
0.3143657316109431
 10
360.669843100236
 20
428.512948036456
 42
0.0016978285813767
 10
361.6061798612573
 20
428.6780494704524
 42
0.3143657316110846
 10
361.8081339904092
 20
428.8806905328844
 10
362.0631480136704
 20
430.3269469267512
 10
361.9301246112978
 20
431.8474113733595
 42
-0.2151879176751552
 10
362.5402396488585
 20
432.5536679401663
 42
-0.2151879188740604
 10
363.4615878565674
 20
432.4048184095111
 10
364.3370217256238
 20
431.1545692743833
 10
365.462009491468
 20
430.2105924549845
 42
0.3143657316109431
 10
365.746970494014
 20
430.1851740071055
 42
0.0016978285813767
 10
366.5703712227974
 20
430.6605646395186
 42
0.3143657316110846
 10
366.6908387024823
 20
430.920057330752
 10
366.4358246792217
 20
432.3663137246188
 10
365.7907941016697
 20
433.7495862621184
 42
-0.2151879181602616
 10
366.1225607285469
 20
434.6219219795856
 42
-0.2151879182635162
 10
367.0392543778594
 20
434.7971688194096
 10
368.2895035129873
 20
433.9217349503527
 10
369.6695053020921
 20
433.4194553758846
 42
0.3143657316109431
 10
369.9459746745829
 20
433.4930322509138
 42
0.0016978285813767
 10
370.5571250911371
 20
434.2213729554559
 42
0.3143657316110846
 10
370.5815757653941
 20
434.5064186272237
 10
369.8472921504231
 20
435.7782351555191
 10
368.7680546049819
 20
436.8574727009603
 42
-0.2151879171273348
 10
368.7814568677577
 20
437.7906710038551
 42
-0.2151879200368436
 10
369.5829291774712
 20
438.2688768623092
 10
371.0571950812623
 20
437.8738485039592
 10
372.5257623112043
 20
437.8738485039597
 42
0.3143657316109431
 10
372.7603937670647
 20
438.0375462448895
 42
0.0016978285813767
 10
373.0855801115331
 20
438.9309883834297
 42
0.3143657316110846
 10
373.0110648681935
 20
439.20720632089
 10
371.8860771023496
 20
440.1511831402889
 10
370.5028045648492
 20
440.7962137178405
 42
-0.2151879182189135
 10
370.1962259555125
 20
441.6777171253312
 42
-0.2151879178991391
 10
370.7858075339286
 20
442.4012033112815
 10
372.3062719805375
 20
442.5342267136537
 10
373.6862737696424
 20
443.0365062881223
 42
0.3143657316109431
 10
373.8507672925039
 20
443.2705805314753
 42
0.0016978285813767
 10
373.8507672925043
 20
444.2213617963033
 42
0.3143657316110846
 10
373.6862737696424
 20
444.4554360396567
 10
372.3062719805375
 20
444.9577156141252
 10
370.7858075339296
 20
445.0907390164974
 42
-0.2151879186078137
 10
370.1962259551215
 20
445.8142252054877
 42
-0.2151879175104478
 10
370.5028045648483
 20
446.6957286099392
 10
371.8860771023487
 20
447.3407591874909
 10
373.0110648681925
 20
448.2847360068898
 42
0.3143657316109431
 10
373.0855801115322
 20
448.5609539443495
 42
0.0016978285813767
 10
372.7603937670651
 20
449.4543960828904
 42
0.3143657316110846
 10
372.5257623112038
 20
449.6180938238198
 10
371.0571950812614
 20
449.6180938238206
 10
369.5829291774712
 20
449.2230654654707
 42
-0.2151879184929639
 10
368.7814568686736
 20
449.7012713219688
 42
-0.2151879176252713
 10
368.768054604981
 20
450.6344696268196
 10
369.8472921504222
 20
451.7137071722608
 10
370.5815757653931
 20
452.9855237005562
 42
0.3143657316109431
 10
370.5571250911362
 20
453.2705693723227
 42
0.0016978285813767
 10
369.9459746745829
 20
453.9989100768665
 42
0.3143657316110846
 10
369.6695053020913
 20
454.0724869518952
 10
368.2895035129864
 20
453.5702073774272
 10
367.0392543778589
 20
452.6947735083703
 42
-0.2151879181649298
 10
366.1225607289462
 20
452.8700203480078
 42
-0.2151879179530852
 10
365.7907941016688
 20
453.7423560656606
 10
366.4358246792208
 20
455.1256286031608
 10
366.6908387024814
 20
456.5718849970277
 42
0.3143657316109431
 10
366.5703712227969
 20
456.8313776882599
 42
0.0016978285813767
 10
365.7469704940136
 20
457.3067683206747
 42
0.3143657316110846
 10
365.4620094914676
 20
457.2813498727949
 10
364.3370217256229
 20
456.3373730533966
 10
363.4615878565669
 20
455.0871239182687
 42
-0.2151879173968382
 10
362.5402396529739
 20
454.9382743857035
 42
-0.2151879187211857
 10
361.9301246112964
 20
455.6445309544193
 10
362.063148013669
 20
457.164995401028
 10
361.8081339904079
 20
458.6112517948948
 42
0.3143657316109431
 10
361.6061798612563
 20
458.8138928573259
 42
0.0016978285813767
 10
360.6698431002351
 20
458.9789942913238
 42
0.3143657316110846
 10
360.4107609701173
 20
458.8576463604862
 10
359.6764773551458
 20
457.5858298321908
 10
359.2814489967968
 20
456.1115639284006
 42
-0.2151879187534856
 10
358.4665744243066
 20
455.6565714766406
 42
-0.2151879180588898
 10
357.6516998518168
 20
456.1115639284001
 10
357.2566714934669
 20
457.585829832191
 10
356.5223878784959
 20
458.8576463604862
 42
0.3143657316109431
 10
356.2633057483786
 20
458.9789942913231
 42
0.0016978285813767
 10
355.3269689873573
 20
458.8138928573267
 42
0.3143657316110846
 10
355.1250148582053
 20
458.6112517948948
 10
354.8700008349438
 20
457.164995401028
 10
355.0030242373164
 20
455.6445309544198
 42
-0.2151879183606527
 10
354.3929091969821
 20
454.9382743865711
 42
-0.2151879177573923
 10
353.4715609920472
 20
455.087123918268
 10
352.5961271229903
 20
456.3373730533959
 10
351.471139357146
 20
457.2813498727947
 42
0.3143657316109431
 10
351.1861783546005
 20
457.3067683206742
 42
0.0016978285813767
 10
350.3627776258168
 20
456.8313776882606
 42
0.3143657316110846
 10
350.2423101461322
 20
456.5718849970277
 10
350.4973241693928
 20
455.1256286031604
 10
351.1423547469444
 20
453.7423560656608
 42
-0.2151879213264717
 10
350.810588113879
 20
452.8700203438419
 42
-0.2151879165192828
 10
349.8938944707547
 20
452.6947735083695
 10
348.6436453356268
 20
453.5702073774261
 10
347.2636435465224
 20
454.0724869518941
 42
0.3143657316109431
 10
346.9871741740312
 20
453.9989100768654
 42
0.0016978285813767
 10
346.3760237574775
 20
453.2705693723229
 42
0.3143657316110846
 10
346.3515730832205
 20
452.9855237005555
 10
347.0858566981915
 20
451.7137071722596
 10
348.1650942436322
 20
450.6344696268189
 42
-0.2151879179035629
 10
348.1516919795276
 20
449.7012713208179
 42
-0.2151879182145786
 10
347.3502196711424
 20
449.2230654654701
 10
345.8759537673518
 20
449.6180938238195
 10
344.4073865374094
 20
449.618093823819
 42
0.3143657316109431
 10
344.172755081549
 20
449.4543960828897
 42
0.0016978285813767
 10
343.847568737081
 20
448.5609539443495
 42
0.3143657316110846
 10
343.9220839804207
 20
448.2847360068891
 10
345.0470717462644
 20
447.3407591874899
 10
346.430344283765
 20
446.6957286099387
 42
-0.2151879194442001
 10
346.7369228926163
 20
445.8142252006222
 42
-0.2151879174637135
 10
346.147341314685
 20
445.0907390164963
 10
344.6268768680761
 20
444.9577156141241
 10
343.2468750789717
 20
444.4554360396556
 42
0.3143657316109431
 10
343.0823815561102
 20
444.2213617963026
 42
0.0016978285813767
 10
343.0823815561093
 20
443.2705805314745
 42
0.3143657316110846
 10
343.2468750789717
 20
443.0365062881215
 10
344.6268768680766
 20
442.5342267136531
 10
346.1473413146846
 20
442.4012033112809
 42
-0.2151879169384775
 10
346.7369228928469
 20
441.6777171295015
 42
-0.2151879191796754
 10
346.4303442837654
 20
440.7962137178393
 10
345.0470717462649
 20
440.1511831402878
 10
343.9220839804211
 20
439.207206320889
 42
0.3143657316109431
 10
343.8475687370819
 20
438.930988383429
 42
0.0016978285813767
 10
344.172755081549
 20
438.0375462448884
 42
0.3143657316110846
 10
344.4073865374098
 20
437.8738485039583
 10
345.8759537673523
 20
437.8738485039581
 10
347.3502196711424
 20
438.268876862308
 42
-0.2151879177121819
 10
348.1516919785031
 20
437.7906710088756
 42
-0.2151879184057096
 10
348.1650942436327
 20
436.8574727009594
 10
347.0858566981915
 20
435.7782351555182
 10
346.3515730832205
 20
434.5064186272228
 42
0.3143657316109431
 10
346.3760237574775
 20
434.221372955456
 42
0.0016978285813767
 10
346.9871741740303
 20
433.4930322509125
 42
0.3143657316110846
 10
347.2636435465224
 20
433.4194553758837
 10
348.6436453356273
 20
433.9217349503518
 10
349.8938944707547
 20
434.7971688194083
 42
-0.2151879181755628
 10
350.8105881196998
 20
434.6219219797388
 42
-0.2151879179425737
 10
351.1423547469453
 20
433.7495862621184
 10
350.4973241693933
 20
432.3663137246182
 10
350.2423101461322
 20
430.9200573307511
 42
0.3143657316109431
 10
350.3627776258168
 20
430.660564639519
 42
0.0016978285813767
 10
351.1861783546001
 20
430.1851740071043
 42
0.3143657316110846
 10
351.4711393571465
 20
430.2105924549841
 10
352.5961271229907
 20
431.1545692743824
 10
353.4715609920472
 20
432.4048184095103
 42
-0.2151879191469611
 10
354.3929092003073
 20
432.55366793991
 42
-0.2151879175349208
 10
355.0030242373177
 20
431.8474113733595
 10
354.8700008349451
 20
430.3269469267507
 10
355.1250148582062
 20
428.8806905328839
 42
0.3143657316109431
 10
355.3269689873578
 20
428.6780494704529
 42
0.0016978285813767
 10
356.263305748379
 20
428.512948036455
 42
0.3143657316110846
 10
356.5223878784968
 20
428.6342959672926
 10
357.2566714934683
 20
429.906112495588
 10
357.6516998518173
 20
431.3803783993781
 42
-0.2151879191000368
 10
358.4665744288059
 20
431.8353708515225
  0
ARC
  5
502
330
1F
100
AcDbEntity
  8
0
 62
     1
100
AcDbCircle
 10
358.4665744243016
 20
443.7459711639222
 30
0.0
 40
2.35
100
AcDbArc
 50
113.8093762256817
 51
66.19062377431828
  0
LINE
  5
503
330
1F
100
AcDbEntity
  8
0
 62
     1
100
AcDbLine
 10
357.5178911262519
 20
445.8959711639225
 30
0.0
 11
359.4152577223517
 21
445.8959711639223
 31
0.0
  0
LWPOLYLINE
  5
504
330
1F
100
AcDbEntity
  8
0
 62
     1
100
AcDbPolyline
 90
      163
 70
     0
 43
0.0
 10
113.9726493202197
 20
434.2851069193321
 42
-0.2151879180592233
 10
114.7875238927108
 20
433.8301144675726
 10
115.1825522510603
 20
432.3558485637817
 10
115.9168358660317
 20
431.0840320354865
 42
0.3143657316109431
 10
116.1759179961491
 20
430.9626841046496
 42
0.0016978285813767
 10
117.1122547571703
 20
431.1277855386459
 42
0.3143657316110846
 10
117.3142088863224
 20
431.3304266010779
 10
117.5692229095834
 20
432.7766829949447
 10
117.4361995072108
 20
434.2971474415529
 42
-0.2151879176751552
 10
118.0463145447715
 20
435.0034040083597
 42
-0.2151879188740604
 10
118.9676627524804
 20
434.8545544777047
 10
119.8430966215369
 20
433.6043053425767
 10
120.9680843873812
 20
432.6603285231779
 42
0.3143657316109431
 10
121.2530453899271
 20
432.634910075299
 42
0.0016978285813767
 10
122.0764461187104
 20
433.110300707712
 42
0.3143657316110846
 10
122.1969135983954
 20
433.3697933989454
 10
121.9418995751348
 20
434.8160497928123
 10
121.2968689975828
 20
436.1993223303119
 42
-0.2151879181602616
 10
121.62863562446
 20
437.071658047779
 42
-0.2151879182635162
 10
122.5453292737725
 20
437.2469048876031
 10
123.7955784089004
 20
436.3714710185462
 10
125.1755801980052
 20
435.8691914440782
 42
0.3143657316109431
 10
125.452049570496
 20
435.9427683191073
 42
0.0016978285813767
 10
126.0631999870502
 20
436.6711090236493
 42
0.3143657316110846
 10
126.0876506613072
 20
436.9561546954172
 10
125.3533670463362
 20
438.2279712237126
 10
124.274129500895
 20
439.3072087691538
 42
-0.2151879171273348
 10
124.2875317636708
 20
440.2404070720487
 42
-0.2151879200368436
 10
125.0890040733843
 20
440.7186129305026
 10
126.5632699771754
 20
440.3235845721527
 10
128.0318372071174
 20
440.3235845721532
 42
0.3143657316109431
 10
128.2664686629778
 20
440.487282313083
 42
0.0016978285813767
 10
128.5916550074462
 20
441.3807244516232
 42
0.3143657316110846
 10
128.5171397641065
 20
441.6569423890836
 10
127.3921519982627
 20
442.6009192084824
 10
126.0088794607622
 20
443.245949786034
 42
-0.2151879182189135
 10
125.7023008514256
 20
444.1274531935247
 42
-0.2151879178991391
 10
126.2918824298417
 20
444.8509393794751
 10
127.8123468764506
 20
444.9839627818472
 10
129.1923486655555
 20
445.4862423563157
 42
0.3143657316109431
 10
129.356842188417
 20
445.7203165996687
 42
0.0016978285813767
 10
129.3568421884174
 20
446.6710978644967
 42
0.3143657316110846
 10
129.1923486655555
 20
446.9051721078503
 10
127.8123468764506
 20
447.4074516823187
 10
126.2918824298426
 20
447.5404750846909
 42
-0.2151879186078137
 10
125.7023008510345
 20
448.2639612736813
 42
-0.2151879175104478
 10
126.0088794607613
 20
449.1454646781327
 10
127.3921519982618
 20
449.7904952556845
 10
128.5171397641056
 20
450.7344720750833
 42
0.3143657316109431
 10
128.5916550074453
 20
451.010690012543
 42
0.0016978285813767
 10
128.2664686629782
 20
451.9041321510838
 42
0.3143657316110846
 10
128.0318372071169
 20
452.0678298920132
 10
126.5632699771745
 20
452.0678298920142
 10
125.0890040733843
 20
451.6728015336642
 42
-0.2151879184929639
 10
124.2875317645866
 20
452.1510073901623
 42
-0.2151879176252713
 10
124.2741295008941
 20
453.0842056950131
 10
125.3533670463353
 20
454.1634432404542
 10
126.0876506613062
 20
455.4352597687496
 42
0.3143657316109431
 10
126.0631999870493
 20
455.7203054405162
 42
0.0016978285813767
 10
125.452049570496
 20
456.4486461450599
 42
0.3143657316110846
 10
125.1755801980043
 20
456.5222230200887
 10
123.7955784088994
 20
456.0199434456206
 10
122.545329273772
 20
455.1445095765638
 42
-0.2151879181649298
 10
121.6286356248593
 20
455.3197564162013
 42
-0.2151879179530852
 10
121.2968689975819
 20
456.1920921338541
 10
121.9418995751339
 20
457.5753646713543
 10
122.1969135983945
 20
459.0216210652211
 42
0.3143657316109431
 10
122.07644611871
 20
459.2811137564535
 42
0.0016978285813767
 10
121.2530453899267
 20
459.7565043888681
 42
0.3143657316110846
 10
120.9680843873807
 20
459.7310859409884
 10
119.843096621536
 20
458.7871091215901
 10
118.96766275248
 20
457.5368599864622
 42
-0.2151879173968382
 10
118.046314548887
 20
457.388010453897
 42
-0.2151879187211857
 10
117.4361995072095
 20
458.0942670226128
 10
117.5692229095821
 20
459.6147314692215
 10
117.314208886321
 20
461.0609878630883
 42
0.3143657316109431
 10
117.1122547571694
 20
461.2636289255193
 42
0.0016978285813767
 10
116.1759179961482
 20
461.4287303595173
 42
0.3143657316110846
 10
115.9168358660304
 20
461.3073824286797
 10
115.1825522510589
 20
460.0355659003843
 10
114.7875238927099
 20
458.5612999965941
 42
-0.2151879187534856
 10
113.9726493202197
 20
458.106307544834
 42
-0.2151879180588898
 10
113.1577747477299
 20
458.5612999965936
 10
112.76274638938
 20
460.0355659003845
 10
112.028462774409
 20
461.3073824286797
 42
0.3143657316109431
 10
111.7693806442917
 20
461.4287303595166
 42
0.0016978285813767
 10
110.8330438832704
 20
461.2636289255203
 42
0.3143657316110846
 10
110.6310897541184
 20
461.0609878630883
 10
110.3760757308569
 20
459.6147314692215
 10
110.5090991332295
 20
458.0942670226132
 42
-0.2151879183606527
 10
109.8989840928952
 20
457.3880104547646
 42
-0.2151879177573923
 10
108.9776358879603
 20
457.5368599864615
 10
108.1022020189034
 20
458.7871091215894
 10
106.9772142530591
 20
459.7310859409882
 42
0.3143657316109431
 10
106.6922532505136
 20
459.7565043888677
 42
0.0016978285813767
 10
105.8688525217299
 20
459.2811137564541
 42
0.3143657316110846
 10
105.7483850420453
 20
459.0216210652211
 10
106.003399065306
 20
457.5753646713539
 10
106.6484296428575
 20
456.1920921338542
 42
-0.2151879213264717
 10
106.3166630097921
 20
455.3197564120353
 42
-0.2151879165192828
 10
105.3999693666678
 20
455.1445095765631
 10
104.1497202315399
 20
456.0199434456195
 10
102.7697184424355
 20
456.5222230200876
 42
0.3143657316109431
 10
102.4932490699443
 20
456.4486461450589
 42
0.0016978285813767
 10
101.8820986533906
 20
455.7203054405164
 42
0.3143657316110846
 10
101.8576479791336
 20
455.435259768749
 10
102.5919315941046
 20
454.1634432404531
 10
103.6711691395453
 20
453.0842056950124
 42
-0.2151879179035629
 10
103.6577668754407
 20
452.1510073890113
 42
-0.2151879182145786
 10
102.8562945670555
 20
451.6728015336635
 10
101.3820286632649
 20
452.067829892013
 10
99.91346143332249
 20
452.0678298920126
 42
0.3143657316109431
 10
99.6788299774621
 20
451.9041321510832
 42
0.0016978285813767
 10
99.35364363299413
 20
451.010690012543
 42
0.3143657316110846
 10
99.42815887633379
 20
450.7344720750826
 10
100.5531466421776
 20
449.7904952556833
 10
101.936419179678
 20
449.1454646781322
 42
-0.2151879194442001
 10
102.2429977885294
 20
448.2639612688156
 42
-0.2151879174637135
 10
101.6534162105981
 20
447.5404750846897
 10
100.1329517639892
 20
447.4074516823176
 10
98.75294997488481
 20
446.9051721078491
 42
0.3143657316109431
 10
98.58845645202336
 20
446.6710978644961
 42
0.0016978285813767
 10
98.58845645202245
 20
445.7203165996681
 42
0.3143657316110846
 10
98.75294997488481
 20
445.4862423563151
 10
100.1329517639897
 20
444.9839627818465
 10
101.6534162105977
 20
444.8509393794743
 42
-0.2151879169384775
 10
102.24299778876
 20
444.127453197695
 42
-0.2151879191796754
 10
101.9364191796785
 20
443.2459497860328
 10
100.553146642178
 20
442.6009192084812
 10
99.42815887633424
 20
441.6569423890824
 42
0.3143657316109431
 10
99.35364363299505
 20
441.3807244516225
 42
0.0016978285813767
 10
99.6788299774621
 20
440.4872823130818
 42
0.3143657316110846
 10
99.91346143332293
 20
440.3235845721518
 10
101.3820286632653
 20
440.3235845721516
 10
102.8562945670555
 20
440.7186129305015
 42
-0.2151879177121819
 10
103.6577668744162
 20
440.2404070770691
 42
-0.2151879184057096
 10
103.6711691395458
 20
439.3072087691528
 10
102.5919315941046
 20
438.2279712237117
 10
101.8576479791336
 20
436.9561546954163
 42
0.3143657316109431
 10
101.8820986533906
 20
436.6711090236496
 42
0.0016978285813767
 10
102.4932490699434
 20
435.942768319106
 42
0.3143657316110846
 10
102.7697184424355
 20
435.8691914440773
 10
104.1497202315404
 20
436.3714710185453
 10
105.3999693666678
 20
437.2469048876017
 42
-0.2151879181755628
 10
106.3166630156129
 20
437.0716580479323
 42
-0.2151879179425737
 10
106.6484296428584
 20
436.1993223303119
 10
106.0033990653064
 20
434.8160497928116
 10
105.7483850420453
 20
433.3697933989445
 42
0.3143657316109431
 10
105.8688525217299
 20
433.1103007077125
 42
0.0016978285813767
 10
106.6922532505132
 20
432.6349100752978
 42
0.3143657316110846
 10
106.9772142530596
 20
432.6603285231775
 10
108.1022020189039
 20
433.6043053425759
 10
108.9776358879603
 20
434.8545544777038
 42
-0.2151879191469611
 10
109.8989840962204
 20
435.0034040081035
 42
-0.2151879175349208
 10
110.5090991332308
 20
434.2971474415529
 10
110.3760757308582
 20
432.7766829949442
 10
110.6310897541193
 20
431.3304266010773
 42
0.3143657316109431
 10
110.8330438832709
 20
431.1277855386464
 42
0.0016978285813767
 10
111.7693806442921
 20
430.9626841046484
 42
0.3143657316110846
 10
112.0284627744099
 20
431.084032035486
 10
112.7627463893814
 20
432.3558485637814
 10
113.1577747477304
 20
433.8301144675717
 42
-0.2151879191000368
 10
113.972649324719
 20
434.2851069197159
  0
ARC
  5
505
330
1F
100
AcDbEntity
  8
0
 62
     1
100
AcDbCircle
 10
113.9726493202147
 20
446.1957072321157
 30
0.0
 40
2.35
100
AcDbArc
 50
113.8093762256817
 51
66.19062377431828
  0
LINE
  5
506
330
1F
100
AcDbEntity
  8
0
 62
     1
100
AcDbLine
 10
113.023966022165
 20
448.3457072321161
 30
0.0
 11
114.9213326182648
 21
448.3457072321158
 31
0.0
  0
LWPOLYLINE
  5
507
330
1F
100
AcDbEntity
  8
0
 62
     1
100
AcDbPolyline
 90
      163
 70
     0
 43
0.0
 10
115.8678983947275
 20
184.8378309923619
 42
-0.2151879180592233
 10
116.6827729672186
 20
184.3828385406023
 10
117.0778013255681
 20
182.9085726368114
 10
117.8120849405395
 20
181.6367561085162
 42
0.3143657316109431
 10
118.0711670706569
 20
181.5154081776793
 42
0.0016978285813767
 10
119.0075038316781
 20
181.6805096116757
 42
0.3143657316110846
 10
119.2094579608301
 20
181.8831506741076
 10
119.4644719840912
 20
183.3294070679744
 10
119.3314485817186
 20
184.8498715145827
 42
-0.2151879176751552
 10
119.9415636192793
 20
185.5561280813894
 42
-0.2151879188740604
 10
120.8629118269882
 20
185.4072785507344
 10
121.7383456960447
 20
184.1570294156065
 10
122.8633334618889
 20
183.2130525962077
 42
0.3143657316109431
 10
123.1482944644349
 20
183.1876341483287
 42
0.0016978285813767
 10
123.9716951932182
 20
183.6630247807418
 42
0.3143657316110846
 10
124.0921626729032
 20
183.9225174719752
 10
123.8371486496426
 20
185.368773865842
 10
123.1921180720906
 20
186.7520464033416
 42
-0.2151879181602616
 10
123.5238846989678
 20
187.6243821208088
 42
-0.2151879182635162
 10
124.4405783482802
 20
187.7996289606328
 10
125.6908274834081
 20
186.9241950915759
 10
127.070829272513
 20
186.4219155171079
 42
0.3143657316109431
 10
127.3472986450038
 20
186.495492392137
 42
0.0016978285813767
 10
127.9584490615579
 20
187.223833096679
 42
0.3143657316110846
 10
127.9828997358149
 20
187.5088787684469
 10
127.2486161208439
 20
188.7806952967423
 10
126.1693785754028
 20
189.8599328421835
 42
-0.2151879171273348
 10
126.1827808381786
 20
190.7931311450784
 42
-0.2151879200368436
 10
126.9842531478921
 20
191.2713370035324
 10
128.4585190516832
 20
190.8763086451824
 10
129.9270862816252
 20
190.8763086451829
 42
0.3143657316109431
 10
130.1617177374855
 20
191.0400063861127
 42
0.0016978285813767
 10
130.486904081954
 20
191.9334485246529
 42
0.3143657316110846
 10
130.4123888386143
 20
192.2096664621133
 10
129.2874010727705
 20
193.1536432815121
 10
127.90412853527
 20
193.7986738590637
 42
-0.2151879182189135
 10
127.5975499259334
 20
194.6801772665544
 42
-0.2151879178991391
 10
128.1871315043495
 20
195.4036634525048
 10
129.7075959509584
 20
195.536686854877
 10
131.0875977400633
 20
196.0389664293454
 42
0.3143657316109431
 10
131.2520912629247
 20
196.2730406726985
 42
0.0016978285813767
 10
131.2520912629252
 20
197.2238219375265
 42
0.3143657316110846
 10
131.0875977400633
 20
197.4578961808799
 10
129.7075959509584
 20
197.9601757553485
 10
128.1871315043504
 20
198.0931991577206
 42
-0.2151879186078137
 10
127.5975499255423
 20
198.816685346711
 42
-0.2151879175104478
 10
127.9041285352691
 20
199.6981887511624
 10
129.2874010727696
 20
200.3432193287142
 10
130.4123888386134
 20
201.287196148113
 42
0.3143657316109431
 10
130.486904081953
 20
201.5634140855727
 42
0.0016978285813767
 10
130.161717737486
 20
202.4568562241136
 42
0.3143657316110846
 10
129.9270862816247
 20
202.620553965043
 10
128.4585190516823
 20
202.6205539650439
 10
126.9842531478921
 20
202.225525606694
 42
-0.2151879184929639
 10
126.1827808390944
 20
202.7037314631921
 42
-0.2151879176252713
 10
126.1693785754019
 20
203.6369297680428
 10
127.248616120843
 20
204.716167313484
 10
127.982899735814
 20
205.9879838417794
 42
0.3143657316109431
 10
127.9584490615571
 20
206.2730295135459
 42
0.0016978285813767
 10
127.3472986450038
 20
207.0013702180897
 42
0.3143657316110846
 10
127.0708292725121
 20
207.0749470931184
 10
125.6908274834072
 20
206.5726675186504
 10
124.4405783482798
 20
205.6972336495935
 42
-0.2151879181649298
 10
123.523884699367
 20
205.8724804892311
 42
-0.2151879179530852
 10
123.1921180720896
 20
206.7448162068838
 10
123.8371486496417
 20
208.1280887443841
 10
124.0921626729023
 20
209.5743451382509
 42
0.3143657316109431
 10
123.9716951932178
 20
209.8338378294832
 42
0.0016978285813767
 10
123.1482944644344
 20
210.3092284618979
 42
0.3143657316110846
 10
122.8633334618885
 20
210.2838100140182
 10
121.7383456960438
 20
209.3398331946198
 10
120.8629118269878
 20
208.0895840594919
 42
-0.2151879173968382
 10
119.9415636233948
 20
207.9407345269267
 42
-0.2151879187211857
 10
119.3314485817172
 20
208.6469910956425
 10
119.4644719840898
 20
210.1674555422512
 10
119.2094579608288
 20
211.6137119361181
 42
0.3143657316109431
 10
119.0075038316772
 20
211.8163529985491
 42
0.0016978285813767
 10
118.0711670706559
 20
211.981454432547
 42
0.3143657316110846
 10
117.8120849405381
 20
211.8601065017094
 10
117.0778013255667
 20
210.588289973414
 10
116.6827729672177
 20
209.1140240696238
 42
-0.2151879187534856
 10
115.8678983947275
 20
208.6590316178638
 42
-0.2151879180588898
 10
115.0530238222377
 20
209.1140240696234
 10
114.6579954638878
 20
210.5882899734142
 10
113.9237118489168
 20
211.8601065017094
 42
0.3143657316109431
 10
113.6646297187994
 20
211.9814544325464
 42
0.0016978285813767
 10
112.7282929577782
 20
211.81635299855
 42
0.3143657316110846
 10
112.5263388286262
 20
211.6137119361181
 10
112.2713248053646
 20
210.1674555422512
 10
112.4043482077372
 20
208.646991095643
 42
-0.2151879183606527
 10
111.794233167403
 20
207.9407345277943
 42
-0.2151879177573923
 10
110.8728849624681
 20
208.0895840594912
 10
109.9974510934112
 20
209.3398331946191
 10
108.8724633275669
 20
210.2838100140179
 42
0.3143657316109431
 10
108.5875023250214
 20
210.3092284618974
 42
0.0016978285813767
 10
107.7641015962376
 20
209.8338378294839
 42
0.3143657316110846
 10
107.6436341165531
 20
209.5743451382509
 10
107.8986481398137
 20
208.1280887443836
 10
108.5436787173653
 20
206.744816206884
 42
-0.2151879213264717
 10
108.2119120842999
 20
205.8724804850651
 42
-0.2151879165192828
 10
107.2952184411756
 20
205.6972336495928
 10
106.0449693060477
 20
206.5726675186493
 10
104.6649675169433
 20
207.0749470931173
 42
0.3143657316109431
 10
104.3884981444521
 20
207.0013702180886
 42
0.0016978285813767
 10
103.7773477278983
 20
206.2730295135462
 42
0.3143657316110846
 10
103.7528970536414
 20
205.9879838417787
 10
104.4871806686124
 20
204.7161673134829
 10
105.5664182140531
 20
203.6369297680421
 42
-0.2151879179035629
 10
105.5530159499485
 20
202.7037314620411
 42
-0.2151879182145786
 10
104.7515436415633
 20
202.2255256066933
 10
103.2772777377727
 20
202.6205539650427
 10
101.8087105078302
 20
202.6205539650423
 42
0.3143657316109431
 10
101.5740790519698
 20
202.4568562241129
 42
0.0016978285813767
 10
101.2488927075019
 20
201.5634140855727
 42
0.3143657316110846
 10
101.3234079508415
 20
201.2871961481124
 10
102.4483957166853
 20
200.3432193287131
 10
103.8316682541858
 20
199.698188751162
 42
-0.2151879194442001
 10
104.1382468630372
 20
198.8166853418454
 42
-0.2151879174637135
 10
103.5486652851059
 20
198.0931991577195
 10
102.028200838497
 20
197.9601757553473
 10
100.6481990493926
 20
197.4578961808788
 42
0.3143657316109431
 10
100.4837055265311
 20
197.2238219375258
 42
0.0016978285813767
 10
100.4837055265302
 20
196.2730406726978
 42
0.3143657316110846
 10
100.6481990493926
 20
196.0389664293448
 10
102.0282008384974
 20
195.5366868548763
 10
103.5486652851054
 20
195.4036634525041
 42
-0.2151879169384775
 10
104.1382468632678
 20
194.6801772707247
 42
-0.2151879191796754
 10
103.8316682541863
 20
193.7986738590625
 10
102.4483957166858
 20
193.153643281511
 10
101.323407950842
 20
192.2096664621122
 42
0.3143657316109431
 10
101.2488927075028
 20
191.9334485246522
 42
0.0016978285813767
 10
101.5740790519698
 20
191.0400063861116
 42
0.3143657316110846
 10
101.8087105078307
 20
190.8763086451815
 10
103.2772777377731
 20
190.8763086451813
 10
104.7515436415633
 20
191.2713370035312
 42
-0.2151879177121819
 10
105.553015948924
 20
190.7931311500988
 42
-0.2151879184057096
 10
105.5664182140535
 20
189.8599328421826
 10
104.4871806686124
 20
188.7806952967414
 10
103.7528970536414
 20
187.508878768446
 42
0.3143657316109431
 10
103.7773477278983
 20
187.2238330966793
 42
0.0016978285813767
 10
104.3884981444512
 20
186.4954923921357
 42
0.3143657316110846
 10
104.6649675169433
 20
186.421915517107
 10
106.0449693060482
 20
186.924195091575
 10
107.2952184411756
 20
187.7996289606315
 42
-0.2151879181755628
 10
108.2119120901207
 20
187.6243821209621
 42
-0.2151879179425737
 10
108.5436787173662
 20
186.7520464033416
 10
107.8986481398142
 20
185.3687738658414
 10
107.6436341165531
 20
183.9225174719743
 42
0.3143657316109431
 10
107.7641015962376
 20
183.6630247807422
 42
0.0016978285813767
 10
108.587502325021
 20
183.1876341483275
 42
0.3143657316110846
 10
108.8724633275674
 20
183.2130525962072
 10
109.9974510934116
 20
184.1570294156056
 10
110.8728849624681
 20
185.4072785507335
 42
-0.2151879191469611
 10
111.7942331707281
 20
185.5561280811332
 42
-0.2151879175349208
 10
112.4043482077386
 20
184.8498715145827
 10
112.271324805366
 20
183.3294070679739
 10
112.5263388286271
 20
181.8831506741071
 42
0.3143657316109431
 10
112.7282929577786
 20
181.6805096116761
 42
0.0016978285813767
 10
113.6646297187999
 20
181.5154081776782
 42
0.3143657316110846
 10
113.9237118489177
 20
181.6367561085158
 10
114.6579954638891
 20
182.9085726368112
 10
115.0530238222382
 20
184.3828385406014
 42
-0.2151879191000368
 10
115.8678983992267
 20
184.8378309927457
  0
ARC
  5
508
330
1F
100
AcDbEntity
  8
0
 62
     1
100
AcDbCircle
 10
115.8678983947225
 20
196.7484313051454
 30
0.0
 40
2.35
100
AcDbArc
 50
113.8093762256817
 51
66.19062377431828
  0
LINE
  5
509
330
1F
100
AcDbEntity
  8
0
 62
     1
100
AcDbLine
 10
114.9192150966728
 20
198.8984313051457
 30
0.0
 11
116.8165816927726
 21
198.8984313051455
 31
0.0
  0
LWPOLYLINE
  5
50A
330
1F
100
AcDbEntity
  8
0
 62
     1
100
AcDbPolyline
 90
      163
 70
     0
 43
0.0
 10
359.7928279092503
 20
184.0513119691636
 42
-0.2151879180592233
 10
360.6077024817414
 20
183.596319517404
 10
361.0027308400909
 20
182.1220536136131
 10
361.7370144550623
 20
180.850237085318
 42
0.3143657316109431
 10
361.9960965851797
 20
180.728889154481
 42
0.0016978285813767
 10
362.9324333462009
 20
180.8939905884774
 42
0.3143657316110846
 10
363.1343874753529
 20
181.0966316509093
 10
363.389401498614
 20
182.5428880447762
 10
363.2563780962414
 20
184.0633524913844
 42
-0.2151879176751552
 10
363.8664931338021
 20
184.7696090581912
 42
-0.2151879188740604
 10
364.787841341511
 20
184.6207595275361
 10
365.6632752105675
 20
183.3705103924082
 10
366.7882629764117
 20
182.4265335730094
 42
0.3143657316109431
 10
367.0732239789577
 20
182.4011151251304
 42
0.0016978285813767
 10
367.896624707741
 20
182.8765057575435
 42
0.3143657316110846
 10
368.017092187426
 20
183.1359984487769
 10
367.7620781641654
 20
184.5822548426438
 10
367.1170475866134
 20
185.9655273801434
 42
-0.2151879181602616
 10
367.4488142134905
 20
186.8378630976106
 42
-0.2151879182635162
 10
368.3655078628031
 20
187.0131099374346
 10
369.6157569979309
 20
186.1376760683777
 10
370.9957587870358
 20
185.6353964939096
 42
0.3143657316109431
 10
371.2722281595266
 20
185.7089733689388
 42
0.0016978285813767
 10
371.8833785760808
 20
186.4373140734808
 42
0.3143657316110846
 10
371.9078292503377
 20
186.7223597452487
 10
371.1735456353667
 20
187.9941762735441
 10
370.0943080899256
 20
189.0734138189852
 42
-0.2151879171273348
 10
370.1077103527014
 20
190.0066121218801
 42
-0.2151879200368436
 10
370.9091826624149
 20
190.4848179803341
 10
372.383448566206
 20
190.0897896219842
 10
373.852015796148
 20
190.0897896219846
 42
0.3143657316109431
 10
374.0866472520083
 20
190.2534873629145
 42
0.0016978285813767
 10
374.4118335964767
 20
191.1469295014547
 42
0.3143657316110846
 10
374.3373183531371
 20
191.423147438915
 10
373.2123305872933
 20
192.3671242583139
 10
371.8290580497928
 20
193.0121548358654
 42
-0.2151879182189135
 10
371.5224794404562
 20
193.8936582433561
 42
-0.2151879178991391
 10
372.1120610188723
 20
194.6171444293065
 10
373.6325254654812
 20
194.7501678316787
 10
375.0125272545861
 20
195.2524474061472
 42
0.3143657316109431
 10
375.1770207774475
 20
195.4865216495002
 42
0.0016978285813767
 10
375.177020777448
 20
196.4373029143282
 42
0.3143657316110846
 10
375.0125272545861
 20
196.6713771576817
 10
373.6325254654812
 20
197.1736567321502
 10
372.1120610188732
 20
197.3066801345223
 42
-0.2151879186078137
 10
371.5224794400651
 20
198.0301663235127
 42
-0.2151879175104478
 10
371.8290580497919
 20
198.9116697279642
 10
373.2123305872924
 20
199.5567003055159
 10
374.3373183531362
 20
200.5006771249148
 42
0.3143657316109431
 10
374.4118335964758
 20
200.7768950623745
 42
0.0016978285813767
 10
374.0866472520088
 20
201.6703372009153
 42
0.3143657316110846
 10
373.8520157961475
 20
201.8340349418447
 10
372.3834485662051
 20
201.8340349418456
 10
370.9091826624149
 20
201.4390065834957
 42
-0.2151879184929639
 10
370.1077103536172
 20
201.9172124399938
 42
-0.2151879176252713
 10
370.0943080899246
 20
202.8504107448446
 10
371.1735456353658
 20
203.9296482902857
 10
371.9078292503368
 20
205.2014648185811
 42
0.3143657316109431
 10
371.8833785760799
 20
205.4865104903476
 42
0.0016978285813767
 10
371.2722281595266
 20
206.2148511948915
 42
0.3143657316110846
 10
370.9957587870349
 20
206.2884280699202
 10
369.61575699793
 20
205.7861484954521
 10
368.3655078628026
 20
204.9107146263952
 42
-0.2151879181649298
 10
367.4488142138898
 20
205.0859614660328
 42
-0.2151879179530852
 10
367.1170475866124
 20
205.9582971836856
 10
367.7620781641644
 20
207.3415697211858
 10
368.0170921874251
 20
208.7878261150527
 42
0.3143657316109431
 10
367.8966247077406
 20
209.0473188062849
 42
0.0016978285813767
 10
367.0732239789572
 20
209.5227094386996
 42
0.3143657316110846
 10
366.7882629764112
 20
209.4972909908199
 10
365.6632752105665
 20
208.5533141714216
 10
364.7878413415106
 20
207.3030650362937
 42
-0.2151879173968382
 10
363.8664931379176
 20
207.1542155037284
 42
-0.2151879187211857
 10
363.25637809624
 20
207.8604720724443
 10
363.3894014986126
 20
209.380936519053
 10
363.1343874753516
 20
210.8271929129198
 42
0.3143657316109431
 10
362.9324333462
 20
211.0298339753508
 42
0.0016978285813767
 10
361.9960965851788
 20
211.1949354093488
 42
0.3143657316110846
 10
361.7370144550609
 20
211.0735874785112
 10
361.0027308400895
 20
209.8017709502158
 10
360.6077024817405
 20
208.3275050464256
 42
-0.2151879187534856
 10
359.7928279092503
 20
207.8725125946655
 42
-0.2151879180588898
 10
358.9779533367605
 20
208.3275050464251
 10
358.5829249784106
 20
209.801770950216
 10
357.8486413634396
 20
211.0735874785112
 42
0.3143657316109431
 10
357.5895592333222
 20
211.1949354093481
 42
0.0016978285813767
 10
356.653222472301
 20
211.0298339753517
 42
0.3143657316110846
 10
356.451268343149
 20
210.8271929129198
 10
356.1962543198874
 20
209.380936519053
 10
356.32927772226
 20
207.8604720724448
 42
-0.2151879183606527
 10
355.7191626819258
 20
207.1542155045961
 42
-0.2151879177573923
 10
354.7978144769909
 20
207.303065036293
 10
353.922380607934
 20
208.5533141714209
 10
352.7973928420897
 20
209.4972909908197
 42
0.3143657316109431
 10
352.5124318395442
 20
209.5227094386991
 42
0.0016978285813767
 10
351.6890311107604
 20
209.0473188062856
 42
0.3143657316110846
 10
351.5685636310759
 20
208.7878261150527
 10
351.8235776543365
 20
207.3415697211853
 10
352.4686082318881
 20
205.9582971836858
 42
-0.2151879213264717
 10
352.1368415988227
 20
205.0859614618669
 42
-0.2151879165192828
 10
351.2201479556984
 20
204.9107146263946
 10
349.9698988205705
 20
205.786148495451
 10
348.5898970314661
 20
206.288428069919
 42
0.3143657316109431
 10
348.3134276589749
 20
206.2148511948903
 42
0.0016978285813767
 10
347.7022772424211
 20
205.4865104903479
 42
0.3143657316110846
 10
347.6778265681641
 20
205.2014648185805
 10
348.4121101831352
 20
203.9296482902846
 10
349.4913477285759
 20
202.8504107448439
 42
-0.2151879179035629
 10
349.4779454644713
 20
201.9172124388429
 42
-0.2151879182145786
 10
348.6764731560861
 20
201.439006583495
 10
347.2022072522955
 20
201.8340349418445
 10
345.733640022353
 20
201.834034941844
 42
0.3143657316109431
 10
345.4990085664927
 20
201.6703372009147
 42
0.0016978285813767
 10
345.1738222220247
 20
200.7768950623745
 42
0.3143657316110846
 10
345.2483374653643
 20
200.5006771249141
 10
346.3733252312081
 20
199.5567003055148
 10
347.7565977687086
 20
198.9116697279637
 42
-0.2151879194442001
 10
348.06317637756
 20
198.0301663186471
 42
-0.2151879174637135
 10
347.4735947996287
 20
197.3066801345212
 10
345.9531303530198
 20
197.1736567321491
 10
344.5731285639153
 20
196.6713771576806
 42
0.3143657316109431
 10
344.4086350410539
 20
196.4373029143276
 42
0.0016978285813767
 10
344.408635041053
 20
195.4865216494995
 42
0.3143657316110846
 10
344.5731285639153
 20
195.2524474061465
 10
345.9531303530202
 20
194.750167831678
 10
347.4735947996283
 20
194.6171444293059
 42
-0.2151879169384775
 10
348.0631763777906
 20
193.8936582475264
 42
-0.2151879191796754
 10
347.7565977687091
 20
193.0121548358643
 10
346.3733252312086
 20
192.3671242583127
 10
345.2483374653648
 20
191.4231474389139
 42
0.3143657316109431
 10
345.1738222220256
 20
191.146929501454
 42
0.0016978285813767
 10
345.4990085664927
 20
190.2534873629133
 42
0.3143657316110846
 10
345.7336400223535
 20
190.0897896219833
 10
347.2022072522959
 20
190.0897896219831
 10
348.6764731560861
 20
190.484817980333
 42
-0.2151879177121819
 10
349.4779454634468
 20
190.0066121269006
 42
-0.2151879184057096
 10
349.4913477285763
 20
189.0734138189843
 10
348.4121101831352
 20
187.9941762735432
 10
347.6778265681641
 20
186.7223597452477
 42
0.3143657316109431
 10
347.7022772424211
 20
186.437314073481
 42
0.0016978285813767
 10
348.313427658974
 20
185.7089733689374
 42
0.3143657316110846
 10
348.5898970314661
 20
185.6353964939087
 10
349.969898820571
 20
186.1376760683768
 10
351.2201479556984
 20
187.0131099374332
 42
-0.2151879181755628
 10
352.1368416046434
 20
186.8378630977638
 42
-0.2151879179425737
 10
352.468608231889
 20
185.9655273801434
 10
351.823577654337
 20
184.5822548426431
 10
351.5685636310759
 20
183.135998448776
 42
0.3143657316109431
 10
351.6890311107604
 20
182.876505757544
 42
0.0016978285813767
 10
352.5124318395437
 20
182.4011151251293
 42
0.3143657316110846
 10
352.7973928420902
 20
182.426533573009
 10
353.9223806079344
 20
183.3705103924073
 10
354.7978144769909
 20
184.6207595275352
 42
-0.2151879191469611
 10
355.7191626852509
 20
184.769609057935
 42
-0.2151879175349208
 10
356.3292777222614
 20
184.0633524913844
 10
356.1962543198888
 20
182.5428880447757
 10
356.4512683431499
 20
181.0966316509088
 42
0.3143657316109431
 10
356.6532224723014
 20
180.8939905884779
 42
0.0016978285813767
 10
357.5895592333227
 20
180.7288891544799
 42
0.3143657316110846
 10
357.8486413634405
 20
180.8502370853175
 10
358.5829249784119
 20
182.1220536136129
 10
358.977953336761
 20
183.5963195174031
 42
-0.2151879191000368
 10
359.7928279137495
 20
184.0513119695474
  0
ARC
  5
50B
330
1F
100
AcDbEntity
  8
0
 62
     1
100
AcDbCircle
 10
359.7928279092453
 20
195.9619122819472
 30
0.0
 40
2.35
100
AcDbArc
 50
113.8093762256817
 51
66.19062377431828
  0
LINE
  5
50C
330
1F
100
AcDbEntity
  8
0
 62
     1
100
AcDbLine
 10
358.8441446111956
 20
198.1119122819475
 30
0.0
 11
360.7415112072954
 21
198.1119122819473
 31
0.0
  0
ARC
  5
50D
330
1F
100
AcDbEntity
  8
0
 62
     1
100
AcDbCircle
 10
237.3951017628761
 20
320.5474783567679
 30
0.0
 40
2.35
100
AcDbArc
 50
113.8093762256817
 51
66.19062377431828
  0
LINE
  5
50E
330
1F
100
AcDbEntity
  8
0
 62
     1
100
AcDbLine
 10
236.4464184648264
 20
322.6974783567682
 30
0.0
 11
238.3437850609261
 21
322.697478356768
 31
0.0
  0
LINE
  5
50F
330
1F
100
AcDbEntity
  8
0
100
AcDbLine
 10
237.3951017628761
 20
320.5474783567679
 30
0.0
 11
237.3951017628761
 21
440.2419074364749
 31
0.0
  0
MTEXT
  5
513
330
1F
100
AcDbEntity
  8
0
100
AcDbMText
 10
234.657534633694
 20
450.5205492356959
 30
0.0
 40
10.0
 41
6.711347290817684
 46
0.0
 71
     1
 72
     5
  1
N
 73
     1
 44
1.0
  0
MTEXT
  5
514
330
1F
100
AcDbEntity
  8
0
100
AcDbMText
 10
104.7008744085633
 20
317.7389224455021
 30
0.0
 40
10.0
 41
6.711347290817684
 46
0.0
 71
     1
 72
     5
  1
W
 11
0.0000000000000003
 21
1.0
 31
0.0
 73
     1
 44
1.0
  0
MTEXT
  5
515
330
1F
100
AcDbEntity
  8
0
100
AcDbMText
 10
240.48315076876
 20
188.105113260278
 30
0.0
 40
10.0
 41
6.711347290817684
 46
0.0
 71
     1
 72
     5
  1
S
 11
-1.0
 21
0.0000000000000006
 31
0.0
 73
     1
 44
1.0
  0
MTEXT
  5
516
330
1F
100
AcDbEntity
  8
0
100
AcDbMText
 10
368.9576149920363
 20
323.7488396186906
 30
0.0
 40
10.0
 41
6.711347290817684
 46
0.0
 71
     1
 72
     5
  1
E
 11
-0.0000000000000011
 21
-1.0
 31
0.0
 73
     1
 44
1.0
  0
LINE
  5
517
330
1F
100
AcDbEntity
  8
0
100
AcDbLine
 10
298.3078438934658
 20
381.5336883176827
 30
0.0
 11
319.5082509269355
 21
402.7596655003905
 31
0.0
  0
LINE
  5
518
330
1F
100
AcDbEntity
  8
0
100
AcDbLine
 10
172.8556568405092
 20
256.5628488580558
 30
0.0
 11
157.3231000703185
 21
241.1638182140229
 31
0.0
  0
LINE
  5
519
330
1F
100
AcDbEntity
  8
0
100
AcDbLine
 10
299.5824561275417
 20
257.82089287319
 30
0.0
 11
319.5124100859839
 21
237.7181248196209
 31
0.0
  0
LINE
  5
51A
330
1F
100
AcDbEntity
  8
0
100
AcDbLine
 10
178.6860987206746
 20
386.8421328123787
 30
0.0
 11
158.883305082817
 21
409.203598574859
 31
0.0
  0
LINE
  5
525
330
1F
100
AcDbEntity
  8
0
100
AcDbLine
 10
237.3951017628761
 20
320.547478356768
 30
0.0
 11
117.7006726831691
 21
320.547478356768
 31
0.0
  0
LINE
  5
526
330
1F
100
AcDbEntity
  8
0
100
AcDbLine
 10
237.395101762876
 20
320.547478356768
 30
0.0
 11
237.3951017628759
 21
200.853049277061
 31
0.0
  0
LINE
  5
527
330
1F
100
AcDbEntity
  8
0
100
AcDbLine
 10
237.395101762876
 20
320.5474783567679
 30
0.0
 11
357.0895308425829
 21
320.5474783567678
 31
0.0
  0
ENDSEC
  0
SECTION
  2
OBJECTS
  0
DICTIONARY
  5
C
330
0
100
AcDbDictionary
281
     1
  3
ACAD_COLOR
350
BE
  3
ACAD_GROUP
350
D
  3
ACAD_LAYOUT
350
1A
  3
ACAD_MATERIAL
350
BD
  3
ACAD_MLEADERSTYLE
350
2C4
  3
ACAD_MLINESTYLE
350
17
  3
ACAD_PLOTSETTINGS
350
19
  3
ACAD_PLOTSTYLENAME
350
E
  3
ACAD_SCALELIST
350
2A2
  3
ACAD_TABLESTYLE
350
11A
  3
ACAD_VISUALSTYLE
350
26E
  3
ACDB_RECOMPOSE_DATA
350
2E6
  3
AcDbVariableDictionary
350
94
  3
AcmDictionary
350
5B
  3
AMG
350
41
  3
AMGSNAPSETTINGS
350
43F
  0
DICTIONARY
  5
521
330
10
100
AcDbDictionary
280
     1
281
     1
  3
ADSK_XREC_LAYER_RECONCILED
360
522
  0
DICTIONARY
  5
8F
330
1F
100
AcDbDictionary
280
     1
281
     1
  0
DICTIONARY
  5
BE
102
{ACAD_REACTORS
330
C
102
}
330
C
100
AcDbDictionary
281
     1
  0
DICTIONARY
  5
D
102
{ACAD_REACTORS
330
C
102
}
330
C
100
AcDbDictionary
281
     1
  0
DICTIONARY
  5
1A
102
{ACAD_REACTORS
330
C
102
}
330
C
100
AcDbDictionary
281
     1
  3
Layout1
350
1E
  3
Layout2
350
26
  3
Model
350
22
  0
DICTIONARY
  5
BD
102
{ACAD_REACTORS
330
C
102
}
330
C
100
AcDbDictionary
281
     1
  3
ByBlock
350
26C
  3
ByLayer
350
26B
  3
Global
350
26D
  0
DICTIONARY
  5
2C4
102
{ACAD_REACTORS
330
C
102
}
330
C
100
AcDbDictionary
281
     1
  3
Standard
350
2C5
  0
DICTIONARY
  5
17
102
{ACAD_REACTORS
330
C
102
}
330
C
100
AcDbDictionary
281
     1
  3
Standard
350
18
  0
DICTIONARY
  5
19
102
{ACAD_REACTORS
330
C
102
}
330
C
100
AcDbDictionary
281
     1
  0
ACDBDICTIONARYWDFLT
  5
E
102
{ACAD_REACTORS
330
C
102
}
330
C
100
AcDbDictionary
281
     1
  3
Normal
350
F
100
AcDbDictionaryWithDefault
340
F
  0
DICTIONARY
  5
2A2
102
{ACAD_REACTORS
330
C
102
}
330
C
100
AcDbDictionary
281
     1
  3
A0
350
2A3
  3
A1
350
2A4
  3
A2
350
2A5
  3
A3
350
2A6
  3
A4
350
2A7
  3
A5
350
2A8
  3
A6
350
2A9
  3
A7
350
2AA
  3
A8
350
2AB
  3
A9
350
2AC
  3
B0
350
2AD
  3
B1
350
2AE
  3
B2
350
2AF
  3
B3
350
2B0
  3
B4
350
2B1
  3
B5
350
2B2
  3
B6
350
2B3
  3
B7
350
2B4
  3
B8
350
2B5
  3
B9
350
2B6
  3
C0
350
2B7
  3
C1
350
2B8
  3
C2
350
2B9
  3
C3
350
2BA
  3
C4
350
2BB
  3
C5
350
2BC
  3
C6
350
2BD
  3
C7
350
2BE
  3
C8
350
2BF
  3
C9
350
2C0
  3
D0
350
2C1
  3
D1
350
2C2
  3
D2
350
2C3
  0
DICTIONARY
  5
11A
102
{ACAD_REACTORS
330
C
102
}
330
C
100
AcDbDictionary
281
     1
  3
Standard
350
11B
  0
DICTIONARY
  5
26E
102
{ACAD_REACTORS
330
C
102
}
330
C
100
AcDbDictionary
281
     1
  3
2dWireframe
350
274
  3
3D Hidden
350
276
  3
3dWireframe
350
275
  3
Basic
350
273
  3
Brighten
350
27A
  3
ColorChange
350
27E
  3
Conceptual
350
277
  3
Dim
350
279
  3
Facepattern
350
27D
  3
Flat
350
26F
  3
FlatWithEdges
350
270
  3
Gouraud
350
271
  3
GouraudWithEdges
350
272
  3
Linepattern
350
27C
  3
Realistic
350
278
  3
Thicken
350
27B
  0
XRECORD
  5
2E6
102
{ACAD_REACTORS
330
C
102
}
330
C
100
AcDbXrecord
280
     1
 90
        1
330
11B
  0
DICTIONARY
  5
94
102
{ACAD_REACTORS
330
C
102
}
330
C
100
AcDbDictionary
281
     1
  3
CANNOSCALE
350
2E9
  3
CMLEADERSTYLE
350
2E7
  3
CTABLESTYLE
350
138
  3
DIMASSOC
350
96
  3
INDEXCTL
350
95
  3
LAYEREVAL
350
346
  3
LAYERNOTIFY
350
347
  3
LIGHTINGUNITS
350
2EA
  3
MSLTSCALE
350
2E8
  0
DICTIONARY
  5
5B
102
{ACAD_REACTORS
330
C
102
}
330
C
100
AcDbDictionary
281
     1
  3
AcmStdDictionary
350
61
  3
AMDTSECTSYM_ARROWCOLOR
350
123
  0
DICTIONARY
  5
41
102
{ACAD_REACTORS
330
C
102
}
330
C
100
AcDbDictionary
281
     1
  0
DICTIONARY
  5
43F
102
{ACAD_REACTORS
330
C
102
}
330
C
100
AcDbDictionary
281
     1
  0
XRECORD
  5
522
102
{ACAD_REACTORS
330
521
102
}
330
521
100
AcDbXrecord
280
     1
290
     1
  0
LAYOUT
  5
1E
102
{ACAD_REACTORS
330
1A
102
}
330
1A
100
AcDbPlotSettings
  1

  2

  4

  6

 40
0.0
 41
0.0
 42
0.0
 43
0.0
 44
0.0
 45
0.0
 46
0.0
 47
0.0
 48
0.0
 49
0.0
140
0.0
141
0.0
142
1.0
143
1.0
 70
   688
 72
     0
 73
     0
 74
     5
  7

 75
    16
147
1.0
 76
     0
 77
     2
 78
   300
148
0.0
149
0.0
100
AcDbLayout
  1
Layout1
 70
     1
 71
     1
 10
0.0
 20
0.0
 11
420.0
 21
297.0
 12
0.0
 22
0.0
 32
0.0
 14
1.000000000000000E+20
 24
1.000000000000000E+20
 34
1.000000000000000E+20
 15
-1.000000000000000E+20
 25
-1.000000000000000E+20
 35
-1.000000000000000E+20
146
0.0
 13
0.0
 23
0.0
 33
0.0
 16
1.0
 26
0.0
 36
0.0
 17
0.0
 27
1.0
 37
0.0
 76
     0
330
1B
  0
LAYOUT
  5
26
102
{ACAD_REACTORS
330
1A
102
}
330
1A
100
AcDbPlotSettings
  1

  2

  4

  6

 40
0.0
 41
0.0
 42
0.0
 43
0.0
 44
0.0
 45
0.0
 46
0.0
 47
0.0
 48
0.0
 49
0.0
140
0.0
141
0.0
142
1.0
143
1.0
 70
   688
 72
     0
 73
     0
 74
     5
  7

 75
    16
147
1.0
 76
     0
 77
     2
 78
   300
148
0.0
149
0.0
100
AcDbLayout
  1
Layout2
 70
     1
 71
     2
 10
0.0
 20
0.0
 11
12.0
 21
9.0
 12
0.0
 22
0.0
 32
0.0
 14
0.0
 24
0.0
 34
0.0
 15
0.0
 25
0.0
 35
0.0
146
0.0
 13
0.0
 23
0.0
 33
0.0
 16
1.0
 26
0.0
 36
0.0
 17
0.0
 27
1.0
 37
0.0
 76
     0
330
23
  0
LAYOUT
  5
22
102
{ACAD_REACTORS
330
1A
102
}
330
1A
100
AcDbPlotSettings
  1

  2

  4

  6

 40
0.0
 41
0.0
 42
0.0
 43
0.0
 44
0.0
 45
0.0
 46
0.0
 47
0.0
 48
0.0
 49
0.0
140
0.0
141
0.0
142
1.0
143
1.0
 70
  1712
 72
     0
 73
     0
 74
     0
  7

 75
     0
147
1.0
 76
     0
 77
     2
 78
   300
148
0.0
149
0.0
100
AcDbLayout
  1
Model
 70
     1
 71
     0
 10
0.0
 20
0.0
 11
12.0
 21
9.0
 12
0.0
 22
0.0
 32
0.0
 14
0.0
 24
0.0
 34
0.0
 15
0.0
 25
0.0
 35
0.0
146
0.0
 13
0.0
 23
0.0
 33
0.0
 16
1.0
 26
0.0
 36
0.0
 17
0.0
 27
1.0
 37
0.0
 76
     0
330
1F
331
269
  0
MATERIAL
  5
26C
102
{ACAD_REACTORS
330
BD
102
}
330
BD
100
AcDbMaterial
  1
ByBlock
 73
     1
 78
     1
172
     1
176
     1
270
     1
274
     1
 94
       63
  0
MATERIAL
  5
26B
102
{ACAD_REACTORS
330
BD
102
}
330
BD
100
AcDbMaterial
  1
ByLayer
 73
     1
 78
     1
172
     1
176
     1
270
     1
274
     1
 94
       63
  0
MATERIAL
  5
26D
102
{ACAD_REACTORS
330
BD
102
}
330
BD
100
AcDbMaterial
  1
Global
 73
     1
 78
     1
172
     1
176
     1
270
     1
274
     1
 94
       63
  0
MLEADERSTYLE
  5
2C5
102
{ACAD_REACTORS
330
2C4
102
}
330
2C4
100
AcDbMLeaderStyle
170
     2
171
     1
172
     0
 90
        2
 40
0.0
 41
0.0
173
     1
 91
-1056964608
340
14
 92
       -2
290
     1
 42
2.0
291
     1
 43
0.36
  3
Standard
 44
4.0
300

342
11
174
     1
178
     6
175
     1
176
     0
 93
-1056964608
 45
4.0
292
     0
297
     0
 46
4.0
 94
-1056964608
 47
1.0
 49
1.0
140
1.0
293
     1
141
0.0
294
     1
177
     0
142
1.0
295
     0
296
     0
143
0.125
1001
ACAD_MLEADERVER
1070
     2
  0
MLINESTYLE
  5
18
102
{ACAD_REACTORS
330
17
102
}
330
17
100
AcDbMlineStyle
  2
STANDARD
 70
     0
  3

 62
   256
 51
90.0
 52
90.0
 71
     2
 49
0.5
 62
   256
  6
BYLAYER
 49
-0.5
 62
   256
  6
BYLAYER
  0
ACDBPLACEHOLDER
  5
F
102
{ACAD_REACTORS
330
E
102
}
330
E
  0
SCALE
  5
2A3
102
{ACAD_REACTORS
330
2A2
102
}
330
2A2
100
AcDbScale
 70
     0
300
1:1
140
1.0
141
1.0
290
     1
  0
SCALE
  5
2A4
102
{ACAD_REACTORS
330
2A2
102
}
330
2A2
100
AcDbScale
 70
     0
300
1:2
140
1.0
141
2.0
290
     0
  0
SCALE
  5
2A5
102
{ACAD_REACTORS
330
2A2
102
}
330
2A2
100
AcDbScale
 70
     0
300
1:4
140
1.0
141
4.0
290
     0
  0
SCALE
  5
2A6
102
{ACAD_REACTORS
330
2A2
102
}
330
2A2
100
AcDbScale
 70
     0
300
1:5
140
1.0
141
5.0
290
     0
  0
SCALE
  5
2A7
102
{ACAD_REACTORS
330
2A2
102
}
330
2A2
100
AcDbScale
 70
     0
300
1:8
140
1.0
141
8.0
290
     0
  0
SCALE
  5
2A8
102
{ACAD_REACTORS
330
2A2
102
}
330
2A2
100
AcDbScale
 70
     0
300
1:10
140
1.0
141
10.0
290
     0
  0
SCALE
  5
2A9
102
{ACAD_REACTORS
330
2A2
102
}
330
2A2
100
AcDbScale
 70
     0
300
1:16
140
1.0
141
16.0
290
     0
  0
SCALE
  5
2AA
102
{ACAD_REACTORS
330
2A2
102
}
330
2A2
100
AcDbScale
 70
     0
300
1:20
140
1.0
141
20.0
290
     0
  0
SCALE
  5
2AB
102
{ACAD_REACTORS
330
2A2
102
}
330
2A2
100
AcDbScale
 70
     0
300
1:30
140
1.0
141
30.0
290
     0
  0
SCALE
  5
2AC
102
{ACAD_REACTORS
330
2A2
102
}
330
2A2
100
AcDbScale
 70
     0
300
1:40
140
1.0
141
40.0
290
     0
  0
SCALE
  5
2AD
102
{ACAD_REACTORS
330
2A2
102
}
330
2A2
100
AcDbScale
 70
     0
300
1:50
140
1.0
141
50.0
290
     0
  0
SCALE
  5
2AE
102
{ACAD_REACTORS
330
2A2
102
}
330
2A2
100
AcDbScale
 70
     0
300
1:100
140
1.0
141
100.0
290
     0
  0
SCALE
  5
2AF
102
{ACAD_REACTORS
330
2A2
102
}
330
2A2
100
AcDbScale
 70
     0
300
2:1
140
2.0
141
1.0
290
     0
  0
SCALE
  5
2B0
102
{ACAD_REACTORS
330
2A2
102
}
330
2A2
100
AcDbScale
 70
     0
300
4:1
140
4.0
141
1.0
290
     0
  0
SCALE
  5
2B1
102
{ACAD_REACTORS
330
2A2
102
}
330
2A2
100
AcDbScale
 70
     0
300
8:1
140
8.0
141
1.0
290
     0
  0
SCALE
  5
2B2
102
{ACAD_REACTORS
330
2A2
102
}
330
2A2
100
AcDbScale
 70
     0
300
10:1
140
10.0
141
1.0
290
     0
  0
SCALE
  5
2B3
102
{ACAD_REACTORS
330
2A2
102
}
330
2A2
100
AcDbScale
 70
     0
300
100:1
140
100.0
141
1.0
290
     0
  0
SCALE
  5
2B4
102
{ACAD_REACTORS
330
2A2
102
}
330
2A2
100
AcDbScale
 70
     0
300
1/128" = 1'-0"
140
0.0078125
141
12.0
290
     0
  0
SCALE
  5
2B5
102
{ACAD_REACTORS
330
2A2
102
}
330
2A2
100
AcDbScale
 70
     0
300
1/64" = 1'-0"
140
0.015625
141
12.0
290
     0
  0
SCALE
  5
2B6
102
{ACAD_REACTORS
330
2A2
102
}
330
2A2
100
AcDbScale
 70
     0
300
1/32" = 1'-0"
140
0.03125
141
12.0
290
     0
  0
SCALE
  5
2B7
102
{ACAD_REACTORS
330
2A2
102
}
330
2A2
100
AcDbScale
 70
     0
300
1/16" = 1'-0"
140
0.0625
141
12.0
290
     0
  0
SCALE
  5
2B8
102
{ACAD_REACTORS
330
2A2
102
}
330
2A2
100
AcDbScale
 70
     0
300
3/32" = 1'-0"
140
0.09375
141
12.0
290
     0
  0
SCALE
  5
2B9
102
{ACAD_REACTORS
330
2A2
102
}
330
2A2
100
AcDbScale
 70
     0
300
1/8" = 1'-0"
140
0.125
141
12.0
290
     0
  0
SCALE
  5
2BA
102
{ACAD_REACTORS
330
2A2
102
}
330
2A2
100
AcDbScale
 70
     0
300
3/16" = 1'-0"
140
0.1875
141
12.0
290
     0
  0
SCALE
  5
2BB
102
{ACAD_REACTORS
330
2A2
102
}
330
2A2
100
AcDbScale
 70
     0
300
1/4" = 1'-0"
140
0.25
141
12.0
290
     0
  0
SCALE
  5
2BC
102
{ACAD_REACTORS
330
2A2
102
}
330
2A2
100
AcDbScale
 70
     0
300
3/8" = 1'-0"
140
0.375
141
12.0
290
     0
  0
SCALE
  5
2BD
102
{ACAD_REACTORS
330
2A2
102
}
330
2A2
100
AcDbScale
 70
     0
300
1/2" = 1'-0"
140
0.5
141
12.0
290
     0
  0
SCALE
  5
2BE
102
{ACAD_REACTORS
330
2A2
102
}
330
2A2
100
AcDbScale
 70
     0
300
3/4" = 1'-0"
140
0.75
141
12.0
290
     0
  0
SCALE
  5
2BF
102
{ACAD_REACTORS
330
2A2
102
}
330
2A2
100
AcDbScale
 70
     0
300
1" = 1'-0"
140
1.0
141
12.0
290
     0
  0
SCALE
  5
2C0
102
{ACAD_REACTORS
330
2A2
102
}
330
2A2
100
AcDbScale
 70
     0
300
1-1/2" = 1'-0"
140
1.5
141
12.0
290
     0
  0
SCALE
  5
2C1
102
{ACAD_REACTORS
330
2A2
102
}
330
2A2
100
AcDbScale
 70
     0
300
3" = 1'-0"
140
3.0
141
12.0
290
     0
  0
SCALE
  5
2C2
102
{ACAD_REACTORS
330
2A2
102
}
330
2A2
100
AcDbScale
 70
     0
300
6" = 1'-0"
140
6.0
141
12.0
290
     0
  0
SCALE
  5
2C3
102
{ACAD_REACTORS
330
2A2
102
}
330
2A2
100
AcDbScale
 70
     0
300
1'-0" = 1'-0"
140
12.0
141
12.0
290
     0
  0
TABLESTYLE
  5
11B
102
{ACAD_XDICTIONARY
360
2E4
102
}
102
{ACAD_REACTORS
330
11A
102
}
330
11A
100
AcDbTableStyle
  3
Standard
 70
     0
 71
     0
 40
1.5
 41
1.5
280
     0
281
     0
  7
STANDARD
140
4.5
170
     2
 62
     0
 63
     7
283
     0
 90
      512
 91
        0
  1

274
    -2
284
     1
 64
     0
275
    -2
285
     1
 65
     0
276
    -2
286
     1
 66
     0
277
    -2
287
     1
 67
     0
278
    -2
288
     1
 68
     0
279
    -2
289
     1
 69
     0
  7
STANDARD
140
6.0
170
     5
 62
     0
 63
     7
283
     0
 90
      512
 91
        0
  1

274
    -2
284
     1
 64
     0
275
    -2
285
     1
 65
     0
276
    -2
286
     1
 66
     0
277
    -2
287
     1
 67
     0
278
    -2
288
     1
 68
     0
279
    -2
289
     1
 69
     0
  7
STANDARD
140
4.5
170
     5
 62
     0
 63
     7
283
     0
 90
      512
 91
        0
  1

274
    -2
284
     1
 64
     0
275
    -2
285
     1
 65
     0
276
    -2
286
     1
 66
     0
277
    -2
287
     1
 67
     0
278
    -2
288
     1
 68
     0
279
    -2
289
     1
 69
     0
  0
VISUALSTYLE
  5
274
102
{ACAD_REACTORS
330
26E
102
}
330
26E
100
AcDbVisualStyle
  2
2dWireframe
 70
     4
 71
     0
 72
     2
 73
     0
 90
        0
 40
-0.6
 41
-30.0
 62
     5
 63
     7
421
 16777215
 74
     1
 91
        4
 64
     7
 65
   257
 75
     1
175
     1
 42
1.0
 92
        0
 66
   257
 43
1.0
 76
     1
 77
     6
 78
     2
 67
     7
 79
     5
170
     0
171
     0
290
     0
174
     0
 93
        1
 44
0.0
173
     0
291
     0
 45
0.0
  0
VISUALSTYLE
  5
276
102
{ACAD_REACTORS
330
26E
102
}
330
26E
100
AcDbVisualStyle
  2
3D Hidden
 70
     6
 71
     1
 72
     2
 73
     2
 90
        0
 40
-0.6
 41
-30.0
 62
     5
 63
     7
421
 16777215
 74
     2
 91
        2
 64
     7
 65
   257
 75
     2
175
     1
 42
40.0
 92
        0
 66
   257
 43
1.0
 76
     1
 77
     6
 78
     2
 67
     7
 79
     3
170
     0
171
     0
290
     0
174
     0
 93
        1
 44
0.0
173
     0
291
     0
 45
0.0
  0
VISUALSTYLE
  5
275
102
{ACAD_REACTORS
330
26E
102
}
330
26E
100
AcDbVisualStyle
  2
3dWireframe
 70
     5
 71
     0
 72
     2
 73
     0
 90
        0
 40
-0.6
 41
-30.0
 62
     5
 63
     7
421
 16777215
 74
     1
 91
        4
 64
     7
 65
   257
 75
     1
175
     1
 42
1.0
 92
        0
 66
   257
 43
1.0
 76
     1
 77
     6
 78
     2
 67
     7
 79
     5
170
     0
171
     0
290
     0
174
     0
 93
        1
 44
0.0
173
     0
291
     0
 45
0.0
  0
VISUALSTYLE
  5
273
102
{ACAD_REACTORS
330
26E
102
}
330
26E
100
AcDbVisualStyle
  2
Basic
 70
     7
 71
     1
 72
     0
 73
     1
 90
        0
 40
-0.6
 41
-30.0
 62
     5
 63
     7
421
 16777215
 74
     0
 91
        4
 64
     7
 65
   257
 75
     1
175
     1
 42
1.0
 92
        8
 66
     7
 43
1.0
 76
     1
 77
     6
 78
     2
 67
     7
 79
     5
170
     0
171
     0
290
     0
174
     0
 93
        1
 44
0.0
173
     0
291
     1
 45
0.0
  0
VISUALSTYLE
  5
27A
102
{ACAD_REACTORS
330
26E
102
}
330
26E
100
AcDbVisualStyle
  2
Brighten
 70
    12
 71
     2
 72
     2
 73
     0
 90
        0
 40
-0.6
 41
-30.0
 62
     5
 63
     7
421
 16777215
 74
     1
 91
        4
 64
     7
 65
   257
 75
     1
175
     1
 42
1.0
 92
        8
 66
     7
 43
1.0
 76
     1
 77
     6
 78
     2
 67
     7
 79
     5
170
     0
171
     0
290
     0
174
     0
 93
        1
 44
50.0
173
     0
291
     1
 45
0.0
  0
VISUALSTYLE
  5
27E
102
{ACAD_REACTORS
330
26E
102
}
330
26E
100
AcDbVisualStyle
  2
ColorChange
 70
    16
 71
     2
 72
     2
 73
     3
 90
        0
 40
-0.6
 41
-30.0
 62
     5
 63
     8
421
  8421504
 74
     1
 91
        4
 64
     7
 65
   257
 75
     1
175
     1
 42
1.0
 92
        8
 66
     8
424
  8421504
 43
1.0
 76
     1
 77
     6
 78
     2
 67
     7
 79
     5
170
     0
171
     0
290
     0
174
     0
 93
        1
 44
0.0
173
     0
291
     1
 45
0.0
  0
VISUALSTYLE
  5
277
102
{ACAD_REACTORS
330
26E
102
}
330
26E
100
AcDbVisualStyle
  2
Conceptual
 70
     9
 71
     3
 72
     2
 73
     0
 90
        0
 40
-0.6
 41
-30.0
 62
     5
 63
     7
421
 16777215
 74
     2
 91
        2
 64
     7
 65
   257
 75
     1
175
     1
 42
40.0
 92
        8
 66
     7
 43
1.0
 76
     1
 77
     6
 78
     2
 67
     7
 79
     3
170
     0
171
     0
290
     0
174
     0
 93
        1
 44
0.0
173
     0
291
     0
 45
0.0
  0
VISUALSTYLE
  5
279
102
{ACAD_REACTORS
330
26E
102
}
330
26E
100
AcDbVisualStyle
  2
Dim
 70
    11
 71
     2
 72
     2
 73
     0
 90
        0
 40
-0.6
 41
-30.0
 62
     5
 63
     7
421
 16777215
 74
     1
 91
        4
 64
     7
 65
   257
 75
     1
175
     1
 42
1.0
 92
        8
 66
     7
 43
1.0
 76
     1
 77
     6
 78
     2
 67
     7
 79
     5
170
     0
171
     0
290
     0
174
     0
 93
        1
 44
-50.0
173
     0
291
     1
 45
0.0
  0
VISUALSTYLE
  5
27D
102
{ACAD_REACTORS
330
26E
102
}
330
26E
100
AcDbVisualStyle
  2
Facepattern
 70
    15
 71
     2
 72
     2
 73
     0
 90
        0
 40
-0.6
 41
-30.0
 62
     5
 63
     7
421
 16777215
 74
     1
 91
        4
 64
     7
 65
   257
 75
     1
175
     1
 42
1.0
 92
        8
 66
     7
 43
1.0
 76
     1
 77
     6
 78
     2
 67
     7
 79
     5
170
     0
171
     0
290
     0
174
     0
 93
        1
 44
0.0
173
     0
291
     1
 45
0.0
  0
VISUALSTYLE
  5
26F
102
{ACAD_REACTORS
330
26E
102
}
330
26E
100
AcDbVisualStyle
  2
Flat
 70
     0
 71
     2
 72
     1
 73
     1
 90
        2
 40
-0.6
 41
30.0
 62
     5
 63
     7
421
 16777215
 74
     0
 91
        4
 64
     7
 65
   257
 75
     1
175
     1
 42
1.0
 92
        8
 66
     7
 43
1.0
 76
     1
 77
     6
 78
     2
 67
     7
 79
     5
170
     0
171
     0
290
     0
174
     0
 93
       13
 44
0.0
173
     0
291
     1
 45
0.0
  0
VISUALSTYLE
  5
270
102
{ACAD_REACTORS
330
26E
102
}
330
26E
100
AcDbVisualStyle
  2
FlatWithEdges
 70
     1
 71
     2
 72
     1
 73
     1
 90
        2
 40
-0.6
 41
30.0
 62
     5
 63
     7
421
 16777215
 74
     1
 91
        4
 64
     7
 65
   257
 75
     1
175
     1
 42
1.0
 92
        0
 66
   257
 43
1.0
 76
     1
 77
     6
 78
     2
 67
     7
 79
     5
170
     0
171
     0
290
     0
174
     0
 93
       13
 44
0.0
173
     0
291
     1
 45
0.0
  0
VISUALSTYLE
  5
271
102
{ACAD_REACTORS
330
26E
102
}
330
26E
100
AcDbVisualStyle
  2
Gouraud
 70
     2
 71
     2
 72
     2
 73
     1
 90
        2
 40
-0.6
 41
30.0
 62
     5
 63
     7
421
 16777215
 74
     0
 91
        4
 64
     7
 65
   257
 75
     1
175
     1
 42
1.0
 92
        0
 66
     7
 43
1.0
 76
     1
 77
     6
 78
     2
 67
     7
 79
     5
170
     0
171
     0
290
     0
174
     0
 93
       13
 44
0.0
173
     0
291
     1
 45
0.0
  0
VISUALSTYLE
  5
272
102
{ACAD_REACTORS
330
26E
102
}
330
26E
100
AcDbVisualStyle
  2
GouraudWithEdges
 70
     3
 71
     2
 72
     2
 73
     1
 90
        2
 40
-0.6
 41
30.0
 62
     5
 63
     7
421
 16777215
 74
     1
 91
        4
 64
     7
 65
   257
 75
     1
175
     1
 42
1.0
 92
        0
 66
   257
 43
1.0
 76
     1
 77
     6
 78
     2
 67
     7
 79
     5
170
     0
171
     0
290
     0
174
     0
 93
       13
 44
0.0
173
     0
291
     1
 45
0.0
  0
VISUALSTYLE
  5
27C
102
{ACAD_REACTORS
330
26E
102
}
330
26E
100
AcDbVisualStyle
  2
Linepattern
 70
    14
 71
     2
 72
     2
 73
     0
 90
        0
 40
-0.6
 41
-30.0
 62
     5
 63
     7
421
 16777215
 74
     1
 91
        4
 64
     7
 65
   257
 75
     7
175
     7
 42
1.0
 92
        8
 66
     7
 43
1.0
 76
     1
 77
     6
 78
     2
 67
     7
 79
     5
170
     0
171
     0
290
     0
174
     0
 93
        1
 44
0.0
173
     0
291
     1
 45
0.0
  0
VISUALSTYLE
  5
278
102
{ACAD_REACTORS
330
26E
102
}
330
26E
100
AcDbVisualStyle
  2
Realistic
 70
     8
 71
     2
 72
     2
 73
     0
 90
        0
 40
-0.6
 41
-30.0
 62
     5
 63
     7
421
 16777215
 74
     1
 91
        0
 64
     7
 65
   257
 75
     1
175
     1
 42
1.0
 92
        8
 66
     8
424
  7895160
 43
1.0
 76
     1
 77
     6
 78
     2
 67
     7
 79
     5
170
     0
171
     0
290
     0
174
     0
 93
       13
 44
0.0
173
     0
291
     0
 45
0.0
  0
VISUALSTYLE
  5
27B
102
{ACAD_REACTORS
330
26E
102
}
330
26E
100
AcDbVisualStyle
  2
Thicken
 70
    13
 71
     2
 72
     2
 73
     0
 90
        0
 40
-0.6
 41
-30.0
 62
     5
 63
     7
421
 16777215
 74
     1
 91
        4
 64
     7
 65
   257
 75
     1
175
     1
 42
1.0
 92
       12
 66
     7
 43
1.0
 76
     1
 77
     6
 78
     2
 67
     7
 79
     5
170
     0
171
     0
290
     0
174
     0
 93
        1
 44
0.0
173
     0
291
     1
 45
0.0
  0
DICTIONARYVAR
  5
2E9
102
{ACAD_REACTORS
330
94
102
}
330
94
100
DictionaryVariables
280
     0
  1
1:1
  0
DICTIONARYVAR
  5
2E7
102
{ACAD_REACTORS
330
94
102
}
330
94
100
DictionaryVariables
280
     0
  1
STANDARD
  0
DICTIONARYVAR
  5
138
102
{ACAD_REACTORS
330
94
102
}
330
94
100
DictionaryVariables
280
     0
  1
STANDARD
  0
DICTIONARYVAR
  5
96
102
{ACAD_REACTORS
330
94
102
}
330
94
100
DictionaryVariables
280
     0
  1
2
  0
DICTIONARYVAR
  5
95
102
{ACAD_REACTORS
330
94
102
}
330
94
100
DictionaryVariables
280
     0
  1
1
  0
DICTIONARYVAR
  5
346
102
{ACAD_REACTORS
330
94
102
}
330
94
100
DictionaryVariables
280
     0
  1
1
  0
DICTIONARYVAR
  5
347
102
{ACAD_REACTORS
330
94
102
}
330
94
100
DictionaryVariables
280
     0
  1
15
  0
DICTIONARYVAR
  5
2EA
102
{ACAD_REACTORS
330
94
102
}
330
94
100
DictionaryVariables
280
     0
  1
0
  0
DICTIONARYVAR
  5
2E8
102
{ACAD_REACTORS
330
94
102
}
330
94
100
DictionaryVariables
280
     0
  1
0
  0
DICTIONARY
  5
61
102
{ACAD_REACTORS
330
5B
102
}
330
5B
100
AcDbDictionary
281
     1
  0
XRECORD
  5
123
102
{ACAD_REACTORS
330
5B
102
}
330
5B
100
AcDbXrecord
280
     1
 90
-1023410169
  0
DICTIONARY
  5
2E4
330
11B
100
AcDbDictionary
280
     1
281
     1
  3
ACAD_ROUNDTRIP_2008_TABLESTYLE_CELLSTYLEMAP
360
54C
  0
CELLSTYLEMAP
  5
54C
102
{ACAD_REACTORS
330
2E4
102
}
330
2E4
100
AcDbCellStyleMap
 90
        3
300
CELLSTYLE
  1
TABLEFORMAT_BEGIN
 90
        5
170
     1
 91
        0
 92
    32768
 62
   257
 93
        1
300
CONTENTFORMAT
  1
CONTENTFORMAT_BEGIN
 90
        0
 91
        0
 92
      512
 93
        0
300

 40
0.0
140
1.0
 94
        5
 62
     0
340
11
144
6.0
309
CONTENTFORMAT_END
171
     1
301
MARGIN
  1
CELLMARGIN_BEGIN
 40
1.5
 40
1.5
 40
1.5
 40
1.5
 40
0.18
 40
0.18
309
CELLMARGIN_END
 94
        6
 95
        1
302
GRIDFORMAT
  1
GRIDFORMAT_BEGIN
 90
        0
 91
        1
 62
     0
 92
       -2
340
0
 93
        0
 40
0.045
309
GRIDFORMAT_END
 95
        2
302
GRIDFORMAT
  1
GRIDFORMAT_BEGIN
 90
        0
 91
        1
 62
     0
 92
       -2
340
0
 93
        0
 40
0.045
309
GRIDFORMAT_END
 95
        4
302
GRIDFORMAT
  1
GRIDFORMAT_BEGIN
 90
        0
 91
        1
 62
     0
 92
       -2
340
0
 93
        0
 40
0.045
309
GRIDFORMAT_END
 95
        8
302
GRIDFORMAT
  1
GRIDFORMAT_BEGIN
 90
        0
 91
        1
 62
     0
 92
       -2
340
0
 93
        0
 40
0.045
309
GRIDFORMAT_END
 95
       16
302
GRIDFORMAT
  1
GRIDFORMAT_BEGIN
 90
        0
 91
        1
 62
     0
 92
       -2
340
0
 93
        0
 40
0.045
309
GRIDFORMAT_END
 95
       32
302
GRIDFORMAT
  1
GRIDFORMAT_BEGIN
 90
        0
 91
        1
 62
     0
 92
       -2
340
0
 93
        0
 40
0.045
309
GRIDFORMAT_END
309
TABLEFORMAT_END
  1
CELLSTYLE_BEGIN
 90
        1
 91
        1
300
_TITLE
309
CELLSTYLE_END
300
CELLSTYLE
  1
TABLEFORMAT_BEGIN
 90
        5
170
     1
 91
        0
 92
        0
 62
   257
 93
        1
300
CONTENTFORMAT
  1
CONTENTFORMAT_BEGIN
 90
        0
 91
        0
 92
      512
 93
        0
300

 40
0.0
140
1.0
 94
        5
 62
     0
340
11
144
4.5
309
CONTENTFORMAT_END
171
     1
301
MARGIN
  1
CELLMARGIN_BEGIN
 40
1.5
 40
1.5
 40
1.5
 40
1.5
 40
0.18
 40
0.18
309
CELLMARGIN_END
 94
        6
 95
        1
302
GRIDFORMAT
  1
GRIDFORMAT_BEGIN
 90
        0
 91
        1
 62
     0
 92
       -2
340
0
 93
        0
 40
0.045
309
GRIDFORMAT_END
 95
        2
302
GRIDFORMAT
  1
GRIDFORMAT_BEGIN
 90
        0
 91
        1
 62
     0
 92
       -2
340
0
 93
        0
 40
0.045
309
GRIDFORMAT_END
 95
        4
302
GRIDFORMAT
  1
GRIDFORMAT_BEGIN
 90
        0
 91
        1
 62
     0
 92
       -2
340
0
 93
        0
 40
0.045
309
GRIDFORMAT_END
 95
        8
302
GRIDFORMAT
  1
GRIDFORMAT_BEGIN
 90
        0
 91
        1
 62
     0
 92
       -2
340
0
 93
        0
 40
0.045
309
GRIDFORMAT_END
 95
       16
302
GRIDFORMAT
  1
GRIDFORMAT_BEGIN
 90
        0
 91
        1
 62
     0
 92
       -2
340
0
 93
        0
 40
0.045
309
GRIDFORMAT_END
 95
       32
302
GRIDFORMAT
  1
GRIDFORMAT_BEGIN
 90
        0
 91
        1
 62
     0
 92
       -2
340
0
 93
        0
 40
0.045
309
GRIDFORMAT_END
309
TABLEFORMAT_END
  1
CELLSTYLE_BEGIN
 90
        2
 91
        1
300
_HEADER
309
CELLSTYLE_END
300
CELLSTYLE
  1
TABLEFORMAT_BEGIN
 90
        5
170
     1
 91
        0
 92
        0
 62
   257
 93
        1
300
CONTENTFORMAT
  1
CONTENTFORMAT_BEGIN
 90
        0
 91
        0
 92
      512
 93
        0
300

 40
0.0
140
1.0
 94
        2
 62
     0
340
11
144
4.5
309
CONTENTFORMAT_END
171
     1
301
MARGIN
  1
CELLMARGIN_BEGIN
 40
1.5
 40
1.5
 40
1.5
 40
1.5
 40
0.18
 40
0.18
309
CELLMARGIN_END
 94
        6
 95
        1
302
GRIDFORMAT
  1
GRIDFORMAT_BEGIN
 90
        0
 91
        1
 62
     0
 92
       -2
340
0
 93
        0
 40
0.045
309
GRIDFORMAT_END
 95
        2
302
GRIDFORMAT
  1
GRIDFORMAT_BEGIN
 90
        0
 91
        1
 62
     0
 92
       -2
340
0
 93
        0
 40
0.045
309
GRIDFORMAT_END
 95
        4
302
GRIDFORMAT
  1
GRIDFORMAT_BEGIN
 90
        0
 91
        1
 62
     0
 92
       -2
340
0
 93
        0
 40
0.045
309
GRIDFORMAT_END
 95
        8
302
GRIDFORMAT
  1
GRIDFORMAT_BEGIN
 90
        0
 91
        1
 62
     0
 92
       -2
340
0
 93
        0
 40
0.045
309
GRIDFORMAT_END
 95
       16
302
GRIDFORMAT
  1
GRIDFORMAT_BEGIN
 90
        0
 91
        1
 62
     0
 92
       -2
340
0
 93
        0
 40
0.045
309
GRIDFORMAT_END
 95
       32
302
GRIDFORMAT
  1
GRIDFORMAT_BEGIN
 90
        0
 91
        1
 62
     0
 92
       -2
340
0
 93
        0
 40
0.045
309
GRIDFORMAT_END
309
TABLEFORMAT_END
  1
CELLSTYLE_BEGIN
 90
        3
 91
        2
300
_DATA
309
CELLSTYLE_END
  0
ENDSEC
  0
EOF
