  0
SECTION
  2
HEADER
  9
$ACADVER
  1
AC1018
  9
$ACADMAINTVER
 70
     0
  9
$DWGCODEPAGE
  3
ANSI_932
  9
$INSBASE
 10
0.0
 20
0.0
 30
0.0
  9
$EXTMIN
 10
1.000000000000000E+20
 20
1.000000000000000E+20
 30
1.000000000000000E+20
  9
$EXTMAX
 10
-1.000000000000000E+20
 20
-1.000000000000000E+20
 30
-1.000000000000000E+20
  9
$LIMMIN
 10
0.0
 20
0.0
  9
$LIMMAX
 10
12.0
 20
9.0
  9
$ORTHOMODE
 70
     0
  9
$REGENMODE
 70
     1
  9
$FILLMODE
 70
     1
  9
$QTEXTMODE
 70
     0
  9
$MIRRTEXT
 70
     1
  9
$LTSCALE
 40
1.0
  9
$ATTMODE
 70
     1
  9
$TEXTSIZE
 40
0.2
  9
$TRACEWID
 40
0.05
  9
$TEXTSTYLE
  7
Standard
  9
$CLAYER
  8
0
  9
$CELTYPE
  6
ByLayer
  9
$CECOLOR
 62
   256
  9
$CELTSCALE
 40
1.0
  9
$DISPSILH
 70
     0
  9
$DIMSCALE
 40
1.0
  9
$DIMASZ
 40
0.18
  9
$DIMEXO
 40
0.0625
  9
$DIMDLI
 40
0.38
  9
$DIMRND
 40
0.0
  9
$DIMDLE
 40
0.0
  9
$DIMEXE
 40
0.18
  9
$DIMTP
 40
0.0
  9
$DIMTM
 40
0.0
  9
$DIMTXT
 40
0.18
  9
$DIMCEN
 40
0.09
  9
$DIMTSZ
 40
0.0
  9
$DIMTOL
 70
     0
  9
$DIMLIM
 70
     0
  9
$DIMTIH
 70
     1
  9
$DIMTOH
 70
     1
  9
$DIMSE1
 70
     0
  9
$DIMSE2
 70
     0
  9
$DIMTAD
 70
     0
  9
$DIMZIN
 70
     0
  9
$DIMBLK
  1

  9
$DIMASO
 70
     1
  9
$DIMSHO
 70
     1
  9
$DIMPOST
  1

  9
$DIMAPOST
  1

  9
$DIMALT
 70
     0
  9
$DIMALTD
 70
     2
  9
$DIMALTF
 40
25.4
  9
$DIMLFAC
 40
1.0
  9
$DIMTOFL
 70
     0
  9
$DIMTVP
 40
0.0
  9
$DIMTIX
 70
     0
  9
$DIMSOXD
 70
     0
  9
$DIMSAH
 70
     0
  9
$DIMBLK1
  1

  9
$DIMBLK2
  1

  9
$DIMSTYLE
  2
Standard
  9
$DIMCLRD
 70
     0
  9
$DIMCLRE
 70
     0
  9
$DIMCLRT
 70
     0
  9
$DIMTFAC
 40
1.0
  9
$DIMGAP
 40
0.09
  9
$DIMJUST
 70
     0
  9
$DIMSD1
 70
     0
  9
$DIMSD2
 70
     0
  9
$DIMTOLJ
 70
     1
  9
$DIMTZIN
 70
     0
  9
$DIMALTZ
 70
     0
  9
$DIMALTTZ
 70
     0
  9
$DIMUPT
 70
     0
  9
$DIMDEC
 70
     4
  9
$DIMTDEC
 70
     4
  9
$DIMALTU
 70
     2
  9
$DIMALTTD
 70
     2
  9
$DIMTXSTY
  7
Standard
  9
$DIMAUNIT
 70
     0
  9
$DIMADEC
 70
     0
  9
$DIMALTRND
 40
0.0
  9
$DIMAZIN
 70
     0
  9
$DIMDSEP
 70
    46
  9
$DIMATFIT
 70
     3
  9
$DIMFRAC
 70
     0
  9
$DIMLDRBLK
  1

  9
$DIMLUNIT
 70
     2
  9
$DIMLWD
 70
    -2
  9
$DIMLWE
 70
    -2
  9
$DIMTMOVE
 70
     0
  9
$LUNITS
 70
     2
  9
$LUPREC
 70
     4
  9
$SKETCHINC
 40
0.1
  9
$FILLETRAD
 40
0.5
  9
$AUNITS
 70
     0
  9
$AUPREC
 70
     0
  9
$MENU
  1
.
  9
$ELEVATION
 40
0.0
  9
$PELEVATION
 40
0.0
  9
$THICKNESS
 40
0.0
  9
$LIMCHECK
 70
     0
  9
$CHAMFERA
 40
0.5
  9
$CHAMFERB
 40
0.5
  9
$CHAMFERC
 40
1.0
  9
$CHAMFERD
 40
0.0
  9
$SKPOLY
 70
     0
  9
$TDCREATE
 40
2457842.720371505
  9
$TDUCREATE
 40
2457842.345371505
  9
$TDUPDATE
 40
2457842.720371516
  9
$TDUUPDATE
 40
2457842.345371516
  9
$TDINDWG
 40
0.0000000116
  9
$TDUSRTIMER
 40
0.0000000116
  9
$USRTIMER
 70
     1
  9
$ANGBASE
 50
0.0
  9
$ANGDIR
 70
     0
  9
$PDMODE
 70
     0
  9
$PDSIZE
 40
0.0
  9
$PLINEWID
 40
0.0
  9
$SPLFRAME
 70
     0
  9
$SPLINETYPE
 70
     6
  9
$SPLINESEGS
 70
     8
  9
$HANDSEED
  5
194
  9
$SURFTAB1
 70
     6
  9
$SURFTAB2
 70
     6
  9
$SURFTYPE
 70
     6
  9
$SURFU
 70
     6
  9
$SURFV
 70
     6
  9
$UCSBASE
  2

  9
$UCSNAME
  2

  9
$UCSORG
 10
0.0
 20
0.0
 30
0.0
  9
$UCSXDIR
 10
1.0
 20
0.0
 30
0.0
  9
$UCSYDIR
 10
0.0
 20
1.0
 30
0.0
  9
$UCSORTHOREF
  2

  9
$UCSORTHOVIEW
 70
     0
  9
$UCSORGTOP
 10
0.0
 20
0.0
 30
0.0
  9
$UCSORGBOTTOM
 10
0.0
 20
0.0
 30
0.0
  9
$UCSORGLEFT
 10
0.0
 20
0.0
 30
0.0
  9
$UCSORGRIGHT
 10
0.0
 20
0.0
 30
0.0
  9
$UCSORGFRONT
 10
0.0
 20
0.0
 30
0.0
  9
$UCSORGBACK
 10
0.0
 20
0.0
 30
0.0
  9
$PUCSBASE
  2

  9
$PUCSNAME
  2

  9
$PUCSORG
 10
0.0
 20
0.0
 30
0.0
  9
$PUCSXDIR
 10
1.0
 20
0.0
 30
0.0
  9
$PUCSYDIR
 10
0.0
 20
1.0
 30
0.0
  9
$PUCSORTHOREF
  2

  9
$PUCSORTHOVIEW
 70
     0
  9
$PUCSORGTOP
 10
0.0
 20
0.0
 30
0.0
  9
$PUCSORGBOTTOM
 10
0.0
 20
0.0
 30
0.0
  9
$PUCSORGLEFT
 10
0.0
 20
0.0
 30
0.0
  9
$PUCSORGRIGHT
 10
0.0
 20
0.0
 30
0.0
  9
$PUCSORGFRONT
 10
0.0
 20
0.0
 30
0.0
  9
$PUCSORGBACK
 10
0.0
 20
0.0
 30
0.0
  9
$USERI1
 70
     0
  9
$USERI2
 70
     0
  9
$USERI3
 70
     0
  9
$USERI4
 70
     0
  9
$USERI5
 70
     0
  9
$USERR1
 40
0.0
  9
$USERR2
 40
0.0
  9
$USERR3
 40
0.0
  9
$USERR4
 40
0.0
  9
$USERR5
 40
0.0
  9
$WORLDVIEW
 70
     1
  9
$SHADEDGE
 70
     3
  9
$SHADEDIF
 70
    70
  9
$TILEMODE
 70
     1
  9
$MAXACTVP
 70
    64
  9
$PINSBASE
 10
0.0
 20
0.0
 30
0.0
  9
$PLIMCHECK
 70
     0
  9
$PEXTMIN
 10
1.000000000000000E+20
 20
1.000000000000000E+20
 30
1.000000000000000E+20
  9
$PEXTMAX
 10
-1.000000000000000E+20
 20
-1.000000000000000E+20
 30
-1.000000000000000E+20
  9
$PLIMMIN
 10
0.0
 20
0.0
  9
$PLIMMAX
 10
12.0
 20
9.0
  9
$UNITMODE
 70
     0
  9
$VISRETAIN
 70
     1
  9
$PLINEGEN
 70
     0
  9
$PSLTSCALE
 70
     1
  9
$TREEDEPTH
 70
  3020
  9
$CMLSTYLE
  2
Standard
  9
$CMLJUST
 70
     0
  9
$CMLSCALE
 40
1.0
  9
$PROXYGRAPHICS
 70
     1
  9
$MEASUREMENT
 70
     0
  9
$CELWEIGHT
370
    -1
  9
$ENDCAPS
280
     0
  9
$JOINSTYLE
280
     0
  9
$LWDISPLAY
290
     1
  9
$INSUNITS
 70
     1
  9
$HYPERLINKBASE
  1

  9
$STYLESHEET
  1

  9
$XEDIT
290
     1
  9
$CEPSNTYPE
380
     0
  9
$PSTYLEMODE
290
     1
  9
$FINGERPRINTGUID
  2
{8C73EFE6-5898-400A-927A-37D34DE2FC16}
  9
$VERSIONGUID
  2
{FAEB1C32-E019-11D5-929B-00C0DF256EC4}
  9
$EXTNAMES
290
     1
  9
$PSVPSCALE
 40
0.0
  9
$OLESTARTUP
290
     0
  9
$SORTENTS
280
   127
  9
$INDEXCTL
280
     0
  9
$HIDETEXT
280
     1
  9
$XCLIPFRAME
290
     0
  9
$HALOGAP
280
     0
  9
$OBSCOLOR
 70
   257
  9
$OBSLTYPE
280
     0
  9
$INTERSECTIONDISPLAY
280
     0
  9
$INTERSECTIONCOLOR
 70
   257
  9
$DIMASSOC
280
     2
  9
$PROJECTNAME
  1

  0
ENDSEC
  0
SECTION
  2
CLASSES
  0
CLASS
  1
ACDBDICTIONARYWDFLT
  2
AcDbDictionaryWithDefault
  3
ObjectDBX Classes
 90
        0
 91
        3
280
     0
281
     0
  0
CLASS
  1
VISUALSTYLE
  2
AcDbVisualStyle
  3
ObjectDBX Classes
 90
     4095
 91
        3
280
     0
281
     0
  0
ENDSEC
  0
SECTION
  2
TABLES
  0
TABLE
  2
VPORT
  5
8
330
0
100
AcDbSymbolTable
 70
     1
  0
VPORT
  5
29
330
8
100
AcDbSymbolTableRecord
100
AcDbViewportTableRecord
  2
*Active
 70
     0
 10
0.0
 20
0.0
 11
1.0
 21
1.0
 12
0.0
 22
0.0
 13
0.0
 23
0.0
 14
0.5
 24
0.5
 15
0.5
 25
0.5
 16
0.0
 26
0.0
 36
1.0
 17
209.9997571632119
 27
-148.4999796178229
 37
0.0
 40
296.9999592356459
 41
1.414139972972816
 42
50.0
 43
0.0
 44
0.0
 50
0.0
 51
0.0
 71
     0
 72
   100
 73
     1
 74
     3
 75
     0
 76
     0
 77
     0
 78
     0
281
     0
 65
     1
110
0.0
120
0.0
130
0.0
111
1.0
121
0.0
131
0.0
112
0.0
122
1.0
132
0.0
 79
     0
146
0.0
  0
ENDTAB
  0
TABLE
  2
LTYPE
  5
5
330
0
100
AcDbSymbolTable
 70
     1
  0
LTYPE
  5
14
330
5
100
AcDbSymbolTableRecord
100
AcDbLinetypeTableRecord
  2
ByBlock
 70
     0
  3

 72
    65
 73
     0
 40
0.0
  0
LTYPE
  5
15
330
5
100
AcDbSymbolTableRecord
100
AcDbLinetypeTableRecord
  2
ByLayer
 70
     0
  3

 72
    65
 73
     0
 40
0.0
  0
LTYPE
  5
16
330
5
100
AcDbSymbolTableRecord
100
AcDbLinetypeTableRecord
  2
Continuous
 70
     0
  3
Solid line
 72
    65
 73
     0
 40
0.0
  0
ENDTAB
  0
TABLE
  2
LAYER
  5
2
330
0
100
AcDbSymbolTable
 70
     2
  0
LAYER
  5
10
330
2
100
AcDbSymbolTableRecord
100
AcDbLayerTableRecord
  2
0
 70
     0
 62
     7
  6
Continuous
370
    -3
390
F
  0
LAYER
  5
3B
330
2
100
AcDbSymbolTableRecord
100
AcDbLayerTableRecord
  2
\U+30EC\U+30A4\U+30E4\U+30FC 1
 70
     0
 62
     7
  6
Continuous
370
    -3
390
F
  0
ENDTAB
  0
TABLE
  2
STYLE
  5
3
330
0
100
AcDbSymbolTable
 70
     1
  0
STYLE
  5
11
330
3
100
AcDbSymbolTableRecord
100
AcDbTextStyleTableRecord
  2
Standard
 70
     0
 40
0.0
 41
1.0
 50
0.0
 71
     0
 42
0.2
  3
txt
  4

  0
ENDTAB
  0
TABLE
  2
VIEW
  5
6
330
0
100
AcDbSymbolTable
 70
     0
  0
ENDTAB
  0
TABLE
  2
UCS
  5
7
330
0
100
AcDbSymbolTable
 70
     0
  0
ENDTAB
  0
TABLE
  2
APPID
  5
9
330
0
100
AcDbSymbolTable
 70
     1
  0
APPID
  5
12
330
9
100
AcDbSymbolTableRecord
100
AcDbRegAppTableRecord
  2
ACAD
 70
     0
  0
ENDTAB
  0
TABLE
  2
DIMSTYLE
  5
A
330
0
100
AcDbSymbolTable
 70
     1
100
AcDbDimStyleTable
  0
DIMSTYLE
105
27
330
A
100
AcDbSymbolTableRecord
100
AcDbDimStyleTableRecord
  2
Standard
 70
     0
340
11
  0
ENDTAB
  0
TABLE
  2
BLOCK_RECORD
  5
1
330
0
100
AcDbSymbolTable
 70
    26
  0
BLOCK_RECORD
  5
1F
330
1
100
AcDbSymbolTableRecord
100
AcDbBlockTableRecord
  2
*Model_Space
340
22
  0
BLOCK_RECORD
  5
1B
330
1
100
AcDbSymbolTableRecord
100
AcDbBlockTableRecord
  2
*Paper_Space
340
1E
  0
BLOCK_RECORD
  5
23
330
1
100
AcDbSymbolTableRecord
100
AcDbBlockTableRecord
  2
*Paper_Space0
340
26
  0
BLOCK_RECORD
  5
3C
330
1
100
AcDbSymbolTableRecord
100
AcDbBlockTableRecord
  2
block 2
340
0
102
{BLKREFS
331
3D
102
}
  0
BLOCK_RECORD
  5
60
330
1
100
AcDbSymbolTableRecord
100
AcDbBlockTableRecord
  2
block 3
340
0
102
{BLKREFS
331
61
102
}
  0
BLOCK_RECORD
  5
65
330
1
100
AcDbSymbolTableRecord
100
AcDbBlockTableRecord
  2
block 4
340
0
102
{BLKREFS
331
66
102
}
  0
BLOCK_RECORD
  5
6A
330
1
100
AcDbSymbolTableRecord
100
AcDbBlockTableRecord
  2
block 5
340
0
102
{BLKREFS
331
6B
102
}
  0
BLOCK_RECORD
  5
6F
330
1
100
AcDbSymbolTableRecord
100
AcDbBlockTableRecord
  2
block 6
340
0
102
{BLKREFS
331
70
102
}
  0
BLOCK_RECORD
  5
74
330
1
100
AcDbSymbolTableRecord
100
AcDbBlockTableRecord
  2
block 7
340
0
102
{BLKREFS
331
75
102
}
  0
BLOCK_RECORD
  5
79
330
1
100
AcDbSymbolTableRecord
100
AcDbBlockTableRecord
  2
block 8
340
0
102
{BLKREFS
331
7A
102
}
  0
BLOCK_RECORD
  5
7E
330
1
100
AcDbSymbolTableRecord
100
AcDbBlockTableRecord
  2
block 9
340
0
102
{BLKREFS
331
7F
102
}
  0
BLOCK_RECORD
  5
83
330
1
100
AcDbSymbolTableRecord
100
AcDbBlockTableRecord
  2
block 10
340
0
102
{BLKREFS
331
84
102
}
  0
BLOCK_RECORD
  5
88
330
1
100
AcDbSymbolTableRecord
100
AcDbBlockTableRecord
  2
block 11
340
0
102
{BLKREFS
331
89
102
}
  0
BLOCK_RECORD
  5
8D
330
1
100
AcDbSymbolTableRecord
100
AcDbBlockTableRecord
  2
block 12
340
0
102
{BLKREFS
331
8E
102
}
  0
BLOCK_RECORD
  5
B1
330
1
100
AcDbSymbolTableRecord
100
AcDbBlockTableRecord
  2
block 13
340
0
102
{BLKREFS
331
B2
102
}
  0
BLOCK_RECORD
  5
B6
330
1
100
AcDbSymbolTableRecord
100
AcDbBlockTableRecord
  2
block 14
340
0
102
{BLKREFS
331
B7
102
}
  0
BLOCK_RECORD
  5
BB
330
1
100
AcDbSymbolTableRecord
100
AcDbBlockTableRecord
  2
block 15
340
0
102
{BLKREFS
331
BC
102
}
  0
BLOCK_RECORD
  5
C0
330
1
100
AcDbSymbolTableRecord
100
AcDbBlockTableRecord
  2
block 16
340
0
102
{BLKREFS
331
C1
102
}
  0
BLOCK_RECORD
  5
C5
330
1
100
AcDbSymbolTableRecord
100
AcDbBlockTableRecord
  2
block 17
340
0
102
{BLKREFS
331
C6
102
}
  0
BLOCK_RECORD
  5
CA
330
1
100
AcDbSymbolTableRecord
100
AcDbBlockTableRecord
  2
block 18
340
0
102
{BLKREFS
331
CB
102
}
  0
BLOCK_RECORD
  5
CF
330
1
100
AcDbSymbolTableRecord
100
AcDbBlockTableRecord
  2
block 19
340
0
102
{BLKREFS
331
D0
102
}
  0
BLOCK_RECORD
  5
D4
330
1
100
AcDbSymbolTableRecord
100
AcDbBlockTableRecord
  2
block 20
340
0
102
{BLKREFS
331
D5
102
}
  0
BLOCK_RECORD
  5
D9
330
1
100
AcDbSymbolTableRecord
100
AcDbBlockTableRecord
  2
block 21
340
0
102
{BLKREFS
331
DA
102
}
  0
BLOCK_RECORD
  5
DE
330
1
100
AcDbSymbolTableRecord
100
AcDbBlockTableRecord
  2
block 22
340
0
102
{BLKREFS
331
DF
102
}
  0
BLOCK_RECORD
  5
F1
330
1
100
AcDbSymbolTableRecord
100
AcDbBlockTableRecord
  2
block 23
340
0
102
{BLKREFS
331
F2
102
}
  0
BLOCK_RECORD
  5
104
330
1
100
AcDbSymbolTableRecord
100
AcDbBlockTableRecord
  2
block 24
340
0
102
{BLKREFS
331
105
102
}
  0
BLOCK_RECORD
  5
117
330
1
100
AcDbSymbolTableRecord
100
AcDbBlockTableRecord
  2
block 25
340
0
102
{BLKREFS
331
118
102
}
  0
BLOCK_RECORD
  5
12A
330
1
100
AcDbSymbolTableRecord
100
AcDbBlockTableRecord
  2
block 26
340
0
102
{BLKREFS
331
12B
102
}
  0
ENDTAB
  0
ENDSEC
  0
SECTION
  2
BLOCKS
  0
BLOCK
  5
20
330
1F
100
AcDbEntity
  8
0
100
AcDbBlockBegin
  2
*Model_Space
 70
     0
 71
     0
 10
0.0
 20
0.0
 30
0.0
  3
*Model_Space
  1

  0
ENDBLK
  5
21
330
1F
100
AcDbEntity
  8
0
100
AcDbBlockEnd
  0
BLOCK
  5
1C
330
1B
100
AcDbEntity
 67
     1
  8
0
100
AcDbBlockBegin
  2
*Paper_Space
 70
     0
 71
     0
 10
0.0
 20
0.0
 30
0.0
  3
*Paper_Space
  1

  0
ENDBLK
  5
1D
330
1B
100
AcDbEntity
 67
     1
  8
0
100
AcDbBlockEnd
  0
BLOCK
  5
24
330
23
100
AcDbEntity
  8
0
100
AcDbBlockBegin
  2
*Paper_Space0
 70
     0
 71
     0
 10
0.0
 20
0.0
 30
0.0
  3
*Paper_Space0
  1

  0
ENDBLK
  5
25
330
23
100
AcDbEntity
  8
0
100
AcDbBlockEnd
  0
BLOCK
  5
3E
330
3C
100
AcDbEntity
  8
0
100
AcDbBlockBegin
  2
block 2
 70
     0
 71
     0
 10
0.0
 20
0.0
 30
0.0
  3
block 2
  1

  0
POLYLINE
  5
40
330
3C
100
AcDbEntity
  8
\U+30EC\U+30A4\U+30E4\U+30FC 1
370
     0
100
AcDb2dPolyline
 66
     1
 10
0.0
 20
0.0
 30
0.0
  0
VERTEX
  5
41
330
40
100
AcDbEntity
  8
\U+30EC\U+30A4\U+30E4\U+30FC 1
370
     0
100
AcDbVertex
100
AcDb2dVertex
 10
166.3112955313389
 20
-153.0049587291099
 30
0.0
  0
VERTEX
  5
42
330
40
100
AcDbEntity
  8
\U+30EC\U+30A4\U+30E4\U+30FC 1
370
     0
100
AcDbVertex
100
AcDb2dVertex
 10
130.3112534938979
 20
-153.0049587291099
 30
0.0
  0
VERTEX
  5
43
330
40
100
AcDbEntity
  8
\U+30EC\U+30A4\U+30E4\U+30FC 1
370
     0
100
AcDbVertex
100
AcDb2dVertex
 10
130.3112534938979
 20
-149.0117485521568
 30
0.0
  0
VERTEX
  5
44
330
40
100
AcDbEntity
  8
\U+30EC\U+30A4\U+30E4\U+30FC 1
370
     0
100
AcDbVertex
100
AcDb2dVertex
 10
148.3111883852312
 20
-149.0117485521568
 30
0.0
  0
VERTEX
  5
45
330
40
100
AcDbEntity
  8
\U+30EC\U+30A4\U+30E4\U+30FC 1
370
     0
100
AcDbVertex
100
AcDb2dVertex
 10
148.3111883852312
 20
-144.311949291179
 30
0.0
  0
VERTEX
  5
46
330
40
100
AcDbEntity
  8
\U+30EC\U+30A4\U+30E4\U+30FC 1
370
     0
100
AcDbVertex
100
AcDb2dVertex
 10
130.3112534938979
 20
-144.311949291179
 30
0.0
  0
VERTEX
  5
47
330
40
100
AcDbEntity
  8
\U+30EC\U+30A4\U+30E4\U+30FC 1
370
     0
100
AcDbVertex
100
AcDb2dVertex
 10
130.3112534938979
 20
-115.5119845631359
 30
0.0
  0
VERTEX
  5
48
330
40
100
AcDbEntity
  8
\U+30EC\U+30A4\U+30E4\U+30FC 1
370
     0
100
AcDbVertex
100
AcDb2dVertex
 10
115.3113077511201
 20
-115.5119845631359
 30
0.0
  0
VERTEX
  5
49
330
40
100
AcDbEntity
  8
\U+30EC\U+30A4\U+30E4\U+30FC 1
370
     0
100
AcDbVertex
100
AcDb2dVertex
 10
115.3113077511201
 20
-140.5120089709484
 30
0.0
  0
VERTEX
  5
4A
330
40
100
AcDbEntity
  8
\U+30EC\U+30A4\U+30E4\U+30FC 1
370
     0
100
AcDbVertex
100
AcDb2dVertex
 10
95.81137828550897
 20
-140.5120089709484
 30
0.0
  0
VERTEX
  5
4B
330
40
100
AcDbEntity
  8
\U+30EC\U+30A4\U+30E4\U+30FC 1
370
     0
100
AcDbVertex
100
AcDb2dVertex
 10
95.81137828550897
 20
-115.5119845631359
 30
0.0
  0
VERTEX
  5
4C
330
40
100
AcDbEntity
  8
\U+30EC\U+30A4\U+30E4\U+30FC 1
370
     0
100
AcDbVertex
100
AcDb2dVertex
 10
88.81128876902982
 20
-115.5119845631359
 30
0.0
  0
VERTEX
  5
4D
330
40
100
AcDbEntity
  8
\U+30EC\U+30A4\U+30E4\U+30FC 1
370
     0
100
AcDbVertex
100
AcDb2dVertex
 10
88.81128876902982
 20
-140.5120089709484
 30
0.0
  0
VERTEX
  5
4E
330
40
100
AcDbEntity
  8
\U+30EC\U+30A4\U+30E4\U+30FC 1
370
     0
100
AcDbVertex
100
AcDb2dVertex
 10
69.31101479387017
 20
-140.5120089709484
 30
0.0
  0
VERTEX
  5
4F
330
40
100
AcDbEntity
  8
\U+30EC\U+30A4\U+30E4\U+30FC 1
370
     0
100
AcDbVertex
100
AcDb2dVertex
 10
69.31101479387017
 20
-115.5119845631359
 30
0.0
  0
VERTEX
  5
50
330
40
100
AcDbEntity
  8
\U+30EC\U+30A4\U+30E4\U+30FC 1
370
     0
100
AcDbVertex
100
AcDb2dVertex
 10
55.3111802704604
 20
-115.5119845631359
 30
0.0
  0
VERTEX
  5
51
330
40
100
AcDbEntity
  8
\U+30EC\U+30A4\U+30E4\U+30FC 1
370
     0
100
AcDbVertex
100
AcDb2dVertex
 10
55.3111802704604
 20
-95.21210392584976
 30
0.0
  0
VERTEX
  5
52
330
40
100
AcDbEntity
  8
\U+30EC\U+30A4\U+30E4\U+30FC 1
370
     0
100
AcDbVertex
100
AcDb2dVertex
 10
92.81104462740488
 20
-95.21210392584976
 30
0.0
  0
VERTEX
  5
53
330
40
100
AcDbEntity
  8
\U+30EC\U+30A4\U+30E4\U+30FC 1
370
     0
100
AcDbVertex
100
AcDb2dVertex
 10
92.81104462740488
 20
-90.51196015532341
 30
0.0
  0
VERTEX
  5
54
330
40
100
AcDbEntity
  8
\U+30EC\U+30A4\U+30E4\U+30FC 1
370
     0
100
AcDbVertex
100
AcDb2dVertex
 10
55.3111802704604
 20
-90.51196015532341
 30
0.0
  0
VERTEX
  5
55
330
40
100
AcDbEntity
  8
\U+30EC\U+30A4\U+30E4\U+30FC 1
370
     0
100
AcDbVertex
100
AcDb2dVertex
 10
55.3111802704604
 20
-85.51209307758032
 30
0.0
  0
VERTEX
  5
56
330
40
100
AcDbEntity
  8
\U+30EC\U+30A4\U+30E4\U+30FC 1
370
     0
100
AcDbVertex
100
AcDb2dVertex
 10
115.3113077511201
 20
-85.51209307758032
 30
0.0
  0
VERTEX
  5
57
330
40
100
AcDbEntity
  8
\U+30EC\U+30A4\U+30E4\U+30FC 1
370
     0
100
AcDbVertex
100
AcDb2dVertex
 10
130.3112534938979
 20
-85.51209307758032
 30
0.0
  0
VERTEX
  5
58
330
40
100
AcDbEntity
  8
\U+30EC\U+30A4\U+30E4\U+30FC 1
370
     0
100
AcDbVertex
100
AcDb2dVertex
 10
130.3112534938979
 20
-56.71212834953725
 30
0.0
  0
VERTEX
  5
59
330
40
100
AcDbEntity
  8
\U+30EC\U+30A4\U+30E4\U+30FC 1
370
     0
100
AcDbVertex
100
AcDb2dVertex
 10
148.3111883852312
 20
-56.71212834953725
 30
0.0
  0
VERTEX
  5
5A
330
40
100
AcDbEntity
  8
\U+30EC\U+30A4\U+30E4\U+30FC 1
370
     0
100
AcDbVertex
100
AcDb2dVertex
 10
148.3111883852312
 20
-52.01198457901089
 30
0.0
  0
VERTEX
  5
5B
330
40
100
AcDbEntity
  8
\U+30EC\U+30A4\U+30E4\U+30FC 1
370
     0
100
AcDbVertex
100
AcDb2dVertex
 10
130.3112534938979
 20
-52.01198457901089
 30
0.0
  0
VERTEX
  5
5C
330
40
100
AcDbEntity
  8
\U+30EC\U+30A4\U+30E4\U+30FC 1
370
     0
100
AcDbVertex
100
AcDb2dVertex
 10
130.3112534938979
 20
-48.01205646586157
 30
0.0
  0
VERTEX
  5
5D
330
40
100
AcDbEntity
  8
\U+30EC\U+30A4\U+30E4\U+30FC 1
370
     0
100
AcDbVertex
100
AcDb2dVertex
 10
166.3112955313389
 20
-48.01205646586157
 30
0.0
  0
VERTEX
  5
5E
330
40
100
AcDbEntity
  8
\U+30EC\U+30A4\U+30E4\U+30FC 1
370
     0
100
AcDbVertex
100
AcDb2dVertex
 10
166.3112955313389
 20
-153.0049587291099
 30
0.0
  0
SEQEND
  5
5F
330
40
100
AcDbEntity
  8
\U+30EC\U+30A4\U+30E4\U+30FC 1
370
     0
  0
ENDBLK
  5
3F
330
3C
100
AcDbEntity
  8
0
100
AcDbBlockEnd
  0
BLOCK
  5
62
330
60
100
AcDbEntity
  8
0
100
AcDbBlockBegin
  2
block 3
 70
     0
 71
     0
 10
0.0
 20
0.0
 30
0.0
  3
block 3
  1

  0
SPLINE
  5
64
330
60
100
AcDbEntity
  8
\U+30EC\U+30A4\U+30E4\U+30FC 1
370
     0
100
AcDbSpline
210
0.0
220
0.0
230
1.0
 70
    11
 71
     3
 72
    20
 73
    16
 74
     0
 42
0.0000000001
 43
0.0000000001
 40
0.0
 40
0.0
 40
0.0
 40
0.0
 40
1.0
 40
1.0
 40
1.0
 40
2.0
 40
2.0
 40
2.0
 40
3.0
 40
3.0
 40
3.0
 40
4.0
 40
4.0
 40
4.0
 40
5.0
 40
5.0
 40
5.0
 40
5.0
 10
146.7112860418812
 20
-73.16211478205669
 30
0.0
 10
150.2459540097475
 20
-73.16211478205669
 30
0.0
 10
153.1110676700556
 20
-70.29665661220014
 30
0.0
 10
153.1110676700556
 20
-66.76198864433381
 30
0.0
 10
153.1110676700556
 20
-63.22749293124174
 30
0.0
 10
150.2459540097475
 20
-60.36203476138519
 30
0.0
 10
146.7112860418812
 20
-60.36203476138519
 30
0.0
 10
143.1766180740149
 20
-60.36203476138519
 30
0.0
 10
140.3109876493841
 20
-63.22749293124174
 30
0.0
 10
140.3109876493841
 20
-66.76198864433381
 30
0.0
 10
140.3109876493841
 20
-70.29665661220014
 30
0.0
 10
143.1766180740149
 20
-73.16211478205669
 30
0.0
 10
146.7112860418812
 20
-73.16211478205669
 30
0.0
 10
146.7112860418812
 20
-73.16211478205669
 30
0.0
 10
146.7112860418812
 20
-73.16211478205669
 30
0.0
 10
146.7112860418812
 20
-73.16211478205669
 30
0.0
  0
ENDBLK
  5
63
330
60
100
AcDbEntity
  8
0
100
AcDbBlockEnd
  0
BLOCK
  5
67
330
65
100
AcDbEntity
  8
0
100
AcDbBlockBegin
  2
block 4
 70
     0
 71
     0
 10
0.0
 20
0.0
 30
0.0
  3
block 4
  1

  0
SPLINE
  5
69
330
65
100
AcDbEntity
  8
\U+30EC\U+30A4\U+30E4\U+30FC 1
370
     0
100
AcDbSpline
210
0.0
220
0.0
230
1.0
 70
    11
 71
     3
 72
    20
 73
    16
 74
     0
 42
0.0000000001
 43
0.0000000001
 40
0.0
 40
0.0
 40
0.0
 40
0.0
 40
1.0
 40
1.0
 40
1.0
 40
2.0
 40
2.0
 40
2.0
 40
3.0
 40
3.0
 40
3.0
 40
4.0
 40
4.0
 40
4.0
 40
5.0
 40
5.0
 40
5.0
 40
5.0
 10
146.7112860418812
 20
-140.6618706245568
 30
0.0
 10
150.2459540097475
 20
-140.6618706245568
 30
0.0
 10
153.1110676700556
 20
-137.7965847094745
 30
0.0
 10
153.1110676700556
 20
-134.2619167416081
 30
0.0
 10
153.1110676700556
 20
-130.7275932832903
 30
0.0
 10
150.2459540097475
 20
-127.8619628586595
 30
0.0
 10
146.7112860418812
 20
-127.8619628586595
 30
0.0
 10
143.1766180740149
 20
-127.8619628586595
 30
0.0
 10
140.3109876493841
 20
-130.7275932832903
 30
0.0
 10
140.3109876493841
 20
-134.2619167416081
 30
0.0
 10
140.3109876493841
 20
-137.7965847094745
 30
0.0
 10
143.1766180740149
 20
-140.6618706245568
 30
0.0
 10
146.7112860418812
 20
-140.6618706245568
 30
0.0
 10
146.7112860418812
 20
-140.6618706245568
 30
0.0
 10
146.7112860418812
 20
-140.6618706245568
 30
0.0
 10
146.7112860418812
 20
-140.6618706245568
 30
0.0
  0
ENDBLK
  5
68
330
65
100
AcDbEntity
  8
0
100
AcDbBlockEnd
  0
BLOCK
  5
6C
330
6A
100
AcDbEntity
  8
0
100
AcDbBlockBegin
  2
block 5
 70
     0
 71
     0
 10
0.0
 20
0.0
 30
0.0
  3
block 5
  1

  0
SPLINE
  5
6E
330
6A
100
AcDbEntity
  8
\U+30EC\U+30A4\U+30E4\U+30FC 1
370
     0
100
AcDbSpline
210
0.0
220
0.0
230
1.0
 70
    11
 71
     3
 72
    20
 73
    16
 74
     0
 42
0.0000000001
 43
0.0000000001
 40
0.0
 40
0.0
 40
0.0
 40
0.0
 40
1.0
 40
1.0
 40
1.0
 40
2.0
 40
2.0
 40
2.0
 40
3.0
 40
3.0
 40
3.0
 40
4.0
 40
4.0
 40
4.0
 40
5.0
 40
5.0
 40
5.0
 40
5.0
 10
140.937650518151
 20
-112.0121120596706
 30
0.0
 10
141.7661959823536
 20
-112.0121120596706
 30
0.0
 10
142.4376450924288
 20
-111.3403184400469
 30
0.0
 10
142.4376450924288
 20
-110.5121174853928
 30
0.0
 10
142.4376450924288
 20
-109.6835720211902
 30
0.0
 10
141.7661959823536
 20
-109.012122911115
 30
0.0
 10
140.937650518151
 20
-109.012122911115
 30
0.0
 10
140.1091050539484
 20
-109.012122911115
 30
0.0
 10
139.4376559438732
 20
-109.6835720211902
 30
0.0
 10
139.4376559438732
 20
-110.5121174853928
 30
0.0
 10
139.4376559438732
 20
-111.3403184400469
 30
0.0
 10
140.1091050539484
 20
-112.0121120596706
 30
0.0
 10
140.937650518151
 20
-112.0121120596706
 30
0.0
 10
140.937650518151
 20
-112.0121120596706
 30
0.0
 10
140.937650518151
 20
-112.0121120596706
 30
0.0
 10
140.937650518151
 20
-112.0121120596706
 30
0.0
  0
ENDBLK
  5
6D
330
6A
100
AcDbEntity
  8
0
100
AcDbBlockEnd
  0
BLOCK
  5
71
330
6F
100
AcDbEntity
  8
0
100
AcDbBlockBegin
  2
block 6
 70
     0
 71
     0
 10
0.0
 20
0.0
 30
0.0
  3
block 6
  1

  0
SPLINE
  5
73
330
6F
100
AcDbEntity
  8
\U+30EC\U+30A4\U+30E4\U+30FC 1
370
     0
100
AcDbSpline
210
0.0
220
0.0
230
1.0
 70
    11
 71
     3
 72
    20
 73
    16
 74
     0
 42
0.0000000001
 43
0.0000000001
 40
0.0
 40
0.0
 40
0.0
 40
0.0
 40
1.0
 40
1.0
 40
1.0
 40
2.0
 40
2.0
 40
2.0
 40
3.0
 40
3.0
 40
3.0
 40
4.0
 40
4.0
 40
4.0
 40
5.0
 40
5.0
 40
5.0
 40
5.0
 10
140.937650518151
 20
-92.01195472960119
 30
0.0
 10
141.7661959823536
 20
-92.01195472960119
 30
0.0
 10
142.4376450924288
 20
-91.34050561952598
 30
0.0
 10
142.4376450924288
 20
-90.51196015532341
 30
0.0
 10
142.4376450924288
 20
-89.68358694589507
 30
0.0
 10
141.7661959823536
 20
-89.01196558104563
 30
0.0
 10
140.937650518151
 20
-89.01196558104563
 30
0.0
 10
140.1091050539484
 20
-89.01196558104563
 30
0.0
 10
139.4376559438732
 20
-89.68358694589507
 30
0.0
 10
139.4376559438732
 20
-90.51196015532341
 30
0.0
 10
139.4376559438732
 20
-91.34050561952598
 30
0.0
 10
140.1091050539484
 20
-92.01195472960119
 30
0.0
 10
140.937650518151
 20
-92.01195472960119
 30
0.0
 10
140.937650518151
 20
-92.01195472960119
 30
0.0
 10
140.937650518151
 20
-92.01195472960119
 30
0.0
 10
140.937650518151
 20
-92.01195472960119
 30
0.0
  0
ENDBLK
  5
72
330
6F
100
AcDbEntity
  8
0
100
AcDbBlockEnd
  0
BLOCK
  5
76
330
74
100
AcDbEntity
  8
0
100
AcDbBlockBegin
  2
block 7
 70
     0
 71
     0
 10
0.0
 20
0.0
 30
0.0
  3
block 7
  1

  0
SPLINE
  5
78
330
74
100
AcDbEntity
  8
\U+30EC\U+30A4\U+30E4\U+30FC 1
370
     0
100
AcDbSpline
210
0.0
220
0.0
230
1.0
 70
    11
 71
     3
 72
    20
 73
    16
 74
     0
 42
0.0000000001
 43
0.0000000001
 40
0.0
 40
0.0
 40
0.0
 40
0.0
 40
1.0
 40
1.0
 40
1.0
 40
2.0
 40
2.0
 40
2.0
 40
3.0
 40
3.0
 40
3.0
 40
4.0
 40
4.0
 40
4.0
 40
5.0
 40
5.0
 40
5.0
 40
5.0
 10
158.2580403250188
 20
-97.90875241692906
 30
0.0
 10
159.0869302987699
 20
-97.90875241692906
 30
0.0
 10
159.7580348992966
 20
-97.23730330685387
 30
0.0
 10
159.7580348992966
 20
-96.40875784265128
 30
0.0
 10
159.7580348992966
 20
-95.58038463322296
 30
0.0
 10
159.0869302987699
 20
-94.9087632683735
 30
0.0
 10
158.2580403250188
 20
-94.9087632683735
 30
0.0
 10
157.4298393703648
 20
-94.9087632683735
 30
0.0
 10
156.758045750741
 20
-95.58038463322296
 30
0.0
 10
156.758045750741
 20
-96.40875784265128
 30
0.0
 10
156.758045750741
 20
-97.23730330685387
 30
0.0
 10
157.4298393703648
 20
-97.90875241692906
 30
0.0
 10
158.2580403250188
 20
-97.90875241692906
 30
0.0
 10
158.2580403250188
 20
-97.90875241692906
 30
0.0
 10
158.2580403250188
 20
-97.90875241692906
 30
0.0
 10
158.2580403250188
 20
-97.90875241692906
 30
0.0
  0
ENDBLK
  5
77
330
74
100
AcDbEntity
  8
0
100
AcDbBlockEnd
  0
BLOCK
  5
7B
330
79
100
AcDbEntity
  8
0
100
AcDbBlockBegin
  2
block 8
 70
     0
 71
     0
 10
0.0
 20
0.0
 30
0.0
  3
block 8
  1

  0
SPLINE
  5
7D
330
79
100
AcDbEntity
  8
\U+30EC\U+30A4\U+30E4\U+30FC 1
370
     0
100
AcDbSpline
210
0.0
220
0.0
230
1.0
 70
    11
 71
     3
 72
    20
 73
    16
 74
     0
 42
0.0000000001
 43
0.0000000001
 40
0.0
 40
0.0
 40
0.0
 40
0.0
 40
1.0
 40
1.0
 40
1.0
 40
2.0
 40
2.0
 40
2.0
 40
3.0
 40
3.0
 40
3.0
 40
4.0
 40
4.0
 40
4.0
 40
5.0
 40
5.0
 40
5.0
 40
5.0
 10
76.81098766525906
 20
-137.0121364674831
 30
0.0
 10
77.63953312946165
 20
-137.0121364674831
 30
0.0
 10
78.31098223953684
 20
-136.3403428478594
 30
0.0
 10
78.31098223953684
 20
-135.5121418932053
 30
0.0
 10
78.31098223953684
 20
-134.6835964290027
 30
0.0
 10
77.63953312946165
 20
-134.0121473189275
 30
0.0
 10
76.81098766525906
 20
-134.0121473189275
 30
0.0
 10
75.982786710605
 20
-134.0121473189275
 30
0.0
 10
75.31099309098128
 20
-134.6835964290027
 30
0.0
 10
75.31099309098128
 20
-135.5121418932053
 30
0.0
 10
75.31099309098128
 20
-136.3403428478594
 30
0.0
 10
75.982786710605
 20
-137.0121364674831
 30
0.0
 10
76.81098766525906
 20
-137.0121364674831
 30
0.0
 10
76.81098766525906
 20
-137.0121364674831
 30
0.0
 10
76.81098766525906
 20
-137.0121364674831
 30
0.0
 10
76.81098766525906
 20
-137.0121364674831
 30
0.0
  0
ENDBLK
  5
7C
330
79
100
AcDbEntity
  8
0
100
AcDbBlockEnd
  0
BLOCK
  5
80
330
7E
100
AcDbEntity
  8
0
100
AcDbBlockBegin
  2
block 9
 70
     0
 71
     0
 10
0.0
 20
0.0
 30
0.0
  3
block 9
  1

  0
SPLINE
  5
82
330
7E
100
AcDbEntity
  8
\U+30EC\U+30A4\U+30E4\U+30FC 1
370
     0
100
AcDbSpline
210
0.0
220
0.0
230
1.0
 70
    11
 71
     3
 72
    20
 73
    16
 74
     0
 42
0.0000000001
 43
0.0000000001
 40
0.0
 40
0.0
 40
0.0
 40
0.0
 40
1.0
 40
1.0
 40
1.0
 40
2.0
 40
2.0
 40
2.0
 40
3.0
 40
3.0
 40
3.0
 40
4.0
 40
4.0
 40
4.0
 40
5.0
 40
5.0
 40
5.0
 40
5.0
 10
107.8113348797312
 20
-137.0121364674831
 30
0.0
 10
108.6395358343853
 20
-137.0121364674831
 30
0.0
 10
109.311329454009
 20
-136.3403428478594
 30
0.0
 10
109.311329454009
 20
-135.5121418932053
 30
0.0
 10
109.311329454009
 20
-134.6835964290027
 30
0.0
 10
108.6395358343853
 20
-134.0121473189275
 30
0.0
 10
107.8113348797312
 20
-134.0121473189275
 30
0.0
 10
106.9827894155286
 20
-134.0121473189275
 30
0.0
 10
106.3113403054534
 20
-134.6835964290027
 30
0.0
 10
106.3113403054534
 20
-135.5121418932053
 30
0.0
 10
106.3113403054534
 20
-136.3403428478594
 30
0.0
 10
106.9827894155286
 20
-137.0121364674831
 30
0.0
 10
107.8113348797312
 20
-137.0121364674831
 30
0.0
 10
107.8113348797312
 20
-137.0121364674831
 30
0.0
 10
107.8113348797312
 20
-137.0121364674831
 30
0.0
 10
107.8113348797312
 20
-137.0121364674831
 30
0.0
  0
ENDBLK
  5
81
330
7E
100
AcDbEntity
  8
0
100
AcDbBlockEnd
  0
BLOCK
  5
85
330
83
100
AcDbEntity
  8
0
100
AcDbBlockBegin
  2
block 10
 70
     0
 71
     0
 10
0.0
 20
0.0
 30
0.0
  3
block 10
  1

  0
SPLINE
  5
87
330
83
100
AcDbEntity
  8
\U+30EC\U+30A4\U+30E4\U+30FC 1
370
     0
100
AcDbSpline
210
0.0
220
0.0
230
1.0
 70
    11
 71
     3
 72
    20
 73
    16
 74
     0
 42
0.0000000001
 43
0.0000000001
 40
0.0
 40
0.0
 40
0.0
 40
0.0
 40
1.0
 40
1.0
 40
1.0
 40
2.0
 40
2.0
 40
2.0
 40
3.0
 40
3.0
 40
3.0
 40
4.0
 40
4.0
 40
4.0
 40
5.0
 40
5.0
 40
5.0
 40
5.0
 10
76.81098766525906
 20
-106.0121337625595
 30
0.0
 10
77.63953312946165
 20
-106.0121337625595
 30
0.0
 10
78.31098223953684
 20
-105.3403401429358
 30
0.0
 10
78.31098223953684
 20
-104.5121391882817
 30
0.0
 10
78.31098223953684
 20
-103.6835937240791
 30
0.0
 10
77.63953312946165
 20
-103.0121446140039
 30
0.0
 10
76.81098766525906
 20
-103.0121446140039
 30
0.0
 10
75.982786710605
 20
-103.0121446140039
 30
0.0
 10
75.31099309098128
 20
-103.6835937240791
 30
0.0
 10
75.31099309098128
 20
-104.5121391882817
 30
0.0
 10
75.31099309098128
 20
-105.3403401429358
 30
0.0
 10
75.982786710605
 20
-106.0121337625595
 30
0.0
 10
76.81098766525906
 20
-106.0121337625595
 30
0.0
 10
76.81098766525906
 20
-106.0121337625595
 30
0.0
 10
76.81098766525906
 20
-106.0121337625595
 30
0.0
 10
76.81098766525906
 20
-106.0121337625595
 30
0.0
  0
ENDBLK
  5
86
330
83
100
AcDbEntity
  8
0
100
AcDbBlockEnd
  0
BLOCK
  5
8A
330
88
100
AcDbEntity
  8
0
100
AcDbBlockBegin
  2
block 11
 70
     0
 71
     0
 10
0.0
 20
0.0
 30
0.0
  3
block 11
  1

  0
SPLINE
  5
8C
330
88
100
AcDbEntity
  8
\U+30EC\U+30A4\U+30E4\U+30FC 1
370
     0
100
AcDbSpline
210
0.0
220
0.0
230
1.0
 70
    11
 71
     3
 72
    20
 73
    16
 74
     0
 42
0.0000000001
 43
0.0000000001
 40
0.0
 40
0.0
 40
0.0
 40
0.0
 40
1.0
 40
1.0
 40
1.0
 40
2.0
 40
2.0
 40
2.0
 40
3.0
 40
3.0
 40
3.0
 40
4.0
 40
4.0
 40
4.0
 40
5.0
 40
5.0
 40
5.0
 40
5.0
 10
107.8113348797312
 20
-106.0121337625595
 30
0.0
 10
108.6395358343853
 20
-106.0121337625595
 30
0.0
 10
109.311329454009
 20
-105.3403401429358
 30
0.0
 10
109.311329454009
 20
-104.5121391882817
 30
0.0
 10
109.311329454009
 20
-103.6835937240791
 30
0.0
 10
108.6395358343853
 20
-103.0121446140039
 30
0.0
 10
107.8113348797312
 20
-103.0121446140039
 30
0.0
 10
106.9827894155286
 20
-103.0121446140039
 30
0.0
 10
106.3113403054534
 20
-103.6835937240791
 30
0.0
 10
106.3113403054534
 20
-104.5121391882817
 30
0.0
 10
106.3113403054534
 20
-105.3403401429358
 30
0.0
 10
106.9827894155286
 20
-106.0121337625595
 30
0.0
 10
107.8113348797312
 20
-106.0121337625595
 30
0.0
 10
107.8113348797312
 20
-106.0121337625595
 30
0.0
 10
107.8113348797312
 20
-106.0121337625595
 30
0.0
 10
107.8113348797312
 20
-106.0121337625595
 30
0.0
  0
ENDBLK
  5
8B
330
88
100
AcDbEntity
  8
0
100
AcDbBlockEnd
  0
BLOCK
  5
8F
330
8D
100
AcDbEntity
  8
0
100
AcDbBlockBegin
  2
block 12
 70
     0
 71
     0
 10
0.0
 20
0.0
 30
0.0
  3
block 12
  1

  0
POLYLINE
  5
91
330
8D
100
AcDbEntity
  8
\U+30EC\U+30A4\U+30E4\U+30FC 1
370
     0
100
AcDb2dPolyline
 66
     1
 10
0.0
 20
0.0
 30
0.0
  0
VERTEX
  5
92
330
91
100
AcDbEntity
  8
\U+30EC\U+30A4\U+30E4\U+30FC 1
370
     0
100
AcDbVertex
100
AcDb2dVertex
 10
11.05565592171525
 20
-7.861707897340129
 30
0.0
  0
VERTEX
  5
93
330
91
100
AcDbEntity
  8
\U+30EC\U+30A4\U+30E4\U+30FC 1
370
     0
100
AcDbVertex
100
AcDb2dVertex
 10
47.05569795915622
 20
-7.861707897340129
 30
0.0
  0
VERTEX
  5
94
330
91
100
AcDbEntity
  8
\U+30EC\U+30A4\U+30E4\U+30FC 1
370
     0
100
AcDbVertex
100
AcDb2dVertex
 10
47.05569795915622
 20
-11.86215277481224
 30
0.0
  0
VERTEX
  5
95
330
91
100
AcDbEntity
  8
\U+30EC\U+30A4\U+30E4\U+30FC 1
370
     0
100
AcDbVertex
100
AcDb2dVertex
 10
29.0555908130486
 20
-11.86215277481224
 30
0.0
  0
VERTEX
  5
96
330
91
100
AcDbEntity
  8
\U+30EC\U+30A4\U+30E4\U+30FC 1
370
     0
100
AcDbVertex
100
AcDb2dVertex
 10
29.0555908130486
 20
-16.56195203579007
 30
0.0
  0
VERTEX
  5
97
330
91
100
AcDbEntity
  8
\U+30EC\U+30A4\U+30E4\U+30FC 1
370
     0
100
AcDbVertex
100
AcDb2dVertex
 10
47.05569795915622
 20
-16.56195203579007
 30
0.0
  0
VERTEX
  5
98
330
91
100
AcDbEntity
  8
\U+30EC\U+30A4\U+30E4\U+30FC 1
370
     0
100
AcDbVertex
100
AcDb2dVertex
 10
47.05569795915622
 20
-45.3620890186074
 30
0.0
  0
VERTEX
  5
99
330
91
100
AcDbEntity
  8
\U+30EC\U+30A4\U+30E4\U+30FC 1
370
     0
100
AcDbVertex
100
AcDb2dVertex
 10
62.05564370193401
 20
-45.3620890186074
 30
0.0
  0
VERTEX
  5
9A
330
91
100
AcDbEntity
  8
\U+30EC\U+30A4\U+30E4\U+30FC 1
370
     0
100
AcDbVertex
100
AcDb2dVertex
 10
62.05564370193401
 20
-20.3620646107949
 30
0.0
  0
VERTEX
  5
9B
330
91
100
AcDbEntity
  8
\U+30EC\U+30A4\U+30E4\U+30FC 1
370
     0
100
AcDbVertex
100
AcDb2dVertex
 10
81.55557316754513
 20
-20.3620646107949
 30
0.0
  0
VERTEX
  5
9C
330
91
100
AcDbEntity
  8
\U+30EC\U+30A4\U+30E4\U+30FC 1
370
     0
100
AcDbVertex
100
AcDb2dVertex
 10
81.55557316754513
 20
-45.3620890186074
 30
0.0
  0
VERTEX
  5
9D
330
91
100
AcDbEntity
  8
\U+30EC\U+30A4\U+30E4\U+30FC 1
370
     0
100
AcDbVertex
100
AcDb2dVertex
 10
88.55549042925001
 20
-45.3620890186074
 30
0.0
  0
VERTEX
  5
9E
330
91
100
AcDbEntity
  8
\U+30EC\U+30A4\U+30E4\U+30FC 1
370
     0
100
AcDbVertex
100
AcDb2dVertex
 10
88.55549042925001
 20
-20.3620646107949
 30
0.0
  0
VERTEX
  5
9F
330
91
100
AcDbEntity
  8
\U+30EC\U+30A4\U+30E4\U+30FC 1
370
     0
100
AcDbVertex
100
AcDb2dVertex
 10
108.0557644044097
 20
-20.3620646107949
 30
0.0
  0
VERTEX
  5
A0
330
91
100
AcDbEntity
  8
\U+30EC\U+30A4\U+30E4\U+30FC 1
370
     0
100
AcDbVertex
100
AcDb2dVertex
 10
108.0557644044097
 20
-45.3620890186074
 30
0.0
  0
VERTEX
  5
A1
330
91
100
AcDbEntity
  8
\U+30EC\U+30A4\U+30E4\U+30FC 1
370
     0
100
AcDbVertex
100
AcDb2dVertex
 10
122.0555989278194
 20
-45.3620890186074
 30
0.0
  0
VERTEX
  5
A2
330
91
100
AcDbEntity
  8
\U+30EC\U+30A4\U+30E4\U+30FC 1
370
     0
100
AcDbVertex
100
AcDb2dVertex
 10
122.0555989278194
 20
-65.66196965589354
 30
0.0
  0
VERTEX
  5
A3
330
91
100
AcDbEntity
  8
\U+30EC\U+30A4\U+30E4\U+30FC 1
370
     0
100
AcDbVertex
100
AcDb2dVertex
 10
84.55573457087496
 20
-65.66196965589354
 30
0.0
  0
VERTEX
  5
A4
330
91
100
AcDbEntity
  8
\U+30EC\U+30A4\U+30E4\U+30FC 1
370
     0
100
AcDbVertex
100
AcDb2dVertex
 10
84.55573457087496
 20
-70.3621134264199
 30
0.0
  0
VERTEX
  5
A5
330
91
100
AcDbEntity
  8
\U+30EC\U+30A4\U+30E4\U+30FC 1
370
     0
100
AcDbVertex
100
AcDb2dVertex
 10
122.0555989278194
 20
-70.3621134264199
 30
0.0
  0
VERTEX
  5
A6
330
91
100
AcDbEntity
  8
\U+30EC\U+30A4\U+30E4\U+30FC 1
370
     0
100
AcDbVertex
100
AcDb2dVertex
 10
122.0555989278194
 20
-75.36198050416299
 30
0.0
  0
VERTEX
  5
A7
330
91
100
AcDbEntity
  8
\U+30EC\U+30A4\U+30E4\U+30FC 1
370
     0
100
AcDbVertex
100
AcDb2dVertex
 10
62.05564370193401
 20
-75.36198050416299
 30
0.0
  0
VERTEX
  5
A8
330
91
100
AcDbEntity
  8
\U+30EC\U+30A4\U+30E4\U+30FC 1
370
     0
100
AcDbVertex
100
AcDb2dVertex
 10
47.05569795915622
 20
-75.36198050416299
 30
0.0
  0
VERTEX
  5
A9
330
91
100
AcDbEntity
  8
\U+30EC\U+30A4\U+30E4\U+30FC 1
370
     0
100
AcDbVertex
100
AcDb2dVertex
 10
47.05569795915622
 20
-104.1619452322061
 30
0.0
  0
VERTEX
  5
AA
330
91
100
AcDbEntity
  8
\U+30EC\U+30A4\U+30E4\U+30FC 1
370
     0
100
AcDbVertex
100
AcDb2dVertex
 10
29.0555908130486
 20
-104.1619452322061
 30
0.0
  0
VERTEX
  5
AB
330
91
100
AcDbEntity
  8
\U+30EC\U+30A4\U+30E4\U+30FC 1
370
     0
100
AcDbVertex
100
AcDb2dVertex
 10
29.0555908130486
 20
-108.8620890027324
 30
0.0
  0
VERTEX
  5
AC
330
91
100
AcDbEntity
  8
\U+30EC\U+30A4\U+30E4\U+30FC 1
370
     0
100
AcDbVertex
100
AcDb2dVertex
 10
47.05569795915622
 20
-108.8620890027324
 30
0.0
  0
VERTEX
  5
AD
330
91
100
AcDbEntity
  8
\U+30EC\U+30A4\U+30E4\U+30FC 1
370
     0
100
AcDbVertex
100
AcDb2dVertex
 10
47.05569795915622
 20
-112.8620171158817
 30
0.0
  0
VERTEX
  5
AE
330
91
100
AcDbEntity
  8
\U+30EC\U+30A4\U+30E4\U+30FC 1
370
     0
100
AcDbVertex
100
AcDb2dVertex
 10
11.05565592171525
 20
-112.8620171158817
 30
0.0
  0
VERTEX
  5
AF
330
91
100
AcDbEntity
  8
\U+30EC\U+30A4\U+30E4\U+30FC 1
370
     0
100
AcDbVertex
100
AcDb2dVertex
 10
11.05565592171525
 20
-7.861707897340129
 30
0.0
  0
SEQEND
  5
B0
330
91
100
AcDbEntity
  8
\U+30EC\U+30A4\U+30E4\U+30FC 1
370
     0
  0
ENDBLK
  5
90
330
8D
100
AcDbEntity
  8
0
100
AcDbBlockEnd
  0
BLOCK
  5
B3
330
B1
100
AcDbEntity
  8
0
100
AcDbBlockBegin
  2
block 13
 70
     0
 71
     0
 10
0.0
 20
0.0
 30
0.0
  3
block 13
  1

  0
SPLINE
  5
B5
330
B1
100
AcDbEntity
  8
\U+30EC\U+30A4\U+30E4\U+30FC 1
370
     0
100
AcDbSpline
210
0.0
220
0.0
230
1.0
 70
    11
 71
     3
 72
    20
 73
    16
 74
     0
 42
0.0000000001
 43
0.0000000001
 40
0.0
 40
0.0
 40
0.0
 40
0.0
 40
1.0
 40
1.0
 40
1.0
 40
2.0
 40
2.0
 40
2.0
 40
3.0
 40
3.0
 40
3.0
 40
4.0
 40
4.0
 40
4.0
 40
5.0
 40
5.0
 40
5.0
 40
5.0
 10
30.65566541117289
 20
-87.7119587996866
 30
0.0
 10
27.12099744330656
 20
-87.7119587996866
 30
0.0
 10
24.25553927345
 20
-90.57741696954315
 30
0.0
 10
24.25553927345
 20
-94.11208493740948
 30
0.0
 10
24.25553927345
 20
-97.64658065050155
 30
0.0
 10
27.12099744330656
 20
-100.5120388203581
 30
0.0
 10
30.65566541117289
 20
-100.5120388203581
 30
0.0
 10
34.19016112426496
 20
-100.5120388203581
 30
0.0
 10
37.05561929412151
 20
-97.64658065050155
 30
0.0
 10
37.05561929412151
 20
-94.11208493740948
 30
0.0
 10
37.05561929412151
 20
-90.57741696954315
 30
0.0
 10
34.19016112426496
 20
-87.7119587996866
 30
0.0
 10
30.65566541117289
 20
-87.7119587996866
 30
0.0
 10
30.65566541117289
 20
-87.7119587996866
 30
0.0
 10
30.65566541117289
 20
-87.7119587996866
 30
0.0
 10
30.65566541117289
 20
-87.7119587996866
 30
0.0
  0
ENDBLK
  5
B4
330
B1
100
AcDbEntity
  8
0
100
AcDbBlockEnd
  0
BLOCK
  5
B8
330
B6
100
AcDbEntity
  8
0
100
AcDbBlockBegin
  2
block 14
 70
     0
 71
     0
 10
0.0
 20
0.0
 30
0.0
  3
block 14
  1

  0
SPLINE
  5
BA
330
B6
100
AcDbEntity
  8
\U+30EC\U+30A4\U+30E4\U+30FC 1
370
     0
100
AcDbSpline
210
0.0
220
0.0
230
1.0
 70
    11
 71
     3
 72
    20
 73
    16
 74
     0
 42
0.0000000001
 43
0.0000000001
 40
0.0
 40
0.0
 40
0.0
 40
0.0
 40
1.0
 40
1.0
 40
1.0
 40
2.0
 40
2.0
 40
2.0
 40
3.0
 40
3.0
 40
3.0
 40
4.0
 40
4.0
 40
4.0
 40
5.0
 40
5.0
 40
5.0
 40
5.0
 10
30.65566541117289
 20
-20.21220295718653
 30
0.0
 10
27.12099744330656
 20
-20.21220295718653
 30
0.0
 10
24.25553927345
 20
-23.07748887226882
 30
0.0
 10
24.25553927345
 20
-26.61215684013516
 30
0.0
 10
24.25553927345
 20
-30.14648029845296
 30
0.0
 10
27.12099744330656
 20
-33.01211072308378
 30
0.0
 10
30.65566541117289
 20
-33.01211072308378
 30
0.0
 10
34.19016112426496
 20
-33.01211072308378
 30
0.0
 10
37.05561929412151
 20
-30.14648029845296
 30
0.0
 10
37.05561929412151
 20
-26.61215684013516
 30
0.0
 10
37.05561929412151
 20
-23.07748887226882
 30
0.0
 10
34.19016112426496
 20
-20.21220295718653
 30
0.0
 10
30.65566541117289
 20
-20.21220295718653
 30
0.0
 10
30.65566541117289
 20
-20.21220295718653
 30
0.0
 10
30.65566541117289
 20
-20.21220295718653
 30
0.0
 10
30.65566541117289
 20
-20.21220295718653
 30
0.0
  0
ENDBLK
  5
B9
330
B6
100
AcDbEntity
  8
0
100
AcDbBlockEnd
  0
BLOCK
  5
BD
330
BB
100
AcDbEntity
  8
0
100
AcDbBlockBegin
  2
block 15
 70
     0
 71
     0
 10
0.0
 20
0.0
 30
0.0
  3
block 15
  1

  0
SPLINE
  5
BF
330
BB
100
AcDbEntity
  8
\U+30EC\U+30A4\U+30E4\U+30FC 1
370
     0
100
AcDbSpline
210
0.0
220
0.0
230
1.0
 70
    11
 71
     3
 72
    20
 73
    16
 74
     0
 42
0.0000000001
 43
0.0000000001
 40
0.0
 40
0.0
 40
0.0
 40
0.0
 40
1.0
 40
1.0
 40
1.0
 40
2.0
 40
2.0
 40
2.0
 40
3.0
 40
3.0
 40
3.0
 40
4.0
 40
4.0
 40
4.0
 40
5.0
 40
5.0
 40
5.0
 40
5.0
 10
36.42912868012883
 20
-48.8619615220727
 30
0.0
 10
35.60075547070051
 20
-48.8619615220727
 30
0.0
 10
34.92913410585105
 20
-49.53375514169642
 30
0.0
 10
34.92913410585105
 20
-50.36195609635048
 30
0.0
 10
34.92913410585105
 20
-51.19050156055307
 30
0.0
 10
35.60075547070051
 20
-51.86195067062827
 30
0.0
 10
36.42912868012883
 20
-51.86195067062827
 30
0.0
 10
37.25750188955715
 20
-51.86195067062827
 30
0.0
 10
37.92912325440661
 20
-51.19050156055307
 30
0.0
 10
37.92912325440661
 20
-50.36195609635048
 30
0.0
 10
37.92912325440661
 20
-49.53375514169642
 30
0.0
 10
37.25750188955715
 20
-48.8619615220727
 30
0.0
 10
36.42912868012883
 20
-48.8619615220727
 30
0.0
 10
36.42912868012883
 20
-48.8619615220727
 30
0.0
 10
36.42912868012883
 20
-48.8619615220727
 30
0.0
 10
36.42912868012883
 20
-48.8619615220727
 30
0.0
  0
ENDBLK
  5
BE
330
BB
100
AcDbEntity
  8
0
100
AcDbBlockEnd
  0
BLOCK
  5
C2
330
C0
100
AcDbEntity
  8
0
100
AcDbBlockBegin
  2
block 16
 70
     0
 71
     0
 10
0.0
 20
0.0
 30
0.0
  3
block 16
  1

  0
SPLINE
  5
C4
330
C0
100
AcDbEntity
  8
\U+30EC\U+30A4\U+30E4\U+30FC 1
370
     0
100
AcDbSpline
210
0.0
220
0.0
230
1.0
 70
    11
 71
     3
 72
    20
 73
    16
 74
     0
 42
0.0000000001
 43
0.0000000001
 40
0.0
 40
0.0
 40
0.0
 40
0.0
 40
1.0
 40
1.0
 40
1.0
 40
2.0
 40
2.0
 40
2.0
 40
3.0
 40
3.0
 40
3.0
 40
4.0
 40
4.0
 40
4.0
 40
5.0
 40
5.0
 40
5.0
 40
5.0
 10
36.42912868012883
 20
-68.86211885214212
 30
0.0
 10
35.60075547070051
 20
-68.86211885214212
 30
0.0
 10
34.92913410585105
 20
-69.5335679622173
 30
0.0
 10
34.92913410585105
 20
-70.3621134264199
 30
0.0
 10
34.92913410585105
 20
-71.19048663584822
 30
0.0
 10
35.60075547070051
 20
-71.86210800069767
 30
0.0
 10
36.42912868012883
 20
-71.86210800069767
 30
0.0
 10
37.25750188955715
 20
-71.86210800069767
 30
0.0
 10
37.92912325440661
 20
-71.19048663584822
 30
0.0
 10
37.92912325440661
 20
-70.3621134264199
 30
0.0
 10
37.92912325440661
 20
-69.5335679622173
 30
0.0
 10
37.25750188955715
 20
-68.86211885214212
 30
0.0
 10
36.42912868012883
 20
-68.86211885214212
 30
0.0
 10
36.42912868012883
 20
-68.86211885214212
 30
0.0
 10
36.42912868012883
 20
-68.86211885214212
 30
0.0
 10
36.42912868012883
 20
-68.86211885214212
 30
0.0
  0
ENDBLK
  5
C3
330
C0
100
AcDbEntity
  8
0
100
AcDbBlockEnd
  0
BLOCK
  5
C7
330
C5
100
AcDbEntity
  8
0
100
AcDbBlockBegin
  2
block 17
 70
     0
 71
     0
 10
0.0
 20
0.0
 30
0.0
  3
block 17
  1

  0
SPLINE
  5
C9
330
C5
100
AcDbEntity
  8
\U+30EC\U+30A4\U+30E4\U+30FC 1
370
     0
100
AcDbSpline
210
0.0
220
0.0
230
1.0
 70
    11
 71
     3
 72
    20
 73
    16
 74
     0
 42
0.0000000001
 43
0.0000000001
 40
0.0
 40
0.0
 40
0.0
 40
0.0
 40
1.0
 40
1.0
 40
1.0
 40
2.0
 40
2.0
 40
2.0
 40
3.0
 40
3.0
 40
3.0
 40
4.0
 40
4.0
 40
4.0
 40
5.0
 40
5.0
 40
5.0
 40
5.0
 10
19.10856661848675
 20
-58.86204018710741
 30
0.0
 10
18.28019340905842
 20
-58.86204018710741
 30
0.0
 10
17.60857204420897
 20
-59.53348929718261
 30
0.0
 10
17.60857204420897
 20
-60.36203476138519
 30
0.0
 10
17.60857204420897
 20
-61.19040797081351
 30
0.0
 10
18.28019340905842
 20
-61.86202933566297
 30
0.0
 10
19.10856661848675
 20
-61.86202933566297
 30
0.0
 10
19.93711208268934
 20
-61.86202933566297
 30
0.0
 10
20.60856119276453
 20
-61.19040797081351
 30
0.0
 10
20.60856119276453
 20
-60.36203476138519
 30
0.0
 10
20.60856119276453
 20
-59.53348929718261
 30
0.0
 10
19.93711208268934
 20
-58.86204018710741
 30
0.0
 10
19.10856661848675
 20
-58.86204018710741
 30
0.0
 10
19.10856661848675
 20
-58.86204018710741
 30
0.0
 10
19.10856661848675
 20
-58.86204018710741
 30
0.0
 10
19.10856661848675
 20
-58.86204018710741
 30
0.0
  0
ENDBLK
  5
C8
330
C5
100
AcDbEntity
  8
0
100
AcDbBlockEnd
  0
BLOCK
  5
CC
330
CA
100
AcDbEntity
  8
0
100
AcDbBlockBegin
  2
block 18
 70
     0
 71
     0
 10
0.0
 20
0.0
 30
0.0
  3
block 18
  1

  0
SPLINE
  5
CE
330
CA
100
AcDbEntity
  8
\U+30EC\U+30A4\U+30E4\U+30FC 1
370
     0
100
AcDbSpline
210
0.0
220
0.0
230
1.0
 70
    11
 71
     3
 72
    20
 73
    16
 74
     0
 42
0.0000000001
 43
0.0000000001
 40
0.0
 40
0.0
 40
0.0
 40
0.0
 40
1.0
 40
1.0
 40
1.0
 40
2.0
 40
2.0
 40
2.0
 40
3.0
 40
3.0
 40
3.0
 40
4.0
 40
4.0
 40
4.0
 40
5.0
 40
5.0
 40
5.0
 40
5.0
 10
100.5557915330208
 20
-23.86193711426021
 30
0.0
 10
99.72724606881819
 20
-23.86193711426021
 30
0.0
 10
99.055796958743
 20
-24.53373073388393
 30
0.0
 10
99.055796958743
 20
-25.36193168853799
 30
0.0
 10
99.055796958743
 20
-26.19047715274058
 30
0.0
 10
99.72724606881819
 20
-26.86192626281577
 30
0.0
 10
100.5557915330208
 20
-26.86192626281577
 30
0.0
 10
101.3839924876748
 20
-26.86192626281577
 30
0.0
 10
102.0557861072986
 20
-26.19047715274058
 30
0.0
 10
102.0557861072986
 20
-25.36193168853799
 30
0.0
 10
102.0557861072986
 20
-24.53373073388393
 30
0.0
 10
101.3839924876748
 20
-23.86193711426021
 30
0.0
 10
100.5557915330208
 20
-23.86193711426021
 30
0.0
 10
100.5557915330208
 20
-23.86193711426021
 30
0.0
 10
100.5557915330208
 20
-23.86193711426021
 30
0.0
 10
100.5557915330208
 20
-23.86193711426021
 30
0.0
  0
ENDBLK
  5
CD
330
CA
100
AcDbEntity
  8
0
100
AcDbBlockEnd
  0
BLOCK
  5
D1
330
CF
100
AcDbEntity
  8
0
100
AcDbBlockBegin
  2
block 19
 70
     0
 71
     0
 10
0.0
 20
0.0
 30
0.0
  3
block 19
  1

  0
SPLINE
  5
D3
330
CF
100
AcDbEntity
  8
\U+30EC\U+30A4\U+30E4\U+30FC 1
370
     0
100
AcDbSpline
210
0.0
220
0.0
230
1.0
 70
    11
 71
     3
 72
    20
 73
    16
 74
     0
 42
0.0000000001
 43
0.0000000001
 40
0.0
 40
0.0
 40
0.0
 40
0.0
 40
1.0
 40
1.0
 40
1.0
 40
2.0
 40
2.0
 40
2.0
 40
3.0
 40
3.0
 40
3.0
 40
4.0
 40
4.0
 40
4.0
 40
5.0
 40
5.0
 40
5.0
 40
5.0
 10
69.55561657332291
 20
-23.86193711426021
 30
0.0
 10
68.72724336389459
 20
-23.86193711426021
 30
0.0
 10
68.05562199904513
 20
-24.53373073388393
 30
0.0
 10
68.05562199904513
 20
-25.36193168853799
 30
0.0
 10
68.05562199904513
 20
-26.19047715274058
 30
0.0
 10
68.72724336389459
 20
-26.86192626281577
 30
0.0
 10
69.55561657332291
 20
-26.86192626281577
 30
0.0
 10
70.38398978275123
 20
-26.86192626281577
 30
0.0
 10
71.05561114760069
 20
-26.19047715274058
 30
0.0
 10
71.05561114760069
 20
-25.36193168853799
 30
0.0
 10
71.05561114760069
 20
-24.53373073388393
 30
0.0
 10
70.38398978275123
 20
-23.86193711426021
 30
0.0
 10
69.55561657332291
 20
-23.86193711426021
 30
0.0
 10
69.55561657332291
 20
-23.86193711426021
 30
0.0
 10
69.55561657332291
 20
-23.86193711426021
 30
0.0
 10
69.55561657332291
 20
-23.86193711426021
 30
0.0
  0
ENDBLK
  5
D2
330
CF
100
AcDbEntity
  8
0
100
AcDbBlockEnd
  0
BLOCK
  5
D6
330
D4
100
AcDbEntity
  8
0
100
AcDbBlockBegin
  2
block 20
 70
     0
 71
     0
 10
0.0
 20
0.0
 30
0.0
  3
block 20
  1

  0
SPLINE
  5
D8
330
D4
100
AcDbEntity
  8
\U+30EC\U+30A4\U+30E4\U+30FC 1
370
     0
100
AcDbSpline
210
0.0
220
0.0
230
1.0
 70
    11
 71
     3
 72
    20
 73
    16
 74
     0
 42
0.0000000001
 43
0.0000000001
 40
0.0
 40
0.0
 40
0.0
 40
0.0
 40
1.0
 40
1.0
 40
1.0
 40
2.0
 40
2.0
 40
2.0
 40
3.0
 40
3.0
 40
3.0
 40
4.0
 40
4.0
 40
4.0
 40
5.0
 40
5.0
 40
5.0
 40
5.0
 10
100.5557915330208
 20
-54.86193981918382
 30
0.0
 10
99.72724606881819
 20
-54.86193981918382
 30
0.0
 10
99.055796958743
 20
-55.53373343880754
 30
0.0
 10
99.055796958743
 20
-56.3619343934616
 30
0.0
 10
99.055796958743
 20
-57.19047985766419
 30
0.0
 10
99.72724606881819
 20
-57.86192896773938
 30
0.0
 10
100.5557915330208
 20
-57.86192896773938
 30
0.0
 10
101.3839924876748
 20
-57.86192896773938
 30
0.0
 10
102.0557861072986
 20
-57.19047985766419
 30
0.0
 10
102.0557861072986
 20
-56.3619343934616
 30
0.0
 10
102.0557861072986
 20
-55.53373343880754
 30
0.0
 10
101.3839924876748
 20
-54.86193981918382
 30
0.0
 10
100.5557915330208
 20
-54.86193981918382
 30
0.0
 10
100.5557915330208
 20
-54.86193981918382
 30
0.0
 10
100.5557915330208
 20
-54.86193981918382
 30
0.0
 10
100.5557915330208
 20
-54.86193981918382
 30
0.0
  0
ENDBLK
  5
D7
330
D4
100
AcDbEntity
  8
0
100
AcDbBlockEnd
  0
BLOCK
  5
DB
330
D9
100
AcDbEntity
  8
0
100
AcDbBlockBegin
  2
block 21
 70
     0
 71
     0
 10
0.0
 20
0.0
 30
0.0
  3
block 21
  1

  0
SPLINE
  5
DD
330
D9
100
AcDbEntity
  8
\U+30EC\U+30A4\U+30E4\U+30FC 1
370
     0
100
AcDbSpline
210
0.0
220
0.0
230
1.0
 70
    11
 71
     3
 72
    20
 73
    16
 74
     0
 42
0.0000000001
 43
0.0000000001
 40
0.0
 40
0.0
 40
0.0
 40
0.0
 40
1.0
 40
1.0
 40
1.0
 40
2.0
 40
2.0
 40
2.0
 40
3.0
 40
3.0
 40
3.0
 40
4.0
 40
4.0
 40
4.0
 40
5.0
 40
5.0
 40
5.0
 40
5.0
 10
69.55561657332291
 20
-54.86193981918382
 30
0.0
 10
68.72724336389459
 20
-54.86193981918382
 30
0.0
 10
68.05562199904513
 20
-55.53373343880754
 30
0.0
 10
68.05562199904513
 20
-56.3619343934616
 30
0.0
 10
68.05562199904513
 20
-57.19047985766419
 30
0.0
 10
68.72724336389459
 20
-57.86192896773938
 30
0.0
 10
69.55561657332291
 20
-57.86192896773938
 30
0.0
 10
70.38398978275123
 20
-57.86192896773938
 30
0.0
 10
71.05561114760069
 20
-57.19047985766419
 30
0.0
 10
71.05561114760069
 20
-56.3619343934616
 30
0.0
 10
71.05561114760069
 20
-55.53373343880754
 30
0.0
 10
70.38398978275123
 20
-54.86193981918382
 30
0.0
 10
69.55561657332291
 20
-54.86193981918382
 30
0.0
 10
69.55561657332291
 20
-54.86193981918382
 30
0.0
 10
69.55561657332291
 20
-54.86193981918382
 30
0.0
 10
69.55561657332291
 20
-54.86193981918382
 30
0.0
  0
ENDBLK
  5
DC
330
D9
100
AcDbEntity
  8
0
100
AcDbBlockEnd
  0
BLOCK
  5
E0
330
DE
100
AcDbEntity
  8
0
100
AcDbBlockBegin
  2
block 22
 70
     0
 71
     0
 10
0.0
 20
0.0
 30
0.0
  3
block 22
  1

  0
POLYLINE
  5
E2
330
DE
100
AcDbEntity
  8
\U+30EC\U+30A4\U+30E4\U+30FC 1
370
     0
100
AcDb2dPolyline
 66
     1
 10
0.0
 20
0.0
 30
0.0
  0
VERTEX
  5
E3
330
E2
100
AcDbEntity
  8
\U+30EC\U+30A4\U+30E4\U+30FC 1
370
     0
100
AcDbVertex
100
AcDb2dVertex
 10
198.5222492993278
 20
-90.63426104504977
 30
0.0
  0
VERTEX
  5
E4
330
E2
100
AcDbEntity
  8
\U+30EC\U+30A4\U+30E4\U+30FC 1
370
     0
100
AcDbVertex
100
AcDb2dVertex
 10
173.5222248915153
 20
-90.63426104504977
 30
0.0
  0
VERTEX
  5
E5
330
E2
100
AcDbEntity
  8
\U+30EC\U+30A4\U+30E4\U+30FC 1
370
     0
100
AcDbVertex
100
AcDb2dVertex
 10
173.5222248915153
 20
-126.6346475920393
 30
0.0
  0
VERTEX
  5
E6
330
E2
100
AcDbEntity
  8
\U+30EC\U+30A4\U+30E4\U+30FC 1
370
     0
100
AcDbVertex
100
AcDb2dVertex
 10
178.5224364788069
 20
-126.6346475920393
 30
0.0
  0
VERTEX
  5
E7
330
E2
100
AcDbEntity
  8
\U+30EC\U+30A4\U+30E4\U+30FC 1
370
     0
100
AcDbVertex
100
AcDb2dVertex
 10
178.5224364788069
 20
-108.6345404459316
 30
0.0
  0
VERTEX
  5
E8
330
E2
100
AcDbEntity
  8
\U+30EC\U+30A4\U+30E4\U+30FC 1
370
     0
100
AcDbVertex
100
AcDb2dVertex
 10
183.2225802493332
 20
-108.6345404459316
 30
0.0
  0
VERTEX
  5
E9
330
E2
100
AcDbEntity
  8
\U+30EC\U+30A4\U+30E4\U+30FC 1
370
     0
100
AcDbVertex
100
AcDb2dVertex
 10
183.2225802493332
 20
-126.6346475920393
 30
0.0
  0
VERTEX
  5
EA
330
E2
100
AcDbEntity
  8
\U+30EC\U+30A4\U+30E4\U+30FC 1
370
     0
100
AcDbVertex
100
AcDb2dVertex
 10
188.8225829606069
 20
-126.6346475920393
 30
0.0
  0
VERTEX
  5
EB
330
E2
100
AcDbEntity
  8
\U+30EC\U+30A4\U+30E4\U+30FC 1
370
     0
100
AcDbVertex
100
AcDb2dVertex
 10
188.8225829606069
 20
-108.6345404459316
 30
0.0
  0
VERTEX
  5
EC
330
E2
100
AcDbEntity
  8
\U+30EC\U+30A4\U+30E4\U+30FC 1
370
     0
100
AcDbVertex
100
AcDb2dVertex
 10
193.5223822215847
 20
-108.6345404459316
 30
0.0
  0
VERTEX
  5
ED
330
E2
100
AcDbEntity
  8
\U+30EC\U+30A4\U+30E4\U+30FC 1
370
     0
100
AcDbVertex
100
AcDb2dVertex
 10
193.5223822215847
 20
-126.6346475920393
 30
0.0
  0
VERTEX
  5
EE
330
E2
100
AcDbEntity
  8
\U+30EC\U+30A4\U+30E4\U+30FC 1
370
     0
100
AcDbVertex
100
AcDb2dVertex
 10
198.5222492993278
 20
-126.6346475920393
 30
0.0
  0
VERTEX
  5
EF
330
E2
100
AcDbEntity
  8
\U+30EC\U+30A4\U+30E4\U+30FC 1
370
     0
100
AcDbVertex
100
AcDb2dVertex
 10
198.5222492993278
 20
-90.63426104504977
 30
0.0
  0
SEQEND
  5
F0
330
E2
100
AcDbEntity
  8
\U+30EC\U+30A4\U+30E4\U+30FC 1
370
     0
  0
ENDBLK
  5
E1
330
DE
100
AcDbEntity
  8
0
100
AcDbBlockEnd
  0
BLOCK
  5
F3
330
F1
100
AcDbEntity
  8
0
100
AcDbBlockBegin
  2
block 23
 70
     0
 71
     0
 10
0.0
 20
0.0
 30
0.0
  3
block 23
  1

  0
POLYLINE
  5
F5
330
F1
100
AcDbEntity
  8
\U+30EC\U+30A4\U+30E4\U+30FC 1
370
     0
100
AcDb2dPolyline
 66
     1
 10
0.0
 20
0.0
 30
0.0
  0
VERTEX
  5
F6
330
F5
100
AcDbEntity
  8
\U+30EC\U+30A4\U+30E4\U+30FC 1
370
     0
100
AcDbVertex
100
AcDb2dVertex
 10
226.7444715144944
 20
-90.63426104504977
 30
0.0
  0
VERTEX
  5
F7
330
F5
100
AcDbEntity
  8
\U+30EC\U+30A4\U+30E4\U+30FC 1
370
     0
100
AcDbVertex
100
AcDb2dVertex
 10
201.7444471066819
 20
-90.63426104504977
 30
0.0
  0
VERTEX
  5
F8
330
F5
100
AcDbEntity
  8
\U+30EC\U+30A4\U+30E4\U+30FC 1
370
     0
100
AcDbVertex
100
AcDb2dVertex
 10
201.7444471066819
 20
-126.6346475920393
 30
0.0
  0
VERTEX
  5
F9
330
F5
100
AcDbEntity
  8
\U+30EC\U+30A4\U+30E4\U+30FC 1
370
     0
100
AcDbVertex
100
AcDb2dVertex
 10
206.7446586939736
 20
-126.6346475920393
 30
0.0
  0
VERTEX
  5
FA
330
F5
100
AcDbEntity
  8
\U+30EC\U+30A4\U+30E4\U+30FC 1
370
     0
100
AcDbVertex
100
AcDb2dVertex
 10
206.7446586939736
 20
-108.6345404459316
 30
0.0
  0
VERTEX
  5
FB
330
F5
100
AcDbEntity
  8
\U+30EC\U+30A4\U+30E4\U+30FC 1
370
     0
100
AcDbVertex
100
AcDb2dVertex
 10
211.4448024644999
 20
-108.6345404459316
 30
0.0
  0
VERTEX
  5
FC
330
F5
100
AcDbEntity
  8
\U+30EC\U+30A4\U+30E4\U+30FC 1
370
     0
100
AcDbVertex
100
AcDb2dVertex
 10
211.4448024644999
 20
-126.6346475920393
 30
0.0
  0
VERTEX
  5
FD
330
F5
100
AcDbEntity
  8
\U+30EC\U+30A4\U+30E4\U+30FC 1
370
     0
100
AcDbVertex
100
AcDb2dVertex
 10
217.0448051757735
 20
-126.6346475920393
 30
0.0
  0
VERTEX
  5
FE
330
F5
100
AcDbEntity
  8
\U+30EC\U+30A4\U+30E4\U+30FC 1
370
     0
100
AcDbVertex
100
AcDb2dVertex
 10
217.0448051757735
 20
-108.6345404459316
 30
0.0
  0
VERTEX
  5
FF
330
F5
100
AcDbEntity
  8
\U+30EC\U+30A4\U+30E4\U+30FC 1
370
     0
100
AcDbVertex
100
AcDb2dVertex
 10
221.7446044367514
 20
-108.6345404459316
 30
0.0
  0
VERTEX
  5
100
330
F5
100
AcDbEntity
  8
\U+30EC\U+30A4\U+30E4\U+30FC 1
370
     0
100
AcDbVertex
100
AcDb2dVertex
 10
221.7446044367514
 20
-126.6346475920393
 30
0.0
  0
VERTEX
  5
101
330
F5
100
AcDbEntity
  8
\U+30EC\U+30A4\U+30E4\U+30FC 1
370
     0
100
AcDbVertex
100
AcDb2dVertex
 10
226.7444715144944
 20
-126.6346475920393
 30
0.0
  0
VERTEX
  5
102
330
F5
100
AcDbEntity
  8
\U+30EC\U+30A4\U+30E4\U+30FC 1
370
     0
100
AcDbVertex
100
AcDb2dVertex
 10
226.7444715144944
 20
-90.63426104504977
 30
0.0
  0
SEQEND
  5
103
330
F5
100
AcDbEntity
  8
\U+30EC\U+30A4\U+30E4\U+30FC 1
370
     0
  0
ENDBLK
  5
F4
330
F1
100
AcDbEntity
  8
0
100
AcDbBlockEnd
  0
BLOCK
  5
106
330
104
100
AcDbEntity
  8
0
100
AcDbBlockBegin
  2
block 24
 70
     0
 71
     0
 10
0.0
 20
0.0
 30
0.0
  3
block 24
  1

  0
POLYLINE
  5
108
330
104
100
AcDbEntity
  8
\U+30EC\U+30A4\U+30E4\U+30FC 1
370
     0
100
AcDb2dPolyline
 66
     1
 10
0.0
 20
0.0
 30
0.0
  0
VERTEX
  5
109
330
108
100
AcDbEntity
  8
\U+30EC\U+30A4\U+30E4\U+30FC 1
370
     0
100
AcDbVertex
100
AcDb2dVertex
 10
198.5222492993278
 20
-7.858951820951929
 30
0.0
  0
VERTEX
  5
10A
330
108
100
AcDbEntity
  8
\U+30EC\U+30A4\U+30E4\U+30FC 1
370
     0
100
AcDbVertex
100
AcDb2dVertex
 10
198.5222492993278
 20
-82.85885278961516
 30
0.0
  0
VERTEX
  5
10B
330
108
100
AcDbEntity
  8
\U+30EC\U+30A4\U+30E4\U+30FC 1
370
     0
100
AcDbVertex
100
AcDb2dVertex
 10
193.5223822215847
 20
-82.85885278961516
 30
0.0
  0
VERTEX
  5
10C
330
108
100
AcDbEntity
  8
\U+30EC\U+30A4\U+30E4\U+30FC 1
370
     0
100
AcDbVertex
100
AcDb2dVertex
 10
193.5223822215847
 20
-45.35898843267067
 30
0.0
  0
VERTEX
  5
10D
330
108
100
AcDbEntity
  8
\U+30EC\U+30A4\U+30E4\U+30FC 1
370
     0
100
AcDbVertex
100
AcDb2dVertex
 10
188.8225829606069
 20
-45.35898843267067
 30
0.0
  0
VERTEX
  5
10E
330
108
100
AcDbEntity
  8
\U+30EC\U+30A4\U+30E4\U+30FC 1
370
     0
100
AcDbVertex
100
AcDb2dVertex
 10
188.8225829606069
 20
-82.85885278961516
 30
0.0
  0
VERTEX
  5
10F
330
108
100
AcDbEntity
  8
\U+30EC\U+30A4\U+30E4\U+30FC 1
370
     0
100
AcDbVertex
100
AcDb2dVertex
 10
183.2222357397847
 20
-82.85885278961516
 30
0.0
  0
VERTEX
  5
110
330
108
100
AcDbEntity
  8
\U+30EC\U+30A4\U+30E4\U+30FC 1
370
     0
100
AcDbVertex
100
AcDb2dVertex
 10
183.2222357397847
 20
-45.35898843267067
 30
0.0
  0
VERTEX
  5
111
330
108
100
AcDbEntity
  8
\U+30EC\U+30A4\U+30E4\U+30FC 1
370
     0
100
AcDbVertex
100
AcDb2dVertex
 10
178.5224364788069
 20
-45.35898843267067
 30
0.0
  0
VERTEX
  5
112
330
108
100
AcDbEntity
  8
\U+30EC\U+30A4\U+30E4\U+30FC 1
370
     0
100
AcDbVertex
100
AcDb2dVertex
 10
178.5224364788069
 20
-82.85885278961516
 30
0.0
  0
VERTEX
  5
113
330
108
100
AcDbEntity
  8
\U+30EC\U+30A4\U+30E4\U+30FC 1
370
     0
100
AcDbVertex
100
AcDb2dVertex
 10
173.5222248915153
 20
-82.85885278961516
 30
0.0
  0
VERTEX
  5
114
330
108
100
AcDbEntity
  8
\U+30EC\U+30A4\U+30E4\U+30FC 1
370
     0
100
AcDbVertex
100
AcDb2dVertex
 10
173.5222248915153
 20
-7.858951820951929
 30
0.0
  0
VERTEX
  5
115
330
108
100
AcDbEntity
  8
\U+30EC\U+30A4\U+30E4\U+30FC 1
370
     0
100
AcDbVertex
100
AcDb2dVertex
 10
198.5222492993278
 20
-7.858951820951929
 30
0.0
  0
SEQEND
  5
116
330
108
100
AcDbEntity
  8
\U+30EC\U+30A4\U+30E4\U+30FC 1
370
     0
  0
ENDBLK
  5
107
330
104
100
AcDbEntity
  8
0
100
AcDbBlockEnd
  0
BLOCK
  5
119
330
117
100
AcDbEntity
  8
0
100
AcDbBlockBegin
  2
block 25
 70
     0
 71
     0
 10
0.0
 20
0.0
 30
0.0
  3
block 25
  1

  0
POLYLINE
  5
11B
330
117
100
AcDbEntity
  8
\U+30EC\U+30A4\U+30E4\U+30FC 1
370
     0
100
AcDb2dPolyline
 66
     1
 10
0.0
 20
0.0
 30
0.0
  0
VERTEX
  5
11C
330
11B
100
AcDbEntity
  8
\U+30EC\U+30A4\U+30E4\U+30FC 1
370
     0
100
AcDbVertex
100
AcDb2dVertex
 10
226.7444715144944
 20
-7.858951820951929
 30
0.0
  0
VERTEX
  5
11D
330
11B
100
AcDbEntity
  8
\U+30EC\U+30A4\U+30E4\U+30FC 1
370
     0
100
AcDbVertex
100
AcDb2dVertex
 10
226.7444715144944
 20
-82.85885278961516
 30
0.0
  0
VERTEX
  5
11E
330
11B
100
AcDbEntity
  8
\U+30EC\U+30A4\U+30E4\U+30FC 1
370
     0
100
AcDbVertex
100
AcDb2dVertex
 10
221.7446044367514
 20
-82.85885278961516
 30
0.0
  0
VERTEX
  5
11F
330
11B
100
AcDbEntity
  8
\U+30EC\U+30A4\U+30E4\U+30FC 1
370
     0
100
AcDbVertex
100
AcDb2dVertex
 10
221.7446044367514
 20
-45.35898843267067
 30
0.0
  0
VERTEX
  5
120
330
11B
100
AcDbEntity
  8
\U+30EC\U+30A4\U+30E4\U+30FC 1
370
     0
100
AcDbVertex
100
AcDb2dVertex
 10
217.0448051757735
 20
-45.35898843267067
 30
0.0
  0
VERTEX
  5
121
330
11B
100
AcDbEntity
  8
\U+30EC\U+30A4\U+30E4\U+30FC 1
370
     0
100
AcDbVertex
100
AcDb2dVertex
 10
217.0448051757735
 20
-82.85885278961516
 30
0.0
  0
VERTEX
  5
122
330
11B
100
AcDbEntity
  8
\U+30EC\U+30A4\U+30E4\U+30FC 1
370
     0
100
AcDbVertex
100
AcDb2dVertex
 10
211.4444579549514
 20
-82.85885278961516
 30
0.0
  0
VERTEX
  5
123
330
11B
100
AcDbEntity
  8
\U+30EC\U+30A4\U+30E4\U+30FC 1
370
     0
100
AcDbVertex
100
AcDb2dVertex
 10
211.4444579549514
 20
-45.35898843267067
 30
0.0
  0
VERTEX
  5
124
330
11B
100
AcDbEntity
  8
\U+30EC\U+30A4\U+30E4\U+30FC 1
370
     0
100
AcDbVertex
100
AcDb2dVertex
 10
206.7446586939736
 20
-45.35898843267067
 30
0.0
  0
VERTEX
  5
125
330
11B
100
AcDbEntity
  8
\U+30EC\U+30A4\U+30E4\U+30FC 1
370
     0
100
AcDbVertex
100
AcDb2dVertex
 10
206.7446586939736
 20
-82.85885278961516
 30
0.0
  0
VERTEX
  5
126
330
11B
100
AcDbEntity
  8
\U+30EC\U+30A4\U+30E4\U+30FC 1
370
     0
100
AcDbVertex
100
AcDb2dVertex
 10
201.7444471066819
 20
-82.85885278961516
 30
0.0
  0
VERTEX
  5
127
330
11B
100
AcDbEntity
  8
\U+30EC\U+30A4\U+30E4\U+30FC 1
370
     0
100
AcDbVertex
100
AcDb2dVertex
 10
201.7444471066819
 20
-7.858951820951929
 30
0.0
  0
VERTEX
  5
128
330
11B
100
AcDbEntity
  8
\U+30EC\U+30A4\U+30E4\U+30FC 1
370
     0
100
AcDbVertex
100
AcDb2dVertex
 10
226.7444715144944
 20
-7.858951820951929
 30
0.0
  0
SEQEND
  5
129
330
11B
100
AcDbEntity
  8
\U+30EC\U+30A4\U+30E4\U+30FC 1
370
     0
  0
ENDBLK
  5
11A
330
117
100
AcDbEntity
  8
0
100
AcDbBlockEnd
  0
BLOCK
  5
12C
330
12A
100
AcDbEntity
  8
0
100
AcDbBlockBegin
  2
block 26
 70
     0
 71
     0
 10
0.0
 20
0.0
 30
0.0
  3
block 26
  1

  0
SPLINE
  5
12E
330
12A
100
AcDbEntity
  8
\U+30EC\U+30A4\U+30E4\U+30FC 1
370
     0
100
AcDbSpline
210
0.0
220
0.0
230
1.0
 70
    11
 71
     3
 72
    26
 73
    22
 74
     0
 42
0.0000000001
 43
0.0000000001
 40
0.0
 40
0.0
 40
0.0
 40
0.0
 40
1.0
 40
1.0
 40
1.0
 40
2.0
 40
2.0
 40
2.0
 40
3.0
 40
3.0
 40
3.0
 40
4.0
 40
4.0
 40
4.0
 40
5.0
 40
5.0
 40
5.0
 40
6.0
 40
6.0
 40
6.0
 40
7.0
 40
7.0
 40
7.0
 40
7.0
 10
11.53555772281056
 20
-142.1563530460581
 30
0.0
 10
11.78412136207133
 20
-142.1112222952014
 30
0.0
 10
12.11157768794433
 20
-142.0717759518953
 30
0.0
 10
12.51258680242741
 20
-142.0717759518953
 30
0.0
 10
13.90164930208014
 20
-142.0717759518953
 30
0.0
 10
14.01447617922208
 20
-142.9638834278007
 30
0.0
 10
14.01447617922208
 20
-143.302708568775
 30
0.0
 10
14.01447617922208
 20
-144.3134995841473
 30
0.0
 10
13.20711805225378
 20
-144.67489010055
 30
0.0
 10
12.44471842136799
 20
-144.67489010055
 30
0.0
 10
12.28107638581862
 20
-144.67489010055
 30
0.0
 10
12.13414306337271
 20
-144.6692056929994
 30
0.0
 10
12.0042629635788
 20
-144.6352715024697
 30
0.0
 10
12.0042629635788
 20
-144.6352715024697
 30
0.0
 10
12.0042629635788
 20
-146.4027777411771
 30
0.0
 10
12.0042629635788
 20
-146.4027777411771
 30
0.0
 10
12.0042629635788
 20
-146.4027777411771
 30
0.0
 10
11.53555772281056
 20
-146.4027777411771
 30
0.0
 10
11.53555772281056
 20
-146.4027777411771
 30
0.0
 10
11.53555772281056
 20
-146.4027777411771
 30
0.0
 10
11.53555772281056
 20
-142.1563530460581
 30
0.0
 10
11.53555772281056
 20
-142.1563530460581
 30
0.0
  0
SPLINE
  5
12F
330
12A
100
AcDbEntity
  8
\U+30EC\U+30A4\U+30E4\U+30FC 1
370
     0
100
AcDbSpline
210
0.0
220
0.0
230
1.0
 70
    11
 71
     3
 72
    20
 73
    16
 74
     0
 42
0.0000000001
 43
0.0000000001
 40
0.0
 40
0.0
 40
0.0
 40
0.0
 40
1.0
 40
1.0
 40
1.0
 40
2.0
 40
2.0
 40
2.0
 40
3.0
 40
3.0
 40
3.0
 40
4.0
 40
4.0
 40
4.0
 40
5.0
 40
5.0
 40
5.0
 40
5.0
 10
12.0042629635788
 20
-144.2458034578622
 30
0.0
 10
12.12294650304565
 20
-144.2795653936176
 30
0.0
 10
12.27539197826796
 20
-144.2909342087189
 30
0.0
 10
12.45608723646931
 20
-144.2909342087189
 30
0.0
 10
13.13373751841796
 20
-144.2909342087189
 30
0.0
 10
13.5459431932281
 20
-143.9521090677446
 30
0.0
 10
13.5459431932281
 20
-143.3366427593047
 30
0.0
 10
13.5459431932281
 20
-142.7211764508648
 30
0.0
 10
13.10548773543891
 20
-142.4500474361757
 30
0.0
 10
12.51809895520381
 20
-142.4500474361757
 30
0.0
 10
12.28107638581862
 20
-142.4500474361757
 30
0.0
 10
12.10589328039367
 20
-142.4726128116041
 30
0.0
 10
12.0042629635788
 20
-142.4951781870325
 30
0.0
 10
12.0042629635788
 20
-142.4951781870325
 30
0.0
 10
12.0042629635788
 20
-144.2458034578622
 30
0.0
 10
12.0042629635788
 20
-144.2458034578622
 30
0.0
  0
HATCH
  5
130
330
12A
100
AcDbEntity
  8
\U+30EC\U+30A4\U+30E4\U+30FC 1
 62
     7
420
 16777215
100
AcDbHatch
 10
0.0
 20
0.0
 30
0.0
210
0.0
220
0.0
230
1.0
  2
SOLID
 70
     1
 71
     0
 91
        2
 92
        1
 93
        1
 72
     4
 94
        3
 73
     0
 74
     1
 95
       26
 96
       22
 40
0.0
 40
0.0
 40
0.0
 40
0.0
 40
1.0
 40
1.0
 40
1.0
 40
2.0
 40
2.0
 40
2.0
 40
3.0
 40
3.0
 40
3.0
 40
4.0
 40
4.0
 40
4.0
 40
5.0
 40
5.0
 40
5.0
 40
6.0
 40
6.0
 40
6.0
 40
7.0
 40
7.0
 40
7.0
 40
7.0
 10
11.53555772281056
 20
-142.1563530460581
 10
11.78412136207133
 20
-142.1112222952014
 10
12.11157768794433
 20
-142.0717759518953
 10
12.51258680242741
 20
-142.0717759518953
 10
13.90164930208014
 20
-142.0717759518953
 10
14.01447617922208
 20
-142.9638834278007
 10
14.01447617922208
 20
-143.302708568775
 10
14.01447617922208
 20
-144.3134995841473
 10
13.20711805225378
 20
-144.67489010055
 10
12.44471842136799
 20
-144.67489010055
 10
12.28107638581862
 20
-144.67489010055
 10
12.13414306337271
 20
-144.6692056929994
 10
12.0042629635788
 20
-144.6352715024697
 10
12.0042629635788
 20
-144.6352715024697
 10
12.0042629635788
 20
-146.4027777411771
 10
12.0042629635788
 20
-146.4027777411771
 10
12.0042629635788
 20
-146.4027777411771
 10
11.53555772281056
 20
-146.4027777411771
 10
11.53555772281056
 20
-146.4027777411771
 10
11.53555772281056
 20
-146.4027777411771
 10
11.53555772281056
 20
-142.1563530460581
 10
11.53555772281056
 20
-142.1563530460581
 97
        0
 92
        1
 93
        1
 72
     4
 94
        3
 73
     0
 74
     1
 95
       20
 96
       16
 40
0.0
 40
0.0
 40
0.0
 40
0.0
 40
1.0
 40
1.0
 40
1.0
 40
2.0
 40
2.0
 40
2.0
 40
3.0
 40
3.0
 40
3.0
 40
4.0
 40
4.0
 40
4.0
 40
5.0
 40
5.0
 40
5.0
 40
5.0
 10
12.0042629635788
 20
-144.2458034578622
 10
12.12294650304565
 20
-144.2795653936176
 10
12.27539197826796
 20
-144.2909342087189
 10
12.45608723646931
 20
-144.2909342087189
 10
13.13373751841796
 20
-144.2909342087189
 10
13.5459431932281
 20
-143.9521090677446
 10
13.5459431932281
 20
-143.3366427593047
 10
13.5459431932281
 20
-142.7211764508648
 10
13.10548773543891
 20
-142.4500474361757
 10
12.51809895520381
 20
-142.4500474361757
 10
12.28107638581862
 20
-142.4500474361757
 10
12.10589328039367
 20
-142.4726128116041
 10
12.0042629635788
 20
-142.4951781870325
 10
12.0042629635788
 20
-142.4951781870325
 10
12.0042629635788
 20
-144.2458034578622
 10
12.0042629635788
 20
-144.2458034578622
 97
        0
 75
     2
 76
     1
 98
        0
  0
SPLINE
  5
131
330
12A
100
AcDbEntity
  8
\U+30EC\U+30A4\U+30E4\U+30FC 1
370
     0
100
AcDbSpline
210
0.0
220
0.0
230
1.0
 70
    11
 71
     3
 72
    17
 73
    13
 74
     0
 42
0.0000000001
 43
0.0000000001
 40
0.0
 40
0.0
 40
0.0
 40
0.0
 40
1.0
 40
1.0
 40
1.0
 40
2.0
 40
2.0
 40
2.0
 40
3.0
 40
3.0
 40
3.0
 40
4.0
 40
4.0
 40
4.0
 40
4.0
 10
14.96756184521644
 20
-142.7831881695994
 30
0.0
 10
14.78686658701509
 20
-142.7831881695994
 30
0.0
 10
14.66267089477183
 20
-142.6421115094784
 30
0.0
 10
14.66267089477183
 20
-142.461416251277
 30
0.0
 10
14.66267089477183
 20
-142.2862331458521
 30
0.0
 10
14.79255099456575
 20
-142.1451564857311
 30
0.0
 10
14.97324625276711
 20
-142.1451564857311
 30
0.0
 10
15.15962591851912
 20
-142.1451564857311
 30
0.0
 10
15.27813720321172
 20
-142.2862331458521
 30
0.0
 10
15.27813720321172
 20
-142.461416251277
 30
0.0
 10
15.27813720321172
 20
-142.6589924773561
 30
0.0
 10
15.1482571034178
 20
-142.7831881695994
 30
0.0
 10
14.96756184521644
 20
-142.7831881695994
 30
0.0
  0
POLYLINE
  5
132
330
12A
100
AcDbEntity
  8
\U+30EC\U+30A4\U+30E4\U+30FC 1
370
     0
100
AcDb2dPolyline
 66
     1
 10
0.0
 20
0.0
 30
0.0
  0
VERTEX
  5
133
330
132
100
AcDbEntity
  8
\U+30EC\U+30A4\U+30E4\U+30FC 1
370
     0
100
AcDbVertex
100
AcDb2dVertex
 10
15.20475666937589
 20
-146.4027777411771
 30
0.0
  0
VERTEX
  5
134
330
132
100
AcDbEntity
  8
\U+30EC\U+30A4\U+30E4\U+30FC 1
370
     0
100
AcDbVertex
100
AcDb2dVertex
 10
14.73605142860765
 20
-146.4027777411771
 30
0.0
  0
VERTEX
  5
135
330
132
100
AcDbEntity
  8
\U+30EC\U+30A4\U+30E4\U+30FC 1
370
     0
100
AcDbVertex
100
AcDb2dVertex
 10
14.73605142860765
 20
-143.3252739442034
 30
0.0
  0
VERTEX
  5
136
330
132
100
AcDbEntity
  8
\U+30EC\U+30A4\U+30E4\U+30FC 1
370
     0
100
AcDbVertex
100
AcDb2dVertex
 10
15.20475666937589
 20
-143.3252739442034
 30
0.0
  0
VERTEX
  5
137
330
132
100
AcDbEntity
  8
\U+30EC\U+30A4\U+30E4\U+30FC 1
370
     0
100
AcDbVertex
100
AcDb2dVertex
 10
15.20475666937589
 20
-146.4027777411771
 30
0.0
  0
SEQEND
  5
138
330
132
100
AcDbEntity
  8
\U+30EC\U+30A4\U+30E4\U+30FC 1
370
     0
  0
HATCH
  5
139
330
12A
100
AcDbEntity
  8
\U+30EC\U+30A4\U+30E4\U+30FC 1
 62
     7
420
 16777215
100
AcDbHatch
 10
0.0
 20
0.0
 30
0.0
210
0.0
220
0.0
230
1.0
  2
SOLID
 70
     1
 71
     0
 91
        2
 92
        1
 93
        1
 72
     4
 94
        3
 73
     0
 74
     1
 95
       17
 96
       13
 40
0.0
 40
0.0
 40
0.0
 40
0.0
 40
1.0
 40
1.0
 40
1.0
 40
2.0
 40
2.0
 40
2.0
 40
3.0
 40
3.0
 40
3.0
 40
4.0
 40
4.0
 40
4.0
 40
4.0
 10
14.96756184521644
 20
-142.7831881695994
 10
14.78686658701509
 20
-142.7831881695994
 10
14.66267089477183
 20
-142.6421115094784
 10
14.66267089477183
 20
-142.461416251277
 10
14.66267089477183
 20
-142.2862331458521
 10
14.79255099456575
 20
-142.1451564857311
 10
14.97324625276711
 20
-142.1451564857311
 10
15.15962591851912
 20
-142.1451564857311
 10
15.27813720321172
 20
-142.2862331458521
 10
15.27813720321172
 20
-142.461416251277
 10
15.27813720321172
 20
-142.6589924773561
 10
15.1482571034178
 20
-142.7831881695994
 10
14.96756184521644
 20
-142.7831881695994
 97
        0
 92
        1
 93
        4
 72
     1
 10
15.20475666937589
 20
-146.4027777411771
 11
14.73605142860765
 21
-146.4027777411771
 72
     1
 10
14.73605142860765
 20
-146.4027777411771
 11
14.73605142860765
 21
-143.3252739442034
 72
     1
 10
14.73605142860765
 20
-143.3252739442034
 11
15.20475666937589
 21
-143.3252739442034
 72
     1
 10
15.20475666937589
 20
-143.3252739442034
 11
15.20475666937589
 21
-146.4027777411771
 97
        0
 75
     2
 76
     1
 98
        0
  0
SPLINE
  5
13A
330
12A
100
AcDbEntity
  8
\U+30EC\U+30A4\U+30E4\U+30FC 1
370
     0
100
AcDbSpline
210
0.0
220
0.0
230
1.0
 70
    11
 71
     3
 72
    47
 73
    43
 74
     0
 42
0.0000000001
 43
0.0000000001
 40
0.0
 40
0.0
 40
0.0
 40
0.0
 40
1.0
 40
1.0
 40
1.0
 40
2.0
 40
2.0
 40
2.0
 40
3.0
 40
3.0
 40
3.0
 40
4.0
 40
4.0
 40
4.0
 40
5.0
 40
5.0
 40
5.0
 40
6.0
 40
6.0
 40
6.0
 40
7.0
 40
7.0
 40
7.0
 40
8.0
 40
8.0
 40
8.0
 40
9.0
 40
9.0
 40
9.0
 40
10.0
 40
10.0
 40
10.0
 40
11.0
 40
11.0
 40
11.0
 40
12.0
 40
12.0
 40
12.0
 40
13.0
 40
13.0
 40
13.0
 40
14.0
 40
14.0
 40
14.0
 40
14.0
 10
18.59783121279846
 20
-146.4027777411771
 30
0.0
 10
18.59783121279846
 20
-146.4027777411771
 30
0.0
 10
18.12912597203022
 20
-146.4027777411771
 30
0.0
 10
18.12912597203022
 20
-146.4027777411771
 30
0.0
 10
18.12912597203022
 20
-146.4027777411771
 30
0.0
 10
18.12912597203022
 20
-144.5844563440622
 30
0.0
 10
18.12912597203022
 20
-144.5844563440622
 30
0.0
 10
18.12912597203022
 20
-144.0819891675385
 30
0.0
 10
17.94843071382887
 20
-143.6415337097494
 30
0.0
 10
17.41202934677547
 20
-143.6415337097494
 30
0.0
 10
17.01102023229238
 20
-143.6415337097494
 30
0.0
 10
16.6044989650329
 20
-143.9803588507237
 30
0.0
 10
16.6044989650329
 20
-144.5167602177771
 30
0.0
 10
16.6044989650329
 20
-144.5167602177771
 30
0.0
 10
16.6044989650329
 20
-146.4027777411771
 30
0.0
 10
16.6044989650329
 20
-146.4027777411771
 30
0.0
 10
16.6044989650329
 20
-146.4027777411771
 30
0.0
 10
16.13579372426466
 20
-146.4027777411771
 30
0.0
 10
16.13579372426466
 20
-146.4027777411771
 30
0.0
 10
16.13579372426466
 20
-146.4027777411771
 30
0.0
 10
16.13579372426466
 20
-144.1159233580682
 30
0.0
 10
16.13579372426466
 20
-144.1159233580682
 30
0.0
 10
16.13579372426466
 20
-143.7996635925223
 30
0.0
 10
16.12442490916334
 20
-143.5681531759135
 30
0.0
 10
16.11322834883628
 20
-143.3195895366528
 30
0.0
 10
16.11322834883628
 20
-143.3195895366528
 30
0.0
 10
16.53111843119708
 20
-143.3195895366528
 30
0.0
 10
16.53111843119708
 20
-143.3195895366528
 30
0.0
 10
16.53111843119708
 20
-143.3195895366528
 30
0.0
 10
16.55936821417613
 20
-143.8222289679507
 30
0.0
 10
16.55936821417613
 20
-143.8222289679507
 30
0.0
 10
16.55936821417613
 20
-143.8222289679507
 30
0.0
 10
16.57056477450319
 20
-143.8222289679507
 30
0.0
 10
16.57056477450319
 20
-143.8222289679507
 30
0.0
 10
16.7230102497255
 20
-143.5230224250568
 30
0.0
 10
17.07888861335181
 20
-143.2518934103676
 30
0.0
 10
17.55879041444711
 20
-143.2518934103676
 30
0.0
 10
17.9427463062782
 20
-143.2518934103676
 30
0.0
 10
18.59783121279846
 20
-143.4834038269764
 30
0.0
 10
18.59783121279846
 20
-144.5281290328784
 30
0.0
 10
18.59783121279846
 20
-144.5281290328784
 30
0.0
 10
18.59783121279846
 20
-146.4027777411771
 30
0.0
 10
18.59783121279846
 20
-146.4027777411771
 30
0.0
  0
HATCH
  5
13B
330
12A
100
AcDbEntity
  8
\U+30EC\U+30A4\U+30E4\U+30FC 1
 62
     7
420
 16777215
100
AcDbHatch
 10
0.0
 20
0.0
 30
0.0
210
0.0
220
0.0
230
1.0
  2
SOLID
 70
     1
 71
     0
 91
        1
 92
        1
 93
        1
 72
     4
 94
        3
 73
     0
 74
     1
 95
       47
 96
       43
 40
0.0
 40
0.0
 40
0.0
 40
0.0
 40
1.0
 40
1.0
 40
1.0
 40
2.0
 40
2.0
 40
2.0
 40
3.0
 40
3.0
 40
3.0
 40
4.0
 40
4.0
 40
4.0
 40
5.0
 40
5.0
 40
5.0
 40
6.0
 40
6.0
 40
6.0
 40
7.0
 40
7.0
 40
7.0
 40
8.0
 40
8.0
 40
8.0
 40
9.0
 40
9.0
 40
9.0
 40
10.0
 40
10.0
 40
10.0
 40
11.0
 40
11.0
 40
11.0
 40
12.0
 40
12.0
 40
12.0
 40
13.0
 40
13.0
 40
13.0
 40
14.0
 40
14.0
 40
14.0
 40
14.0
 10
18.59783121279846
 20
-146.4027777411771
 10
18.59783121279846
 20
-146.4027777411771
 10
18.12912597203022
 20
-146.4027777411771
 10
18.12912597203022
 20
-146.4027777411771
 10
18.12912597203022
 20
-146.4027777411771
 10
18.12912597203022
 20
-144.5844563440622
 10
18.12912597203022
 20
-144.5844563440622
 10
18.12912597203022
 20
-144.0819891675385
 10
17.94843071382887
 20
-143.6415337097494
 10
17.41202934677547
 20
-143.6415337097494
 10
17.01102023229238
 20
-143.6415337097494
 10
16.6044989650329
 20
-143.9803588507237
 10
16.6044989650329
 20
-144.5167602177771
 10
16.6044989650329
 20
-144.5167602177771
 10
16.6044989650329
 20
-146.4027777411771
 10
16.6044989650329
 20
-146.4027777411771
 10
16.6044989650329
 20
-146.4027777411771
 10
16.13579372426466
 20
-146.4027777411771
 10
16.13579372426466
 20
-146.4027777411771
 10
16.13579372426466
 20
-146.4027777411771
 10
16.13579372426466
 20
-144.1159233580682
 10
16.13579372426466
 20
-144.1159233580682
 10
16.13579372426466
 20
-143.7996635925223
 10
16.12442490916334
 20
-143.5681531759135
 10
16.11322834883628
 20
-143.3195895366528
 10
16.11322834883628
 20
-143.3195895366528
 10
16.53111843119708
 20
-143.3195895366528
 10
16.53111843119708
 20
-143.3195895366528
 10
16.53111843119708
 20
-143.3195895366528
 10
16.55936821417613
 20
-143.8222289679507
 10
16.55936821417613
 20
-143.8222289679507
 10
16.55936821417613
 20
-143.8222289679507
 10
16.57056477450319
 20
-143.8222289679507
 10
16.57056477450319
 20
-143.8222289679507
 10
16.7230102497255
 20
-143.5230224250568
 10
17.07888861335181
 20
-143.2518934103676
 10
17.55879041444711
 20
-143.2518934103676
 10
17.9427463062782
 20
-143.2518934103676
 10
18.59783121279846
 20
-143.4834038269764
 10
18.59783121279846
 20
-144.5281290328784
 10
18.59783121279846
 20
-144.5281290328784
 10
18.59783121279846
 20
-146.4027777411771
 10
18.59783121279846
 20
-146.4027777411771
 97
        0
 75
     2
 76
     1
 98
        0
  0
SPLINE
  5
13C
330
12A
100
AcDbEntity
  8
\U+30EC\U+30A4\U+30E4\U+30FC 1
370
     0
100
AcDbSpline
210
0.0
220
0.0
230
1.0
 70
    11
 71
     3
 72
    26
 73
    22
 74
     0
 42
0.0000000001
 43
0.0000000001
 40
0.0
 40
0.0
 40
0.0
 40
0.0
 40
1.0
 40
1.0
 40
1.0
 40
2.0
 40
2.0
 40
2.0
 40
3.0
 40
3.0
 40
3.0
 40
4.0
 40
4.0
 40
4.0
 40
5.0
 40
5.0
 40
5.0
 40
6.0
 40
6.0
 40
6.0
 40
7.0
 40
7.0
 40
7.0
 40
7.0
 10
20.83731553298512
 20
-142.1563530460581
 30
0.0
 10
21.08587917224589
 20
-142.1112222952014
 30
0.0
 10
21.41333549811889
 20
-142.0717759518953
 30
0.0
 10
21.81434461260197
 20
-142.0717759518953
 30
0.0
 10
23.20340711225471
 20
-142.0717759518953
 30
0.0
 10
23.31623398939664
 20
-142.9638834278007
 30
0.0
 10
23.31623398939664
 20
-143.302708568775
 30
0.0
 10
23.31623398939664
 20
-144.3134995841473
 30
0.0
 10
22.50887586242834
 20
-144.67489010055
 30
0.0
 10
21.74647623154255
 20
-144.67489010055
 30
0.0
 10
21.58283419599318
 20
-144.67489010055
 30
0.0
 10
21.43590087354728
 20
-144.6692056929994
 30
0.0
 10
21.30602077375336
 20
-144.6352715024697
 30
0.0
 10
21.30602077375336
 20
-144.6352715024697
 30
0.0
 10
21.30602077375336
 20
-146.4027777411771
 30
0.0
 10
21.30602077375336
 20
-146.4027777411771
 30
0.0
 10
21.30602077375336
 20
-146.4027777411771
 30
0.0
 10
20.83731553298512
 20
-146.4027777411771
 30
0.0
 10
20.83731553298512
 20
-146.4027777411771
 30
0.0
 10
20.83731553298512
 20
-146.4027777411771
 30
0.0
 10
20.83731553298512
 20
-142.1563530460581
 30
0.0
 10
20.83731553298512
 20
-142.1563530460581
 30
0.0
  0
SPLINE
  5
13D
330
12A
100
AcDbEntity
  8
\U+30EC\U+30A4\U+30E4\U+30FC 1
370
     0
100
AcDbSpline
210
0.0
220
0.0
230
1.0
 70
    11
 71
     3
 72
    20
 73
    16
 74
     0
 42
0.0000000001
 43
0.0000000001
 40
0.0
 40
0.0
 40
0.0
 40
0.0
 40
1.0
 40
1.0
 40
1.0
 40
2.0
 40
2.0
 40
2.0
 40
3.0
 40
3.0
 40
3.0
 40
4.0
 40
4.0
 40
4.0
 40
5.0
 40
5.0
 40
5.0
 40
5.0
 10
21.30602077375336
 20
-144.2458034578622
 30
0.0
 10
21.42470431322021
 20
-144.2795653936176
 30
0.0
 10
21.57714978844252
 20
-144.2909342087189
 30
0.0
 10
21.75784504664387
 20
-144.2909342087189
 30
0.0
 10
22.43549532859252
 20
-144.2909342087189
 30
0.0
 10
22.84770100340266
 20
-143.9521090677446
 30
0.0
 10
22.84770100340266
 20
-143.3366427593047
 30
0.0
 10
22.84770100340266
 20
-142.7211764508648
 30
0.0
 10
22.40724554561347
 20
-142.4500474361757
 30
0.0
 10
21.81985676537837
 20
-142.4500474361757
 30
0.0
 10
21.58283419599318
 20
-142.4500474361757
 30
0.0
 10
21.40765109056823
 20
-142.4726128116041
 30
0.0
 10
21.30602077375336
 20
-142.4951781870325
 30
0.0
 10
21.30602077375336
 20
-142.4951781870325
 30
0.0
 10
21.30602077375336
 20
-144.2458034578622
 30
0.0
 10
21.30602077375336
 20
-144.2458034578622
 30
0.0
  0
HATCH
  5
13E
330
12A
100
AcDbEntity
  8
\U+30EC\U+30A4\U+30E4\U+30FC 1
 62
     7
420
 16777215
100
AcDbHatch
 10
0.0
 20
0.0
 30
0.0
210
0.0
220
0.0
230
1.0
  2
SOLID
 70
     1
 71
     0
 91
        2
 92
        1
 93
        1
 72
     4
 94
        3
 73
     0
 74
     1
 95
       26
 96
       22
 40
0.0
 40
0.0
 40
0.0
 40
0.0
 40
1.0
 40
1.0
 40
1.0
 40
2.0
 40
2.0
 40
2.0
 40
3.0
 40
3.0
 40
3.0
 40
4.0
 40
4.0
 40
4.0
 40
5.0
 40
5.0
 40
5.0
 40
6.0
 40
6.0
 40
6.0
 40
7.0
 40
7.0
 40
7.0
 40
7.0
 10
20.83731553298512
 20
-142.1563530460581
 10
21.08587917224589
 20
-142.1112222952014
 10
21.41333549811889
 20
-142.0717759518953
 10
21.81434461260197
 20
-142.0717759518953
 10
23.20340711225471
 20
-142.0717759518953
 10
23.31623398939664
 20
-142.9638834278007
 10
23.31623398939664
 20
-143.302708568775
 10
23.31623398939664
 20
-144.3134995841473
 10
22.50887586242834
 20
-144.67489010055
 10
21.74647623154255
 20
-144.67489010055
 10
21.58283419599318
 20
-144.67489010055
 10
21.43590087354728
 20
-144.6692056929994
 10
21.30602077375336
 20
-144.6352715024697
 10
21.30602077375336
 20
-144.6352715024697
 10
21.30602077375336
 20
-146.4027777411771
 10
21.30602077375336
 20
-146.4027777411771
 10
21.30602077375336
 20
-146.4027777411771
 10
20.83731553298512
 20
-146.4027777411771
 10
20.83731553298512
 20
-146.4027777411771
 10
20.83731553298512
 20
-146.4027777411771
 10
20.83731553298512
 20
-142.1563530460581
 10
20.83731553298512
 20
-142.1563530460581
 97
        0
 92
        1
 93
        1
 72
     4
 94
        3
 73
     0
 74
     1
 95
       20
 96
       16
 40
0.0
 40
0.0
 40
0.0
 40
0.0
 40
1.0
 40
1.0
 40
1.0
 40
2.0
 40
2.0
 40
2.0
 40
3.0
 40
3.0
 40
3.0
 40
4.0
 40
4.0
 40
4.0
 40
5.0
 40
5.0
 40
5.0
 40
5.0
 10
21.30602077375336
 20
-144.2458034578622
 10
21.42470431322021
 20
-144.2795653936176
 10
21.57714978844252
 20
-144.2909342087189
 10
21.75784504664387
 20
-144.2909342087189
 10
22.43549532859252
 20
-144.2909342087189
 10
22.84770100340266
 20
-143.9521090677446
 10
22.84770100340266
 20
-143.3366427593047
 10
22.84770100340266
 20
-142.7211764508648
 10
22.40724554561347
 20
-142.4500474361757
 10
21.81985676537837
 20
-142.4500474361757
 10
21.58283419599318
 20
-142.4500474361757
 10
21.40765109056823
 20
-142.4726128116041
 10
21.30602077375336
 20
-142.4951781870325
 10
21.30602077375336
 20
-142.4951781870325
 10
21.30602077375336
 20
-144.2458034578622
 10
21.30602077375336
 20
-144.2458034578622
 97
        0
 75
     2
 76
     1
 98
        0
  0
SPLINE
  5
13F
330
12A
100
AcDbEntity
  8
\U+30EC\U+30A4\U+30E4\U+30FC 1
370
     0
100
AcDbSpline
210
0.0
220
0.0
230
1.0
 70
    11
 71
     3
 72
    47
 73
    43
 74
     0
 42
0.0000000001
 43
0.0000000001
 40
0.0
 40
0.0
 40
0.0
 40
0.0
 40
1.0
 40
1.0
 40
1.0
 40
2.0
 40
2.0
 40
2.0
 40
3.0
 40
3.0
 40
3.0
 40
4.0
 40
4.0
 40
4.0
 40
5.0
 40
5.0
 40
5.0
 40
6.0
 40
6.0
 40
6.0
 40
7.0
 40
7.0
 40
7.0
 40
8.0
 40
8.0
 40
8.0
 40
9.0
 40
9.0
 40
9.0
 40
10.0
 40
10.0
 40
10.0
 40
11.0
 40
11.0
 40
11.0
 40
12.0
 40
12.0
 40
12.0
 40
13.0
 40
13.0
 40
13.0
 40
14.0
 40
14.0
 40
14.0
 40
14.0
 10
26.44903156890858
 20
-145.5840507991075
 30
0.0
 10
26.44903156890858
 20
-145.9001383098791
 30
0.0
 10
26.4659125367863
 20
-146.1655829170176
 30
0.0
 10
26.47728135188763
 20
-146.4027777411771
 30
0.0
 10
26.47728135188763
 20
-146.4027777411771
 30
0.0
 10
26.05370686197616
 20
-146.4027777411771
 30
0.0
 10
26.05370686197616
 20
-146.4027777411771
 30
0.0
 10
26.05370686197616
 20
-146.4027777411771
 30
0.0
 10
26.03114148654777
 20
-145.9171915325311
 30
0.0
 10
26.03114148654777
 20
-145.9171915325311
 30
0.0
 10
26.03114148654777
 20
-145.9171915325311
 30
0.0
 10
26.01426051867005
 20
-145.9171915325311
 30
0.0
 10
26.01426051867005
 20
-145.9171915325311
 30
0.0
 10
25.8730116037748
 20
-146.159898509467
 30
0.0
 10
25.55675183822887
 20
-146.4704738674623
 30
0.0
 10
25.03171928627679
 20
-146.4704738674623
 30
0.0
 10
24.56869845305922
 20
-146.4704738674623
 30
0.0
 10
24.02092827090449
 20
-146.205201515098
 30
0.0
 10
24.02092827090449
 20
-145.1435953413183
 30
0.0
 10
24.02092827090449
 20
-145.1435953413183
 30
0.0
 10
24.02092827090449
 20
-143.3252739442034
 30
0.0
 10
24.02092827090449
 20
-143.3252739442034
 30
0.0
 10
24.02092827090449
 20
-143.3252739442034
 30
0.0
 10
24.48963351167273
 20
-143.3252739442034
 30
0.0
 10
24.48963351167273
 20
-143.3252739442034
 30
0.0
 10
24.48963351167273
 20
-143.3252739442034
 30
0.0
 10
24.48963351167273
 20
-145.0588459923811
 30
0.0
 10
24.48963351167273
 20
-145.0588459923811
 30
0.0
 10
24.48963351167273
 20
-145.6574313329433
 30
0.0
 10
24.66464436232342
 20
-146.0753214153041
 30
0.0
 10
25.17848035394844
 20
-146.0753214153041
 30
0.0
 10
25.54555527790181
 20
-146.0753214153041
 30
0.0
 10
25.98032632814034
 20
-145.7816270251865
 30
0.0
 10
25.98032632814034
 20
-145.2395412505825
 30
0.0
 10
25.98032632814034
 20
-145.2395412505825
 30
0.0
 10
25.98032632814034
 20
-143.3252739442034
 30
0.0
 10
25.98032632814034
 20
-143.3252739442034
 30
0.0
 10
25.98032632814034
 20
-143.3252739442034
 30
0.0
 10
26.44903156890858
 20
-143.3252739442034
 30
0.0
 10
26.44903156890858
 20
-143.3252739442034
 30
0.0
 10
26.44903156890858
 20
-143.3252739442034
 30
0.0
 10
26.44903156890858
 20
-145.5840507991075
 30
0.0
 10
26.44903156890858
 20
-145.5840507991075
 30
0.0
  0
HATCH
  5
140
330
12A
100
AcDbEntity
  8
\U+30EC\U+30A4\U+30E4\U+30FC 1
 62
     7
420
 16777215
100
AcDbHatch
 10
0.0
 20
0.0
 30
0.0
210
0.0
220
0.0
230
1.0
  2
SOLID
 70
     1
 71
     0
 91
        1
 92
        1
 93
        1
 72
     4
 94
        3
 73
     0
 74
     1
 95
       47
 96
       43
 40
0.0
 40
0.0
 40
0.0
 40
0.0
 40
1.0
 40
1.0
 40
1.0
 40
2.0
 40
2.0
 40
2.0
 40
3.0
 40
3.0
 40
3.0
 40
4.0
 40
4.0
 40
4.0
 40
5.0
 40
5.0
 40
5.0
 40
6.0
 40
6.0
 40
6.0
 40
7.0
 40
7.0
 40
7.0
 40
8.0
 40
8.0
 40
8.0
 40
9.0
 40
9.0
 40
9.0
 40
10.0
 40
10.0
 40
10.0
 40
11.0
 40
11.0
 40
11.0
 40
12.0
 40
12.0
 40
12.0
 40
13.0
 40
13.0
 40
13.0
 40
14.0
 40
14.0
 40
14.0
 40
14.0
 10
26.44903156890858
 20
-145.5840507991075
 10
26.44903156890858
 20
-145.9001383098791
 10
26.4659125367863
 20
-146.1655829170176
 10
26.47728135188763
 20
-146.4027777411771
 10
26.47728135188763
 20
-146.4027777411771
 10
26.05370686197616
 20
-146.4027777411771
 10
26.05370686197616
 20
-146.4027777411771
 10
26.05370686197616
 20
-146.4027777411771
 10
26.03114148654777
 20
-145.9171915325311
 10
26.03114148654777
 20
-145.9171915325311
 10
26.03114148654777
 20
-145.9171915325311
 10
26.01426051867005
 20
-145.9171915325311
 10
26.01426051867005
 20
-145.9171915325311
 10
25.8730116037748
 20
-146.159898509467
 10
25.55675183822887
 20
-146.4704738674623
 10
25.03171928627679
 20
-146.4704738674623
 10
24.56869845305922
 20
-146.4704738674623
 10
24.02092827090449
 20
-146.205201515098
 10
24.02092827090449
 20
-145.1435953413183
 10
24.02092827090449
 20
-145.1435953413183
 10
24.02092827090449
 20
-143.3252739442034
 10
24.02092827090449
 20
-143.3252739442034
 10
24.02092827090449
 20
-143.3252739442034
 10
24.48963351167273
 20
-143.3252739442034
 10
24.48963351167273
 20
-143.3252739442034
 10
24.48963351167273
 20
-143.3252739442034
 10
24.48963351167273
 20
-145.0588459923811
 10
24.48963351167273
 20
-145.0588459923811
 10
24.48963351167273
 20
-145.6574313329433
 10
24.66464436232342
 20
-146.0753214153041
 10
25.17848035394844
 20
-146.0753214153041
 10
25.54555527790181
 20
-146.0753214153041
 10
25.98032632814034
 20
-145.7816270251865
 10
25.98032632814034
 20
-145.2395412505825
 10
25.98032632814034
 20
-145.2395412505825
 10
25.98032632814034
 20
-143.3252739442034
 10
25.98032632814034
 20
-143.3252739442034
 10
25.98032632814034
 20
-143.3252739442034
 10
26.44903156890858
 20
-143.3252739442034
 10
26.44903156890858
 20
-143.3252739442034
 10
26.44903156890858
 20
-143.3252739442034
 10
26.44903156890858
 20
-145.5840507991075
 10
26.44903156890858
 20
-145.5840507991075
 97
        0
 75
     2
 76
     1
 98
        0
  0
SPLINE
  5
141
330
12A
100
AcDbEntity
  8
\U+30EC\U+30A4\U+30E4\U+30FC 1
370
     0
100
AcDbSpline
210
0.0
220
0.0
230
1.0
 70
    11
 71
     3
 72
    47
 73
    43
 74
     0
 42
0.0000000001
 43
0.0000000001
 40
0.0
 40
0.0
 40
0.0
 40
0.0
 40
1.0
 40
1.0
 40
1.0
 40
2.0
 40
2.0
 40
2.0
 40
3.0
 40
3.0
 40
3.0
 40
4.0
 40
4.0
 40
4.0
 40
5.0
 40
5.0
 40
5.0
 40
6.0
 40
6.0
 40
6.0
 40
7.0
 40
7.0
 40
7.0
 40
8.0
 40
8.0
 40
8.0
 40
9.0
 40
9.0
 40
9.0
 40
10.0
 40
10.0
 40
10.0
 40
11.0
 40
11.0
 40
11.0
 40
12.0
 40
12.0
 40
12.0
 40
13.0
 40
13.0
 40
13.0
 40
14.0
 40
14.0
 40
14.0
 40
14.0
 10
28.8135728552098
 20
-143.7939791849716
 30
0.0
 10
28.70074597806787
 20
-143.7205986511358
 30
0.0
 10
28.49180093688747
 20
-143.6132839267703
 30
0.0
 10
28.21498751464764
 20
-143.6132839267703
 30
0.0
 10
27.87633462844758
 20
-143.6132839267703
 30
0.0
 10
27.69563937024623
 20
-143.8222289679507
 30
0.0
 10
27.69563937024623
 20
-144.0706203524372
 30
0.0
 10
27.69563937024623
 20
-144.3360649595757
 30
0.0
 10
27.87065022089692
 20
-144.460260651819
 30
0.0
 10
28.26597492782934
 20
-144.6297593496933
 30
0.0
 10
28.76275769680237
 20
-144.833019983323
 30
0.0
 10
29.05076767936925
 20
-145.0927801829108
 30
0.0
 10
29.05076767936925
 20
-145.5558010161284
 30
0.0
 10
29.05076767936925
 20
-146.1035711982831
 30
0.0
 10
28.63287759700845
 20
-146.4649617146858
 30
0.0
 10
27.96091172261047
 20
-146.4649617146858
 30
0.0
 10
27.65602077216586
 20
-146.4649617146858
 30
0.0
 10
27.36232638204831
 20
-146.3802123657487
 30
0.0
 10
27.15355359564217
 20
-146.2560166735055
 30
0.0
 10
27.15355359564217
 20
-146.2560166735055
 30
0.0
 10
27.28343369543609
 20
-145.8946261571027
 30
0.0
 10
27.28343369543609
 20
-145.8946261571027
 30
0.0
 10
27.44707573098545
 20
-145.990572066367
 30
0.0
 10
27.71252033812396
 20
-146.1035711982831
 30
0.0
 10
27.97796494526245
 20
-146.1035711982831
 30
0.0
 10
28.3901706200726
 20
-146.1035711982831
 30
0.0
 10
28.59343125370234
 20
-145.8832573420014
 30
0.0
 10
28.59343125370234
 20
-145.6066161745358
 30
0.0
 10
28.59343125370234
 20
-145.318606191969
 30
0.0
 10
28.42961696337871
 20
-145.160476309196
 30
0.0
 10
28.02309569611923
 20
-144.9966620188724
 30
0.0
 10
27.50357529694355
 20
-144.7878892324662
 30
0.0
 10
27.23813068980505
 20
-144.4998792498994
 30
0.0
 10
27.23813068980505
 20
-144.1271199183953
 30
0.0
 10
27.23813068980505
 20
-143.6472181173
 30
0.0
 10
27.62208658163615
 20
-143.2518934103676
 30
0.0
 10
28.24323729762669
 20
-143.2518934103676
 30
0.0
 10
28.53693168774424
 20
-143.2518934103676
 30
0.0
 10
28.78532307223075
 20
-143.3366427593047
 30
0.0
 10
28.94913736255439
 20
-143.4382730761196
 30
0.0
 10
28.94913736255439
 20
-143.4382730761196
 30
0.0
 10
28.8135728552098
 20
-143.7939791849716
 30
0.0
 10
28.8135728552098
 20
-143.7939791849716
 30
0.0
  0
HATCH
  5
142
330
12A
100
AcDbEntity
  8
\U+30EC\U+30A4\U+30E4\U+30FC 1
 62
     7
420
 16777215
100
AcDbHatch
 10
0.0
 20
0.0
 30
0.0
210
0.0
220
0.0
230
1.0
  2
SOLID
 70
     1
 71
     0
 91
        1
 92
        1
 93
        1
 72
     4
 94
        3
 73
     0
 74
     1
 95
       47
 96
       43
 40
0.0
 40
0.0
 40
0.0
 40
0.0
 40
1.0
 40
1.0
 40
1.0
 40
2.0
 40
2.0
 40
2.0
 40
3.0
 40
3.0
 40
3.0
 40
4.0
 40
4.0
 40
4.0
 40
5.0
 40
5.0
 40
5.0
 40
6.0
 40
6.0
 40
6.0
 40
7.0
 40
7.0
 40
7.0
 40
8.0
 40
8.0
 40
8.0
 40
9.0
 40
9.0
 40
9.0
 40
10.0
 40
10.0
 40
10.0
 40
11.0
 40
11.0
 40
11.0
 40
12.0
 40
12.0
 40
12.0
 40
13.0
 40
13.0
 40
13.0
 40
14.0
 40
14.0
 40
14.0
 40
14.0
 10
28.8135728552098
 20
-143.7939791849716
 10
28.70074597806787
 20
-143.7205986511358
 10
28.49180093688747
 20
-143.6132839267703
 10
28.21498751464764
 20
-143.6132839267703
 10
27.87633462844758
 20
-143.6132839267703
 10
27.69563937024623
 20
-143.8222289679507
 10
27.69563937024623
 20
-144.0706203524372
 10
27.69563937024623
 20
-144.3360649595757
 10
27.87065022089692
 20
-144.460260651819
 10
28.26597492782934
 20
-144.6297593496933
 10
28.76275769680237
 20
-144.833019983323
 10
29.05076767936925
 20
-145.0927801829108
 10
29.05076767936925
 20
-145.5558010161284
 10
29.05076767936925
 20
-146.1035711982831
 10
28.63287759700845
 20
-146.4649617146858
 10
27.96091172261047
 20
-146.4649617146858
 10
27.65602077216586
 20
-146.4649617146858
 10
27.36232638204831
 20
-146.3802123657487
 10
27.15355359564217
 20
-146.2560166735055
 10
27.15355359564217
 20
-146.2560166735055
 10
27.28343369543609
 20
-145.8946261571027
 10
27.28343369543609
 20
-145.8946261571027
 10
27.44707573098545
 20
-145.990572066367
 10
27.71252033812396
 20
-146.1035711982831
 10
27.97796494526245
 20
-146.1035711982831
 10
28.3901706200726
 20
-146.1035711982831
 10
28.59343125370234
 20
-145.8832573420014
 10
28.59343125370234
 20
-145.6066161745358
 10
28.59343125370234
 20
-145.318606191969
 10
28.42961696337871
 20
-145.160476309196
 10
28.02309569611923
 20
-144.9966620188724
 10
27.50357529694355
 20
-144.7878892324662
 10
27.23813068980505
 20
-144.4998792498994
 10
27.23813068980505
 20
-144.1271199183953
 10
27.23813068980505
 20
-143.6472181173
 10
27.62208658163615
 20
-143.2518934103676
 10
28.24323729762669
 20
-143.2518934103676
 10
28.53693168774424
 20
-143.2518934103676
 10
28.78532307223075
 20
-143.3366427593047
 10
28.94913736255439
 20
-143.4382730761196
 10
28.94913736255439
 20
-143.4382730761196
 10
28.8135728552098
 20
-143.7939791849716
 10
28.8135728552098
 20
-143.7939791849716
 97
        0
 75
     2
 76
     1
 98
        0
  0
SPLINE
  5
143
330
12A
100
AcDbEntity
  8
\U+30EC\U+30A4\U+30E4\U+30FC 1
370
     0
100
AcDbSpline
210
0.0
220
0.0
230
1.0
 70
    11
 71
     3
 72
    44
 73
    40
 74
     0
 42
0.0000000001
 43
0.0000000001
 40
0.0
 40
0.0
 40
0.0
 40
0.0
 40
1.0
 40
1.0
 40
1.0
 40
2.0
 40
2.0
 40
2.0
 40
3.0
 40
3.0
 40
3.0
 40
4.0
 40
4.0
 40
4.0
 40
5.0
 40
5.0
 40
5.0
 40
6.0
 40
6.0
 40
6.0
 40
7.0
 40
7.0
 40
7.0
 40
8.0
 40
8.0
 40
8.0
 40
9.0
 40
9.0
 40
9.0
 40
10.0
 40
10.0
 40
10.0
 40
11.0
 40
11.0
 40
11.0
 40
12.0
 40
12.0
 40
12.0
 40
13.0
 40
13.0
 40
13.0
 40
13.0
 10
32.22904051928649
 20
-146.4027777411771
 30
0.0
 10
32.22904051928649
 20
-146.4027777411771
 30
0.0
 10
31.76033527851825
 20
-146.4027777411771
 30
0.0
 10
31.76033527851825
 20
-146.4027777411771
 30
0.0
 10
31.76033527851825
 20
-146.4027777411771
 30
0.0
 10
31.76033527851825
 20
-144.5844563440622
 30
0.0
 10
31.76033527851825
 20
-144.5844563440622
 30
0.0
 10
31.76033527851825
 20
-144.0819891675385
 30
0.0
 10
31.5796400203169
 20
-143.6472181173
 30
0.0
 10
31.0487508060399
 20
-143.6472181173
 30
0.0
 10
30.68736028963719
 20
-143.6472181173
 30
0.0
 10
30.23570827152093
 20
-143.946424660194
 30
0.0
 10
30.23570827152093
 20
-144.5110758102264
 30
0.0
 10
30.23570827152093
 20
-144.5110758102264
 30
0.0
 10
30.23570827152093
 20
-146.4027777411771
 30
0.0
 10
30.23570827152093
 20
-146.4027777411771
 30
0.0
 10
30.23570827152093
 20
-146.4027777411771
 30
0.0
 10
29.76700303075269
 20
-146.4027777411771
 30
0.0
 10
29.76700303075269
 20
-146.4027777411771
 30
0.0
 10
29.76700303075269
 20
-146.4027777411771
 30
0.0
 10
29.76700303075269
 20
-141.8853962861432
 30
0.0
 10
29.76700303075269
 20
-141.8853962861432
 30
0.0
 10
29.76700303075269
 20
-141.8853962861432
 30
0.0
 10
30.23570827152093
 20
-141.8853962861432
 30
0.0
 10
30.23570827152093
 20
-141.8853962861432
 30
0.0
 10
30.23570827152093
 20
-141.8853962861432
 30
0.0
 10
30.23570827152093
 20
-143.7996635925223
 30
0.0
 10
30.23570827152093
 20
-143.7996635925223
 30
0.0
 10
30.23570827152093
 20
-143.7996635925223
 30
0.0
 10
30.246904831848
 20
-143.7996635925223
 30
0.0
 10
30.246904831848
 20
-143.7996635925223
 30
0.0
 10
30.450337720252
 20
-143.460838451548
 30
0.0
 10
30.82292479698177
 20
-143.2518934103676
 30
0.0
 10
31.2011962812622
 20
-143.2518934103676
 30
0.0
 10
31.5796400203169
 20
-143.2518934103676
 30
0.0
 10
32.22904051928649
 20
-143.4834038269764
 30
0.0
 10
32.22904051928649
 20
-144.5281290328784
 30
0.0
 10
32.22904051928649
 20
-144.5281290328784
 30
0.0
 10
32.22904051928649
 20
-146.4027777411771
 30
0.0
 10
32.22904051928649
 20
-146.4027777411771
 30
0.0
  0
HATCH
  5
144
330
12A
100
AcDbEntity
  8
\U+30EC\U+30A4\U+30E4\U+30FC 1
 62
     7
420
 16777215
100
AcDbHatch
 10
0.0
 20
0.0
 30
0.0
210
0.0
220
0.0
230
1.0
  2
SOLID
 70
     1
 71
     0
 91
        1
 92
        1
 93
        1
 72
     4
 94
        3
 73
     0
 74
     1
 95
       44
 96
       40
 40
0.0
 40
0.0
 40
0.0
 40
0.0
 40
1.0
 40
1.0
 40
1.0
 40
2.0
 40
2.0
 40
2.0
 40
3.0
 40
3.0
 40
3.0
 40
4.0
 40
4.0
 40
4.0
 40
5.0
 40
5.0
 40
5.0
 40
6.0
 40
6.0
 40
6.0
 40
7.0
 40
7.0
 40
7.0
 40
8.0
 40
8.0
 40
8.0
 40
9.0
 40
9.0
 40
9.0
 40
10.0
 40
10.0
 40
10.0
 40
11.0
 40
11.0
 40
11.0
 40
12.0
 40
12.0
 40
12.0
 40
13.0
 40
13.0
 40
13.0
 40
13.0
 10
32.22904051928649
 20
-146.4027777411771
 10
32.22904051928649
 20
-146.4027777411771
 10
31.76033527851825
 20
-146.4027777411771
 10
31.76033527851825
 20
-146.4027777411771
 10
31.76033527851825
 20
-146.4027777411771
 10
31.76033527851825
 20
-144.5844563440622
 10
31.76033527851825
 20
-144.5844563440622
 10
31.76033527851825
 20
-144.0819891675385
 10
31.5796400203169
 20
-143.6472181173
 10
31.0487508060399
 20
-143.6472181173
 10
30.68736028963719
 20
-143.6472181173
 10
30.23570827152093
 20
-143.946424660194
 10
30.23570827152093
 20
-144.5110758102264
 10
30.23570827152093
 20
-144.5110758102264
 10
30.23570827152093
 20
-146.4027777411771
 10
30.23570827152093
 20
-146.4027777411771
 10
30.23570827152093
 20
-146.4027777411771
 10
29.76700303075269
 20
-146.4027777411771
 10
29.76700303075269
 20
-146.4027777411771
 10
29.76700303075269
 20
-146.4027777411771
 10
29.76700303075269
 20
-141.8853962861432
 10
29.76700303075269
 20
-141.8853962861432
 10
29.76700303075269
 20
-141.8853962861432
 10
30.23570827152093
 20
-141.8853962861432
 10
30.23570827152093
 20
-141.8853962861432
 10
30.23570827152093
 20
-141.8853962861432
 10
30.23570827152093
 20
-143.7996635925223
 10
30.23570827152093
 20
-143.7996635925223
 10
30.23570827152093
 20
-143.7996635925223
 10
30.246904831848
 20
-143.7996635925223
 10
30.246904831848
 20
-143.7996635925223
 10
30.450337720252
 20
-143.460838451548
 10
30.82292479698177
 20
-143.2518934103676
 10
31.2011962812622
 20
-143.2518934103676
 10
31.5796400203169
 20
-143.2518934103676
 10
32.22904051928649
 20
-143.4834038269764
 10
32.22904051928649
 20
-144.5281290328784
 10
32.22904051928649
 20
-144.5281290328784
 10
32.22904051928649
 20
-146.4027777411771
 10
32.22904051928649
 20
-146.4027777411771
 97
        0
 75
     2
 76
     1
 98
        0
  0
SPLINE
  5
145
330
12A
100
AcDbEntity
  8
\U+30EC\U+30A4\U+30E4\U+30FC 1
370
     0
100
AcDbSpline
210
0.0
220
0.0
230
1.0
 70
    11
 71
     3
 72
    32
 73
    28
 74
     0
 42
0.0000000001
 43
0.0000000001
 40
0.0
 40
0.0
 40
0.0
 40
0.0
 40
1.0
 40
1.0
 40
1.0
 40
2.0
 40
2.0
 40
2.0
 40
3.0
 40
3.0
 40
3.0
 40
4.0
 40
4.0
 40
4.0
 40
5.0
 40
5.0
 40
5.0
 40
6.0
 40
6.0
 40
6.0
 40
7.0
 40
7.0
 40
7.0
 40
8.0
 40
8.0
 40
8.0
 40
9.0
 40
9.0
 40
9.0
 40
9.0
 10
35.31636283839313
 20
-146.2728976413832
 30
0.0
 10
35.14117973296818
 20
-146.3576469903203
 30
0.0
 10
34.81940781464584
 20
-146.4649617146858
 30
0.0
 10
34.35070257387761
 20
-146.4649617146858
 30
0.0
 10
33.4529106904215
 20
-146.4649617146858
 30
0.0
 10
32.9165093233681
 20
-145.832442183594
 30
0.0
 10
32.9165093233681
 20
-144.9120849247095
 30
0.0
 10
32.9165093233681
 20
-143.946424660194
 30
0.0
 10
33.45859509797216
 20
-143.2518934103676
 30
0.0
 10
34.28851860036885
 20
-143.2518934103676
 30
0.0
 10
35.23729789700665
 20
-143.2518934103676
 30
0.0
 10
35.4800048739425
 20
-144.1214355108446
 30
0.0
 10
35.4800048739425
 20
-144.6580091326723
 30
0.0
 10
35.4800048739425
 20
-144.7651516022636
 30
0.0
 10
35.4744927211661
 20
-144.8442165436501
 30
0.0
 10
35.46880831361544
 20
-144.9177693322601
 30
0.0
 10
35.46880831361544
 20
-144.9177693322601
 30
0.0
 10
33.37384574903501
 20
-144.9177693322601
 30
0.0
 10
33.37384574903501
 20
-144.9177693322601
 30
0.0
 10
33.37953015658567
 20
-145.7702582100852
 30
0.0
 10
33.86511636523164
 20
-146.0922023831818
 30
0.0
 10
34.41839870016276
 20
-146.0922023831818
 30
0.0
 10
34.80252684676812
 20
-146.0922023831818
 30
0.0
 10
35.03403726337691
 20
-146.0131374417953
 30
0.0
 10
35.22592908190533
 20
-145.9340725004089
 30
0.0
 10
35.22592908190533
 20
-145.9340725004089
 30
0.0
 10
35.31636283839313
 20
-146.2728976413832
 30
0.0
 10
35.31636283839313
 20
-146.2728976413832
 30
0.0
  0
SPLINE
  5
146
330
12A
100
AcDbEntity
  8
\U+30EC\U+30A4\U+30E4\U+30FC 1
370
     0
100
AcDbSpline
210
0.0
220
0.0
230
1.0
 70
    11
 71
     3
 72
    14
 73
    10
 74
     0
 42
0.0000000001
 43
0.0000000001
 40
0.0
 40
0.0
 40
0.0
 40
0.0
 40
1.0
 40
1.0
 40
1.0
 40
2.0
 40
2.0
 40
2.0
 40
3.0
 40
3.0
 40
3.0
 40
3.0
 10
35.01698404072492
 20
-144.5675753761845
 30
0.0
 10
35.02266844827558
 20
-144.1496852938237
 30
0.0
 10
34.8476575976249
 20
-143.6075995192196
 30
0.0
 10
34.24338784951207
 20
-143.6075995192196
 30
0.0
 10
33.67873669947962
 20
-143.6075995192196
 30
0.0
 10
33.43034531499311
 20
-144.1441731410473
 30
0.0
 10
33.38504230936208
 20
-144.5675753761845
 30
0.0
 10
33.38504230936208
 20
-144.5675753761845
 30
0.0
 10
35.01698404072492
 20
-144.5675753761845
 30
0.0
 10
35.01698404072492
 20
-144.5675753761845
 30
0.0
  0
HATCH
  5
147
330
12A
100
AcDbEntity
  8
\U+30EC\U+30A4\U+30E4\U+30FC 1
 62
     7
420
 16777215
100
AcDbHatch
 10
0.0
 20
0.0
 30
0.0
210
0.0
220
0.0
230
1.0
  2
SOLID
 70
     1
 71
     0
 91
        2
 92
        1
 93
        1
 72
     4
 94
        3
 73
     0
 74
     1
 95
       32
 96
       28
 40
0.0
 40
0.0
 40
0.0
 40
0.0
 40
1.0
 40
1.0
 40
1.0
 40
2.0
 40
2.0
 40
2.0
 40
3.0
 40
3.0
 40
3.0
 40
4.0
 40
4.0
 40
4.0
 40
5.0
 40
5.0
 40
5.0
 40
6.0
 40
6.0
 40
6.0
 40
7.0
 40
7.0
 40
7.0
 40
8.0
 40
8.0
 40
8.0
 40
9.0
 40
9.0
 40
9.0
 40
9.0
 10
35.31636283839313
 20
-146.2728976413832
 10
35.14117973296818
 20
-146.3576469903203
 10
34.81940781464584
 20
-146.4649617146858
 10
34.35070257387761
 20
-146.4649617146858
 10
33.4529106904215
 20
-146.4649617146858
 10
32.9165093233681
 20
-145.832442183594
 10
32.9165093233681
 20
-144.9120849247095
 10
32.9165093233681
 20
-143.946424660194
 10
33.45859509797216
 20
-143.2518934103676
 10
34.28851860036885
 20
-143.2518934103676
 10
35.23729789700665
 20
-143.2518934103676
 10
35.4800048739425
 20
-144.1214355108446
 10
35.4800048739425
 20
-144.6580091326723
 10
35.4800048739425
 20
-144.7651516022636
 10
35.4744927211661
 20
-144.8442165436501
 10
35.46880831361544
 20
-144.9177693322601
 10
35.46880831361544
 20
-144.9177693322601
 10
33.37384574903501
 20
-144.9177693322601
 10
33.37384574903501
 20
-144.9177693322601
 10
33.37953015658567
 20
-145.7702582100852
 10
33.86511636523164
 20
-146.0922023831818
 10
34.41839870016276
 20
-146.0922023831818
 10
34.80252684676812
 20
-146.0922023831818
 10
35.03403726337691
 20
-146.0131374417953
 10
35.22592908190533
 20
-145.9340725004089
 10
35.22592908190533
 20
-145.9340725004089
 10
35.31636283839313
 20
-146.2728976413832
 10
35.31636283839313
 20
-146.2728976413832
 97
        0
 92
        1
 93
        1
 72
     4
 94
        3
 73
     0
 74
     1
 95
       14
 96
       10
 40
0.0
 40
0.0
 40
0.0
 40
0.0
 40
1.0
 40
1.0
 40
1.0
 40
2.0
 40
2.0
 40
2.0
 40
3.0
 40
3.0
 40
3.0
 40
3.0
 10
35.01698404072492
 20
-144.5675753761845
 10
35.02266844827558
 20
-144.1496852938237
 10
34.8476575976249
 20
-143.6075995192196
 10
34.24338784951207
 20
-143.6075995192196
 10
33.67873669947962
 20
-143.6075995192196
 10
33.43034531499311
 20
-144.1441731410473
 10
33.38504230936208
 20
-144.5675753761845
 10
33.38504230936208
 20
-144.5675753761845
 10
35.01698404072492
 20
-144.5675753761845
 10
35.01698404072492
 20
-144.5675753761845
 97
        0
 75
     2
 76
     1
 98
        0
  0
SPLINE
  5
148
330
12A
100
AcDbEntity
  8
\U+30EC\U+30A4\U+30E4\U+30FC 1
370
     0
100
AcDbSpline
210
0.0
220
0.0
230
1.0
 70
    11
 71
     3
 72
    41
 73
    37
 74
     0
 42
0.0000000001
 43
0.0000000001
 40
0.0
 40
0.0
 40
0.0
 40
0.0
 40
1.0
 40
1.0
 40
1.0
 40
2.0
 40
2.0
 40
2.0
 40
3.0
 40
3.0
 40
3.0
 40
4.0
 40
4.0
 40
4.0
 40
5.0
 40
5.0
 40
5.0
 40
6.0
 40
6.0
 40
6.0
 40
7.0
 40
7.0
 40
7.0
 40
8.0
 40
8.0
 40
8.0
 40
9.0
 40
9.0
 40
9.0
 40
10.0
 40
10.0
 40
10.0
 40
11.0
 40
11.0
 40
11.0
 40
12.0
 40
12.0
 40
12.0
 40
12.0
 10
37.58513047020441
 20
-143.7205986511358
 30
0.0
 10
37.53431531179698
 20
-143.7149142435852
 30
0.0
 10
37.48350015338954
 20
-143.7092298360345
 30
0.0
 10
37.41563177233012
 20
-143.7092298360345
 30
0.0
 10
36.90748018825577
 20
-143.7092298360345
 30
0.0
 10
36.64771998866793
 20
-144.2118692673324
 30
0.0
 10
36.64771998866793
 20
-144.7313896665081
 30
0.0
 10
36.64771998866793
 20
-144.7313896665081
 30
0.0
 10
36.64771998866793
 20
-146.4027777411771
 30
0.0
 10
36.64771998866793
 20
-146.4027777411771
 30
0.0
 10
36.64771998866793
 20
-146.4027777411771
 30
0.0
 10
36.17901474789969
 20
-146.4027777411771
 30
0.0
 10
36.17901474789969
 20
-146.4027777411771
 30
0.0
 10
36.17901474789969
 20
-146.4027777411771
 30
0.0
 10
36.17901474789969
 20
-144.2458034578622
 30
0.0
 10
36.17901474789969
 20
-144.2458034578622
 30
0.0
 10
36.17901474789969
 20
-143.9181748772149
 30
0.0
 10
36.17333034034903
 20
-143.618968334321
 30
0.0
 10
36.15644937247131
 20
-143.3252739442034
 30
0.0
 10
36.15644937247131
 20
-143.3252739442034
 30
0.0
 10
36.56865504728145
 20
-143.3252739442034
 30
0.0
 10
36.56865504728145
 20
-143.3252739442034
 30
0.0
 10
36.56865504728145
 20
-143.3252739442034
 30
0.0
 10
36.59122042270984
 20
-143.9181748772149
 30
0.0
 10
36.59122042270984
 20
-143.9181748772149
 30
0.0
 10
36.59122042270984
 20
-143.9181748772149
 30
0.0
 10
36.60810139058756
 20
-143.9181748772149
 30
0.0
 10
36.60810139058756
 20
-143.9181748772149
 30
0.0
 10
36.74366589793214
 20
-143.5342189853838
 30
0.0
 10
37.06561007102874
 20
-143.2575778179182
 30
0.0
 10
37.44388155530917
 20
-143.2575778179182
 30
0.0
 10
37.49469671371661
 20
-143.2575778179182
 30
0.0
 10
37.53431531179698
 20
-143.2687743782453
 30
0.0
 10
37.58513047020441
 20
-143.274458785796
 30
0.0
 10
37.58513047020441
 20
-143.274458785796
 30
0.0
 10
37.58513047020441
 20
-143.7205986511358
 30
0.0
 10
37.58513047020441
 20
-143.7205986511358
 30
0.0
  0
HATCH
  5
149
330
12A
100
AcDbEntity
  8
\U+30EC\U+30A4\U+30E4\U+30FC 1
 62
     7
420
 16777215
100
AcDbHatch
 10
0.0
 20
0.0
 30
0.0
210
0.0
220
0.0
230
1.0
  2
SOLID
 70
     1
 71
     0
 91
        1
 92
        1
 93
        1
 72
     4
 94
        3
 73
     0
 74
     1
 95
       41
 96
       37
 40
0.0
 40
0.0
 40
0.0
 40
0.0
 40
1.0
 40
1.0
 40
1.0
 40
2.0
 40
2.0
 40
2.0
 40
3.0
 40
3.0
 40
3.0
 40
4.0
 40
4.0
 40
4.0
 40
5.0
 40
5.0
 40
5.0
 40
6.0
 40
6.0
 40
6.0
 40
7.0
 40
7.0
 40
7.0
 40
8.0
 40
8.0
 40
8.0
 40
9.0
 40
9.0
 40
9.0
 40
10.0
 40
10.0
 40
10.0
 40
11.0
 40
11.0
 40
11.0
 40
12.0
 40
12.0
 40
12.0
 40
12.0
 10
37.58513047020441
 20
-143.7205986511358
 10
37.53431531179698
 20
-143.7149142435852
 10
37.48350015338954
 20
-143.7092298360345
 10
37.41563177233012
 20
-143.7092298360345
 10
36.90748018825577
 20
-143.7092298360345
 10
36.64771998866793
 20
-144.2118692673324
 10
36.64771998866793
 20
-144.7313896665081
 10
36.64771998866793
 20
-144.7313896665081
 10
36.64771998866793
 20
-146.4027777411771
 10
36.64771998866793
 20
-146.4027777411771
 10
36.64771998866793
 20
-146.4027777411771
 10
36.17901474789969
 20
-146.4027777411771
 10
36.17901474789969
 20
-146.4027777411771
 10
36.17901474789969
 20
-146.4027777411771
 10
36.17901474789969
 20
-144.2458034578622
 10
36.17901474789969
 20
-144.2458034578622
 10
36.17901474789969
 20
-143.9181748772149
 10
36.17333034034903
 20
-143.618968334321
 10
36.15644937247131
 20
-143.3252739442034
 10
36.15644937247131
 20
-143.3252739442034
 10
36.56865504728145
 20
-143.3252739442034
 10
36.56865504728145
 20
-143.3252739442034
 10
36.56865504728145
 20
-143.3252739442034
 10
36.59122042270984
 20
-143.9181748772149
 10
36.59122042270984
 20
-143.9181748772149
 10
36.59122042270984
 20
-143.9181748772149
 10
36.60810139058756
 20
-143.9181748772149
 10
36.60810139058756
 20
-143.9181748772149
 10
36.74366589793214
 20
-143.5342189853838
 10
37.06561007102874
 20
-143.2575778179182
 10
37.44388155530917
 20
-143.2575778179182
 10
37.49469671371661
 20
-143.2575778179182
 10
37.53431531179698
 20
-143.2687743782453
 10
37.58513047020441
 20
-143.274458785796
 10
37.58513047020441
 20
-143.274458785796
 10
37.58513047020441
 20
-143.7205986511358
 10
37.58513047020441
 20
-143.7205986511358
 97
        0
 75
     2
 76
     1
 98
        0
  0
POLYLINE
  5
14A
330
12A
100
AcDbEntity
  8
\U+30EC\U+30A4\U+30E4\U+30FC 1
370
     0
100
AcDb2dPolyline
 66
     1
 10
0.0
 20
0.0
 30
0.0
  0
VERTEX
  5
14B
330
14A
100
AcDbEntity
  8
\U+30EC\U+30A4\U+30E4\U+30FC 1
370
     0
100
AcDbVertex
100
AcDb2dVertex
 10
41.73388670831653
 20
-146.4027777411771
 30
0.0
  0
VERTEX
  5
14C
330
14A
100
AcDbEntity
  8
\U+30EC\U+30A4\U+30E4\U+30FC 1
370
     0
100
AcDbVertex
100
AcDb2dVertex
 10
39.46391329308541
 20
-146.4027777411771
 30
0.0
  0
VERTEX
  5
14D
330
14A
100
AcDbEntity
  8
\U+30EC\U+30A4\U+30E4\U+30FC 1
370
     0
100
AcDbVertex
100
AcDb2dVertex
 10
39.46391329308541
 20
-142.1000257348743
 30
0.0
  0
VERTEX
  5
14E
330
14A
100
AcDbEntity
  8
\U+30EC\U+30A4\U+30E4\U+30FC 1
370
     0
100
AcDbVertex
100
AcDb2dVertex
 10
41.63794079905232
 20
-142.1000257348743
 30
0.0
  0
VERTEX
  5
14F
330
14A
100
AcDbEntity
  8
\U+30EC\U+30A4\U+30E4\U+30FC 1
370
     0
100
AcDbVertex
100
AcDb2dVertex
 10
41.63794079905232
 20
-142.4951781870325
 30
0.0
  0
VERTEX
  5
150
330
14A
100
AcDbEntity
  8
\U+30EC\U+30A4\U+30E4\U+30FC 1
370
     0
100
AcDbVertex
100
AcDb2dVertex
 10
39.93261853385366
 20
-142.4951781870325
 30
0.0
  0
VERTEX
  5
151
330
14A
100
AcDbEntity
  8
\U+30EC\U+30A4\U+30E4\U+30FC 1
370
     0
100
AcDbVertex
100
AcDb2dVertex
 10
39.93261853385366
 20
-143.9521090677446
 30
0.0
  0
VERTEX
  5
152
330
14A
100
AcDbEntity
  8
\U+30EC\U+30A4\U+30E4\U+30FC 1
370
     0
100
AcDbVertex
100
AcDb2dVertex
 10
41.53631048223745
 20
-143.9521090677446
 30
0.0
  0
VERTEX
  5
153
330
14A
100
AcDbEntity
  8
\U+30EC\U+30A4\U+30E4\U+30FC 1
370
     0
100
AcDbVertex
100
AcDb2dVertex
 10
41.53631048223745
 20
-144.3417493671264
 30
0.0
  0
VERTEX
  5
154
330
14A
100
AcDbEntity
  8
\U+30EC\U+30A4\U+30E4\U+30FC 1
370
     0
100
AcDbVertex
100
AcDb2dVertex
 10
39.93261853385366
 20
-144.3417493671264
 30
0.0
  0
VERTEX
  5
155
330
14A
100
AcDbEntity
  8
\U+30EC\U+30A4\U+30E4\U+30FC 1
370
     0
100
AcDbVertex
100
AcDb2dVertex
 10
39.93261853385366
 20
-146.0074530342447
 30
0.0
  0
VERTEX
  5
156
330
14A
100
AcDbEntity
  8
\U+30EC\U+30A4\U+30E4\U+30FC 1
370
     0
100
AcDbVertex
100
AcDb2dVertex
 10
41.73388670831653
 20
-146.0074530342447
 30
0.0
  0
VERTEX
  5
157
330
14A
100
AcDbEntity
  8
\U+30EC\U+30A4\U+30E4\U+30FC 1
370
     0
100
AcDbVertex
100
AcDb2dVertex
 10
41.73388670831653
 20
-146.4027777411771
 30
0.0
  0
SEQEND
  5
158
330
14A
100
AcDbEntity
  8
\U+30EC\U+30A4\U+30E4\U+30FC 1
370
     0
  0
HATCH
  5
159
330
12A
100
AcDbEntity
  8
\U+30EC\U+30A4\U+30E4\U+30FC 1
 62
     7
420
 16777215
100
AcDbHatch
 10
0.0
 20
0.0
 30
0.0
210
0.0
220
0.0
230
1.0
  2
SOLID
 70
     1
 71
     0
 91
        1
 92
        1
 93
       12
 72
     1
 10
41.73388670831653
 20
-146.4027777411771
 11
39.46391329308541
 21
-146.4027777411771
 72
     1
 10
39.46391329308541
 20
-146.4027777411771
 11
39.46391329308541
 21
-142.1000257348743
 72
     1
 10
39.46391329308541
 20
-142.1000257348743
 11
41.63794079905232
 21
-142.1000257348743
 72
     1
 10
41.63794079905232
 20
-142.1000257348743
 11
41.63794079905232
 21
-142.4951781870325
 72
     1
 10
41.63794079905232
 20
-142.4951781870325
 11
39.93261853385366
 21
-142.4951781870325
 72
     1
 10
39.93261853385366
 20
-142.4951781870325
 11
39.93261853385366
 21
-143.9521090677446
 72
     1
 10
39.93261853385366
 20
-143.9521090677446
 11
41.53631048223745
 21
-143.9521090677446
 72
     1
 10
41.53631048223745
 20
-143.9521090677446
 11
41.53631048223745
 21
-144.3417493671264
 72
     1
 10
41.53631048223745
 20
-144.3417493671264
 11
39.93261853385366
 21
-144.3417493671264
 72
     1
 10
39.93261853385366
 20
-144.3417493671264
 11
39.93261853385366
 21
-146.0074530342447
 72
     1
 10
39.93261853385366
 20
-146.0074530342447
 11
41.73388670831653
 21
-146.0074530342447
 72
     1
 10
41.73388670831653
 20
-146.0074530342447
 11
41.73388670831653
 21
-146.4027777411771
 97
        0
 75
     2
 76
     1
 98
        0
  0
SPLINE
  5
15A
330
12A
100
AcDbEntity
  8
\U+30EC\U+30A4\U+30E4\U+30FC 1
370
     0
100
AcDbSpline
210
0.0
220
0.0
230
1.0
 70
    11
 71
     3
 72
    47
 73
    43
 74
     0
 42
0.0000000001
 43
0.0000000001
 40
0.0
 40
0.0
 40
0.0
 40
0.0
 40
1.0
 40
1.0
 40
1.0
 40
2.0
 40
2.0
 40
2.0
 40
3.0
 40
3.0
 40
3.0
 40
4.0
 40
4.0
 40
4.0
 40
5.0
 40
5.0
 40
5.0
 40
6.0
 40
6.0
 40
6.0
 40
7.0
 40
7.0
 40
7.0
 40
8.0
 40
8.0
 40
8.0
 40
9.0
 40
9.0
 40
9.0
 40
10.0
 40
10.0
 40
10.0
 40
11.0
 40
11.0
 40
11.0
 40
12.0
 40
12.0
 40
12.0
 40
13.0
 40
13.0
 40
13.0
 40
14.0
 40
14.0
 40
14.0
 40
14.0
 10
44.87236869537913
 20
-146.4027777411771
 30
0.0
 10
44.87236869537913
 20
-146.4027777411771
 30
0.0
 10
44.40366345461089
 20
-146.4027777411771
 30
0.0
 10
44.40366345461089
 20
-146.4027777411771
 30
0.0
 10
44.40366345461089
 20
-146.4027777411771
 30
0.0
 10
44.40366345461089
 20
-144.5844563440622
 30
0.0
 10
44.40366345461089
 20
-144.5844563440622
 30
0.0
 10
44.40366345461089
 20
-144.0819891675385
 30
0.0
 10
44.22296819640954
 20
-143.6415337097494
 30
0.0
 10
43.68656682935614
 20
-143.6415337097494
 30
0.0
 10
43.28555771487306
 20
-143.6415337097494
 30
0.0
 10
42.87903644761358
 20
-143.9803588507237
 30
0.0
 10
42.87903644761358
 20
-144.5167602177771
 30
0.0
 10
42.87903644761358
 20
-144.5167602177771
 30
0.0
 10
42.87903644761358
 20
-146.4027777411771
 30
0.0
 10
42.87903644761358
 20
-146.4027777411771
 30
0.0
 10
42.87903644761358
 20
-146.4027777411771
 30
0.0
 10
42.41033120684533
 20
-146.4027777411771
 30
0.0
 10
42.41033120684533
 20
-146.4027777411771
 30
0.0
 10
42.41033120684533
 20
-146.4027777411771
 30
0.0
 10
42.41033120684533
 20
-144.1159233580682
 30
0.0
 10
42.41033120684533
 20
-144.1159233580682
 30
0.0
 10
42.41033120684533
 20
-143.7996635925223
 30
0.0
 10
42.39913464651828
 20
-143.5681531759135
 30
0.0
 10
42.38776583141695
 20
-143.3195895366528
 30
0.0
 10
42.38776583141695
 20
-143.3195895366528
 30
0.0
 10
42.80565591377776
 20
-143.3195895366528
 30
0.0
 10
42.80565591377776
 20
-143.3195895366528
 30
0.0
 10
42.80565591377776
 20
-143.3195895366528
 30
0.0
 10
42.8339056967568
 20
-143.8222289679507
 30
0.0
 10
42.8339056967568
 20
-143.8222289679507
 30
0.0
 10
42.8339056967568
 20
-143.8222289679507
 30
0.0
 10
42.84510225708387
 20
-143.8222289679507
 30
0.0
 10
42.84510225708387
 20
-143.8222289679507
 30
0.0
 10
42.99754773230617
 20
-143.5230224250568
 30
0.0
 10
43.35342609593248
 20
-143.2518934103676
 30
0.0
 10
43.83332789702778
 20
-143.2518934103676
 30
0.0
 10
44.21728378885888
 20
-143.2518934103676
 30
0.0
 10
44.87236869537913
 20
-143.4834038269764
 30
0.0
 10
44.87236869537913
 20
-144.5281290328784
 30
0.0
 10
44.87236869537913
 20
-144.5281290328784
 30
0.0
 10
44.87236869537913
 20
-146.4027777411771
 30
0.0
 10
44.87236869537913
 20
-146.4027777411771
 30
0.0
  0
HATCH
  5
15B
330
12A
100
AcDbEntity
  8
\U+30EC\U+30A4\U+30E4\U+30FC 1
 62
     7
420
 16777215
100
AcDbHatch
 10
0.0
 20
0.0
 30
0.0
210
0.0
220
0.0
230
1.0
  2
SOLID
 70
     1
 71
     0
 91
        1
 92
        1
 93
        1
 72
     4
 94
        3
 73
     0
 74
     1
 95
       47
 96
       43
 40
0.0
 40
0.0
 40
0.0
 40
0.0
 40
1.0
 40
1.0
 40
1.0
 40
2.0
 40
2.0
 40
2.0
 40
3.0
 40
3.0
 40
3.0
 40
4.0
 40
4.0
 40
4.0
 40
5.0
 40
5.0
 40
5.0
 40
6.0
 40
6.0
 40
6.0
 40
7.0
 40
7.0
 40
7.0
 40
8.0
 40
8.0
 40
8.0
 40
9.0
 40
9.0
 40
9.0
 40
10.0
 40
10.0
 40
10.0
 40
11.0
 40
11.0
 40
11.0
 40
12.0
 40
12.0
 40
12.0
 40
13.0
 40
13.0
 40
13.0
 40
14.0
 40
14.0
 40
14.0
 40
14.0
 10
44.87236869537913
 20
-146.4027777411771
 10
44.87236869537913
 20
-146.4027777411771
 10
44.40366345461089
 20
-146.4027777411771
 10
44.40366345461089
 20
-146.4027777411771
 10
44.40366345461089
 20
-146.4027777411771
 10
44.40366345461089
 20
-144.5844563440622
 10
44.40366345461089
 20
-144.5844563440622
 10
44.40366345461089
 20
-144.0819891675385
 10
44.22296819640954
 20
-143.6415337097494
 10
43.68656682935614
 20
-143.6415337097494
 10
43.28555771487306
 20
-143.6415337097494
 10
42.87903644761358
 20
-143.9803588507237
 10
42.87903644761358
 20
-144.5167602177771
 10
42.87903644761358
 20
-144.5167602177771
 10
42.87903644761358
 20
-146.4027777411771
 10
42.87903644761358
 20
-146.4027777411771
 10
42.87903644761358
 20
-146.4027777411771
 10
42.41033120684533
 20
-146.4027777411771
 10
42.41033120684533
 20
-146.4027777411771
 10
42.41033120684533
 20
-146.4027777411771
 10
42.41033120684533
 20
-144.1159233580682
 10
42.41033120684533
 20
-144.1159233580682
 10
42.41033120684533
 20
-143.7996635925223
 10
42.39913464651828
 20
-143.5681531759135
 10
42.38776583141695
 20
-143.3195895366528
 10
42.38776583141695
 20
-143.3195895366528
 10
42.80565591377776
 20
-143.3195895366528
 10
42.80565591377776
 20
-143.3195895366528
 10
42.80565591377776
 20
-143.3195895366528
 10
42.8339056967568
 20
-143.8222289679507
 10
42.8339056967568
 20
-143.8222289679507
 10
42.8339056967568
 20
-143.8222289679507
 10
42.84510225708387
 20
-143.8222289679507
 10
42.84510225708387
 20
-143.8222289679507
 10
42.99754773230617
 20
-143.5230224250568
 10
43.35342609593248
 20
-143.2518934103676
 10
43.83332789702778
 20
-143.2518934103676
 10
44.21728378885888
 20
-143.2518934103676
 10
44.87236869537913
 20
-143.4834038269764
 10
44.87236869537913
 20
-144.5281290328784
 10
44.87236869537913
 20
-144.5281290328784
 10
44.87236869537913
 20
-146.4027777411771
 10
44.87236869537913
 20
-146.4027777411771
 97
        0
 75
     2
 76
     1
 98
        0
  0
SPLINE
  5
15C
330
12A
100
AcDbEntity
  8
\U+30EC\U+30A4\U+30E4\U+30FC 1
370
     0
100
AcDbSpline
210
0.0
220
0.0
230
1.0
 70
    11
 71
     3
 72
    35
 73
    31
 74
     0
 42
0.0000000001
 43
0.0000000001
 40
0.0
 40
0.0
 40
0.0
 40
0.0
 40
1.0
 40
1.0
 40
1.0
 40
2.0
 40
2.0
 40
2.0
 40
3.0
 40
3.0
 40
3.0
 40
4.0
 40
4.0
 40
4.0
 40
5.0
 40
5.0
 40
5.0
 40
6.0
 40
6.0
 40
6.0
 40
7.0
 40
7.0
 40
7.0
 40
8.0
 40
8.0
 40
8.0
 40
9.0
 40
9.0
 40
9.0
 40
10.0
 40
10.0
 40
10.0
 40
10.0
 10
47.8580606976709
 20
-146.2897786092609
 30
0.0
 10
47.72249619032632
 20
-146.3576469903203
 30
0.0
 10
47.41760523988171
 20
-146.4649617146858
 30
0.0
 10
47.0222805329493
 20
-146.4649617146858
 30
0.0
 10
46.14136961737091
 20
-146.4649617146858
 30
0.0
 10
45.55983749946073
 20
-145.8381265911446
 30
0.0
 10
45.55983749946073
 20
-144.8950317020575
 30
0.0
 10
45.55983749946073
 20
-143.946424660194
 30
0.0
 10
46.18650036822768
 20
-143.2518934103676
 30
0.0
 10
47.13527966486549
 20
-143.2518934103676
 30
0.0
 10
47.47961695861621
 20
-143.2518934103676
 30
0.0
 10
47.75625812608177
 20
-143.3535237271824
 30
0.0
 10
47.87494166554863
 20
-143.4157077006912
 30
0.0
 10
47.87494166554863
 20
-143.4157077006912
 30
0.0
 10
47.75625812608177
 20
-143.7939791849716
 30
0.0
 10
47.75625812608177
 20
-143.7939791849716
 30
0.0
 10
47.62655028106212
 20
-143.7205986511358
 30
0.0
 10
47.42311739265811
 20
-143.6358493021987
 30
0.0
 10
47.12391084976417
 20
-143.6358493021987
 30
0.0
 10
46.41249863206007
 20
-143.6358493021987
 30
0.0
 10
46.03973930055604
 20
-144.2061848597818
 30
0.0
 10
46.03973930055604
 20
-144.8669541738527
 30
0.0
 10
46.03973930055604
 20
-145.6123005820865
 30
0.0
 10
46.48587916589589
 20
-146.0808335680805
 30
0.0
 10
47.10702988188644
 20
-146.0808335680805
 30
0.0
 10
47.41192083233105
 20
-146.0808335680805
 30
0.0
 10
47.62086587351146
 20
-145.9962564739176
 30
0.0
 10
47.77331134873376
 20
-145.9283880928582
 30
0.0
 10
47.77331134873376
 20
-145.9283880928582
 30
0.0
 10
47.8580606976709
 20
-146.2897786092609
 30
0.0
 10
47.8580606976709
 20
-146.2897786092609
 30
0.0
  0
HATCH
  5
15D
330
12A
100
AcDbEntity
  8
\U+30EC\U+30A4\U+30E4\U+30FC 1
 62
     7
420
 16777215
100
AcDbHatch
 10
0.0
 20
0.0
 30
0.0
210
0.0
220
0.0
230
1.0
  2
SOLID
 70
     1
 71
     0
 91
        1
 92
        1
 93
        1
 72
     4
 94
        3
 73
     0
 74
     1
 95
       35
 96
       31
 40
0.0
 40
0.0
 40
0.0
 40
0.0
 40
1.0
 40
1.0
 40
1.0
 40
2.0
 40
2.0
 40
2.0
 40
3.0
 40
3.0
 40
3.0
 40
4.0
 40
4.0
 40
4.0
 40
5.0
 40
5.0
 40
5.0
 40
6.0
 40
6.0
 40
6.0
 40
7.0
 40
7.0
 40
7.0
 40
8.0
 40
8.0
 40
8.0
 40
9.0
 40
9.0
 40
9.0
 40
10.0
 40
10.0
 40
10.0
 40
10.0
 10
47.8580606976709
 20
-146.2897786092609
 10
47.72249619032632
 20
-146.3576469903203
 10
47.41760523988171
 20
-146.4649617146858
 10
47.0222805329493
 20
-146.4649617146858
 10
46.14136961737091
 20
-146.4649617146858
 10
45.55983749946073
 20
-145.8381265911446
 10
45.55983749946073
 20
-144.8950317020575
 10
45.55983749946073
 20
-143.946424660194
 10
46.18650036822768
 20
-143.2518934103676
 10
47.13527966486549
 20
-143.2518934103676
 10
47.47961695861621
 20
-143.2518934103676
 10
47.75625812608177
 20
-143.3535237271824
 10
47.87494166554863
 20
-143.4157077006912
 10
47.87494166554863
 20
-143.4157077006912
 10
47.75625812608177
 20
-143.7939791849716
 10
47.75625812608177
 20
-143.7939791849716
 10
47.62655028106212
 20
-143.7205986511358
 10
47.42311739265811
 20
-143.6358493021987
 10
47.12391084976417
 20
-143.6358493021987
 10
46.41249863206007
 20
-143.6358493021987
 10
46.03973930055604
 20
-144.2061848597818
 10
46.03973930055604
 20
-144.8669541738527
 10
46.03973930055604
 20
-145.6123005820865
 10
46.48587916589589
 20
-146.0808335680805
 10
47.10702988188644
 20
-146.0808335680805
 10
47.41192083233105
 20
-146.0808335680805
 10
47.62086587351146
 20
-145.9962564739176
 10
47.77331134873376
 20
-145.9283880928582
 10
47.77331134873376
 20
-145.9283880928582
 10
47.8580606976709
 20
-146.2897786092609
 10
47.8580606976709
 20
-146.2897786092609
 97
        0
 75
     2
 76
     1
 98
        0
  0
POLYLINE
  5
15E
330
12A
100
AcDbEntity
  8
\U+30EC\U+30A4\U+30E4\U+30FC 1
370
     0
100
AcDb2dPolyline
 66
     1
 10
0.0
 20
0.0
 30
0.0
  0
VERTEX
  5
15F
330
15E
100
AcDbEntity
  8
\U+30EC\U+30A4\U+30E4\U+30FC 1
370
     0
100
AcDbVertex
100
AcDb2dVertex
 10
48.9804728067653
 20
-146.4027777411771
 30
0.0
  0
VERTEX
  5
160
330
15E
100
AcDbEntity
  8
\U+30EC\U+30A4\U+30E4\U+30FC 1
370
     0
100
AcDbVertex
100
AcDb2dVertex
 10
48.51176756599706
 20
-146.4027777411771
 30
0.0
  0
VERTEX
  5
161
330
15E
100
AcDbEntity
  8
\U+30EC\U+30A4\U+30E4\U+30FC 1
370
     0
100
AcDbVertex
100
AcDb2dVertex
 10
48.51176756599706
 20
-141.8853962861432
 30
0.0
  0
VERTEX
  5
162
330
15E
100
AcDbEntity
  8
\U+30EC\U+30A4\U+30E4\U+30FC 1
370
     0
100
AcDbVertex
100
AcDb2dVertex
 10
48.9804728067653
 20
-141.8853962861432
 30
0.0
  0
VERTEX
  5
163
330
15E
100
AcDbEntity
  8
\U+30EC\U+30A4\U+30E4\U+30FC 1
370
     0
100
AcDbVertex
100
AcDb2dVertex
 10
48.9804728067653
 20
-146.4027777411771
 30
0.0
  0
SEQEND
  5
164
330
15E
100
AcDbEntity
  8
\U+30EC\U+30A4\U+30E4\U+30FC 1
370
     0
  0
HATCH
  5
165
330
12A
100
AcDbEntity
  8
\U+30EC\U+30A4\U+30E4\U+30FC 1
 62
     7
420
 16777215
100
AcDbHatch
 10
0.0
 20
0.0
 30
0.0
210
0.0
220
0.0
230
1.0
  2
SOLID
 70
     1
 71
     0
 91
        1
 92
        1
 93
        4
 72
     1
 10
48.9804728067653
 20
-146.4027777411771
 11
48.51176756599706
 21
-146.4027777411771
 72
     1
 10
48.51176756599706
 20
-146.4027777411771
 11
48.51176756599706
 21
-141.8853962861432
 72
     1
 10
48.51176756599706
 20
-141.8853962861432
 11
48.9804728067653
 21
-141.8853962861432
 72
     1
 10
48.9804728067653
 20
-141.8853962861432
 11
48.9804728067653
 21
-146.4027777411771
 97
        0
 75
     2
 76
     1
 98
        0
  0
SPLINE
  5
166
330
12A
100
AcDbEntity
  8
\U+30EC\U+30A4\U+30E4\U+30FC 1
370
     0
100
AcDbSpline
210
0.0
220
0.0
230
1.0
 70
    11
 71
     3
 72
    17
 73
    13
 74
     0
 42
0.0000000001
 43
0.0000000001
 40
0.0
 40
0.0
 40
0.0
 40
0.0
 40
1.0
 40
1.0
 40
1.0
 40
2.0
 40
2.0
 40
2.0
 40
3.0
 40
3.0
 40
3.0
 40
4.0
 40
4.0
 40
4.0
 40
4.0
 10
52.52599282541017
 20
-144.8387043908737
 30
0.0
 10
52.52599282541017
 20
-145.9848876588163
 30
0.0
 10
51.76927760207504
 20
-146.4704738674623
 30
0.0
 10
51.08611516735
 20
-146.4704738674623
 30
0.0
 10
50.29546575348516
 20
-146.4704738674623
 30
0.0
 10
49.68568385259594
 20
-145.8775729344507
 30
0.0
 10
49.68568385259594
 20
-144.8838351417304
 30
0.0
 10
49.68568385259594
 20
-143.833597783052
 30
0.0
 10
50.34059650434194
 20
-143.2518934103676
 30
0.0
 10
51.12556151065611
 20
-143.2518934103676
 30
0.0
 10
51.96685382815412
 20
-143.2518934103676
 30
0.0
 10
52.52599282541017
 20
-143.8956095017865
 30
0.0
 10
52.52599282541017
 20
-144.8387043908737
 30
0.0
  0
SPLINE
  5
167
330
12A
100
AcDbEntity
  8
\U+30EC\U+30A4\U+30E4\U+30FC 1
370
     0
100
AcDbSpline
210
0.0
220
0.0
230
1.0
 70
    11
 71
     3
 72
    17
 73
    13
 74
     0
 42
0.0000000001
 43
0.0000000001
 40
0.0
 40
0.0
 40
0.0
 40
0.0
 40
1.0
 40
1.0
 40
1.0
 40
2.0
 40
2.0
 40
2.0
 40
3.0
 40
3.0
 40
3.0
 40
4.0
 40
4.0
 40
4.0
 40
4.0
 10
51.10868054277839
 20
-143.618968334321
 30
0.0
 10
50.44239907593107
 20
-143.618968334321
 30
0.0
 10
50.16558565369125
 20
-144.273880986067
 30
0.0
 10
50.16558565369125
 20
-144.8669541738527
 30
0.0
 10
50.16558565369125
 20
-145.5501166085778
 30
0.0
 10
50.54402939274594
 20
-146.1035711982831
 30
0.0
 10
51.09731172767707
 20
-146.1035711982831
 30
0.0
 10
51.65627847015885
 20
-146.1035711982831
 30
0.0
 10
52.04591876954061
 20
-145.5501166085778
 30
0.0
 10
52.04591876954061
 20
-144.8555853587514
 30
0.0
 10
52.04591876954061
 20
-144.3078151765967
 30
0.0
 10
51.78064641717637
 20
-143.618968334321
 30
0.0
 10
51.10868054277839
 20
-143.618968334321
 30
0.0
  0
HATCH
  5
168
330
12A
100
AcDbEntity
  8
\U+30EC\U+30A4\U+30E4\U+30FC 1
 62
     7
420
 16777215
100
AcDbHatch
 10
0.0
 20
0.0
 30
0.0
210
0.0
220
0.0
230
1.0
  2
SOLID
 70
     1
 71
     0
 91
        2
 92
        1
 93
        1
 72
     4
 94
        3
 73
     0
 74
     1
 95
       17
 96
       13
 40
0.0
 40
0.0
 40
0.0
 40
0.0
 40
1.0
 40
1.0
 40
1.0
 40
2.0
 40
2.0
 40
2.0
 40
3.0
 40
3.0
 40
3.0
 40
4.0
 40
4.0
 40
4.0
 40
4.0
 10
52.52599282541017
 20
-144.8387043908737
 10
52.52599282541017
 20
-145.9848876588163
 10
51.76927760207504
 20
-146.4704738674623
 10
51.08611516735
 20
-146.4704738674623
 10
50.29546575348516
 20
-146.4704738674623
 10
49.68568385259594
 20
-145.8775729344507
 10
49.68568385259594
 20
-144.8838351417304
 10
49.68568385259594
 20
-143.833597783052
 10
50.34059650434194
 20
-143.2518934103676
 10
51.12556151065611
 20
-143.2518934103676
 10
51.96685382815412
 20
-143.2518934103676
 10
52.52599282541017
 20
-143.8956095017865
 10
52.52599282541017
 20
-144.8387043908737
 97
        0
 92
        1
 93
        1
 72
     4
 94
        3
 73
     0
 74
     1
 95
       17
 96
       13
 40
0.0
 40
0.0
 40
0.0
 40
0.0
 40
1.0
 40
1.0
 40
1.0
 40
2.0
 40
2.0
 40
2.0
 40
3.0
 40
3.0
 40
3.0
 40
4.0
 40
4.0
 40
4.0
 40
4.0
 10
51.10868054277839
 20
-143.618968334321
 10
50.44239907593107
 20
-143.618968334321
 10
50.16558565369125
 20
-144.273880986067
 10
50.16558565369125
 20
-144.8669541738527
 10
50.16558565369125
 20
-145.5501166085778
 10
50.54402939274594
 20
-146.1035711982831
 10
51.09731172767707
 20
-146.1035711982831
 10
51.65627847015885
 20
-146.1035711982831
 10
52.04591876954061
 20
-145.5501166085778
 10
52.04591876954061
 20
-144.8555853587514
 10
52.04591876954061
 20
-144.3078151765967
 10
51.78064641717637
 20
-143.618968334321
 10
51.10868054277839
 20
-143.618968334321
 97
        0
 75
     2
 76
     1
 98
        0
  0
SPLINE
  5
169
330
12A
100
AcDbEntity
  8
\U+30EC\U+30A4\U+30E4\U+30FC 1
370
     0
100
AcDbSpline
210
0.0
220
0.0
230
1.0
 70
    11
 71
     3
 72
    47
 73
    43
 74
     0
 42
0.0000000001
 43
0.0000000001
 40
0.0
 40
0.0
 40
0.0
 40
0.0
 40
1.0
 40
1.0
 40
1.0
 40
2.0
 40
2.0
 40
2.0
 40
3.0
 40
3.0
 40
3.0
 40
4.0
 40
4.0
 40
4.0
 40
5.0
 40
5.0
 40
5.0
 40
6.0
 40
6.0
 40
6.0
 40
7.0
 40
7.0
 40
7.0
 40
8.0
 40
8.0
 40
8.0
 40
9.0
 40
9.0
 40
9.0
 40
10.0
 40
10.0
 40
10.0
 40
11.0
 40
11.0
 40
11.0
 40
12.0
 40
12.0
 40
12.0
 40
13.0
 40
13.0
 40
13.0
 40
14.0
 40
14.0
 40
14.0
 40
14.0
 10
54.67590466298033
 20
-143.7939791849716
 30
0.0
 10
54.5630777858384
 20
-143.7205986511358
 30
0.0
 10
54.354132744658
 20
-143.6132839267703
 30
0.0
 10
54.07731932241817
 20
-143.6132839267703
 30
0.0
 10
53.73866643621811
 20
-143.6132839267703
 30
0.0
 10
53.55797117801676
 20
-143.8222289679507
 30
0.0
 10
53.55797117801676
 20
-144.0706203524372
 30
0.0
 10
53.55797117801676
 20
-144.3360649595757
 30
0.0
 10
53.73298202866745
 20
-144.460260651819
 30
0.0
 10
54.12830673559987
 20
-144.6297593496933
 30
0.0
 10
54.6250895045729
 20
-144.833019983323
 30
0.0
 10
54.91309948713978
 20
-145.0927801829108
 30
0.0
 10
54.91309948713978
 20
-145.5558010161284
 30
0.0
 10
54.91309948713978
 20
-146.1035711982831
 30
0.0
 10
54.49520940477898
 20
-146.4649617146858
 30
0.0
 10
53.823243530381
 20
-146.4649617146858
 30
0.0
 10
53.51835257993638
 20
-146.4649617146858
 30
0.0
 10
53.22465818981884
 20
-146.3802123657487
 30
0.0
 10
53.0158854034127
 20
-146.2560166735055
 30
0.0
 10
53.0158854034127
 20
-146.2560166735055
 30
0.0
 10
53.14576550320662
 20
-145.8946261571027
 30
0.0
 10
53.14576550320662
 20
-145.8946261571027
 30
0.0
 10
53.30940753875598
 20
-145.990572066367
 30
0.0
 10
53.57485214589448
 20
-146.1035711982831
 30
0.0
 10
53.84029675303298
 20
-146.1035711982831
 30
0.0
 10
54.25250242784313
 20
-146.1035711982831
 30
0.0
 10
54.45576306147287
 20
-145.8832573420014
 30
0.0
 10
54.45576306147287
 20
-145.6066161745358
 30
0.0
 10
54.45576306147287
 20
-145.318606191969
 30
0.0
 10
54.29194877114924
 20
-145.160476309196
 30
0.0
 10
53.88542750388976
 20
-144.9966620188724
 30
0.0
 10
53.36590710471408
 20
-144.7878892324662
 30
0.0
 10
53.10046249757558
 20
-144.4998792498994
 30
0.0
 10
53.10046249757558
 20
-144.1271199183953
 30
0.0
 10
53.10046249757558
 20
-143.6472181173
 30
0.0
 10
53.48441838940668
 20
-143.2518934103676
 30
0.0
 10
54.10556910539722
 20
-143.2518934103676
 30
0.0
 10
54.39926349551477
 20
-143.2518934103676
 30
0.0
 10
54.64765488000128
 20
-143.3366427593047
 30
0.0
 10
54.81146917032491
 20
-143.4382730761196
 30
0.0
 10
54.81146917032491
 20
-143.4382730761196
 30
0.0
 10
54.67590466298033
 20
-143.7939791849716
 30
0.0
 10
54.67590466298033
 20
-143.7939791849716
 30
0.0
  0
HATCH
  5
16A
330
12A
100
AcDbEntity
  8
\U+30EC\U+30A4\U+30E4\U+30FC 1
 62
     7
420
 16777215
100
AcDbHatch
 10
0.0
 20
0.0
 30
0.0
210
0.0
220
0.0
230
1.0
  2
SOLID
 70
     1
 71
     0
 91
        1
 92
        1
 93
        1
 72
     4
 94
        3
 73
     0
 74
     1
 95
       47
 96
       43
 40
0.0
 40
0.0
 40
0.0
 40
0.0
 40
1.0
 40
1.0
 40
1.0
 40
2.0
 40
2.0
 40
2.0
 40
3.0
 40
3.0
 40
3.0
 40
4.0
 40
4.0
 40
4.0
 40
5.0
 40
5.0
 40
5.0
 40
6.0
 40
6.0
 40
6.0
 40
7.0
 40
7.0
 40
7.0
 40
8.0
 40
8.0
 40
8.0
 40
9.0
 40
9.0
 40
9.0
 40
10.0
 40
10.0
 40
10.0
 40
11.0
 40
11.0
 40
11.0
 40
12.0
 40
12.0
 40
12.0
 40
13.0
 40
13.0
 40
13.0
 40
14.0
 40
14.0
 40
14.0
 40
14.0
 10
54.67590466298033
 20
-143.7939791849716
 10
54.5630777858384
 20
-143.7205986511358
 10
54.354132744658
 20
-143.6132839267703
 10
54.07731932241817
 20
-143.6132839267703
 10
53.73866643621811
 20
-143.6132839267703
 10
53.55797117801676
 20
-143.8222289679507
 10
53.55797117801676
 20
-144.0706203524372
 10
53.55797117801676
 20
-144.3360649595757
 10
53.73298202866745
 20
-144.460260651819
 10
54.12830673559987
 20
-144.6297593496933
 10
54.6250895045729
 20
-144.833019983323
 10
54.91309948713978
 20
-145.0927801829108
 10
54.91309948713978
 20
-145.5558010161284
 10
54.91309948713978
 20
-146.1035711982831
 10
54.49520940477898
 20
-146.4649617146858
 10
53.823243530381
 20
-146.4649617146858
 10
53.51835257993638
 20
-146.4649617146858
 10
53.22465818981884
 20
-146.3802123657487
 10
53.0158854034127
 20
-146.2560166735055
 10
53.0158854034127
 20
-146.2560166735055
 10
53.14576550320662
 20
-145.8946261571027
 10
53.14576550320662
 20
-145.8946261571027
 10
53.30940753875598
 20
-145.990572066367
 10
53.57485214589448
 20
-146.1035711982831
 10
53.84029675303298
 20
-146.1035711982831
 10
54.25250242784313
 20
-146.1035711982831
 10
54.45576306147287
 20
-145.8832573420014
 10
54.45576306147287
 20
-145.6066161745358
 10
54.45576306147287
 20
-145.318606191969
 10
54.29194877114924
 20
-145.160476309196
 10
53.88542750388976
 20
-144.9966620188724
 10
53.36590710471408
 20
-144.7878892324662
 10
53.10046249757558
 20
-144.4998792498994
 10
53.10046249757558
 20
-144.1271199183953
 10
53.10046249757558
 20
-143.6472181173
 10
53.48441838940668
 20
-143.2518934103676
 10
54.10556910539722
 20
-143.2518934103676
 10
54.39926349551477
 20
-143.2518934103676
 10
54.64765488000128
 20
-143.3366427593047
 10
54.81146917032491
 20
-143.4382730761196
 10
54.81146917032491
 20
-143.4382730761196
 10
54.67590466298033
 20
-143.7939791849716
 10
54.67590466298033
 20
-143.7939791849716
 97
        0
 75
     2
 76
     1
 98
        0
  0
SPLINE
  5
16B
330
12A
100
AcDbEntity
  8
\U+30EC\U+30A4\U+30E4\U+30FC 1
370
     0
100
AcDbSpline
210
0.0
220
0.0
230
1.0
 70
    11
 71
     3
 72
    47
 73
    43
 74
     0
 42
0.0000000001
 43
0.0000000001
 40
0.0
 40
0.0
 40
0.0
 40
0.0
 40
1.0
 40
1.0
 40
1.0
 40
2.0
 40
2.0
 40
2.0
 40
3.0
 40
3.0
 40
3.0
 40
4.0
 40
4.0
 40
4.0
 40
5.0
 40
5.0
 40
5.0
 40
6.0
 40
6.0
 40
6.0
 40
7.0
 40
7.0
 40
7.0
 40
8.0
 40
8.0
 40
8.0
 40
9.0
 40
9.0
 40
9.0
 40
10.0
 40
10.0
 40
10.0
 40
11.0
 40
11.0
 40
11.0
 40
12.0
 40
12.0
 40
12.0
 40
13.0
 40
13.0
 40
13.0
 40
14.0
 40
14.0
 40
14.0
 40
14.0
 10
58.04055716864958
 20
-145.5840507991075
 30
0.0
 10
58.04055716864958
 20
-145.9001383098791
 30
0.0
 10
58.05743813652731
 20
-146.1655829170176
 30
0.0
 10
58.06880695162864
 20
-146.4027777411771
 30
0.0
 10
58.06880695162864
 20
-146.4027777411771
 30
0.0
 10
57.64523246171716
 20
-146.4027777411771
 30
0.0
 10
57.64523246171716
 20
-146.4027777411771
 30
0.0
 10
57.64523246171716
 20
-146.4027777411771
 30
0.0
 10
57.62266708628878
 20
-145.9171915325311
 30
0.0
 10
57.62266708628878
 20
-145.9171915325311
 30
0.0
 10
57.62266708628878
 20
-145.9171915325311
 30
0.0
 10
57.60578611841105
 20
-145.9171915325311
 30
0.0
 10
57.60578611841105
 20
-145.9171915325311
 30
0.0
 10
57.46453720351581
 20
-146.159898509467
 30
0.0
 10
57.14827743796988
 20
-146.4704738674623
 30
0.0
 10
56.6232448860178
 20
-146.4704738674623
 30
0.0
 10
56.16022405280022
 20
-146.4704738674623
 30
0.0
 10
55.6124538706455
 20
-146.205201515098
 30
0.0
 10
55.6124538706455
 20
-145.1435953413183
 30
0.0
 10
55.6124538706455
 20
-145.1435953413183
 30
0.0
 10
55.6124538706455
 20
-143.3252739442034
 30
0.0
 10
55.6124538706455
 20
-143.3252739442034
 30
0.0
 10
55.6124538706455
 20
-143.3252739442034
 30
0.0
 10
56.08115911141374
 20
-143.3252739442034
 30
0.0
 10
56.08115911141374
 20
-143.3252739442034
 30
0.0
 10
56.08115911141374
 20
-143.3252739442034
 30
0.0
 10
56.08115911141374
 20
-145.0588459923811
 30
0.0
 10
56.08115911141374
 20
-145.0588459923811
 30
0.0
 10
56.08115911141374
 20
-145.6574313329433
 30
0.0
 10
56.25616996206443
 20
-146.0753214153041
 30
0.0
 10
56.77000595368945
 20
-146.0753214153041
 30
0.0
 10
57.13708087764282
 20
-146.0753214153041
 30
0.0
 10
57.57185192788135
 20
-145.7816270251865
 30
0.0
 10
57.57185192788135
 20
-145.2395412505825
 30
0.0
 10
57.57185192788135
 20
-145.2395412505825
 30
0.0
 10
57.57185192788135
 20
-143.3252739442034
 30
0.0
 10
57.57185192788135
 20
-143.3252739442034
 30
0.0
 10
57.57185192788135
 20
-143.3252739442034
 30
0.0
 10
58.04055716864958
 20
-143.3252739442034
 30
0.0
 10
58.04055716864958
 20
-143.3252739442034
 30
0.0
 10
58.04055716864958
 20
-143.3252739442034
 30
0.0
 10
58.04055716864958
 20
-145.5840507991075
 30
0.0
 10
58.04055716864958
 20
-145.5840507991075
 30
0.0
  0
HATCH
  5
16C
330
12A
100
AcDbEntity
  8
\U+30EC\U+30A4\U+30E4\U+30FC 1
 62
     7
420
 16777215
100
AcDbHatch
 10
0.0
 20
0.0
 30
0.0
210
0.0
220
0.0
230
1.0
  2
SOLID
 70
     1
 71
     0
 91
        1
 92
        1
 93
        1
 72
     4
 94
        3
 73
     0
 74
     1
 95
       47
 96
       43
 40
0.0
 40
0.0
 40
0.0
 40
0.0
 40
1.0
 40
1.0
 40
1.0
 40
2.0
 40
2.0
 40
2.0
 40
3.0
 40
3.0
 40
3.0
 40
4.0
 40
4.0
 40
4.0
 40
5.0
 40
5.0
 40
5.0
 40
6.0
 40
6.0
 40
6.0
 40
7.0
 40
7.0
 40
7.0
 40
8.0
 40
8.0
 40
8.0
 40
9.0
 40
9.0
 40
9.0
 40
10.0
 40
10.0
 40
10.0
 40
11.0
 40
11.0
 40
11.0
 40
12.0
 40
12.0
 40
12.0
 40
13.0
 40
13.0
 40
13.0
 40
14.0
 40
14.0
 40
14.0
 40
14.0
 10
58.04055716864958
 20
-145.5840507991075
 10
58.04055716864958
 20
-145.9001383098791
 10
58.05743813652731
 20
-146.1655829170176
 10
58.06880695162864
 20
-146.4027777411771
 10
58.06880695162864
 20
-146.4027777411771
 10
57.64523246171716
 20
-146.4027777411771
 10
57.64523246171716
 20
-146.4027777411771
 10
57.64523246171716
 20
-146.4027777411771
 10
57.62266708628878
 20
-145.9171915325311
 10
57.62266708628878
 20
-145.9171915325311
 10
57.62266708628878
 20
-145.9171915325311
 10
57.60578611841105
 20
-145.9171915325311
 10
57.60578611841105
 20
-145.9171915325311
 10
57.46453720351581
 20
-146.159898509467
 10
57.14827743796988
 20
-146.4704738674623
 10
56.6232448860178
 20
-146.4704738674623
 10
56.16022405280022
 20
-146.4704738674623
 10
55.6124538706455
 20
-146.205201515098
 10
55.6124538706455
 20
-145.1435953413183
 10
55.6124538706455
 20
-145.1435953413183
 10
55.6124538706455
 20
-143.3252739442034
 10
55.6124538706455
 20
-143.3252739442034
 10
55.6124538706455
 20
-143.3252739442034
 10
56.08115911141374
 20
-143.3252739442034
 10
56.08115911141374
 20
-143.3252739442034
 10
56.08115911141374
 20
-143.3252739442034
 10
56.08115911141374
 20
-145.0588459923811
 10
56.08115911141374
 20
-145.0588459923811
 10
56.08115911141374
 20
-145.6574313329433
 10
56.25616996206443
 20
-146.0753214153041
 10
56.77000595368945
 20
-146.0753214153041
 10
57.13708087764282
 20
-146.0753214153041
 10
57.57185192788135
 20
-145.7816270251865
 10
57.57185192788135
 20
-145.2395412505825
 10
57.57185192788135
 20
-145.2395412505825
 10
57.57185192788135
 20
-143.3252739442034
 10
57.57185192788135
 20
-143.3252739442034
 10
57.57185192788135
 20
-143.3252739442034
 10
58.04055716864958
 20
-143.3252739442034
 10
58.04055716864958
 20
-143.3252739442034
 10
58.04055716864958
 20
-143.3252739442034
 10
58.04055716864958
 20
-145.5840507991075
 10
58.04055716864958
 20
-145.5840507991075
 97
        0
 75
     2
 76
     1
 98
        0
  0
SPLINE
  5
16D
330
12A
100
AcDbEntity
  8
\U+30EC\U+30A4\U+30E4\U+30FC 1
370
     0
100
AcDbSpline
210
0.0
220
0.0
230
1.0
 70
    11
 71
     3
 72
    41
 73
    37
 74
     0
 42
0.0000000001
 43
0.0000000001
 40
0.0
 40
0.0
 40
0.0
 40
0.0
 40
1.0
 40
1.0
 40
1.0
 40
2.0
 40
2.0
 40
2.0
 40
3.0
 40
3.0
 40
3.0
 40
4.0
 40
4.0
 40
4.0
 40
5.0
 40
5.0
 40
5.0
 40
6.0
 40
6.0
 40
6.0
 40
7.0
 40
7.0
 40
7.0
 40
8.0
 40
8.0
 40
8.0
 40
9.0
 40
9.0
 40
9.0
 40
10.0
 40
10.0
 40
10.0
 40
11.0
 40
11.0
 40
11.0
 40
12.0
 40
12.0
 40
12.0
 40
12.0
 10
60.37133651919536
 20
-143.7205986511358
 30
0.0
 10
60.32052136078793
 20
-143.7149142435852
 30
0.0
 10
60.26970620238049
 20
-143.7092298360345
 30
0.0
 10
60.20183782132107
 20
-143.7092298360345
 30
0.0
 10
59.69368623724672
 20
-143.7092298360345
 30
0.0
 10
59.43392603765889
 20
-144.2118692673324
 30
0.0
 10
59.43392603765889
 20
-144.7313896665081
 30
0.0
 10
59.43392603765889
 20
-144.7313896665081
 30
0.0
 10
59.43392603765889
 20
-146.4027777411771
 30
0.0
 10
59.43392603765889
 20
-146.4027777411771
 30
0.0
 10
59.43392603765889
 20
-146.4027777411771
 30
0.0
 10
58.96522079689064
 20
-146.4027777411771
 30
0.0
 10
58.96522079689064
 20
-146.4027777411771
 30
0.0
 10
58.96522079689064
 20
-146.4027777411771
 30
0.0
 10
58.96522079689064
 20
-144.2458034578622
 30
0.0
 10
58.96522079689064
 20
-144.2458034578622
 30
0.0
 10
58.96522079689064
 20
-143.9181748772149
 30
0.0
 10
58.95953638933998
 20
-143.618968334321
 30
0.0
 10
58.94265542146226
 20
-143.3252739442034
 30
0.0
 10
58.94265542146226
 20
-143.3252739442034
 30
0.0
 10
59.3548610962724
 20
-143.3252739442034
 30
0.0
 10
59.3548610962724
 20
-143.3252739442034
 30
0.0
 10
59.3548610962724
 20
-143.3252739442034
 30
0.0
 10
59.37742647170079
 20
-143.9181748772149
 30
0.0
 10
59.37742647170079
 20
-143.9181748772149
 30
0.0
 10
59.37742647170079
 20
-143.9181748772149
 30
0.0
 10
59.39430743957851
 20
-143.9181748772149
 30
0.0
 10
59.39430743957851
 20
-143.9181748772149
 30
0.0
 10
59.52987194692309
 20
-143.5342189853838
 30
0.0
 10
59.85181612001968
 20
-143.2575778179182
 30
0.0
 10
60.23008760430012
 20
-143.2575778179182
 30
0.0
 10
60.28090276270756
 20
-143.2575778179182
 30
0.0
 10
60.32052136078793
 20
-143.2687743782453
 30
0.0
 10
60.37133651919536
 20
-143.274458785796
 30
0.0
 10
60.37133651919536
 20
-143.274458785796
 30
0.0
 10
60.37133651919536
 20
-143.7205986511358
 30
0.0
 10
60.37133651919536
 20
-143.7205986511358
 30
0.0
  0
HATCH
  5
16E
330
12A
100
AcDbEntity
  8
\U+30EC\U+30A4\U+30E4\U+30FC 1
 62
     7
420
 16777215
100
AcDbHatch
 10
0.0
 20
0.0
 30
0.0
210
0.0
220
0.0
230
1.0
  2
SOLID
 70
     1
 71
     0
 91
        1
 92
        1
 93
        1
 72
     4
 94
        3
 73
     0
 74
     1
 95
       41
 96
       37
 40
0.0
 40
0.0
 40
0.0
 40
0.0
 40
1.0
 40
1.0
 40
1.0
 40
2.0
 40
2.0
 40
2.0
 40
3.0
 40
3.0
 40
3.0
 40
4.0
 40
4.0
 40
4.0
 40
5.0
 40
5.0
 40
5.0
 40
6.0
 40
6.0
 40
6.0
 40
7.0
 40
7.0
 40
7.0
 40
8.0
 40
8.0
 40
8.0
 40
9.0
 40
9.0
 40
9.0
 40
10.0
 40
10.0
 40
10.0
 40
11.0
 40
11.0
 40
11.0
 40
12.0
 40
12.0
 40
12.0
 40
12.0
 10
60.37133651919536
 20
-143.7205986511358
 10
60.32052136078793
 20
-143.7149142435852
 10
60.26970620238049
 20
-143.7092298360345
 10
60.20183782132107
 20
-143.7092298360345
 10
59.69368623724672
 20
-143.7092298360345
 10
59.43392603765889
 20
-144.2118692673324
 10
59.43392603765889
 20
-144.7313896665081
 10
59.43392603765889
 20
-144.7313896665081
 10
59.43392603765889
 20
-146.4027777411771
 10
59.43392603765889
 20
-146.4027777411771
 10
59.43392603765889
 20
-146.4027777411771
 10
58.96522079689064
 20
-146.4027777411771
 10
58.96522079689064
 20
-146.4027777411771
 10
58.96522079689064
 20
-146.4027777411771
 10
58.96522079689064
 20
-144.2458034578622
 10
58.96522079689064
 20
-144.2458034578622
 10
58.96522079689064
 20
-143.9181748772149
 10
58.95953638933998
 20
-143.618968334321
 10
58.94265542146226
 20
-143.3252739442034
 10
58.94265542146226
 20
-143.3252739442034
 10
59.3548610962724
 20
-143.3252739442034
 10
59.3548610962724
 20
-143.3252739442034
 10
59.3548610962724
 20
-143.3252739442034
 10
59.37742647170079
 20
-143.9181748772149
 10
59.37742647170079
 20
-143.9181748772149
 10
59.37742647170079
 20
-143.9181748772149
 10
59.39430743957851
 20
-143.9181748772149
 10
59.39430743957851
 20
-143.9181748772149
 10
59.52987194692309
 20
-143.5342189853838
 10
59.85181612001968
 20
-143.2575778179182
 10
60.23008760430012
 20
-143.2575778179182
 10
60.28090276270756
 20
-143.2575778179182
 10
60.32052136078793
 20
-143.2687743782453
 10
60.37133651919536
 20
-143.274458785796
 10
60.37133651919536
 20
-143.274458785796
 10
60.37133651919536
 20
-143.7205986511358
 10
60.37133651919536
 20
-143.7205986511358
 97
        0
 75
     2
 76
     1
 98
        0
  0
SPLINE
  5
16F
330
12A
100
AcDbEntity
  8
\U+30EC\U+30A4\U+30E4\U+30FC 1
370
     0
100
AcDbSpline
210
0.0
220
0.0
230
1.0
 70
    11
 71
     3
 72
    32
 73
    28
 74
     0
 42
0.0000000001
 43
0.0000000001
 40
0.0
 40
0.0
 40
0.0
 40
0.0
 40
1.0
 40
1.0
 40
1.0
 40
2.0
 40
2.0
 40
2.0
 40
3.0
 40
3.0
 40
3.0
 40
4.0
 40
4.0
 40
4.0
 40
5.0
 40
5.0
 40
5.0
 40
6.0
 40
6.0
 40
6.0
 40
7.0
 40
7.0
 40
7.0
 40
8.0
 40
8.0
 40
8.0
 40
9.0
 40
9.0
 40
9.0
 40
9.0
 10
63.09795734099635
 20
-146.2728976413832
 30
0.0
 10
62.9227742355714
 20
-146.3576469903203
 30
0.0
 10
62.60100231724905
 20
-146.4649617146858
 30
0.0
 10
62.13229707648082
 20
-146.4649617146858
 30
0.0
 10
61.23450519302471
 20
-146.4649617146858
 30
0.0
 10
60.69810382597131
 20
-145.832442183594
 30
0.0
 10
60.69810382597131
 20
-144.9120849247095
 30
0.0
 10
60.69810382597131
 20
-143.946424660194
 30
0.0
 10
61.24018960057537
 20
-143.2518934103676
 30
0.0
 10
62.07011310297206
 20
-143.2518934103676
 30
0.0
 10
63.01889239960986
 20
-143.2518934103676
 30
0.0
 10
63.26159937654572
 20
-144.1214355108446
 30
0.0
 10
63.26159937654572
 20
-144.6580091326723
 30
0.0
 10
63.26159937654572
 20
-144.7651516022636
 30
0.0
 10
63.25608722376931
 20
-144.8442165436501
 30
0.0
 10
63.25040281621865
 20
-144.9177693322601
 30
0.0
 10
63.25040281621865
 20
-144.9177693322601
 30
0.0
 10
61.15544025163823
 20
-144.9177693322601
 30
0.0
 10
61.15544025163823
 20
-144.9177693322601
 30
0.0
 10
61.16112465918889
 20
-145.7702582100852
 30
0.0
 10
61.64671086783486
 20
-146.0922023831818
 30
0.0
 10
62.19999320276597
 20
-146.0922023831818
 30
0.0
 10
62.58412134937134
 20
-146.0922023831818
 30
0.0
 10
62.81563176598012
 20
-146.0131374417953
 30
0.0
 10
63.00752358450854
 20
-145.9340725004089
 30
0.0
 10
63.00752358450854
 20
-145.9340725004089
 30
0.0
 10
63.09795734099635
 20
-146.2728976413832
 30
0.0
 10
63.09795734099635
 20
-146.2728976413832
 30
0.0
  0
SPLINE
  5
170
330
12A
100
AcDbEntity
  8
\U+30EC\U+30A4\U+30E4\U+30FC 1
370
     0
100
AcDbSpline
210
0.0
220
0.0
230
1.0
 70
    11
 71
     3
 72
    14
 73
    10
 74
     0
 42
0.0000000001
 43
0.0000000001
 40
0.0
 40
0.0
 40
0.0
 40
0.0
 40
1.0
 40
1.0
 40
1.0
 40
2.0
 40
2.0
 40
2.0
 40
3.0
 40
3.0
 40
3.0
 40
3.0
 10
62.79857854332813
 20
-144.5675753761845
 30
0.0
 10
62.8042629508788
 20
-144.1496852938237
 30
0.0
 10
62.62925210022811
 20
-143.6075995192196
 30
0.0
 10
62.02498235211529
 20
-143.6075995192196
 30
0.0
 10
61.46033120208283
 20
-143.6075995192196
 30
0.0
 10
61.21193981759632
 20
-144.1441731410473
 30
0.0
 10
61.16663681196529
 20
-144.5675753761845
 30
0.0
 10
61.16663681196529
 20
-144.5675753761845
 30
0.0
 10
62.79857854332813
 20
-144.5675753761845
 30
0.0
 10
62.79857854332813
 20
-144.5675753761845
 30
0.0
  0
HATCH
  5
171
330
12A
100
AcDbEntity
  8
\U+30EC\U+30A4\U+30E4\U+30FC 1
 62
     7
420
 16777215
100
AcDbHatch
 10
0.0
 20
0.0
 30
0.0
210
0.0
220
0.0
230
1.0
  2
SOLID
 70
     1
 71
     0
 91
        2
 92
        1
 93
        1
 72
     4
 94
        3
 73
     0
 74
     1
 95
       32
 96
       28
 40
0.0
 40
0.0
 40
0.0
 40
0.0
 40
1.0
 40
1.0
 40
1.0
 40
2.0
 40
2.0
 40
2.0
 40
3.0
 40
3.0
 40
3.0
 40
4.0
 40
4.0
 40
4.0
 40
5.0
 40
5.0
 40
5.0
 40
6.0
 40
6.0
 40
6.0
 40
7.0
 40
7.0
 40
7.0
 40
8.0
 40
8.0
 40
8.0
 40
9.0
 40
9.0
 40
9.0
 40
9.0
 10
63.09795734099635
 20
-146.2728976413832
 10
62.9227742355714
 20
-146.3576469903203
 10
62.60100231724905
 20
-146.4649617146858
 10
62.13229707648082
 20
-146.4649617146858
 10
61.23450519302471
 20
-146.4649617146858
 10
60.69810382597131
 20
-145.832442183594
 10
60.69810382597131
 20
-144.9120849247095
 10
60.69810382597131
 20
-143.946424660194
 10
61.24018960057537
 20
-143.2518934103676
 10
62.07011310297206
 20
-143.2518934103676
 10
63.01889239960986
 20
-143.2518934103676
 10
63.26159937654572
 20
-144.1214355108446
 10
63.26159937654572
 20
-144.6580091326723
 10
63.26159937654572
 20
-144.7651516022636
 10
63.25608722376931
 20
-144.8442165436501
 10
63.25040281621865
 20
-144.9177693322601
 10
63.25040281621865
 20
-144.9177693322601
 10
61.15544025163823
 20
-144.9177693322601
 10
61.15544025163823
 20
-144.9177693322601
 10
61.16112465918889
 20
-145.7702582100852
 10
61.64671086783486
 20
-146.0922023831818
 10
62.19999320276597
 20
-146.0922023831818
 10
62.58412134937134
 20
-146.0922023831818
 10
62.81563176598012
 20
-146.0131374417953
 10
63.00752358450854
 20
-145.9340725004089
 10
63.00752358450854
 20
-145.9340725004089
 10
63.09795734099635
 20
-146.2728976413832
 10
63.09795734099635
 20
-146.2728976413832
 97
        0
 92
        1
 93
        1
 72
     4
 94
        3
 73
     0
 74
     1
 95
       14
 96
       10
 40
0.0
 40
0.0
 40
0.0
 40
0.0
 40
1.0
 40
1.0
 40
1.0
 40
2.0
 40
2.0
 40
2.0
 40
3.0
 40
3.0
 40
3.0
 40
3.0
 10
62.79857854332813
 20
-144.5675753761845
 10
62.8042629508788
 20
-144.1496852938237
 10
62.62925210022811
 20
-143.6075995192196
 10
62.02498235211529
 20
-143.6075995192196
 10
61.46033120208283
 20
-143.6075995192196
 10
61.21193981759632
 20
-144.1441731410473
 10
61.16663681196529
 20
-144.5675753761845
 10
61.16663681196529
 20
-144.5675753761845
 10
62.79857854332813
 20
-144.5675753761845
 10
62.79857854332813
 20
-144.5675753761845
 97
        0
 75
     2
 76
     1
 98
        0
  0
SPLINE
  5
172
330
12A
100
AcDbEntity
  8
\U+30EC\U+30A4\U+30E4\U+30FC 1
370
     0
100
AcDbSpline
210
0.0
220
0.0
230
1.0
 70
    11
 71
     3
 72
    35
 73
    31
 74
     0
 42
0.0000000001
 43
0.0000000001
 40
0.0
 40
0.0
 40
0.0
 40
0.0
 40
1.0
 40
1.0
 40
1.0
 40
2.0
 40
2.0
 40
2.0
 40
3.0
 40
3.0
 40
3.0
 40
4.0
 40
4.0
 40
4.0
 40
5.0
 40
5.0
 40
5.0
 40
6.0
 40
6.0
 40
6.0
 40
7.0
 40
7.0
 40
7.0
 40
8.0
 40
8.0
 40
8.0
 40
9.0
 40
9.0
 40
9.0
 40
10.0
 40
10.0
 40
10.0
 40
10.0
 10
14.35898572774706
 20
-156.1506754166915
 30
0.0
 10
14.16140950166798
 20
-156.24679358073
 30
0.0
 10
13.77745360983689
 20
-156.3425672352199
 30
0.0
 10
13.28618299364026
 20
-156.3425672352199
 30
0.0
 10
12.17927381422949
 20
-156.3425672352199
 30
0.0
 10
11.28716633832404
 20
-155.6252983551909
 30
0.0
 10
11.28716633832404
 20
-154.1687119840273
 30
0.0
 10
11.28716633832404
 20
-152.7796494843745
 30
0.0
 10
12.1511962860247
 20
-151.9156195366739
 30
0.0
 10
13.41037868588352
 20
-151.9156195366739
 30
0.0
 10
13.92421467750853
 20
-151.9156195366739
 30
0.0
 10
14.22342122040248
 20
-152.0231065158137
 30
0.0
 10
14.35898572774706
 20
-152.0906303873246
 30
0.0
 10
14.35898572774706
 20
-152.0906303873246
 30
0.0
 10
14.2347900355038
 20
-152.4861273490312
 30
0.0
 10
14.2347900355038
 20
-152.4861273490312
 30
0.0
 10
14.03704155465046
 20
-152.3900091849928
 30
0.0
 10
13.7604003871849
 20
-152.3111164983806
 30
0.0
 10
13.42157524621058
 20
-152.3111164983806
 30
0.0
 10
12.44471842136799
 20
-152.3111164983806
 30
0.0
 10
11.77843695452067
 20
-152.965684640578
 30
0.0
 10
11.77843695452067
 20
-154.151486506601
 30
0.0
 10
11.77843695452067
 20
-155.2811333162144
 30
0.0
 10
12.38821885540989
 20
-155.9474147830618
 30
0.0
 10
13.39332546323153
 20
-155.9474147830618
 30
0.0
 10
13.72095404387879
 20
-155.9474147830618
 30
0.0
 10
14.04272596220112
 20
-155.874034249226
 30
0.0
 10
14.25735541093219
 20
-155.7724039324111
 30
0.0
 10
14.25735541093219
 20
-155.7724039324111
 30
0.0
 10
14.35898572774706
 20
-156.1506754166915
 30
0.0
 10
14.35898572774706
 20
-156.1506754166915
 30
0.0
  0
HATCH
  5
173
330
12A
100
AcDbEntity
  8
\U+30EC\U+30A4\U+30E4\U+30FC 1
 62
     7
420
 16777215
100
AcDbHatch
 10
0.0
 20
0.0
 30
0.0
210
0.0
220
0.0
230
1.0
  2
SOLID
 70
     1
 71
     0
 91
        1
 92
        1
 93
        1
 72
     4
 94
        3
 73
     0
 74
     1
 95
       35
 96
       31
 40
0.0
 40
0.0
 40
0.0
 40
0.0
 40
1.0
 40
1.0
 40
1.0
 40
2.0
 40
2.0
 40
2.0
 40
3.0
 40
3.0
 40
3.0
 40
4.0
 40
4.0
 40
4.0
 40
5.0
 40
5.0
 40
5.0
 40
6.0
 40
6.0
 40
6.0
 40
7.0
 40
7.0
 40
7.0
 40
8.0
 40
8.0
 40
8.0
 40
9.0
 40
9.0
 40
9.0
 40
10.0
 40
10.0
 40
10.0
 40
10.0
 10
14.35898572774706
 20
-156.1506754166915
 10
14.16140950166798
 20
-156.24679358073
 10
13.77745360983689
 20
-156.3425672352199
 10
13.28618299364026
 20
-156.3425672352199
 10
12.17927381422949
 20
-156.3425672352199
 10
11.28716633832404
 20
-155.6252983551909
 10
11.28716633832404
 20
-154.1687119840273
 10
11.28716633832404
 20
-152.7796494843745
 10
12.1511962860247
 20
-151.9156195366739
 10
13.41037868588352
 20
-151.9156195366739
 10
13.92421467750853
 20
-151.9156195366739
 10
14.22342122040248
 20
-152.0231065158137
 10
14.35898572774706
 20
-152.0906303873246
 10
14.35898572774706
 20
-152.0906303873246
 10
14.2347900355038
 20
-152.4861273490312
 10
14.2347900355038
 20
-152.4861273490312
 10
14.03704155465046
 20
-152.3900091849928
 10
13.7604003871849
 20
-152.3111164983806
 10
13.42157524621058
 20
-152.3111164983806
 10
12.44471842136799
 20
-152.3111164983806
 10
11.77843695452067
 20
-152.965684640578
 10
11.77843695452067
 20
-154.151486506601
 10
11.77843695452067
 20
-155.2811333162144
 10
12.38821885540989
 20
-155.9474147830618
 10
13.39332546323153
 20
-155.9474147830618
 10
13.72095404387879
 20
-155.9474147830618
 10
14.04272596220112
 20
-155.874034249226
 10
14.25735541093219
 20
-155.7724039324111
 10
14.25735541093219
 20
-155.7724039324111
 10
14.35898572774706
 20
-156.1506754166915
 10
14.35898572774706
 20
-156.1506754166915
 97
        0
 75
     2
 76
     1
 98
        0
  0
SPLINE
  5
174
330
12A
100
AcDbEntity
  8
\U+30EC\U+30A4\U+30E4\U+30FC 1
370
     0
100
AcDbSpline
210
0.0
220
0.0
230
1.0
 70
    11
 71
     3
 72
    44
 73
    40
 74
     0
 42
0.0000000001
 43
0.0000000001
 40
0.0
 40
0.0
 40
0.0
 40
0.0
 40
1.0
 40
1.0
 40
1.0
 40
2.0
 40
2.0
 40
2.0
 40
3.0
 40
3.0
 40
3.0
 40
4.0
 40
4.0
 40
4.0
 40
5.0
 40
5.0
 40
5.0
 40
6.0
 40
6.0
 40
6.0
 40
7.0
 40
7.0
 40
7.0
 40
8.0
 40
8.0
 40
8.0
 40
9.0
 40
9.0
 40
9.0
 40
10.0
 40
10.0
 40
10.0
 40
11.0
 40
11.0
 40
11.0
 40
12.0
 40
12.0
 40
12.0
 40
13.0
 40
13.0
 40
13.0
 40
13.0
 10
17.03961452481996
 20
-155.5464056685787
 30
0.0
 10
17.03961452481996
 20
-155.8006537153901
 30
0.0
 10
17.04529893237062
 20
-156.0659260677544
 30
0.0
 10
17.08474527567673
 20
-156.2805555164854
 30
0.0
 10
17.08474527567673
 20
-156.2805555164854
 30
0.0
 10
16.65565863298886
 20
-156.2805555164854
 30
0.0
 10
16.65565863298886
 20
-156.2805555164854
 30
0.0
 10
16.65565863298886
 20
-156.2805555164854
 30
0.0
 10
16.61052788213209
 20
-155.8850585547787
 30
0.0
 10
16.61052788213209
 20
-155.8850585547787
 30
0.0
 10
16.61052788213209
 20
-155.8850585547787
 30
0.0
 10
16.5934746594801
 20
-155.8850585547787
 30
0.0
 10
16.5934746594801
 20
-155.8850585547787
 30
0.0
 10
16.43534477670714
 20
-156.1282822960374
 30
0.0
 10
16.11925726593546
 20
-156.3480793879963
 30
0.0
 10
15.68431396092267
 20
-156.3480793879963
 30
0.0
 10
15.09709743546184
 20
-156.3480793879963
 30
0.0
 10
14.78652207746656
 20
-155.9191650000827
 30
0.0
 10
14.78652207746656
 20
-155.4730251347429
 30
0.0
 10
14.78652207746656
 20
-154.7333631340597
 30
0.0
 10
15.4302381688855
 20
-154.3323540195766
 30
0.0
 10
16.57090928405172
 20
-154.3382106819016
 30
0.0
 10
16.57090928405172
 20
-154.0784504823137
 30
0.0
 10
16.57090928405172
 20
-153.4910617020786
 30
0.0
 10
15.87069362667469
 20
-153.4910617020786
 30
0.0
 10
15.60542127431045
 20
-153.4910617020786
 30
0.0
 10
15.32860785207063
 20
-153.5644422359144
 30
0.0
 10
15.11966281089022
 20
-153.7112033035861
 30
0.0
 10
15.11966281089022
 20
-153.7112033035861
 30
0.0
 10
15.00683593374829
 20
-153.3894313852637
 30
0.0
 10
15.00683593374829
 20
-153.3894313852637
 30
0.0
 10
15.25522731823481
 20
-153.2254448401659
 30
0.0
 10
15.59973686675979
 20
-153.1296711856759
 30
0.0
 10
15.94407416051051
 20
-153.1296711856759
 30
0.0
 10
16.81378851576183
 20
-153.1296711856759
 30
0.0
 10
17.03961452481996
 20
-153.7449652393416
 30
0.0
 10
17.03961452481996
 20
-154.3550916497793
 30
0.0
 10
17.03961452481996
 20
-154.3550916497793
 30
0.0
 10
17.03961452481996
 20
-155.5464056685787
 30
0.0
 10
17.03961452481996
 20
-155.5464056685787
 30
0.0
  0
SPLINE
  5
175
330
12A
100
AcDbEntity
  8
\U+30EC\U+30A4\U+30E4\U+30FC 1
370
     0
100
AcDbSpline
210
0.0
220
0.0
230
1.0
 70
    11
 71
     3
 72
    17
 73
    13
 74
     0
 42
0.0000000001
 43
0.0000000001
 40
0.0
 40
0.0
 40
0.0
 40
0.0
 40
1.0
 40
1.0
 40
1.0
 40
2.0
 40
2.0
 40
2.0
 40
3.0
 40
3.0
 40
3.0
 40
4.0
 40
4.0
 40
4.0
 40
4.0
 10
16.57659369160238
 20
-154.6827202304266
 30
0.0
 10
15.99488931891795
 20
-154.6827202304266
 30
0.0
 10
15.26659613333613
 20
-154.7674695793637
 30
0.0
 10
15.26659613333613
 20
-155.4165255687848
 30
0.0
 10
15.26659613333613
 20
-155.8120225304914
 30
0.0
 10
15.51498751782264
 20
-155.9870333811421
 30
0.0
 10
15.79731309283887
 20
-155.9870333811421
 30
0.0
 10
16.25464951850578
 20
-155.9870333811421
 30
0.0
 10
16.57659369160238
 20
-155.6370116798408
 30
0.0
 10
16.57659369160238
 20
-155.2642523483367
 30
0.0
 10
16.57659369160238
 20
-155.2642523483367
 30
0.0
 10
16.57659369160238
 20
-154.6827202304266
 30
0.0
 10
16.57659369160238
 20
-154.6827202304266
 30
0.0
  0
HATCH
  5
176
330
12A
100
AcDbEntity
  8
\U+30EC\U+30A4\U+30E4\U+30FC 1
 62
     7
420
 16777215
100
AcDbHatch
 10
0.0
 20
0.0
 30
0.0
210
0.0
220
0.0
230
1.0
  2
SOLID
 70
     1
 71
     0
 91
        2
 92
        1
 93
        1
 72
     4
 94
        3
 73
     0
 74
     1
 95
       44
 96
       40
 40
0.0
 40
0.0
 40
0.0
 40
0.0
 40
1.0
 40
1.0
 40
1.0
 40
2.0
 40
2.0
 40
2.0
 40
3.0
 40
3.0
 40
3.0
 40
4.0
 40
4.0
 40
4.0
 40
5.0
 40
5.0
 40
5.0
 40
6.0
 40
6.0
 40
6.0
 40
7.0
 40
7.0
 40
7.0
 40
8.0
 40
8.0
 40
8.0
 40
9.0
 40
9.0
 40
9.0
 40
10.0
 40
10.0
 40
10.0
 40
11.0
 40
11.0
 40
11.0
 40
12.0
 40
12.0
 40
12.0
 40
13.0
 40
13.0
 40
13.0
 40
13.0
 10
17.03961452481996
 20
-155.5464056685787
 10
17.03961452481996
 20
-155.8006537153901
 10
17.04529893237062
 20
-156.0659260677544
 10
17.08474527567673
 20
-156.2805555164854
 10
17.08474527567673
 20
-156.2805555164854
 10
16.65565863298886
 20
-156.2805555164854
 10
16.65565863298886
 20
-156.2805555164854
 10
16.65565863298886
 20
-156.2805555164854
 10
16.61052788213209
 20
-155.8850585547787
 10
16.61052788213209
 20
-155.8850585547787
 10
16.61052788213209
 20
-155.8850585547787
 10
16.5934746594801
 20
-155.8850585547787
 10
16.5934746594801
 20
-155.8850585547787
 10
16.43534477670714
 20
-156.1282822960374
 10
16.11925726593546
 20
-156.3480793879963
 10
15.68431396092267
 20
-156.3480793879963
 10
15.09709743546184
 20
-156.3480793879963
 10
14.78652207746656
 20
-155.9191650000827
 10
14.78652207746656
 20
-155.4730251347429
 10
14.78652207746656
 20
-154.7333631340597
 10
15.4302381688855
 20
-154.3323540195766
 10
16.57090928405172
 20
-154.3382106819016
 10
16.57090928405172
 20
-154.0784504823137
 10
16.57090928405172
 20
-153.4910617020786
 10
15.87069362667469
 20
-153.4910617020786
 10
15.60542127431045
 20
-153.4910617020786
 10
15.32860785207063
 20
-153.5644422359144
 10
15.11966281089022
 20
-153.7112033035861
 10
15.11966281089022
 20
-153.7112033035861
 10
15.00683593374829
 20
-153.3894313852637
 10
15.00683593374829
 20
-153.3894313852637
 10
15.25522731823481
 20
-153.2254448401659
 10
15.59973686675979
 20
-153.1296711856759
 10
15.94407416051051
 20
-153.1296711856759
 10
16.81378851576183
 20
-153.1296711856759
 10
17.03961452481996
 20
-153.7449652393416
 10
17.03961452481996
 20
-154.3550916497793
 10
17.03961452481996
 20
-154.3550916497793
 10
17.03961452481996
 20
-155.5464056685787
 10
17.03961452481996
 20
-155.5464056685787
 97
        0
 92
        1
 93
        1
 72
     4
 94
        3
 73
     0
 74
     1
 95
       17
 96
       13
 40
0.0
 40
0.0
 40
0.0
 40
0.0
 40
1.0
 40
1.0
 40
1.0
 40
2.0
 40
2.0
 40
2.0
 40
3.0
 40
3.0
 40
3.0
 40
4.0
 40
4.0
 40
4.0
 40
4.0
 10
16.57659369160238
 20
-154.6827202304266
 10
15.99488931891795
 20
-154.6827202304266
 10
15.26659613333613
 20
-154.7674695793637
 10
15.26659613333613
 20
-155.4165255687848
 10
15.26659613333613
 20
-155.8120225304914
 10
15.51498751782264
 20
-155.9870333811421
 10
15.79731309283887
 20
-155.9870333811421
 10
16.25464951850578
 20
-155.9870333811421
 10
16.57659369160238
 20
-155.6370116798408
 10
16.57659369160238
 20
-155.2642523483367
 10
16.57659369160238
 20
-155.2642523483367
 10
16.57659369160238
 20
-154.6827202304266
 10
16.57659369160238
 20
-154.6827202304266
 97
        0
 75
     2
 76
     1
 98
        0
  0
SPLINE
  5
177
330
12A
100
AcDbEntity
  8
\U+30EC\U+30A4\U+30E4\U+30FC 1
370
     0
100
AcDbSpline
210
0.0
220
0.0
230
1.0
 70
    11
 71
     3
 72
    41
 73
    37
 74
     0
 42
0.0000000001
 43
0.0000000001
 40
0.0
 40
0.0
 40
0.0
 40
0.0
 40
1.0
 40
1.0
 40
1.0
 40
2.0
 40
2.0
 40
2.0
 40
3.0
 40
3.0
 40
3.0
 40
4.0
 40
4.0
 40
4.0
 40
5.0
 40
5.0
 40
5.0
 40
6.0
 40
6.0
 40
6.0
 40
7.0
 40
7.0
 40
7.0
 40
8.0
 40
8.0
 40
8.0
 40
9.0
 40
9.0
 40
9.0
 40
10.0
 40
10.0
 40
10.0
 40
11.0
 40
11.0
 40
11.0
 40
12.0
 40
12.0
 40
12.0
 40
12.0
 10
19.34800075471161
 20
-153.5982041716699
 30
0.0
 10
19.29718559630418
 20
-153.5926920188935
 30
0.0
 10
19.24637043789674
 20
-153.5871798661171
 30
0.0
 10
19.17850205683732
 20
-153.5871798661171
 30
0.0
 10
18.67035047276297
 20
-153.5871798661171
 30
0.0
 10
18.41059027317513
 20
-154.0894747878665
 30
0.0
 10
18.41059027317513
 20
-154.6089951870422
 30
0.0
 10
18.41059027317513
 20
-154.6089951870422
 30
0.0
 10
18.41059027317513
 20
-156.2805555164854
 30
0.0
 10
18.41059027317513
 20
-156.2805555164854
 30
0.0
 10
18.41059027317513
 20
-156.2805555164854
 30
0.0
 10
17.94188503240689
 20
-156.2805555164854
 30
0.0
 10
17.94188503240689
 20
-156.2805555164854
 30
0.0
 10
17.94188503240689
 20
-156.2805555164854
 30
0.0
 10
17.94188503240689
 20
-154.1235812331705
 30
0.0
 10
17.94188503240689
 20
-154.1235812331705
 30
0.0
 10
17.94188503240689
 20
-153.7959526525233
 30
0.0
 10
17.93620062485623
 20
-153.4969183644035
 30
0.0
 10
17.91931965697851
 20
-153.2030517195117
 30
0.0
 10
17.91931965697851
 20
-153.2030517195117
 30
0.0
 10
18.33152533178865
 20
-153.2030517195117
 30
0.0
 10
18.33152533178865
 20
-153.2030517195117
 30
0.0
 10
18.33152533178865
 20
-153.2030517195117
 30
0.0
 10
18.35409070721703
 20
-153.7959526525233
 30
0.0
 10
18.35409070721703
 20
-153.7959526525233
 30
0.0
 10
18.35409070721703
 20
-153.7959526525233
 30
0.0
 10
18.37097167509476
 20
-153.7959526525233
 30
0.0
 10
18.37097167509476
 20
-153.7959526525233
 30
0.0
 10
18.50653618243934
 20
-153.4121690154664
 30
0.0
 10
18.82848035553594
 20
-153.1351833384523
 30
0.0
 10
19.20675183981637
 20
-153.1351833384523
 30
0.0
 10
19.2575669982238
 20
-153.1351833384523
 30
0.0
 10
19.29718559630418
 20
-153.1465521535536
 30
0.0
 10
19.34800075471161
 20
-153.1524088158786
 30
0.0
 10
19.34800075471161
 20
-153.1524088158786
 30
0.0
 10
19.34800075471161
 20
-153.5982041716699
 30
0.0
 10
19.34800075471161
 20
-153.5982041716699
 30
0.0
  0
HATCH
  5
178
330
12A
100
AcDbEntity
  8
\U+30EC\U+30A4\U+30E4\U+30FC 1
 62
     7
420
 16777215
100
AcDbHatch
 10
0.0
 20
0.0
 30
0.0
210
0.0
220
0.0
230
1.0
  2
SOLID
 70
     1
 71
     0
 91
        1
 92
        1
 93
        1
 72
     4
 94
        3
 73
     0
 74
     1
 95
       41
 96
       37
 40
0.0
 40
0.0
 40
0.0
 40
0.0
 40
1.0
 40
1.0
 40
1.0
 40
2.0
 40
2.0
 40
2.0
 40
3.0
 40
3.0
 40
3.0
 40
4.0
 40
4.0
 40
4.0
 40
5.0
 40
5.0
 40
5.0
 40
6.0
 40
6.0
 40
6.0
 40
7.0
 40
7.0
 40
7.0
 40
8.0
 40
8.0
 40
8.0
 40
9.0
 40
9.0
 40
9.0
 40
10.0
 40
10.0
 40
10.0
 40
11.0
 40
11.0
 40
11.0
 40
12.0
 40
12.0
 40
12.0
 40
12.0
 10
19.34800075471161
 20
-153.5982041716699
 10
19.29718559630418
 20
-153.5926920188935
 10
19.24637043789674
 20
-153.5871798661171
 10
19.17850205683732
 20
-153.5871798661171
 10
18.67035047276297
 20
-153.5871798661171
 10
18.41059027317513
 20
-154.0894747878665
 10
18.41059027317513
 20
-154.6089951870422
 10
18.41059027317513
 20
-154.6089951870422
 10
18.41059027317513
 20
-156.2805555164854
 10
18.41059027317513
 20
-156.2805555164854
 10
18.41059027317513
 20
-156.2805555164854
 10
17.94188503240689
 20
-156.2805555164854
 10
17.94188503240689
 20
-156.2805555164854
 10
17.94188503240689
 20
-156.2805555164854
 10
17.94188503240689
 20
-154.1235812331705
 10
17.94188503240689
 20
-154.1235812331705
 10
17.94188503240689
 20
-153.7959526525233
 10
17.93620062485623
 20
-153.4969183644035
 10
17.91931965697851
 20
-153.2030517195117
 10
17.91931965697851
 20
-153.2030517195117
 10
18.33152533178865
 20
-153.2030517195117
 10
18.33152533178865
 20
-153.2030517195117
 10
18.33152533178865
 20
-153.2030517195117
 10
18.35409070721703
 20
-153.7959526525233
 10
18.35409070721703
 20
-153.7959526525233
 10
18.35409070721703
 20
-153.7959526525233
 10
18.37097167509476
 20
-153.7959526525233
 10
18.37097167509476
 20
-153.7959526525233
 10
18.50653618243934
 20
-153.4121690154664
 10
18.82848035553594
 20
-153.1351833384523
 10
19.20675183981637
 20
-153.1351833384523
 10
19.2575669982238
 20
-153.1351833384523
 10
19.29718559630418
 20
-153.1465521535536
 10
19.34800075471161
 20
-153.1524088158786
 10
19.34800075471161
 20
-153.1524088158786
 10
19.34800075471161
 20
-153.5982041716699
 10
19.34800075471161
 20
-153.5982041716699
 97
        0
 75
     2
 76
     1
 98
        0
  0
SPLINE
  5
179
330
12A
100
AcDbEntity
  8
\U+30EC\U+30A4\U+30E4\U+30FC 1
370
     0
100
AcDbSpline
210
0.0
220
0.0
230
1.0
 70
    11
 71
     3
 72
    41
 73
    37
 74
     0
 42
0.0000000001
 43
0.0000000001
 40
0.0
 40
0.0
 40
0.0
 40
0.0
 40
1.0
 40
1.0
 40
1.0
 40
2.0
 40
2.0
 40
2.0
 40
3.0
 40
3.0
 40
3.0
 40
4.0
 40
4.0
 40
4.0
 40
5.0
 40
5.0
 40
5.0
 40
6.0
 40
6.0
 40
6.0
 40
7.0
 40
7.0
 40
7.0
 40
8.0
 40
8.0
 40
8.0
 40
9.0
 40
9.0
 40
9.0
 40
10.0
 40
10.0
 40
10.0
 40
11.0
 40
11.0
 40
11.0
 40
12.0
 40
12.0
 40
12.0
 40
12.0
 10
22.37934027218294
 20
-155.5185003951482
 30
0.0
 10
22.37934027218294
 20
-155.7665472700861
 30
0.0
 10
22.39053683251
 20
-156.0717827300793
 30
0.0
 10
22.40190564761133
 20
-156.2805555164854
 30
0.0
 10
22.40190564761133
 20
-156.2805555164854
 30
0.0
 10
21.98401556525052
 20
-156.2805555164854
 30
0.0
 10
21.98401556525052
 20
-156.2805555164854
 30
0.0
 10
21.98401556525052
 20
-156.2805555164854
 30
0.0
 10
21.96145018982214
 20
-155.7555229645334
 30
0.0
 10
21.96145018982214
 20
-155.7555229645334
 30
0.0
 10
21.96145018982214
 20
-155.7555229645334
 30
0.0
 10
21.94456922194441
 20
-155.7555229645334
 30
0.0
 10
21.94456922194441
 20
-155.7555229645334
 30
0.0
 10
21.78643933917145
 20
-156.0772948828557
 30
0.0
 10
21.4362453830958
 20
-156.3480793879963
 30
0.0
 10
20.93946261412277
 20
-156.3480793879963
 30
0.0
 10
20.22787814164442
 20
-156.3480793879963
 30
0.0
 10
19.6745958067133
 20
-155.7327853343307
 30
0.0
 10
19.6745958067133
 20
-154.7840060376929
 30
0.0
 10
19.6745958067133
 20
-153.7449652393416
 30
0.0
 10
20.28437770760252
 20
-153.1351833384523
 30
0.0
 10
21.00147433285727
 20
-153.1351833384523
 30
0.0
 10
21.45329860574779
 20
-153.1351833384523
 30
0.0
 10
21.7581895561924
 20
-153.3556694495083
 30
0.0
 10
21.89926621631338
 20
-153.6095729867712
 30
0.0
 10
21.89926621631338
 20
-153.6095729867712
 30
0.0
 10
21.9106350314147
 20
-153.6095729867712
 30
0.0
 10
21.9106350314147
 20
-153.6095729867712
 30
0.0
 10
21.9106350314147
 20
-153.6095729867712
 30
0.0
 10
21.9106350314147
 20
-151.7633463162258
 30
0.0
 10
21.9106350314147
 20
-151.7633463162258
 30
0.0
 10
21.9106350314147
 20
-151.7633463162258
 30
0.0
 10
22.37934027218294
 20
-151.7633463162258
 30
0.0
 10
22.37934027218294
 20
-151.7633463162258
 30
0.0
 10
22.37934027218294
 20
-151.7633463162258
 30
0.0
 10
22.37934027218294
 20
-155.5185003951482
 30
0.0
 10
22.37934027218294
 20
-155.5185003951482
 30
0.0
  0
SPLINE
  5
17A
330
12A
100
AcDbEntity
  8
\U+30EC\U+30A4\U+30E4\U+30FC 1
370
     0
100
AcDbSpline
210
0.0
220
0.0
230
1.0
 70
    11
 71
     3
 72
    20
 73
    16
 74
     0
 42
0.0000000001
 43
0.0000000001
 40
0.0
 40
0.0
 40
0.0
 40
0.0
 40
1.0
 40
1.0
 40
1.0
 40
2.0
 40
2.0
 40
2.0
 40
3.0
 40
3.0
 40
3.0
 40
4.0
 40
4.0
 40
4.0
 40
5.0
 40
5.0
 40
5.0
 40
5.0
 10
21.9106350314147
 20
-154.4339843363915
 30
0.0
 10
21.9106350314147
 20
-153.8186902827259
 30
0.0
 10
21.47586398117618
 20
-153.5134548227328
 30
0.0
 10
21.08053927424375
 20
-153.5134548227328
 30
0.0
 10
20.49900715633358
 20
-153.5134548227328
 30
0.0
 10
20.1544976078086
 20
-154.0557128521111
 30
0.0
 10
20.1544976078086
 20
-154.7616129170388
 30
0.0
 10
20.1544976078086
 20
-155.4110134160084
 30
0.0
 10
20.45938855825321
 20
-155.9642957509395
 30
0.0
 10
21.06365830636603
 20
-155.9642957509395
 30
0.0
 10
21.57180989044038
 20
-155.9642957509395
 30
0.0
 10
21.9106350314147
 20
-155.5185003951482
 30
0.0
 10
21.9106350314147
 20
-155.0272297789515
 30
0.0
 10
21.9106350314147
 20
-155.0272297789515
 30
0.0
 10
21.9106350314147
 20
-154.4339843363915
 30
0.0
 10
21.9106350314147
 20
-154.4339843363915
 30
0.0
  0
HATCH
  5
17B
330
12A
100
AcDbEntity
  8
\U+30EC\U+30A4\U+30E4\U+30FC 1
 62
     7
420
 16777215
100
AcDbHatch
 10
0.0
 20
0.0
 30
0.0
210
0.0
220
0.0
230
1.0
  2
SOLID
 70
     1
 71
     0
 91
        2
 92
        1
 93
        1
 72
     4
 94
        3
 73
     0
 74
     1
 95
       41
 96
       37
 40
0.0
 40
0.0
 40
0.0
 40
0.0
 40
1.0
 40
1.0
 40
1.0
 40
2.0
 40
2.0
 40
2.0
 40
3.0
 40
3.0
 40
3.0
 40
4.0
 40
4.0
 40
4.0
 40
5.0
 40
5.0
 40
5.0
 40
6.0
 40
6.0
 40
6.0
 40
7.0
 40
7.0
 40
7.0
 40
8.0
 40
8.0
 40
8.0
 40
9.0
 40
9.0
 40
9.0
 40
10.0
 40
10.0
 40
10.0
 40
11.0
 40
11.0
 40
11.0
 40
12.0
 40
12.0
 40
12.0
 40
12.0
 10
22.37934027218294
 20
-155.5185003951482
 10
22.37934027218294
 20
-155.7665472700861
 10
22.39053683251
 20
-156.0717827300793
 10
22.40190564761133
 20
-156.2805555164854
 10
22.40190564761133
 20
-156.2805555164854
 10
21.98401556525052
 20
-156.2805555164854
 10
21.98401556525052
 20
-156.2805555164854
 10
21.98401556525052
 20
-156.2805555164854
 10
21.96145018982214
 20
-155.7555229645334
 10
21.96145018982214
 20
-155.7555229645334
 10
21.96145018982214
 20
-155.7555229645334
 10
21.94456922194441
 20
-155.7555229645334
 10
21.94456922194441
 20
-155.7555229645334
 10
21.78643933917145
 20
-156.0772948828557
 10
21.4362453830958
 20
-156.3480793879963
 10
20.93946261412277
 20
-156.3480793879963
 10
20.22787814164442
 20
-156.3480793879963
 10
19.6745958067133
 20
-155.7327853343307
 10
19.6745958067133
 20
-154.7840060376929
 10
19.6745958067133
 20
-153.7449652393416
 10
20.28437770760252
 20
-153.1351833384523
 10
21.00147433285727
 20
-153.1351833384523
 10
21.45329860574779
 20
-153.1351833384523
 10
21.7581895561924
 20
-153.3556694495083
 10
21.89926621631338
 20
-153.6095729867712
 10
21.89926621631338
 20
-153.6095729867712
 10
21.9106350314147
 20
-153.6095729867712
 10
21.9106350314147
 20
-153.6095729867712
 10
21.9106350314147
 20
-153.6095729867712
 10
21.9106350314147
 20
-151.7633463162258
 10
21.9106350314147
 20
-151.7633463162258
 10
21.9106350314147
 20
-151.7633463162258
 10
22.37934027218294
 20
-151.7633463162258
 10
22.37934027218294
 20
-151.7633463162258
 10
22.37934027218294
 20
-151.7633463162258
 10
22.37934027218294
 20
-155.5185003951482
 10
22.37934027218294
 20
-155.5185003951482
 97
        0
 92
        1
 93
        1
 72
     4
 94
        3
 73
     0
 74
     1
 95
       20
 96
       16
 40
0.0
 40
0.0
 40
0.0
 40
0.0
 40
1.0
 40
1.0
 40
1.0
 40
2.0
 40
2.0
 40
2.0
 40
3.0
 40
3.0
 40
3.0
 40
4.0
 40
4.0
 40
4.0
 40
5.0
 40
5.0
 40
5.0
 40
5.0
 10
21.9106350314147
 20
-154.4339843363915
 10
21.9106350314147
 20
-153.8186902827259
 10
21.47586398117618
 20
-153.5134548227328
 10
21.08053927424375
 20
-153.5134548227328
 10
20.49900715633358
 20
-153.5134548227328
 10
20.1544976078086
 20
-154.0557128521111
 10
20.1544976078086
 20
-154.7616129170388
 10
20.1544976078086
 20
-155.4110134160084
 10
20.45938855825321
 20
-155.9642957509395
 10
21.06365830636603
 20
-155.9642957509395
 10
21.57180989044038
 20
-155.9642957509395
 10
21.9106350314147
 20
-155.5185003951482
 10
21.9106350314147
 20
-155.0272297789515
 10
21.9106350314147
 20
-155.0272297789515
 10
21.9106350314147
 20
-154.4339843363915
 10
21.9106350314147
 20
-154.4339843363915
 97
        0
 75
     2
 76
     1
 98
        0
  0
SPLINE
  5
17C
330
12A
100
AcDbEntity
  8
\U+30EC\U+30A4\U+30E4\U+30FC 1
370
     0
100
AcDbSpline
210
0.0
220
0.0
230
1.0
 70
    11
 71
     3
 72
    41
 73
    37
 74
     0
 42
0.0000000001
 43
0.0000000001
 40
0.0
 40
0.0
 40
0.0
 40
0.0
 40
1.0
 40
1.0
 40
1.0
 40
2.0
 40
2.0
 40
2.0
 40
3.0
 40
3.0
 40
3.0
 40
4.0
 40
4.0
 40
4.0
 40
5.0
 40
5.0
 40
5.0
 40
6.0
 40
6.0
 40
6.0
 40
7.0
 40
7.0
 40
7.0
 40
8.0
 40
8.0
 40
8.0
 40
9.0
 40
9.0
 40
9.0
 40
10.0
 40
10.0
 40
10.0
 40
11.0
 40
11.0
 40
11.0
 40
12.0
 40
12.0
 40
12.0
 40
12.0
 10
23.7839057015193
 20
-153.7001789980333
 30
0.0
 10
23.97596977482198
 20
-153.344300634407
 30
0.0
 10
24.32599147612336
 20
-153.1296711856759
 30
0.0
 10
24.80606553199293
 20
-153.1296711856759
 30
0.0
 10
25.53453097234901
 20
-153.1296711856759
 30
0.0
 10
26.04836696397402
 20
-153.7566785639914
 30
0.0
 10
26.04836696397402
 20
-154.7051133510807
 30
0.0
 10
26.04836696397402
 20
-155.8230468360443
 30
0.0
 10
25.36503227447471
 20
-156.3480793879963
 30
0.0
 10
24.72700059060644
 20
-156.3480793879963
 30
0.0
 10
24.28086072526659
 20
-156.3480793879963
 30
0.0
 10
23.95340439939359
 20
-156.1675563845692
 30
0.0
 10
23.73309054311187
 20
-155.7724039324111
 30
0.0
 10
23.73309054311187
 20
-155.7724039324111
 30
0.0
 10
23.71620957523414
 20
-155.7724039324111
 30
0.0
 10
23.71620957523414
 20
-155.7724039324111
 30
0.0
 10
23.71620957523414
 20
-155.7724039324111
 30
0.0
 10
23.68795979225509
 20
-156.2805555164854
 30
0.0
 10
23.68795979225509
 20
-156.2805555164854
 30
0.0
 10
23.68795979225509
 20
-156.2805555164854
 30
0.0
 10
23.28143852499561
 20
-156.2805555164854
 30
0.0
 10
23.28143852499561
 20
-156.2805555164854
 30
0.0
 10
23.29263508532268
 20
-156.0772948828557
 30
0.0
 10
23.304003900424
 20
-155.7665472700861
 30
0.0
 10
23.304003900424
 20
-155.5185003951482
 30
0.0
 10
23.304003900424
 20
-155.5185003951482
 30
0.0
 10
23.304003900424
 20
-151.7633463162258
 30
0.0
 10
23.304003900424
 20
-151.7633463162258
 30
0.0
 10
23.304003900424
 20
-151.7633463162258
 30
0.0
 10
23.77270914119224
 20
-151.7633463162258
 30
0.0
 10
23.77270914119224
 20
-151.7633463162258
 30
0.0
 10
23.77270914119224
 20
-151.7633463162258
 30
0.0
 10
23.77270914119224
 20
-153.7001789980333
 30
0.0
 10
23.77270914119224
 20
-153.7001789980333
 30
0.0
 10
23.77270914119224
 20
-153.7001789980333
 30
0.0
 10
23.7839057015193
 20
-153.7001789980333
 30
0.0
 10
23.7839057015193
 20
-153.7001789980333
 30
0.0
  0
SPLINE
  5
17D
330
12A
100
AcDbEntity
  8
\U+30EC\U+30A4\U+30E4\U+30FC 1
370
     0
100
AcDbSpline
210
0.0
220
0.0
230
1.0
 70
    11
 71
     3
 72
    20
 73
    16
 74
     0
 42
0.0000000001
 43
0.0000000001
 40
0.0
 40
0.0
 40
0.0
 40
0.0
 40
1.0
 40
1.0
 40
1.0
 40
2.0
 40
2.0
 40
2.0
 40
3.0
 40
3.0
 40
3.0
 40
4.0
 40
4.0
 40
4.0
 40
5.0
 40
5.0
 40
5.0
 40
5.0
 10
23.77270914119224
 20
-155.0778726825847
 30
0.0
 10
23.77270914119224
 20
-155.5350368534774
 30
0.0
 10
24.11721868971722
 20
-155.9642957509395
 30
0.0
 10
24.63656683411864
 20
-155.9642957509395
 30
0.0
 10
25.2351521746808
 20
-155.9642957509395
 30
0.0
 10
25.56829290810446
 20
-155.4502875045402
 30
0.0
 10
25.56829290810446
 20
-154.7219943189584
 30
0.0
 10
25.56829290810446
 20
-154.0784504823137
 30
0.0
 10
25.25220539733278
 20
-153.5134548227328
 30
0.0
 10
24.65362005677062
 20
-153.5134548227328
 30
0.0
 10
24.11721868971722
 20
-153.5134548227328
 30
0.0
 10
23.77270914119224
 20
-154.0164387635792
 30
0.0
 10
23.77270914119224
 20
-154.467746272147
 30
0.0
 10
23.77270914119224
 20
-154.467746272147
 30
0.0
 10
23.77270914119224
 20
-155.0778726825847
 30
0.0
 10
23.77270914119224
 20
-155.0778726825847
 30
0.0
  0
HATCH
  5
17E
330
12A
100
AcDbEntity
  8
\U+30EC\U+30A4\U+30E4\U+30FC 1
 62
     7
420
 16777215
100
AcDbHatch
 10
0.0
 20
0.0
 30
0.0
210
0.0
220
0.0
230
1.0
  2
SOLID
 70
     1
 71
     0
 91
        2
 92
        1
 93
        1
 72
     4
 94
        3
 73
     0
 74
     1
 95
       41
 96
       37
 40
0.0
 40
0.0
 40
0.0
 40
0.0
 40
1.0
 40
1.0
 40
1.0
 40
2.0
 40
2.0
 40
2.0
 40
3.0
 40
3.0
 40
3.0
 40
4.0
 40
4.0
 40
4.0
 40
5.0
 40
5.0
 40
5.0
 40
6.0
 40
6.0
 40
6.0
 40
7.0
 40
7.0
 40
7.0
 40
8.0
 40
8.0
 40
8.0
 40
9.0
 40
9.0
 40
9.0
 40
10.0
 40
10.0
 40
10.0
 40
11.0
 40
11.0
 40
11.0
 40
12.0
 40
12.0
 40
12.0
 40
12.0
 10
23.7839057015193
 20
-153.7001789980333
 10
23.97596977482198
 20
-153.344300634407
 10
24.32599147612336
 20
-153.1296711856759
 10
24.80606553199293
 20
-153.1296711856759
 10
25.53453097234901
 20
-153.1296711856759
 10
26.04836696397402
 20
-153.7566785639914
 10
26.04836696397402
 20
-154.7051133510807
 10
26.04836696397402
 20
-155.8230468360443
 10
25.36503227447471
 20
-156.3480793879963
 10
24.72700059060644
 20
-156.3480793879963
 10
24.28086072526659
 20
-156.3480793879963
 10
23.95340439939359
 20
-156.1675563845692
 10
23.73309054311187
 20
-155.7724039324111
 10
23.73309054311187
 20
-155.7724039324111
 10
23.71620957523414
 20
-155.7724039324111
 10
23.71620957523414
 20
-155.7724039324111
 10
23.71620957523414
 20
-155.7724039324111
 10
23.68795979225509
 20
-156.2805555164854
 10
23.68795979225509
 20
-156.2805555164854
 10
23.68795979225509
 20
-156.2805555164854
 10
23.28143852499561
 20
-156.2805555164854
 10
23.28143852499561
 20
-156.2805555164854
 10
23.29263508532268
 20
-156.0772948828557
 10
23.304003900424
 20
-155.7665472700861
 10
23.304003900424
 20
-155.5185003951482
 10
23.304003900424
 20
-155.5185003951482
 10
23.304003900424
 20
-151.7633463162258
 10
23.304003900424
 20
-151.7633463162258
 10
23.304003900424
 20
-151.7633463162258
 10
23.77270914119224
 20
-151.7633463162258
 10
23.77270914119224
 20
-151.7633463162258
 10
23.77270914119224
 20
-151.7633463162258
 10
23.77270914119224
 20
-153.7001789980333
 10
23.77270914119224
 20
-153.7001789980333
 10
23.77270914119224
 20
-153.7001789980333
 10
23.7839057015193
 20
-153.7001789980333
 10
23.7839057015193
 20
-153.7001789980333
 97
        0
 92
        1
 93
        1
 72
     4
 94
        3
 73
     0
 74
     1
 95
       20
 96
       16
 40
0.0
 40
0.0
 40
0.0
 40
0.0
 40
1.0
 40
1.0
 40
1.0
 40
2.0
 40
2.0
 40
2.0
 40
3.0
 40
3.0
 40
3.0
 40
4.0
 40
4.0
 40
4.0
 40
5.0
 40
5.0
 40
5.0
 40
5.0
 10
23.77270914119224
 20
-155.0778726825847
 10
23.77270914119224
 20
-155.5350368534774
 10
24.11721868971722
 20
-155.9642957509395
 10
24.63656683411864
 20
-155.9642957509395
 10
25.2351521746808
 20
-155.9642957509395
 10
25.56829290810446
 20
-155.4502875045402
 10
25.56829290810446
 20
-154.7219943189584
 10
25.56829290810446
 20
-154.0784504823137
 10
25.25220539733278
 20
-153.5134548227328
 10
24.65362005677062
 20
-153.5134548227328
 10
24.11721868971722
 20
-153.5134548227328
 10
23.77270914119224
 20
-154.0164387635792
 10
23.77270914119224
 20
-154.467746272147
 10
23.77270914119224
 20
-154.467746272147
 10
23.77270914119224
 20
-155.0778726825847
 10
23.77270914119224
 20
-155.0778726825847
 97
        0
 75
     2
 76
     1
 98
        0
  0
SPLINE
  5
17F
330
12A
100
AcDbEntity
  8
\U+30EC\U+30A4\U+30E4\U+30FC 1
370
     0
100
AcDbSpline
210
0.0
220
0.0
230
1.0
 70
    11
 71
     3
 72
    17
 73
    13
 74
     0
 42
0.0000000001
 43
0.0000000001
 40
0.0
 40
0.0
 40
0.0
 40
0.0
 40
1.0
 40
1.0
 40
1.0
 40
2.0
 40
2.0
 40
2.0
 40
3.0
 40
3.0
 40
3.0
 40
4.0
 40
4.0
 40
4.0
 40
4.0
 10
29.36719969968945
 20
-154.716482166182
 30
0.0
 10
29.36719969968945
 20
-155.8626654341246
 30
0.0
 10
28.61048447635433
 20
-156.3480793879963
 30
0.0
 10
27.92732204162928
 20
-156.3480793879963
 30
0.0
 10
27.13667262776444
 20
-156.3480793879963
 30
0.0
 10
26.52689072687522
 20
-155.7555229645334
 30
0.0
 10
26.52689072687522
 20
-154.7616129170388
 30
0.0
 10
26.52689072687522
 20
-153.7112033035861
 30
0.0
 10
27.18180337862122
 20
-153.1296711856759
 30
0.0
 10
27.96676838493539
 20
-153.1296711856759
 30
0.0
 10
28.8080607024334
 20
-153.1296711856759
 30
0.0
 10
29.36719969968945
 20
-153.7732150223206
 30
0.0
 10
29.36719969968945
 20
-154.716482166182
 30
0.0
  0
SPLINE
  5
180
330
12A
100
AcDbEntity
  8
\U+30EC\U+30A4\U+30E4\U+30FC 1
370
     0
100
AcDbSpline
210
0.0
220
0.0
230
1.0
 70
    11
 71
     3
 72
    17
 73
    13
 74
     0
 42
0.0000000001
 43
0.0000000001
 40
0.0
 40
0.0
 40
0.0
 40
0.0
 40
1.0
 40
1.0
 40
1.0
 40
2.0
 40
2.0
 40
2.0
 40
3.0
 40
3.0
 40
3.0
 40
4.0
 40
4.0
 40
4.0
 40
4.0
 10
27.94988741705767
 20
-153.4969183644035
 30
0.0
 10
27.28343369543609
 20
-153.4969183644035
 30
0.0
 10
27.00679252797052
 20
-154.151486506601
 30
0.0
 10
27.00679252797052
 20
-154.744731949161
 30
0.0
 10
27.00679252797052
 20
-155.4278943838861
 30
0.0
 10
27.38523626702522
 20
-155.9815212283658
 30
0.0
 10
27.93851860195634
 20
-155.9815212283658
 30
0.0
 10
28.49748534443813
 20
-155.9815212283658
 30
0.0
 10
28.88712564381989
 20
-155.4278943838861
 30
0.0
 10
28.88712564381989
 20
-154.7333631340597
 30
0.0
 10
28.88712564381989
 20
-154.185592951905
 30
0.0
 10
28.62185329145565
 20
-153.4969183644035
 30
0.0
 10
27.94988741705767
 20
-153.4969183644035
 30
0.0
  0
HATCH
  5
181
330
12A
100
AcDbEntity
  8
\U+30EC\U+30A4\U+30E4\U+30FC 1
 62
     7
420
 16777215
100
AcDbHatch
 10
0.0
 20
0.0
 30
0.0
210
0.0
220
0.0
230
1.0
  2
SOLID
 70
     1
 71
     0
 91
        2
 92
        1
 93
        1
 72
     4
 94
        3
 73
     0
 74
     1
 95
       17
 96
       13
 40
0.0
 40
0.0
 40
0.0
 40
0.0
 40
1.0
 40
1.0
 40
1.0
 40
2.0
 40
2.0
 40
2.0
 40
3.0
 40
3.0
 40
3.0
 40
4.0
 40
4.0
 40
4.0
 40
4.0
 10
29.36719969968945
 20
-154.716482166182
 10
29.36719969968945
 20
-155.8626654341246
 10
28.61048447635433
 20
-156.3480793879963
 10
27.92732204162928
 20
-156.3480793879963
 10
27.13667262776444
 20
-156.3480793879963
 10
26.52689072687522
 20
-155.7555229645334
 10
26.52689072687522
 20
-154.7616129170388
 10
26.52689072687522
 20
-153.7112033035861
 10
27.18180337862122
 20
-153.1296711856759
 10
27.96676838493539
 20
-153.1296711856759
 10
28.8080607024334
 20
-153.1296711856759
 10
29.36719969968945
 20
-153.7732150223206
 10
29.36719969968945
 20
-154.716482166182
 97
        0
 92
        1
 93
        1
 72
     4
 94
        3
 73
     0
 74
     1
 95
       17
 96
       13
 40
0.0
 40
0.0
 40
0.0
 40
0.0
 40
1.0
 40
1.0
 40
1.0
 40
2.0
 40
2.0
 40
2.0
 40
3.0
 40
3.0
 40
3.0
 40
4.0
 40
4.0
 40
4.0
 40
4.0
 10
27.94988741705767
 20
-153.4969183644035
 10
27.28343369543609
 20
-153.4969183644035
 10
27.00679252797052
 20
-154.151486506601
 10
27.00679252797052
 20
-154.744731949161
 10
27.00679252797052
 20
-155.4278943838861
 10
27.38523626702522
 20
-155.9815212283658
 10
27.93851860195634
 20
-155.9815212283658
 10
28.49748534443813
 20
-155.9815212283658
 10
28.88712564381989
 20
-155.4278943838861
 10
28.88712564381989
 20
-154.7333631340597
 10
28.88712564381989
 20
-154.185592951905
 10
28.62185329145565
 20
-153.4969183644035
 10
27.94988741705767
 20
-153.4969183644035
 97
        0
 75
     2
 76
     1
 98
        0
  0
SPLINE
  5
182
330
12A
100
AcDbEntity
  8
\U+30EC\U+30A4\U+30E4\U+30FC 1
370
     0
100
AcDbSpline
210
0.0
220
0.0
230
1.0
 70
    11
 71
     3
 72
    44
 73
    40
 74
     0
 42
0.0000000001
 43
0.0000000001
 40
0.0
 40
0.0
 40
0.0
 40
0.0
 40
1.0
 40
1.0
 40
1.0
 40
2.0
 40
2.0
 40
2.0
 40
3.0
 40
3.0
 40
3.0
 40
4.0
 40
4.0
 40
4.0
 40
5.0
 40
5.0
 40
5.0
 40
6.0
 40
6.0
 40
6.0
 40
7.0
 40
7.0
 40
7.0
 40
8.0
 40
8.0
 40
8.0
 40
9.0
 40
9.0
 40
9.0
 40
10.0
 40
10.0
 40
10.0
 40
11.0
 40
11.0
 40
11.0
 40
12.0
 40
12.0
 40
12.0
 40
13.0
 40
13.0
 40
13.0
 40
13.0
 10
32.09313150239338
 20
-155.5464056685787
 30
0.0
 10
32.09313150239338
 20
-155.8006537153901
 30
0.0
 10
32.09881590994405
 20
-156.0659260677544
 30
0.0
 10
32.13826225325016
 20
-156.2805555164854
 30
0.0
 10
32.13826225325016
 20
-156.2805555164854
 30
0.0
 10
31.70917561056229
 20
-156.2805555164854
 30
0.0
 10
31.70917561056229
 20
-156.2805555164854
 30
0.0
 10
31.70917561056229
 20
-156.2805555164854
 30
0.0
 10
31.66404485970552
 20
-155.8850585547787
 30
0.0
 10
31.66404485970552
 20
-155.8850585547787
 30
0.0
 10
31.66404485970552
 20
-155.8850585547787
 30
0.0
 10
31.64699163705353
 20
-155.8850585547787
 30
0.0
 10
31.64699163705353
 20
-155.8850585547787
 30
0.0
 10
31.48886175428056
 20
-156.1282822960374
 30
0.0
 10
31.17277424350889
 20
-156.3480793879963
 30
0.0
 10
30.7378309384961
 20
-156.3480793879963
 30
0.0
 10
30.15061441303526
 20
-156.3480793879963
 30
0.0
 10
29.84003905503999
 20
-155.9191650000827
 30
0.0
 10
29.84003905503999
 20
-155.4730251347429
 30
0.0
 10
29.84003905503999
 20
-154.7333631340597
 30
0.0
 10
30.48375514645893
 20
-154.3323540195766
 30
0.0
 10
31.62442626162515
 20
-154.3382106819016
 30
0.0
 10
31.62442626162515
 20
-154.0784504823137
 30
0.0
 10
31.62442626162515
 20
-153.4910617020786
 30
0.0
 10
30.92421060424812
 20
-153.4910617020786
 30
0.0
 10
30.65893825188388
 20
-153.4910617020786
 30
0.0
 10
30.38212482964405
 20
-153.5644422359144
 30
0.0
 10
30.17317978846365
 20
-153.7112033035861
 30
0.0
 10
30.17317978846365
 20
-153.7112033035861
 30
0.0
 10
30.06035291132172
 20
-153.3894313852637
 30
0.0
 10
30.06035291132172
 20
-153.3894313852637
 30
0.0
 10
30.30874429580823
 20
-153.2254448401659
 30
0.0
 10
30.65325384433321
 20
-153.1296711856759
 30
0.0
 10
30.99759113808394
 20
-153.1296711856759
 30
0.0
 10
31.86730549333526
 20
-153.1296711856759
 30
0.0
 10
32.09313150239338
 20
-153.7449652393416
 30
0.0
 10
32.09313150239338
 20
-154.3550916497793
 30
0.0
 10
32.09313150239338
 20
-154.3550916497793
 30
0.0
 10
32.09313150239338
 20
-155.5464056685787
 30
0.0
 10
32.09313150239338
 20
-155.5464056685787
 30
0.0
  0
SPLINE
  5
183
330
12A
100
AcDbEntity
  8
\U+30EC\U+30A4\U+30E4\U+30FC 1
370
     0
100
AcDbSpline
210
0.0
220
0.0
230
1.0
 70
    11
 71
     3
 72
    17
 73
    13
 74
     0
 42
0.0000000001
 43
0.0000000001
 40
0.0
 40
0.0
 40
0.0
 40
0.0
 40
1.0
 40
1.0
 40
1.0
 40
2.0
 40
2.0
 40
2.0
 40
3.0
 40
3.0
 40
3.0
 40
4.0
 40
4.0
 40
4.0
 40
4.0
 10
31.63011066917581
 20
-154.6827202304266
 30
0.0
 10
31.04840629649137
 20
-154.6827202304266
 30
0.0
 10
30.32011311090956
 20
-154.7674695793637
 30
0.0
 10
30.32011311090956
 20
-155.4165255687848
 30
0.0
 10
30.32011311090956
 20
-155.8120225304914
 30
0.0
 10
30.56850449539607
 20
-155.9870333811421
 30
0.0
 10
30.85083007041229
 20
-155.9870333811421
 30
0.0
 10
31.30816649607921
 20
-155.9870333811421
 30
0.0
 10
31.63011066917581
 20
-155.6370116798408
 30
0.0
 10
31.63011066917581
 20
-155.2642523483367
 30
0.0
 10
31.63011066917581
 20
-155.2642523483367
 30
0.0
 10
31.63011066917581
 20
-154.6827202304266
 30
0.0
 10
31.63011066917581
 20
-154.6827202304266
 30
0.0
  0
HATCH
  5
184
330
12A
100
AcDbEntity
  8
\U+30EC\U+30A4\U+30E4\U+30FC 1
 62
     7
420
 16777215
100
AcDbHatch
 10
0.0
 20
0.0
 30
0.0
210
0.0
220
0.0
230
1.0
  2
SOLID
 70
     1
 71
     0
 91
        2
 92
        1
 93
        1
 72
     4
 94
        3
 73
     0
 74
     1
 95
       44
 96
       40
 40
0.0
 40
0.0
 40
0.0
 40
0.0
 40
1.0
 40
1.0
 40
1.0
 40
2.0
 40
2.0
 40
2.0
 40
3.0
 40
3.0
 40
3.0
 40
4.0
 40
4.0
 40
4.0
 40
5.0
 40
5.0
 40
5.0
 40
6.0
 40
6.0
 40
6.0
 40
7.0
 40
7.0
 40
7.0
 40
8.0
 40
8.0
 40
8.0
 40
9.0
 40
9.0
 40
9.0
 40
10.0
 40
10.0
 40
10.0
 40
11.0
 40
11.0
 40
11.0
 40
12.0
 40
12.0
 40
12.0
 40
13.0
 40
13.0
 40
13.0
 40
13.0
 10
32.09313150239338
 20
-155.5464056685787
 10
32.09313150239338
 20
-155.8006537153901
 10
32.09881590994405
 20
-156.0659260677544
 10
32.13826225325016
 20
-156.2805555164854
 10
32.13826225325016
 20
-156.2805555164854
 10
31.70917561056229
 20
-156.2805555164854
 10
31.70917561056229
 20
-156.2805555164854
 10
31.70917561056229
 20
-156.2805555164854
 10
31.66404485970552
 20
-155.8850585547787
 10
31.66404485970552
 20
-155.8850585547787
 10
31.66404485970552
 20
-155.8850585547787
 10
31.64699163705353
 20
-155.8850585547787
 10
31.64699163705353
 20
-155.8850585547787
 10
31.48886175428056
 20
-156.1282822960374
 10
31.17277424350889
 20
-156.3480793879963
 10
30.7378309384961
 20
-156.3480793879963
 10
30.15061441303526
 20
-156.3480793879963
 10
29.84003905503999
 20
-155.9191650000827
 10
29.84003905503999
 20
-155.4730251347429
 10
29.84003905503999
 20
-154.7333631340597
 10
30.48375514645893
 20
-154.3323540195766
 10
31.62442626162515
 20
-154.3382106819016
 10
31.62442626162515
 20
-154.0784504823137
 10
31.62442626162515
 20
-153.4910617020786
 10
30.92421060424812
 20
-153.4910617020786
 10
30.65893825188388
 20
-153.4910617020786
 10
30.38212482964405
 20
-153.5644422359144
 10
30.17317978846365
 20
-153.7112033035861
 10
30.17317978846365
 20
-153.7112033035861
 10
30.06035291132172
 20
-153.3894313852637
 10
30.06035291132172
 20
-153.3894313852637
 10
30.30874429580823
 20
-153.2254448401659
 10
30.65325384433321
 20
-153.1296711856759
 10
30.99759113808394
 20
-153.1296711856759
 10
31.86730549333526
 20
-153.1296711856759
 10
32.09313150239338
 20
-153.7449652393416
 10
32.09313150239338
 20
-154.3550916497793
 10
32.09313150239338
 20
-154.3550916497793
 10
32.09313150239338
 20
-155.5464056685787
 10
32.09313150239338
 20
-155.5464056685787
 97
        0
 92
        1
 93
        1
 72
     4
 94
        3
 73
     0
 74
     1
 95
       17
 96
       13
 40
0.0
 40
0.0
 40
0.0
 40
0.0
 40
1.0
 40
1.0
 40
1.0
 40
2.0
 40
2.0
 40
2.0
 40
3.0
 40
3.0
 40
3.0
 40
4.0
 40
4.0
 40
4.0
 40
4.0
 10
31.63011066917581
 20
-154.6827202304266
 10
31.04840629649137
 20
-154.6827202304266
 10
30.32011311090956
 20
-154.7674695793637
 10
30.32011311090956
 20
-155.4165255687848
 10
30.32011311090956
 20
-155.8120225304914
 10
30.56850449539607
 20
-155.9870333811421
 10
30.85083007041229
 20
-155.9870333811421
 10
31.30816649607921
 20
-155.9870333811421
 10
31.63011066917581
 20
-155.6370116798408
 10
31.63011066917581
 20
-155.2642523483367
 10
31.63011066917581
 20
-155.2642523483367
 10
31.63011066917581
 20
-154.6827202304266
 10
31.63011066917581
 20
-154.6827202304266
 97
        0
 75
     2
 76
     1
 98
        0
  0
SPLINE
  5
185
330
12A
100
AcDbEntity
  8
\U+30EC\U+30A4\U+30E4\U+30FC 1
370
     0
100
AcDbSpline
210
0.0
220
0.0
230
1.0
 70
    11
 71
     3
 72
    41
 73
    37
 74
     0
 42
0.0000000001
 43
0.0000000001
 40
0.0
 40
0.0
 40
0.0
 40
0.0
 40
1.0
 40
1.0
 40
1.0
 40
2.0
 40
2.0
 40
2.0
 40
3.0
 40
3.0
 40
3.0
 40
4.0
 40
4.0
 40
4.0
 40
5.0
 40
5.0
 40
5.0
 40
6.0
 40
6.0
 40
6.0
 40
7.0
 40
7.0
 40
7.0
 40
8.0
 40
8.0
 40
8.0
 40
9.0
 40
9.0
 40
9.0
 40
10.0
 40
10.0
 40
10.0
 40
11.0
 40
11.0
 40
11.0
 40
12.0
 40
12.0
 40
12.0
 40
12.0
 10
34.40151773228504
 20
-153.5982041716699
 30
0.0
 10
34.35070257387761
 20
-153.5926920188935
 30
0.0
 10
34.29988741547017
 20
-153.5871798661171
 30
0.0
 10
34.23201903441075
 20
-153.5871798661171
 30
0.0
 10
33.72386745033639
 20
-153.5871798661171
 30
0.0
 10
33.46410725074855
 20
-154.0894747878665
 30
0.0
 10
33.46410725074855
 20
-154.6089951870422
 30
0.0
 10
33.46410725074855
 20
-154.6089951870422
 30
0.0
 10
33.46410725074855
 20
-156.2805555164854
 30
0.0
 10
33.46410725074855
 20
-156.2805555164854
 30
0.0
 10
33.46410725074855
 20
-156.2805555164854
 30
0.0
 10
32.99540200998032
 20
-156.2805555164854
 30
0.0
 10
32.99540200998032
 20
-156.2805555164854
 30
0.0
 10
32.99540200998032
 20
-156.2805555164854
 30
0.0
 10
32.99540200998032
 20
-154.1235812331705
 30
0.0
 10
32.99540200998032
 20
-154.1235812331705
 30
0.0
 10
32.99540200998032
 20
-153.7959526525233
 30
0.0
 10
32.98971760242966
 20
-153.4969183644035
 30
0.0
 10
32.97283663455193
 20
-153.2030517195117
 30
0.0
 10
32.97283663455193
 20
-153.2030517195117
 30
0.0
 10
33.38504230936208
 20
-153.2030517195117
 30
0.0
 10
33.38504230936208
 20
-153.2030517195117
 30
0.0
 10
33.38504230936208
 20
-153.2030517195117
 30
0.0
 10
33.40760768479046
 20
-153.7959526525233
 30
0.0
 10
33.40760768479046
 20
-153.7959526525233
 30
0.0
 10
33.40760768479046
 20
-153.7959526525233
 30
0.0
 10
33.42448865266819
 20
-153.7959526525233
 30
0.0
 10
33.42448865266819
 20
-153.7959526525233
 30
0.0
 10
33.56005316001276
 20
-153.4121690154664
 30
0.0
 10
33.88199733310936
 20
-153.1351833384523
 30
0.0
 10
34.26026881738979
 20
-153.1351833384523
 30
0.0
 10
34.31108397579723
 20
-153.1351833384523
 30
0.0
 10
34.35070257387761
 20
-153.1465521535536
 30
0.0
 10
34.40151773228504
 20
-153.1524088158786
 30
0.0
 10
34.40151773228504
 20
-153.1524088158786
 30
0.0
 10
34.40151773228504
 20
-153.5982041716699
 30
0.0
 10
34.40151773228504
 20
-153.5982041716699
 30
0.0
  0
HATCH
  5
186
330
12A
100
AcDbEntity
  8
\U+30EC\U+30A4\U+30E4\U+30FC 1
 62
     7
420
 16777215
100
AcDbHatch
 10
0.0
 20
0.0
 30
0.0
210
0.0
220
0.0
230
1.0
  2
SOLID
 70
     1
 71
     0
 91
        1
 92
        1
 93
        1
 72
     4
 94
        3
 73
     0
 74
     1
 95
       41
 96
       37
 40
0.0
 40
0.0
 40
0.0
 40
0.0
 40
1.0
 40
1.0
 40
1.0
 40
2.0
 40
2.0
 40
2.0
 40
3.0
 40
3.0
 40
3.0
 40
4.0
 40
4.0
 40
4.0
 40
5.0
 40
5.0
 40
5.0
 40
6.0
 40
6.0
 40
6.0
 40
7.0
 40
7.0
 40
7.0
 40
8.0
 40
8.0
 40
8.0
 40
9.0
 40
9.0
 40
9.0
 40
10.0
 40
10.0
 40
10.0
 40
11.0
 40
11.0
 40
11.0
 40
12.0
 40
12.0
 40
12.0
 40
12.0
 10
34.40151773228504
 20
-153.5982041716699
 10
34.35070257387761
 20
-153.5926920188935
 10
34.29988741547017
 20
-153.5871798661171
 10
34.23201903441075
 20
-153.5871798661171
 10
33.72386745033639
 20
-153.5871798661171
 10
33.46410725074855
 20
-154.0894747878665
 10
33.46410725074855
 20
-154.6089951870422
 10
33.46410725074855
 20
-154.6089951870422
 10
33.46410725074855
 20
-156.2805555164854
 10
33.46410725074855
 20
-156.2805555164854
 10
33.46410725074855
 20
-156.2805555164854
 10
32.99540200998032
 20
-156.2805555164854
 10
32.99540200998032
 20
-156.2805555164854
 10
32.99540200998032
 20
-156.2805555164854
 10
32.99540200998032
 20
-154.1235812331705
 10
32.99540200998032
 20
-154.1235812331705
 10
32.99540200998032
 20
-153.7959526525233
 10
32.98971760242966
 20
-153.4969183644035
 10
32.97283663455193
 20
-153.2030517195117
 10
32.97283663455193
 20
-153.2030517195117
 10
33.38504230936208
 20
-153.2030517195117
 10
33.38504230936208
 20
-153.2030517195117
 10
33.38504230936208
 20
-153.2030517195117
 10
33.40760768479046
 20
-153.7959526525233
 10
33.40760768479046
 20
-153.7959526525233
 10
33.40760768479046
 20
-153.7959526525233
 10
33.42448865266819
 20
-153.7959526525233
 10
33.42448865266819
 20
-153.7959526525233
 10
33.56005316001276
 20
-153.4121690154664
 10
33.88199733310936
 20
-153.1351833384523
 10
34.26026881738979
 20
-153.1351833384523
 10
34.31108397579723
 20
-153.1351833384523
 10
34.35070257387761
 20
-153.1465521535536
 10
34.40151773228504
 20
-153.1524088158786
 10
34.40151773228504
 20
-153.1524088158786
 10
34.40151773228504
 20
-153.5982041716699
 10
34.40151773228504
 20
-153.5982041716699
 97
        0
 75
     2
 76
     1
 98
        0
  0
SPLINE
  5
187
330
12A
100
AcDbEntity
  8
\U+30EC\U+30A4\U+30E4\U+30FC 1
370
     0
100
AcDbSpline
210
0.0
220
0.0
230
1.0
 70
    11
 71
     3
 72
    41
 73
    37
 74
     0
 42
0.0000000001
 43
0.0000000001
 40
0.0
 40
0.0
 40
0.0
 40
0.0
 40
1.0
 40
1.0
 40
1.0
 40
2.0
 40
2.0
 40
2.0
 40
3.0
 40
3.0
 40
3.0
 40
4.0
 40
4.0
 40
4.0
 40
5.0
 40
5.0
 40
5.0
 40
6.0
 40
6.0
 40
6.0
 40
7.0
 40
7.0
 40
7.0
 40
8.0
 40
8.0
 40
8.0
 40
9.0
 40
9.0
 40
9.0
 40
10.0
 40
10.0
 40
10.0
 40
11.0
 40
11.0
 40
11.0
 40
12.0
 40
12.0
 40
12.0
 40
12.0
 10
37.43302950453063
 20
-155.5185003951482
 30
0.0
 10
37.43302950453063
 20
-155.7665472700861
 30
0.0
 10
37.44422606485769
 20
-156.0717827300793
 30
0.0
 10
37.45559487995902
 20
-156.2805555164854
 30
0.0
 10
37.45559487995902
 20
-156.2805555164854
 30
0.0
 10
37.03770479759822
 20
-156.2805555164854
 30
0.0
 10
37.03770479759822
 20
-156.2805555164854
 30
0.0
 10
37.03770479759822
 20
-156.2805555164854
 30
0.0
 10
37.01513942216983
 20
-155.7555229645334
 30
0.0
 10
37.01513942216983
 20
-155.7555229645334
 30
0.0
 10
37.01513942216983
 20
-155.7555229645334
 30
0.0
 10
36.99825845429211
 20
-155.7555229645334
 30
0.0
 10
36.99825845429211
 20
-155.7555229645334
 30
0.0
 10
36.84012857151914
 20
-156.0772948828557
 30
0.0
 10
36.48993461544349
 20
-156.3480793879963
 30
0.0
 10
35.99315184647046
 20
-156.3480793879963
 30
0.0
 10
35.28156737399211
 20
-156.3480793879963
 30
0.0
 10
34.72828503906099
 20
-155.7327853343307
 30
0.0
 10
34.72828503906099
 20
-154.7840060376929
 30
0.0
 10
34.72828503906099
 20
-153.7449652393416
 30
0.0
 10
35.33806693995021
 20
-153.1351833384523
 30
0.0
 10
36.05516356520496
 20
-153.1351833384523
 30
0.0
 10
36.50698783809548
 20
-153.1351833384523
 30
0.0
 10
36.81187878854008
 20
-153.3556694495083
 30
0.0
 10
36.95295544866106
 20
-153.6095729867712
 30
0.0
 10
36.95295544866106
 20
-153.6095729867712
 30
0.0
 10
36.96432426376239
 20
-153.6095729867712
 30
0.0
 10
36.96432426376239
 20
-153.6095729867712
 30
0.0
 10
36.96432426376239
 20
-153.6095729867712
 30
0.0
 10
36.96432426376239
 20
-151.7633463162258
 30
0.0
 10
36.96432426376239
 20
-151.7633463162258
 30
0.0
 10
36.96432426376239
 20
-151.7633463162258
 30
0.0
 10
37.43302950453063
 20
-151.7633463162258
 30
0.0
 10
37.43302950453063
 20
-151.7633463162258
 30
0.0
 10
37.43302950453063
 20
-151.7633463162258
 30
0.0
 10
37.43302950453063
 20
-155.5185003951482
 30
0.0
 10
37.43302950453063
 20
-155.5185003951482
 30
0.0
  0
SPLINE
  5
188
330
12A
100
AcDbEntity
  8
\U+30EC\U+30A4\U+30E4\U+30FC 1
370
     0
100
AcDbSpline
210
0.0
220
0.0
230
1.0
 70
    11
 71
     3
 72
    20
 73
    16
 74
     0
 42
0.0000000001
 43
0.0000000001
 40
0.0
 40
0.0
 40
0.0
 40
0.0
 40
1.0
 40
1.0
 40
1.0
 40
2.0
 40
2.0
 40
2.0
 40
3.0
 40
3.0
 40
3.0
 40
4.0
 40
4.0
 40
4.0
 40
5.0
 40
5.0
 40
5.0
 40
5.0
 10
36.96432426376239
 20
-154.4339843363915
 30
0.0
 10
36.96432426376239
 20
-153.8186902827259
 30
0.0
 10
36.52955321352386
 20
-153.5134548227328
 30
0.0
 10
36.13422850659144
 20
-153.5134548227328
 30
0.0
 10
35.55269638868127
 20
-153.5134548227328
 30
0.0
 10
35.20818684015629
 20
-154.0557128521111
 30
0.0
 10
35.20818684015629
 20
-154.7616129170388
 30
0.0
 10
35.20818684015629
 20
-155.4110134160084
 30
0.0
 10
35.5130777906009
 20
-155.9642957509395
 30
0.0
 10
36.11734753871372
 20
-155.9642957509395
 30
0.0
 10
36.62549912278807
 20
-155.9642957509395
 30
0.0
 10
36.96432426376239
 20
-155.5185003951482
 30
0.0
 10
36.96432426376239
 20
-155.0272297789515
 30
0.0
 10
36.96432426376239
 20
-155.0272297789515
 30
0.0
 10
36.96432426376239
 20
-154.4339843363915
 30
0.0
 10
36.96432426376239
 20
-154.4339843363915
 30
0.0
  0
HATCH
  5
189
330
12A
100
AcDbEntity
  8
\U+30EC\U+30A4\U+30E4\U+30FC 1
 62
     7
420
 16777215
100
AcDbHatch
 10
0.0
 20
0.0
 30
0.0
210
0.0
220
0.0
230
1.0
  2
SOLID
 70
     1
 71
     0
 91
        2
 92
        1
 93
        1
 72
     4
 94
        3
 73
     0
 74
     1
 95
       41
 96
       37
 40
0.0
 40
0.0
 40
0.0
 40
0.0
 40
1.0
 40
1.0
 40
1.0
 40
2.0
 40
2.0
 40
2.0
 40
3.0
 40
3.0
 40
3.0
 40
4.0
 40
4.0
 40
4.0
 40
5.0
 40
5.0
 40
5.0
 40
6.0
 40
6.0
 40
6.0
 40
7.0
 40
7.0
 40
7.0
 40
8.0
 40
8.0
 40
8.0
 40
9.0
 40
9.0
 40
9.0
 40
10.0
 40
10.0
 40
10.0
 40
11.0
 40
11.0
 40
11.0
 40
12.0
 40
12.0
 40
12.0
 40
12.0
 10
37.43302950453063
 20
-155.5185003951482
 10
37.43302950453063
 20
-155.7665472700861
 10
37.44422606485769
 20
-156.0717827300793
 10
37.45559487995902
 20
-156.2805555164854
 10
37.45559487995902
 20
-156.2805555164854
 10
37.03770479759822
 20
-156.2805555164854
 10
37.03770479759822
 20
-156.2805555164854
 10
37.03770479759822
 20
-156.2805555164854
 10
37.01513942216983
 20
-155.7555229645334
 10
37.01513942216983
 20
-155.7555229645334
 10
37.01513942216983
 20
-155.7555229645334
 10
36.99825845429211
 20
-155.7555229645334
 10
36.99825845429211
 20
-155.7555229645334
 10
36.84012857151914
 20
-156.0772948828557
 10
36.48993461544349
 20
-156.3480793879963
 10
35.99315184647046
 20
-156.3480793879963
 10
35.28156737399211
 20
-156.3480793879963
 10
34.72828503906099
 20
-155.7327853343307
 10
34.72828503906099
 20
-154.7840060376929
 10
34.72828503906099
 20
-153.7449652393416
 10
35.33806693995021
 20
-153.1351833384523
 10
36.05516356520496
 20
-153.1351833384523
 10
36.50698783809548
 20
-153.1351833384523
 10
36.81187878854008
 20
-153.3556694495083
 10
36.95295544866106
 20
-153.6095729867712
 10
36.95295544866106
 20
-153.6095729867712
 10
36.96432426376239
 20
-153.6095729867712
 10
36.96432426376239
 20
-153.6095729867712
 10
36.96432426376239
 20
-153.6095729867712
 10
36.96432426376239
 20
-151.7633463162258
 10
36.96432426376239
 20
-151.7633463162258
 10
36.96432426376239
 20
-151.7633463162258
 10
37.43302950453063
 20
-151.7633463162258
 10
37.43302950453063
 20
-151.7633463162258
 10
37.43302950453063
 20
-151.7633463162258
 10
37.43302950453063
 20
-155.5185003951482
 10
37.43302950453063
 20
-155.5185003951482
 97
        0
 92
        1
 93
        1
 72
     4
 94
        3
 73
     0
 74
     1
 95
       20
 96
       16
 40
0.0
 40
0.0
 40
0.0
 40
0.0
 40
1.0
 40
1.0
 40
1.0
 40
2.0
 40
2.0
 40
2.0
 40
3.0
 40
3.0
 40
3.0
 40
4.0
 40
4.0
 40
4.0
 40
5.0
 40
5.0
 40
5.0
 40
5.0
 10
36.96432426376239
 20
-154.4339843363915
 10
36.96432426376239
 20
-153.8186902827259
 10
36.52955321352386
 20
-153.5134548227328
 10
36.13422850659144
 20
-153.5134548227328
 10
35.55269638868127
 20
-153.5134548227328
 10
35.20818684015629
 20
-154.0557128521111
 10
35.20818684015629
 20
-154.7616129170388
 10
35.20818684015629
 20
-155.4110134160084
 10
35.5130777906009
 20
-155.9642957509395
 10
36.11734753871372
 20
-155.9642957509395
 10
36.62549912278807
 20
-155.9642957509395
 10
36.96432426376239
 20
-155.5185003951482
 10
36.96432426376239
 20
-155.0272297789515
 10
36.96432426376239
 20
-155.0272297789515
 10
36.96432426376239
 20
-154.4339843363915
 10
36.96432426376239
 20
-154.4339843363915
 97
        0
 75
     2
 76
     1
 98
        0
  0
SPLINE
  5
18A
330
12A
100
AcDbEntity
  8
\U+30EC\U+30A4\U+30E4\U+30FC 1
370
     0
100
AcDbSpline
210
0.0
220
0.0
230
1.0
 70
    11
 71
     3
 72
    17
 73
    13
 74
     0
 42
0.0000000001
 43
0.0000000001
 40
0.0
 40
0.0
 40
0.0
 40
0.0
 40
1.0
 40
1.0
 40
1.0
 40
2.0
 40
2.0
 40
2.0
 40
3.0
 40
3.0
 40
3.0
 40
4.0
 40
4.0
 40
4.0
 40
4.0
 10
38.23349744052843
 20
-153.682953520607
 30
0.0
 10
38.23349744052843
 20
-153.4741807342009
 30
0.0
 10
38.36906194787301
 20
-153.3219075137529
 30
0.0
 10
38.56663817395209
 20
-153.3219075137529
 30
0.0
 10
38.76989880758183
 20
-153.3219075137529
 30
0.0
 10
38.89977890737575
 20
-153.4741807342009
 30
0.0
 10
38.89977890737575
 20
-153.682953520607
 30
0.0
 10
38.89977890737575
 20
-153.8862141542368
 30
0.0
 10
38.76989880758183
 20
-154.0446885465583
 30
0.0
 10
38.56663817395209
 20
-154.0446885465583
 30
0.0
 10
38.35200872522103
 20
-154.0446885465583
 30
0.0
 10
38.23349744052843
 20
-153.8693331863591
 30
0.0
 10
38.23349744052843
 20
-153.682953520607
 30
0.0
  0
SPLINE
  5
18B
330
12A
100
AcDbEntity
  8
\U+30EC\U+30A4\U+30E4\U+30FC 1
370
     0
100
AcDbSpline
210
0.0
220
0.0
230
1.0
 70
    11
 71
     3
 72
    17
 73
    13
 74
     0
 42
0.0000000001
 43
0.0000000001
 40
0.0
 40
0.0
 40
0.0
 40
0.0
 40
1.0
 40
1.0
 40
1.0
 40
2.0
 40
2.0
 40
2.0
 40
3.0
 40
3.0
 40
3.0
 40
4.0
 40
4.0
 40
4.0
 40
4.0
 10
38.23349744052843
 20
-155.9925455339185
 30
0.0
 10
38.23349744052843
 20
-155.7837727475124
 30
0.0
 10
38.36906194787301
 20
-155.6311550175158
 30
0.0
 10
38.56663817395209
 20
-155.6311550175158
 30
0.0
 10
38.76989880758183
 20
-155.6311550175158
 30
0.0
 10
38.89977890737575
 20
-155.7837727475124
 30
0.0
 10
38.89977890737575
 20
-155.9925455339185
 30
0.0
 10
38.89977890737575
 20
-156.1902940147719
 30
0.0
 10
38.76989880758183
 20
-156.3480793879963
 30
0.0
 10
38.56663817395209
 20
-156.3480793879963
 30
0.0
 10
38.35200872522103
 20
-156.3480793879963
 30
0.0
 10
38.23349744052843
 20
-156.1789251996705
 30
0.0
 10
38.23349744052843
 20
-155.9925455339185
 30
0.0
  0
HATCH
  5
18C
330
12A
100
AcDbEntity
  8
\U+30EC\U+30A4\U+30E4\U+30FC 1
 62
     7
420
 16777215
100
AcDbHatch
 10
0.0
 20
0.0
 30
0.0
210
0.0
220
0.0
230
1.0
  2
SOLID
 70
     1
 71
     0
 91
        2
 92
        1
 93
        1
 72
     4
 94
        3
 73
     0
 74
     1
 95
       17
 96
       13
 40
0.0
 40
0.0
 40
0.0
 40
0.0
 40
1.0
 40
1.0
 40
1.0
 40
2.0
 40
2.0
 40
2.0
 40
3.0
 40
3.0
 40
3.0
 40
4.0
 40
4.0
 40
4.0
 40
4.0
 10
38.23349744052843
 20
-153.682953520607
 10
38.23349744052843
 20
-153.4741807342009
 10
38.36906194787301
 20
-153.3219075137529
 10
38.56663817395209
 20
-153.3219075137529
 10
38.76989880758183
 20
-153.3219075137529
 10
38.89977890737575
 20
-153.4741807342009
 10
38.89977890737575
 20
-153.682953520607
 10
38.89977890737575
 20
-153.8862141542368
 10
38.76989880758183
 20
-154.0446885465583
 10
38.56663817395209
 20
-154.0446885465583
 10
38.35200872522103
 20
-154.0446885465583
 10
38.23349744052843
 20
-153.8693331863591
 10
38.23349744052843
 20
-153.682953520607
 97
        0
 92
        1
 93
        1
 72
     4
 94
        3
 73
     0
 74
     1
 95
       17
 96
       13
 40
0.0
 40
0.0
 40
0.0
 40
0.0
 40
1.0
 40
1.0
 40
1.0
 40
2.0
 40
2.0
 40
2.0
 40
3.0
 40
3.0
 40
3.0
 40
4.0
 40
4.0
 40
4.0
 40
4.0
 10
38.23349744052843
 20
-155.9925455339185
 10
38.23349744052843
 20
-155.7837727475124
 10
38.36906194787301
 20
-155.6311550175158
 10
38.56663817395209
 20
-155.6311550175158
 10
38.76989880758183
 20
-155.6311550175158
 10
38.89977890737575
 20
-155.7837727475124
 10
38.89977890737575
 20
-155.9925455339185
 10
38.89977890737575
 20
-156.1902940147719
 10
38.76989880758183
 20
-156.3480793879963
 10
38.56663817395209
 20
-156.3480793879963
 10
38.35200872522103
 20
-156.3480793879963
 10
38.23349744052843
 20
-156.1789251996705
 10
38.23349744052843
 20
-155.9925455339185
 97
        0
 75
     2
 76
     1
 98
        0
  0
SPLINE
  5
18D
330
12A
100
AcDbEntity
  8
\U+30EC\U+30A4\U+30E4\U+30FC 1
370
     0
100
AcDbSpline
210
0.0
220
0.0
230
1.0
 70
    11
 71
     3
 72
    47
 73
    43
 74
     0
 42
0.0000000001
 43
0.0000000001
 40
0.0
 40
0.0
 40
0.0
 40
0.0
 40
1.0
 40
1.0
 40
1.0
 40
2.0
 40
2.0
 40
2.0
 40
3.0
 40
3.0
 40
3.0
 40
4.0
 40
4.0
 40
4.0
 40
5.0
 40
5.0
 40
5.0
 40
6.0
 40
6.0
 40
6.0
 40
7.0
 40
7.0
 40
7.0
 40
8.0
 40
8.0
 40
8.0
 40
9.0
 40
9.0
 40
9.0
 40
10.0
 40
10.0
 40
10.0
 40
11.0
 40
11.0
 40
11.0
 40
12.0
 40
12.0
 40
12.0
 40
13.0
 40
13.0
 40
13.0
 40
14.0
 40
14.0
 40
14.0
 40
14.0
 10
43.06593287768838
 20
-152.0513562987927
 30
0.0
 10
43.06593287768838
 20
-152.0513562987927
 30
0.0
 10
43.06593287768838
 20
-152.440652088626
 30
0.0
 10
43.06593287768838
 20
-152.440652088626
 30
0.0
 10
43.06593287768838
 20
-152.440652088626
 30
0.0
 10
41.54699027824173
 20
-152.440652088626
 30
0.0
 10
41.54699027824173
 20
-152.440652088626
 30
0.0
 10
41.54699027824173
 20
-152.440652088626
 30
0.0
 10
41.37197942759104
 20
-153.6378227697503
 30
0.0
 10
41.37197942759104
 20
-153.6378227697503
 30
0.0
 10
41.46224092930458
 20
-153.626453954649
 30
0.0
 10
41.55267468579239
 20
-153.6154296490961
 30
0.0
 10
41.69943575346403
 20
-153.6154296490961
 30
0.0
 10
42.4504665692485
 20
-153.6154296490961
 30
0.0
 10
43.12243244364647
 20
-154.0612250048875
 30
0.0
 10
43.12243244364647
 20
-154.9142306470353
 30
0.0
 10
43.12243244364647
 20
-155.7500108117569
 30
0.0
 10
42.50128172765593
 20
-156.3480793879963
 30
0.0
 10
41.66567381770858
 20
-156.3480793879963
 30
0.0
 10
41.24209932779711
 20
-156.3480793879963
 30
0.0
 10
40.88639321894507
 20
-156.2240559505273
 30
0.0
 10
40.69432914564239
 20
-156.1000325130583
 30
0.0
 10
40.69432914564239
 20
-156.1000325130583
 30
0.0
 10
40.82989365298697
 20
-155.7327853343307
 30
0.0
 10
40.82989365298697
 20
-155.7327853343307
 30
0.0
 10
40.98802353575994
 20
-155.8402723134705
 30
0.0
 10
41.29859889375521
 20
-155.9698079037159
 30
0.0
 10
41.66567381770858
 20
-155.9698079037159
 30
0.0
 10
42.19639077721132
 20
-155.9698079037159
 30
0.0
 10
42.65372720287824
 20
-155.5805121138827
 30
0.0
 10
42.64804279532758
 20
-154.9707302129934
 30
0.0
 10
42.64804279532758
 20
-154.3888535855347
 30
0.0
 10
42.2754557185978
 20
-153.9823323182753
 30
0.0
 10
41.48497855950723
 20
-153.9823323182753
 30
0.0
 10
41.25898029567484
 20
-153.9823323182753
 30
0.0
 10
41.08396944502415
 20
-153.999213286153
 30
0.0
 10
40.94289278490317
 20
-154.0219509163556
 30
0.0
 10
40.94289278490317
 20
-154.0219509163556
 30
0.0
 10
41.20816513726741
 20
-152.0513562987927
 30
0.0
 10
41.20816513726741
 20
-152.0513562987927
 30
0.0
 10
41.20816513726741
 20
-152.0513562987927
 30
0.0
 10
43.06593287768838
 20
-152.0513562987927
 30
0.0
 10
43.06593287768838
 20
-152.0513562987927
 30
0.0
  0
HATCH
  5
18E
330
12A
100
AcDbEntity
  8
\U+30EC\U+30A4\U+30E4\U+30FC 1
 62
     7
420
 16777215
100
AcDbHatch
 10
0.0
 20
0.0
 30
0.0
210
0.0
220
0.0
230
1.0
  2
SOLID
 70
     1
 71
     0
 91
        1
 92
        1
 93
        1
 72
     4
 94
        3
 73
     0
 74
     1
 95
       47
 96
       43
 40
0.0
 40
0.0
 40
0.0
 40
0.0
 40
1.0
 40
1.0
 40
1.0
 40
2.0
 40
2.0
 40
2.0
 40
3.0
 40
3.0
 40
3.0
 40
4.0
 40
4.0
 40
4.0
 40
5.0
 40
5.0
 40
5.0
 40
6.0
 40
6.0
 40
6.0
 40
7.0
 40
7.0
 40
7.0
 40
8.0
 40
8.0
 40
8.0
 40
9.0
 40
9.0
 40
9.0
 40
10.0
 40
10.0
 40
10.0
 40
11.0
 40
11.0
 40
11.0
 40
12.0
 40
12.0
 40
12.0
 40
13.0
 40
13.0
 40
13.0
 40
14.0
 40
14.0
 40
14.0
 40
14.0
 10
43.06593287768838
 20
-152.0513562987927
 10
43.06593287768838
 20
-152.0513562987927
 10
43.06593287768838
 20
-152.440652088626
 10
43.06593287768838
 20
-152.440652088626
 10
43.06593287768838
 20
-152.440652088626
 10
41.54699027824173
 20
-152.440652088626
 10
41.54699027824173
 20
-152.440652088626
 10
41.54699027824173
 20
-152.440652088626
 10
41.37197942759104
 20
-153.6378227697503
 10
41.37197942759104
 20
-153.6378227697503
 10
41.46224092930458
 20
-153.626453954649
 10
41.55267468579239
 20
-153.6154296490961
 10
41.69943575346403
 20
-153.6154296490961
 10
42.4504665692485
 20
-153.6154296490961
 10
43.12243244364647
 20
-154.0612250048875
 10
43.12243244364647
 20
-154.9142306470353
 10
43.12243244364647
 20
-155.7500108117569
 10
42.50128172765593
 20
-156.3480793879963
 10
41.66567381770858
 20
-156.3480793879963
 10
41.24209932779711
 20
-156.3480793879963
 10
40.88639321894507
 20
-156.2240559505273
 10
40.69432914564239
 20
-156.1000325130583
 10
40.69432914564239
 20
-156.1000325130583
 10
40.82989365298697
 20
-155.7327853343307
 10
40.82989365298697
 20
-155.7327853343307
 10
40.98802353575994
 20
-155.8402723134705
 10
41.29859889375521
 20
-155.9698079037159
 10
41.66567381770858
 20
-155.9698079037159
 10
42.19639077721132
 20
-155.9698079037159
 10
42.65372720287824
 20
-155.5805121138827
 10
42.64804279532758
 20
-154.9707302129934
 10
42.64804279532758
 20
-154.3888535855347
 10
42.2754557185978
 20
-153.9823323182753
 10
41.48497855950723
 20
-153.9823323182753
 10
41.25898029567484
 20
-153.9823323182753
 10
41.08396944502415
 20
-153.999213286153
 10
40.94289278490317
 20
-154.0219509163556
 10
40.94289278490317
 20
-154.0219509163556
 10
41.20816513726741
 20
-152.0513562987927
 10
41.20816513726741
 20
-152.0513562987927
 10
41.20816513726741
 20
-152.0513562987927
 10
43.06593287768838
 20
-152.0513562987927
 10
43.06593287768838
 20
-152.0513562987927
 97
        0
 75
     2
 76
     1
 98
        0
  0
SPLINE
  5
18F
330
12A
100
AcDbEntity
  8
\U+30EC\U+30A4\U+30E4\U+30FC 1
370
     0
100
AcDbSpline
210
0.0
220
0.0
230
1.0
 70
    11
 71
     3
 72
    71
 73
    67
 74
     0
 42
0.0000000001
 43
0.0000000001
 40
0.0
 40
0.0
 40
0.0
 40
0.0
 40
1.0
 40
1.0
 40
1.0
 40
2.0
 40
2.0
 40
2.0
 40
3.0
 40
3.0
 40
3.0
 40
4.0
 40
4.0
 40
4.0
 40
5.0
 40
5.0
 40
5.0
 40
6.0
 40
6.0
 40
6.0
 40
7.0
 40
7.0
 40
7.0
 40
8.0
 40
8.0
 40
8.0
 40
9.0
 40
9.0
 40
9.0
 40
10.0
 40
10.0
 40
10.0
 40
11.0
 40
11.0
 40
11.0
 40
12.0
 40
12.0
 40
12.0
 40
13.0
 40
13.0
 40
13.0
 40
14.0
 40
14.0
 40
14.0
 40
15.0
 40
15.0
 40
15.0
 40
16.0
 40
16.0
 40
16.0
 40
17.0
 40
17.0
 40
17.0
 40
18.0
 40
18.0
 40
18.0
 40
19.0
 40
19.0
 40
19.0
 40
20.0
 40
20.0
 40
20.0
 40
21.0
 40
21.0
 40
21.0
 40
22.0
 40
22.0
 40
22.0
 40
22.0
 10
48.20325926529294
 20
-156.2805555164854
 30
0.0
 10
48.20325926529294
 20
-156.2805555164854
 30
0.0
 10
47.74023843207536
 20
-156.2805555164854
 30
0.0
 10
47.74023843207536
 20
-156.2805555164854
 30
0.0
 10
47.74023843207536
 20
-156.2805555164854
 30
0.0
 10
47.74023843207536
 20
-154.5018527174509
 30
0.0
 10
47.74023843207536
 20
-154.5018527174509
 30
0.0
 10
47.74023843207536
 20
-153.903439631663
 30
0.0
 10
47.52560898334429
 20
-153.5193114850577
 30
0.0
 10
47.06258815012671
 20
-153.5193114850577
 30
0.0
 10
46.68431666584628
 20
-153.5193114850577
 30
0.0
 10
46.3398071173213
 20
-153.875189848684
 30
0.0
 10
46.3398071173213
 20
-154.343722834678
 30
0.0
 10
46.3398071173213
 20
-154.343722834678
 30
0.0
 10
46.3398071173213
 20
-156.2805555164854
 30
0.0
 10
46.3398071173213
 20
-156.2805555164854
 30
0.0
 10
46.3398071173213
 20
-156.2805555164854
 30
0.0
 10
45.87678628410372
 20
-156.2805555164854
 30
0.0
 10
45.87678628410372
 20
-156.2805555164854
 30
0.0
 10
45.87678628410372
 20
-156.2805555164854
 30
0.0
 10
45.87678628410372
 20
-154.3833414327583
 30
0.0
 10
45.87678628410372
 20
-154.3833414327583
 30
0.0
 10
45.87678628410372
 20
-153.8920708165617
 30
0.0
 10
45.66784124292332
 20
-153.5193114850577
 30
0.0
 10
45.23307019268479
 20
-153.5193114850577
 30
0.0
 10
44.83206107820171
 20
-153.5193114850577
 30
0.0
 10
44.47635496934966
 20
-153.9144639372158
 30
0.0
 10
44.47635496934966
 20
-154.3947102478596
 30
0.0
 10
44.47635496934966
 20
-154.3947102478596
 30
0.0
 10
44.47635496934966
 20
-156.2805555164854
 30
0.0
 10
44.47635496934966
 20
-156.2805555164854
 30
0.0
 10
44.47635496934966
 20
-156.2805555164854
 30
0.0
 10
44.01333413613209
 20
-156.2805555164854
 30
0.0
 10
44.01333413613209
 20
-156.2805555164854
 30
0.0
 10
44.01333413613209
 20
-156.2805555164854
 30
0.0
 10
44.01333413613209
 20
-153.9937011333766
 30
0.0
 10
44.01333413613209
 20
-153.9937011333766
 30
0.0
 10
44.01333413613209
 20
-153.6774413678307
 30
0.0
 10
44.00213757580502
 20
-153.4514431039983
 30
0.0
 10
43.9907687607037
 20
-153.1971950571868
 30
0.0
 10
43.9907687607037
 20
-153.1971950571868
 30
0.0
 10
44.40297443551384
 20
-153.1971950571868
 30
0.0
 10
44.40297443551384
 20
-153.1971950571868
 30
0.0
 10
44.40297443551384
 20
-153.1971950571868
 30
0.0
 10
44.43122421849289
 20
-153.6943223357084
 30
0.0
 10
44.43122421849289
 20
-153.6943223357084
 30
0.0
 10
44.43122421849289
 20
-153.6943223357084
 30
0.0
 10
44.44810518637061
 20
-153.6943223357084
 30
0.0
 10
44.44810518637061
 20
-153.6943223357084
 30
0.0
 10
44.61760388424491
 20
-153.3949435380402
 30
0.0
 10
44.89992945926113
 20
-153.1296711856759
 30
0.0
 10
45.38551566790709
 20
-153.1296711856759
 30
0.0
 10
45.78635252761591
 20
-153.1296711856759
 30
0.0
 10
46.09692788561119
 20
-153.3780625701624
 30
0.0
 10
46.2268079854051
 20
-153.7449652393416
 30
0.0
 10
46.2268079854051
 20
-153.7449652393416
 30
0.0
 10
46.23817680050643
 20
-153.7449652393416
 30
0.0
 10
46.23817680050643
 20
-153.7449652393416
 30
0.0
 10
46.44143743413617
 20
-153.3780625701624
 30
0.0
 10
46.75201279213145
 20
-153.1296711856759
 30
0.0
 10
47.22640244045034
 20
-153.1296711856759
 30
0.0
 10
47.60467392473078
 20
-153.1296711856759
 30
0.0
 10
48.20325926529294
 20
-153.372550417386
 30
0.0
 10
48.20325926529294
 20
-154.4284721836151
 30
0.0
 10
48.20325926529294
 20
-154.4284721836151
 30
0.0
 10
48.20325926529294
 20
-156.2805555164854
 30
0.0
 10
48.20325926529294
 20
-156.2805555164854
 30
0.0
  0
HATCH
  5
190
330
12A
100
AcDbEntity
  8
\U+30EC\U+30A4\U+30E4\U+30FC 1
 62
     7
420
 16777215
100
AcDbHatch
 10
0.0
 20
0.0
 30
0.0
210
0.0
220
0.0
230
1.0
  2
SOLID
 70
     1
 71
     0
 91
        1
 92
        1
 93
        1
 72
     4
 94
        3
 73
     0
 74
     1
 95
       71
 96
       67
 40
0.0
 40
0.0
 40
0.0
 40
0.0
 40
1.0
 40
1.0
 40
1.0
 40
2.0
 40
2.0
 40
2.0
 40
3.0
 40
3.0
 40
3.0
 40
4.0
 40
4.0
 40
4.0
 40
5.0
 40
5.0
 40
5.0
 40
6.0
 40
6.0
 40
6.0
 40
7.0
 40
7.0
 40
7.0
 40
8.0
 40
8.0
 40
8.0
 40
9.0
 40
9.0
 40
9.0
 40
10.0
 40
10.0
 40
10.0
 40
11.0
 40
11.0
 40
11.0
 40
12.0
 40
12.0
 40
12.0
 40
13.0
 40
13.0
 40
13.0
 40
14.0
 40
14.0
 40
14.0
 40
15.0
 40
15.0
 40
15.0
 40
16.0
 40
16.0
 40
16.0
 40
17.0
 40
17.0
 40
17.0
 40
18.0
 40
18.0
 40
18.0
 40
19.0
 40
19.0
 40
19.0
 40
20.0
 40
20.0
 40
20.0
 40
21.0
 40
21.0
 40
21.0
 40
22.0
 40
22.0
 40
22.0
 40
22.0
 10
48.20325926529294
 20
-156.2805555164854
 10
48.20325926529294
 20
-156.2805555164854
 10
47.74023843207536
 20
-156.2805555164854
 10
47.74023843207536
 20
-156.2805555164854
 10
47.74023843207536
 20
-156.2805555164854
 10
47.74023843207536
 20
-154.5018527174509
 10
47.74023843207536
 20
-154.5018527174509
 10
47.74023843207536
 20
-153.903439631663
 10
47.52560898334429
 20
-153.5193114850577
 10
47.06258815012671
 20
-153.5193114850577
 10
46.68431666584628
 20
-153.5193114850577
 10
46.3398071173213
 20
-153.875189848684
 10
46.3398071173213
 20
-154.343722834678
 10
46.3398071173213
 20
-154.343722834678
 10
46.3398071173213
 20
-156.2805555164854
 10
46.3398071173213
 20
-156.2805555164854
 10
46.3398071173213
 20
-156.2805555164854
 10
45.87678628410372
 20
-156.2805555164854
 10
45.87678628410372
 20
-156.2805555164854
 10
45.87678628410372
 20
-156.2805555164854
 10
45.87678628410372
 20
-154.3833414327583
 10
45.87678628410372
 20
-154.3833414327583
 10
45.87678628410372
 20
-153.8920708165617
 10
45.66784124292332
 20
-153.5193114850577
 10
45.23307019268479
 20
-153.5193114850577
 10
44.83206107820171
 20
-153.5193114850577
 10
44.47635496934966
 20
-153.9144639372158
 10
44.47635496934966
 20
-154.3947102478596
 10
44.47635496934966
 20
-154.3947102478596
 10
44.47635496934966
 20
-156.2805555164854
 10
44.47635496934966
 20
-156.2805555164854
 10
44.47635496934966
 20
-156.2805555164854
 10
44.01333413613209
 20
-156.2805555164854
 10
44.01333413613209
 20
-156.2805555164854
 10
44.01333413613209
 20
-156.2805555164854
 10
44.01333413613209
 20
-153.9937011333766
 10
44.01333413613209
 20
-153.9937011333766
 10
44.01333413613209
 20
-153.6774413678307
 10
44.00213757580502
 20
-153.4514431039983
 10
43.9907687607037
 20
-153.1971950571868
 10
43.9907687607037
 20
-153.1971950571868
 10
44.40297443551384
 20
-153.1971950571868
 10
44.40297443551384
 20
-153.1971950571868
 10
44.40297443551384
 20
-153.1971950571868
 10
44.43122421849289
 20
-153.6943223357084
 10
44.43122421849289
 20
-153.6943223357084
 10
44.43122421849289
 20
-153.6943223357084
 10
44.44810518637061
 20
-153.6943223357084
 10
44.44810518637061
 20
-153.6943223357084
 10
44.61760388424491
 20
-153.3949435380402
 10
44.89992945926113
 20
-153.1296711856759
 10
45.38551566790709
 20
-153.1296711856759
 10
45.78635252761591
 20
-153.1296711856759
 10
46.09692788561119
 20
-153.3780625701624
 10
46.2268079854051
 20
-153.7449652393416
 10
46.2268079854051
 20
-153.7449652393416
 10
46.23817680050643
 20
-153.7449652393416
 10
46.23817680050643
 20
-153.7449652393416
 10
46.44143743413617
 20
-153.3780625701624
 10
46.75201279213145
 20
-153.1296711856759
 10
47.22640244045034
 20
-153.1296711856759
 10
47.60467392473078
 20
-153.1296711856759
 10
48.20325926529294
 20
-153.372550417386
 10
48.20325926529294
 20
-154.4284721836151
 10
48.20325926529294
 20
-154.4284721836151
 10
48.20325926529294
 20
-156.2805555164854
 10
48.20325926529294
 20
-156.2805555164854
 97
        0
 75
     2
 76
     1
 98
        0
  0
SPLINE
  5
191
330
12A
100
AcDbEntity
  8
\U+30EC\U+30A4\U+30E4\U+30FC 1
370
     0
100
AcDbSpline
210
0.0
220
0.0
230
1.0
 70
    11
 71
     3
 72
    71
 73
    67
 74
     0
 42
0.0000000001
 43
0.0000000001
 40
0.0
 40
0.0
 40
0.0
 40
0.0
 40
1.0
 40
1.0
 40
1.0
 40
2.0
 40
2.0
 40
2.0
 40
3.0
 40
3.0
 40
3.0
 40
4.0
 40
4.0
 40
4.0
 40
5.0
 40
5.0
 40
5.0
 40
6.0
 40
6.0
 40
6.0
 40
7.0
 40
7.0
 40
7.0
 40
8.0
 40
8.0
 40
8.0
 40
9.0
 40
9.0
 40
9.0
 40
10.0
 40
10.0
 40
10.0
 40
11.0
 40
11.0
 40
11.0
 40
12.0
 40
12.0
 40
12.0
 40
13.0
 40
13.0
 40
13.0
 40
14.0
 40
14.0
 40
14.0
 40
15.0
 40
15.0
 40
15.0
 40
16.0
 40
16.0
 40
16.0
 40
17.0
 40
17.0
 40
17.0
 40
18.0
 40
18.0
 40
18.0
 40
19.0
 40
19.0
 40
19.0
 40
20.0
 40
20.0
 40
20.0
 40
21.0
 40
21.0
 40
21.0
 40
22.0
 40
22.0
 40
22.0
 40
22.0
 10
53.30010578094581
 20
-156.2805555164854
 30
0.0
 10
53.30010578094581
 20
-156.2805555164854
 30
0.0
 10
52.83708494772823
 20
-156.2805555164854
 30
0.0
 10
52.83708494772823
 20
-156.2805555164854
 30
0.0
 10
52.83708494772823
 20
-156.2805555164854
 30
0.0
 10
52.83708494772823
 20
-154.5018527174509
 30
0.0
 10
52.83708494772823
 20
-154.5018527174509
 30
0.0
 10
52.83708494772823
 20
-153.903439631663
 30
0.0
 10
52.62245549899717
 20
-153.5193114850577
 30
0.0
 10
52.15943466577959
 20
-153.5193114850577
 30
0.0
 10
51.78116318149915
 20
-153.5193114850577
 30
0.0
 10
51.43665363297417
 20
-153.875189848684
 30
0.0
 10
51.43665363297417
 20
-154.343722834678
 30
0.0
 10
51.43665363297417
 20
-154.343722834678
 30
0.0
 10
51.43665363297417
 20
-156.2805555164854
 30
0.0
 10
51.43665363297417
 20
-156.2805555164854
 30
0.0
 10
51.43665363297417
 20
-156.2805555164854
 30
0.0
 10
50.97363279975659
 20
-156.2805555164854
 30
0.0
 10
50.97363279975659
 20
-156.2805555164854
 30
0.0
 10
50.97363279975659
 20
-156.2805555164854
 30
0.0
 10
50.97363279975659
 20
-154.3833414327583
 30
0.0
 10
50.97363279975659
 20
-154.3833414327583
 30
0.0
 10
50.97363279975659
 20
-153.8920708165617
 30
0.0
 10
50.76468775857619
 20
-153.5193114850577
 30
0.0
 10
50.32991670833766
 20
-153.5193114850577
 30
0.0
 10
49.92890759385458
 20
-153.5193114850577
 30
0.0
 10
49.57320148500254
 20
-153.9144639372158
 30
0.0
 10
49.57320148500254
 20
-154.3947102478596
 30
0.0
 10
49.57320148500254
 20
-154.3947102478596
 30
0.0
 10
49.57320148500254
 20
-156.2805555164854
 30
0.0
 10
49.57320148500254
 20
-156.2805555164854
 30
0.0
 10
49.57320148500254
 20
-156.2805555164854
 30
0.0
 10
49.11018065178496
 20
-156.2805555164854
 30
0.0
 10
49.11018065178496
 20
-156.2805555164854
 30
0.0
 10
49.11018065178496
 20
-156.2805555164854
 30
0.0
 10
49.11018065178496
 20
-153.9937011333766
 30
0.0
 10
49.11018065178496
 20
-153.9937011333766
 30
0.0
 10
49.11018065178496
 20
-153.6774413678307
 30
0.0
 10
49.09881183668363
 20
-153.4514431039983
 30
0.0
 10
49.08761527635657
 20
-153.1971950571868
 30
0.0
 10
49.08761527635657
 20
-153.1971950571868
 30
0.0
 10
49.49982095116671
 20
-153.1971950571868
 30
0.0
 10
49.49982095116671
 20
-153.1971950571868
 30
0.0
 10
49.49982095116671
 20
-153.1971950571868
 30
0.0
 10
49.52807073414576
 20
-153.6943223357084
 30
0.0
 10
49.52807073414576
 20
-153.6943223357084
 30
0.0
 10
49.52807073414576
 20
-153.6943223357084
 30
0.0
 10
49.54495170202349
 20
-153.6943223357084
 30
0.0
 10
49.54495170202349
 20
-153.6943223357084
 30
0.0
 10
49.71445039989778
 20
-153.3949435380402
 30
0.0
 10
49.996775974914
 20
-153.1296711856759
 30
0.0
 10
50.48236218355996
 20
-153.1296711856759
 30
0.0
 10
50.88319904326879
 20
-153.1296711856759
 30
0.0
 10
51.19377440126406
 20
-153.3780625701624
 30
0.0
 10
51.32365450105798
 20
-153.7449652393416
 30
0.0
 10
51.32365450105798
 20
-153.7449652393416
 30
0.0
 10
51.3350233161593
 20
-153.7449652393416
 30
0.0
 10
51.3350233161593
 20
-153.7449652393416
 30
0.0
 10
51.53828394978904
 20
-153.3780625701624
 30
0.0
 10
51.84885930778432
 20
-153.1296711856759
 30
0.0
 10
52.32324895610322
 20
-153.1296711856759
 30
0.0
 10
52.70152044038365
 20
-153.1296711856759
 30
0.0
 10
53.30010578094581
 20
-153.372550417386
 30
0.0
 10
53.30010578094581
 20
-154.4284721836151
 30
0.0
 10
53.30010578094581
 20
-154.4284721836151
 30
0.0
 10
53.30010578094581
 20
-156.2805555164854
 30
0.0
 10
53.30010578094581
 20
-156.2805555164854
 30
0.0
  0
HATCH
  5
192
330
12A
100
AcDbEntity
  8
\U+30EC\U+30A4\U+30E4\U+30FC 1
 62
     7
420
 16777215
100
AcDbHatch
 10
0.0
 20
0.0
 30
0.0
210
0.0
220
0.0
230
1.0
  2
SOLID
 70
     1
 71
     0
 91
        1
 92
        1
 93
        1
 72
     4
 94
        3
 73
     0
 74
     1
 95
       71
 96
       67
 40
0.0
 40
0.0
 40
0.0
 40
0.0
 40
1.0
 40
1.0
 40
1.0
 40
2.0
 40
2.0
 40
2.0
 40
3.0
 40
3.0
 40
3.0
 40
4.0
 40
4.0
 40
4.0
 40
5.0
 40
5.0
 40
5.0
 40
6.0
 40
6.0
 40
6.0
 40
7.0
 40
7.0
 40
7.0
 40
8.0
 40
8.0
 40
8.0
 40
9.0
 40
9.0
 40
9.0
 40
10.0
 40
10.0
 40
10.0
 40
11.0
 40
11.0
 40
11.0
 40
12.0
 40
12.0
 40
12.0
 40
13.0
 40
13.0
 40
13.0
 40
14.0
 40
14.0
 40
14.0
 40
15.0
 40
15.0
 40
15.0
 40
16.0
 40
16.0
 40
16.0
 40
17.0
 40
17.0
 40
17.0
 40
18.0
 40
18.0
 40
18.0
 40
19.0
 40
19.0
 40
19.0
 40
20.0
 40
20.0
 40
20.0
 40
21.0
 40
21.0
 40
21.0
 40
22.0
 40
22.0
 40
22.0
 40
22.0
 10
53.30010578094581
 20
-156.2805555164854
 10
53.30010578094581
 20
-156.2805555164854
 10
52.83708494772823
 20
-156.2805555164854
 10
52.83708494772823
 20
-156.2805555164854
 10
52.83708494772823
 20
-156.2805555164854
 10
52.83708494772823
 20
-154.5018527174509
 10
52.83708494772823
 20
-154.5018527174509
 10
52.83708494772823
 20
-153.903439631663
 10
52.62245549899717
 20
-153.5193114850577
 10
52.15943466577959
 20
-153.5193114850577
 10
51.78116318149915
 20
-153.5193114850577
 10
51.43665363297417
 20
-153.875189848684
 10
51.43665363297417
 20
-154.343722834678
 10
51.43665363297417
 20
-154.343722834678
 10
51.43665363297417
 20
-156.2805555164854
 10
51.43665363297417
 20
-156.2805555164854
 10
51.43665363297417
 20
-156.2805555164854
 10
50.97363279975659
 20
-156.2805555164854
 10
50.97363279975659
 20
-156.2805555164854
 10
50.97363279975659
 20
-156.2805555164854
 10
50.97363279975659
 20
-154.3833414327583
 10
50.97363279975659
 20
-154.3833414327583
 10
50.97363279975659
 20
-153.8920708165617
 10
50.76468775857619
 20
-153.5193114850577
 10
50.32991670833766
 20
-153.5193114850577
 10
49.92890759385458
 20
-153.5193114850577
 10
49.57320148500254
 20
-153.9144639372158
 10
49.57320148500254
 20
-154.3947102478596
 10
49.57320148500254
 20
-154.3947102478596
 10
49.57320148500254
 20
-156.2805555164854
 10
49.57320148500254
 20
-156.2805555164854
 10
49.57320148500254
 20
-156.2805555164854
 10
49.11018065178496
 20
-156.2805555164854
 10
49.11018065178496
 20
-156.2805555164854
 10
49.11018065178496
 20
-156.2805555164854
 10
49.11018065178496
 20
-153.9937011333766
 10
49.11018065178496
 20
-153.9937011333766
 10
49.11018065178496
 20
-153.6774413678307
 10
49.09881183668363
 20
-153.4514431039983
 10
49.08761527635657
 20
-153.1971950571868
 10
49.08761527635657
 20
-153.1971950571868
 10
49.49982095116671
 20
-153.1971950571868
 10
49.49982095116671
 20
-153.1971950571868
 10
49.49982095116671
 20
-153.1971950571868
 10
49.52807073414576
 20
-153.6943223357084
 10
49.52807073414576
 20
-153.6943223357084
 10
49.52807073414576
 20
-153.6943223357084
 10
49.54495170202349
 20
-153.6943223357084
 10
49.54495170202349
 20
-153.6943223357084
 10
49.71445039989778
 20
-153.3949435380402
 10
49.996775974914
 20
-153.1296711856759
 10
50.48236218355996
 20
-153.1296711856759
 10
50.88319904326879
 20
-153.1296711856759
 10
51.19377440126406
 20
-153.3780625701624
 10
51.32365450105798
 20
-153.7449652393416
 10
51.32365450105798
 20
-153.7449652393416
 10
51.3350233161593
 20
-153.7449652393416
 10
51.3350233161593
 20
-153.7449652393416
 10
51.53828394978904
 20
-153.3780625701624
 10
51.84885930778432
 20
-153.1296711856759
 10
52.32324895610322
 20
-153.1296711856759
 10
52.70152044038365
 20
-153.1296711856759
 10
53.30010578094581
 20
-153.372550417386
 10
53.30010578094581
 20
-154.4284721836151
 10
53.30010578094581
 20
-154.4284721836151
 10
53.30010578094581
 20
-156.2805555164854
 10
53.30010578094581
 20
-156.2805555164854
 97
        0
 75
     2
 76
     1
 98
        0
  0
ENDBLK
  5
12D
330
12A
100
AcDbEntity
  8
0
100
AcDbBlockEnd
  0
ENDSEC
  0
SECTION
  2
ENTITIES
  0
INSERT
  5
3D
330
1F
100
AcDbEntity
  8
\U+30EC\U+30A4\U+30E4\U+30FC 1
100
AcDbBlockReference
  2
block 2
 10
0.0
 20
0.0
 30
0.0
  0
INSERT
  5
61
330
1F
100
AcDbEntity
  8
\U+30EC\U+30A4\U+30E4\U+30FC 1
100
AcDbBlockReference
  2
block 3
 10
0.0
 20
0.0
 30
0.0
  0
INSERT
  5
66
330
1F
100
AcDbEntity
  8
\U+30EC\U+30A4\U+30E4\U+30FC 1
100
AcDbBlockReference
  2
block 4
 10
0.0
 20
0.0
 30
0.0
  0
INSERT
  5
6B
330
1F
100
AcDbEntity
  8
\U+30EC\U+30A4\U+30E4\U+30FC 1
100
AcDbBlockReference
  2
block 5
 10
0.0
 20
0.0
 30
0.0
  0
INSERT
  5
70
330
1F
100
AcDbEntity
  8
\U+30EC\U+30A4\U+30E4\U+30FC 1
100
AcDbBlockReference
  2
block 6
 10
0.0
 20
0.0
 30
0.0
  0
INSERT
  5
75
330
1F
100
AcDbEntity
  8
\U+30EC\U+30A4\U+30E4\U+30FC 1
100
AcDbBlockReference
  2
block 7
 10
0.0
 20
0.0
 30
0.0
  0
INSERT
  5
7A
330
1F
100
AcDbEntity
  8
\U+30EC\U+30A4\U+30E4\U+30FC 1
100
AcDbBlockReference
  2
block 8
 10
0.0
 20
0.0
 30
0.0
  0
INSERT
  5
7F
330
1F
100
AcDbEntity
  8
\U+30EC\U+30A4\U+30E4\U+30FC 1
100
AcDbBlockReference
  2
block 9
 10
0.0
 20
0.0
 30
0.0
  0
INSERT
  5
84
330
1F
100
AcDbEntity
  8
\U+30EC\U+30A4\U+30E4\U+30FC 1
100
AcDbBlockReference
  2
block 10
 10
0.0
 20
0.0
 30
0.0
  0
INSERT
  5
89
330
1F
100
AcDbEntity
  8
\U+30EC\U+30A4\U+30E4\U+30FC 1
100
AcDbBlockReference
  2
block 11
 10
0.0
 20
0.0
 30
0.0
  0
INSERT
  5
8E
330
1F
100
AcDbEntity
  8
\U+30EC\U+30A4\U+30E4\U+30FC 1
100
AcDbBlockReference
  2
block 12
 10
0.0
 20
0.0
 30
0.0
  0
INSERT
  5
B2
330
1F
100
AcDbEntity
  8
\U+30EC\U+30A4\U+30E4\U+30FC 1
100
AcDbBlockReference
  2
block 13
 10
0.0
 20
0.0
 30
0.0
  0
INSERT
  5
B7
330
1F
100
AcDbEntity
  8
\U+30EC\U+30A4\U+30E4\U+30FC 1
100
AcDbBlockReference
  2
block 14
 10
0.0
 20
0.0
 30
0.0
  0
INSERT
  5
BC
330
1F
100
AcDbEntity
  8
\U+30EC\U+30A4\U+30E4\U+30FC 1
100
AcDbBlockReference
  2
block 15
 10
0.0
 20
0.0
 30
0.0
  0
INSERT
  5
C1
330
1F
100
AcDbEntity
  8
\U+30EC\U+30A4\U+30E4\U+30FC 1
100
AcDbBlockReference
  2
block 16
 10
0.0
 20
0.0
 30
0.0
  0
INSERT
  5
C6
330
1F
100
AcDbEntity
  8
\U+30EC\U+30A4\U+30E4\U+30FC 1
100
AcDbBlockReference
  2
block 17
 10
0.0
 20
0.0
 30
0.0
  0
INSERT
  5
CB
330
1F
100
AcDbEntity
  8
\U+30EC\U+30A4\U+30E4\U+30FC 1
100
AcDbBlockReference
  2
block 18
 10
0.0
 20
0.0
 30
0.0
  0
INSERT
  5
D0
330
1F
100
AcDbEntity
  8
\U+30EC\U+30A4\U+30E4\U+30FC 1
100
AcDbBlockReference
  2
block 19
 10
0.0
 20
0.0
 30
0.0
  0
INSERT
  5
D5
330
1F
100
AcDbEntity
  8
\U+30EC\U+30A4\U+30E4\U+30FC 1
100
AcDbBlockReference
  2
block 20
 10
0.0
 20
0.0
 30
0.0
  0
INSERT
  5
DA
330
1F
100
AcDbEntity
  8
\U+30EC\U+30A4\U+30E4\U+30FC 1
100
AcDbBlockReference
  2
block 21
 10
0.0
 20
0.0
 30
0.0
  0
INSERT
  5
DF
330
1F
100
AcDbEntity
  8
\U+30EC\U+30A4\U+30E4\U+30FC 1
100
AcDbBlockReference
  2
block 22
 10
0.0
 20
0.0
 30
0.0
  0
INSERT
  5
F2
330
1F
100
AcDbEntity
  8
\U+30EC\U+30A4\U+30E4\U+30FC 1
100
AcDbBlockReference
  2
block 23
 10
0.0
 20
0.0
 30
0.0
  0
INSERT
  5
105
330
1F
100
AcDbEntity
  8
\U+30EC\U+30A4\U+30E4\U+30FC 1
100
AcDbBlockReference
  2
block 24
 10
0.0
 20
0.0
 30
0.0
  0
INSERT
  5
118
330
1F
100
AcDbEntity
  8
\U+30EC\U+30A4\U+30E4\U+30FC 1
100
AcDbBlockReference
  2
block 25
 10
0.0
 20
0.0
 30
0.0
  0
INSERT
  5
12B
330
1F
100
AcDbEntity
  8
\U+30EC\U+30A4\U+30E4\U+30FC 1
100
AcDbBlockReference
  2
block 26
 10
0.0
 20
0.0
 30
0.0
  0
ENDSEC
  0
SECTION
  2
OBJECTS
  0
DICTIONARY
  5
C
330
0
100
AcDbDictionary
281
     1
  3
ACAD_GROUP
350
D
  3
ACAD_LAYOUT
350
1A
  3
ACAD_MLINESTYLE
350
17
  3
ACAD_PLOTSETTINGS
350
19
  3
ACAD_PLOTSTYLENAME
350
E
  3
ACAD_TABLESTYLE
350
193
  3
ACAD_VISUALSTYLE
350
2A
  0
DICTIONARY
  5
D
102
{ACAD_REACTORS
330
C
102
}
330
C
100
AcDbDictionary
281
     1
  0
DICTIONARY
  5
1A
102
{ACAD_REACTORS
330
C
102
}
330
C
100
AcDbDictionary
281
     1
  3
Layout1
350
1E
  3
Layout2
350
26
  3
Model
350
22
  0
DICTIONARY
  5
17
102
{ACAD_REACTORS
330
C
102
}
330
C
100
AcDbDictionary
281
     1
  3
Standard
350
18
  0
DICTIONARY
  5
19
102
{ACAD_REACTORS
330
C
102
}
330
C
100
AcDbDictionary
281
     1
  0
ACDBDICTIONARYWDFLT
  5
E
102
{ACAD_REACTORS
330
C
102
}
330
C
100
AcDbDictionary
281
     1
  3
Normal
350
F
100
AcDbDictionaryWithDefault
340
F
  0
DICTIONARY
  5
193
102
{ACAD_REACTORS
330
C
102
}
330
C
100
AcDbDictionary
281
     1
  0
DICTIONARY
  5
2A
102
{ACAD_REACTORS
330
C
102
}
330
C
100
AcDbDictionary
281
     1
  3
2dWireframe
350
2F
  3
3D Hidden
350
31
  3
3dWireframe
350
30
  3
Basic
350
32
  3
Brighten
350
36
  3
ColorChange
350
3A
  3
Conceptual
350
34
  3
Dim
350
35
  3
Facepattern
350
39
  3
Flat
350
2B
  3
FlatWithEdges
350
2C
  3
Gouraud
350
2D
  3
GouraudWithEdges
350
2E
  3
Linepattern
350
38
  3
Realistic
350
33
  3
Thicken
350
37
  0
LAYOUT
  5
1E
102
{ACAD_REACTORS
330
1A
102
}
330
1A
100
AcDbPlotSettings
  1

  2
none_device
  4

  6

 40
0.0
 41
0.0
 42
0.0
 43
0.0
 44
0.0
 45
0.0
 46
0.0
 47
0.0
 48
0.0
 49
0.0
140
0.0
141
0.0
142
1.0
143
1.0
 70
   688
 72
     0
 73
     0
 74
     5
  7

 75
    16
 76
     0
 77
     2
 78
   300
147
1.0
148
0.0
149
0.0
100
AcDbLayout
  1
Layout1
 70
     1
 71
     1
 10
0.0
 20
0.0
 11
12.0
 21
9.0
 12
0.0
 22
0.0
 32
0.0
 14
1.000000000000000E+20
 24
1.000000000000000E+20
 34
1.000000000000000E+20
 15
-1.000000000000000E+20
 25
-1.000000000000000E+20
 35
-1.000000000000000E+20
146
0.0
 13
0.0
 23
0.0
 33
0.0
 16
1.0
 26
0.0
 36
0.0
 17
0.0
 27
1.0
 37
0.0
 76
     0
330
1B
  0
LAYOUT
  5
26
102
{ACAD_REACTORS
330
1A
102
}
330
1A
100
AcDbPlotSettings
  1

  2
none_device
  4

  6

 40
0.0
 41
0.0
 42
0.0
 43
0.0
 44
0.0
 45
0.0
 46
0.0
 47
0.0
 48
0.0
 49
0.0
140
0.0
141
0.0
142
1.0
143
1.0
 70
   688
 72
     0
 73
     0
 74
     5
  7

 75
    16
 76
     0
 77
     2
 78
   300
147
1.0
148
0.0
149
0.0
100
AcDbLayout
  1
Layout2
 70
     1
 71
     2
 10
0.0
 20
0.0
 11
0.0
 21
0.0
 12
0.0
 22
0.0
 32
0.0
 14
0.0
 24
0.0
 34
0.0
 15
0.0
 25
0.0
 35
0.0
146
0.0
 13
0.0
 23
0.0
 33
0.0
 16
1.0
 26
0.0
 36
0.0
 17
0.0
 27
1.0
 37
0.0
 76
     0
330
23
  0
LAYOUT
  5
22
102
{ACAD_REACTORS
330
1A
102
}
330
1A
100
AcDbPlotSettings
  1

  2
none_device
  4

  6

 40
0.0
 41
0.0
 42
0.0
 43
0.0
 44
0.0
 45
0.0
 46
0.0
 47
0.0
 48
0.0
 49
0.0
140
0.0
141
0.0
142
1.0
143
1.0
 70
  1712
 72
     0
 73
     0
 74
     0
  7

 75
     0
 76
     0
 77
     2
 78
   300
147
1.0
148
0.0
149
0.0
100
AcDbLayout
  1
Model
 70
     1
 71
     0
 10
0.0
 20
0.0
 11
12.0
 21
9.0
 12
0.0
 22
0.0
 32
0.0
 14
1.000000000000000E+20
 24
1.000000000000000E+20
 34
1.000000000000000E+20
 15
-1.000000000000000E+20
 25
-1.000000000000000E+20
 35
-1.000000000000000E+20
146
0.0
 13
0.0
 23
0.0
 33
0.0
 16
1.0
 26
0.0
 36
0.0
 17
0.0
 27
1.0
 37
0.0
 76
     0
330
1F
331
29
  0
MLINESTYLE
  5
18
102
{ACAD_REACTORS
330
17
102
}
330
17
100
AcDbMlineStyle
  2
Standard
 70
     0
  3

 62
   256
 51
90.0
 52
90.0
 71
     2
 49
0.5
 62
   256
  6
BYLAYER
 49
-0.5
 62
   256
  6
BYLAYER
  0
ACDBPLACEHOLDER
  5
F
102
{ACAD_REACTORS
330
E
102
}
330
E
  0
VISUALSTYLE
  5
2F
102
{ACAD_REACTORS
330
2A
102
}
330
2A
100
AcDbVisualStyle
  2
2dWireframe
 70
     4
 71
     0
 72
     2
 73
     0
 90
        0
 40
-0.6
 41
-30.0
 62
     5
 63
     7
421
 16777215
 74
     1
 91
        4
 64
     7
 65
   257
 75
     1
175
     1
 42
1.0
 92
        0
 66
   257
 43
1.0
 76
     1
 77
     6
 78
     2
 67
     7
 79
     5
170
     0
171
     0
290
     0
174
     0
 93
        1
 44
0.0
173
     0
291
     0
 45
0.0
1001
ACAD
1000
AcDbSavedByObjectVersion
1070
     0
  0
VISUALSTYLE
  5
31
102
{ACAD_REACTORS
330
2A
102
}
330
2A
100
AcDbVisualStyle
  2
3D Hidden
 70
     6
 71
     1
 72
     2
 73
     2
 90
        0
 40
-0.6
 41
-30.0
 62
     5
 63
     7
421
 16777215
 74
     2
 91
        2
 64
     7
 65
   257
 75
     2
175
     1
 42
40.0
 92
        0
 66
   257
 43
1.0
 76
     1
 77
     6
 78
     2
 67
     7
 79
     3
170
     0
171
     0
290
     0
174
     0
 93
        1
 44
0.0
173
     0
291
     0
 45
0.0
1001
ACAD
1000
AcDbSavedByObjectVersion
1070
     0
  0
VISUALSTYLE
  5
30
102
{ACAD_REACTORS
330
2A
102
}
330
2A
100
AcDbVisualStyle
  2
3dWireframe
 70
     5
 71
     0
 72
     2
 73
     0
 90
        0
 40
-0.6
 41
-30.0
 62
     5
 63
     7
421
 16777215
 74
     1
 91
        4
 64
     7
 65
   257
 75
     1
175
     1
 42
1.0
 92
        0
 66
   257
 43
1.0
 76
     1
 77
     6
 78
     2
 67
     7
 79
     5
170
     0
171
     0
290
     0
174
     0
 93
        1
 44
0.0
173
     0
291
     0
 45
0.0
1001
ACAD
1000
AcDbSavedByObjectVersion
1070
     0
  0
VISUALSTYLE
  5
32
102
{ACAD_REACTORS
330
2A
102
}
330
2A
100
AcDbVisualStyle
  2
Basic
 70
     7
 71
     1
 72
     0
 73
     1
 90
        0
 40
-0.6
 41
-30.0
 62
     5
 63
     7
421
 16777215
 74
     0
 91
        4
 64
     7
 65
   257
 75
     1
175
     1
 42
1.0
 92
        8
 66
     7
 43
1.0
 76
     1
 77
     6
 78
     2
 67
     7
 79
     5
170
     0
171
     0
290
     0
174
     0
 93
        1
 44
0.0
173
     0
291
     1
 45
0.0
1001
ACAD
1000
AcDbSavedByObjectVersion
1070
     0
  0
VISUALSTYLE
  5
36
102
{ACAD_REACTORS
330
2A
102
}
330
2A
100
AcDbVisualStyle
  2
Brighten
 70
    12
 71
     2
 72
     2
 73
     0
 90
        0
 40
-0.6
 41
-30.0
 62
     5
 63
     7
421
 16777215
 74
     1
 91
        4
 64
     7
 65
   257
 75
     1
175
     1
 42
1.0
 92
        8
 66
     7
 43
1.0
 76
     1
 77
     6
 78
     2
 67
     7
 79
     5
170
     0
171
     0
290
     0
174
     0
 93
        1
 44
50.0
173
     0
291
     1
 45
0.0
1001
ACAD
1000
AcDbSavedByObjectVersion
1070
     0
  0
VISUALSTYLE
  5
3A
102
{ACAD_REACTORS
330
2A
102
}
330
2A
100
AcDbVisualStyle
  2
ColorChange
 70
    16
 71
     2
 72
     2
 73
     3
 90
        0
 40
-0.6
 41
-30.0
 62
     5
 63
     8
421
  8421504
 74
     1
 91
        4
 64
     7
 65
   257
 75
     1
175
     1
 42
1.0
 92
        8
 66
     8
424
  8421504
 43
1.0
 76
     1
 77
     6
 78
     2
 67
     7
 79
     5
170
     0
171
     0
290
     0
174
     0
 93
        1
 44
0.0
173
     0
291
     1
 45
0.0
1001
ACAD
1000
AcDbSavedByObjectVersion
1070
     0
  0
VISUALSTYLE
  5
34
102
{ACAD_REACTORS
330
2A
102
}
330
2A
100
AcDbVisualStyle
  2
Conceptual
 70
     9
 71
     3
 72
     2
 73
     0
 90
        0
 40
-0.6
 41
-30.0
 62
     5
 63
     7
421
 16777215
 74
     2
 91
        2
 64
     7
 65
   257
 75
     1
175
     1
 42
40.0
 92
        8
 66
     7
 43
1.0
 76
     1
 77
     6
 78
     2
 67
     7
 79
     3
170
     0
171
     0
290
     0
174
     0
 93
        1
 44
0.0
173
     0
291
     0
 45
0.0
1001
ACAD
1000
AcDbSavedByObjectVersion
1070
     0
  0
VISUALSTYLE
  5
35
102
{ACAD_REACTORS
330
2A
102
}
330
2A
100
AcDbVisualStyle
  2
Dim
 70
    11
 71
     2
 72
     2
 73
     0
 90
        0
 40
-0.6
 41
-30.0
 62
     5
 63
     7
421
 16777215
 74
     1
 91
        4
 64
     7
 65
   257
 75
     1
175
     1
 42
1.0
 92
        8
 66
     7
 43
1.0
 76
     1
 77
     6
 78
     2
 67
     7
 79
     5
170
     0
171
     0
290
     0
174
     0
 93
        1
 44
-50.0
173
     0
291
     1
 45
0.0
1001
ACAD
1000
AcDbSavedByObjectVersion
1070
     0
  0
VISUALSTYLE
  5
39
102
{ACAD_REACTORS
330
2A
102
}
330
2A
100
AcDbVisualStyle
  2
Facepattern
 70
    15
 71
     2
 72
     2
 73
     0
 90
        0
 40
-0.6
 41
-30.0
 62
     5
 63
     7
421
 16777215
 74
     1
 91
        4
 64
     7
 65
   257
 75
     1
175
     1
 42
1.0
 92
        8
 66
     7
 43
1.0
 76
     1
 77
     6
 78
     2
 67
     7
 79
     5
170
     0
171
     0
290
     0
174
     0
 93
        1
 44
0.0
173
     0
291
     1
 45
0.0
1001
ACAD
1000
AcDbSavedByObjectVersion
1070
     0
  0
VISUALSTYLE
  5
2B
102
{ACAD_REACTORS
330
2A
102
}
330
2A
100
AcDbVisualStyle
  2
Flat
 70
     0
 71
     2
 72
     1
 73
     1
 90
        2
 40
-0.6
 41
30.0
 62
     5
 63
     7
421
 16777215
 74
     0
 91
        4
 64
     7
 65
   257
 75
     1
175
     1
 42
1.0
 92
        8
 66
     7
 43
1.0
 76
     1
 77
     6
 78
     2
 67
     7
 79
     5
170
     0
171
     0
290
     0
174
     0
 93
       13
 44
0.0
173
     0
291
     1
 45
0.0
1001
ACAD
1000
AcDbSavedByObjectVersion
1070
     0
  0
VISUALSTYLE
  5
2C
102
{ACAD_REACTORS
330
2A
102
}
330
2A
100
AcDbVisualStyle
  2
FlatWithEdges
 70
     1
 71
     2
 72
     1
 73
     1
 90
        2
 40
-0.6
 41
30.0
 62
     5
 63
     7
421
 16777215
 74
     1
 91
        4
 64
     7
 65
   257
 75
     1
175
     1
 42
1.0
 92
        0
 66
   257
 43
1.0
 76
     1
 77
     6
 78
     2
 67
     7
 79
     5
170
     0
171
     0
290
     0
174
     0
 93
       13
 44
0.0
173
     0
291
     1
 45
0.0
1001
ACAD
1000
AcDbSavedByObjectVersion
1070
     0
  0
VISUALSTYLE
  5
2D
102
{ACAD_REACTORS
330
2A
102
}
330
2A
100
AcDbVisualStyle
  2
Gouraud
 70
     2
 71
     2
 72
     2
 73
     1
 90
        2
 40
-0.6
 41
30.0
 62
     5
 63
     7
421
 16777215
 74
     0
 91
        4
 64
     7
 65
   257
 75
     1
175
     1
 42
1.0
 92
        0
 66
     7
 43
1.0
 76
     1
 77
     6
 78
     2
 67
     7
 79
     5
170
     0
171
     0
290
     0
174
     0
 93
       13
 44
0.0
173
     0
291
     1
 45
0.0
1001
ACAD
1000
AcDbSavedByObjectVersion
1070
     0
  0
VISUALSTYLE
  5
2E
102
{ACAD_REACTORS
330
2A
102
}
330
2A
100
AcDbVisualStyle
  2
GouraudWithEdges
 70
     3
 71
     2
 72
     2
 73
     1
 90
        2
 40
-0.6
 41
30.0
 62
     5
 63
     7
421
 16777215
 74
     1
 91
        4
 64
     7
 65
   257
 75
     1
175
     1
 42
1.0
 92
        0
 66
   257
 43
1.0
 76
     1
 77
     6
 78
     2
 67
     7
 79
     5
170
     0
171
     0
290
     0
174
     0
 93
       13
 44
0.0
173
     0
291
     1
 45
0.0
1001
ACAD
1000
AcDbSavedByObjectVersion
1070
     0
  0
VISUALSTYLE
  5
38
102
{ACAD_REACTORS
330
2A
102
}
330
2A
100
AcDbVisualStyle
  2
Linepattern
 70
    14
 71
     2
 72
     2
 73
     0
 90
        0
 40
-0.6
 41
-30.0
 62
     5
 63
     7
421
 16777215
 74
     1
 91
        4
 64
     7
 65
   257
 75
     7
175
     7
 42
1.0
 92
        8
 66
     7
 43
1.0
 76
     1
 77
     6
 78
     2
 67
     7
 79
     5
170
     0
171
     0
290
     0
174
     0
 93
        1
 44
0.0
173
     0
291
     1
 45
0.0
1001
ACAD
1000
AcDbSavedByObjectVersion
1070
     0
  0
VISUALSTYLE
  5
33
102
{ACAD_REACTORS
330
2A
102
}
330
2A
100
AcDbVisualStyle
  2
Realistic
 70
     8
 71
     2
 72
     2
 73
     0
 90
        0
 40
-0.6
 41
-30.0
 62
     5
 63
     7
421
 16777215
 74
     1
 91
        0
 64
     7
 65
   257
 75
     1
175
     1
 42
1.0
 92
        8
 66
     8
424
  7895160
 43
1.0
 76
     1
 77
     6
 78
     2
 67
     7
 79
     5
170
     0
171
     0
290
     0
174
     0
 93
       13
 44
0.0
173
     0
291
     0
 45
0.0
1001
ACAD
1000
AcDbSavedByObjectVersion
1070
     0
  0
VISUALSTYLE
  5
37
102
{ACAD_REACTORS
330
2A
102
}
330
2A
100
AcDbVisualStyle
  2
Thicken
 70
    13
 71
     2
 72
     2
 73
     0
 90
        0
 40
-0.6
 41
-30.0
 62
     5
 63
     7
421
 16777215
 74
     1
 91
        4
 64
     7
 65
   257
 75
     1
175
     1
 42
1.0
 92
       12
 66
     7
 43
1.0
 76
     1
 77
     6
 78
     2
 67
     7
 79
     5
170
     0
171
     0
290
     0
174
     0
 93
        1
 44
0.0
173
     0
291
     1
 45
0.0
1001
ACAD
1000
AcDbSavedByObjectVersion
1070
     0
  0
ENDSEC
  0
EOF
