  0
SECTION
  2
HEADER
  9
$ACADVER
  1
AC1018
  9
$ACADMAINTVER
 70
     0
  9
$DWGCODEPAGE
  3
ANSI_932
  9
$INSBASE
 10
0.0
 20
0.0
 30
0.0
  9
$EXTMIN
 10
1.000000000000000E+20
 20
1.000000000000000E+20
 30
1.000000000000000E+20
  9
$EXTMAX
 10
-1.000000000000000E+20
 20
-1.000000000000000E+20
 30
-1.000000000000000E+20
  9
$LIMMIN
 10
0.0
 20
0.0
  9
$LIMMAX
 10
12.0
 20
9.0
  9
$ORTHOMODE
 70
     0
  9
$REGENMODE
 70
     1
  9
$FILLMODE
 70
     1
  9
$QTEXTMODE
 70
     0
  9
$MIRRTEXT
 70
     1
  9
$LTSCALE
 40
1.0
  9
$ATTMODE
 70
     1
  9
$TEXTSIZE
 40
0.2
  9
$TRACEWID
 40
0.05
  9
$TEXTSTYLE
  7
Standard
  9
$CLAYER
  8
0
  9
$CELTYPE
  6
ByLayer
  9
$CECOLOR
 62
   256
  9
$CELTSCALE
 40
1.0
  9
$DISPSILH
 70
     0
  9
$DIMSCALE
 40
1.0
  9
$DIMASZ
 40
0.18
  9
$DIMEXO
 40
0.0625
  9
$DIMDLI
 40
0.38
  9
$DIMRND
 40
0.0
  9
$DIMDLE
 40
0.0
  9
$DIMEXE
 40
0.18
  9
$DIMTP
 40
0.0
  9
$DIMTM
 40
0.0
  9
$DIMTXT
 40
0.18
  9
$DIMCEN
 40
0.09
  9
$DIMTSZ
 40
0.0
  9
$DIMTOL
 70
     0
  9
$DIMLIM
 70
     0
  9
$DIMTIH
 70
     1
  9
$DIMTOH
 70
     1
  9
$DIMSE1
 70
     0
  9
$DIMSE2
 70
     0
  9
$DIMTAD
 70
     0
  9
$DIMZIN
 70
     0
  9
$DIMBLK
  1

  9
$DIMASO
 70
     1
  9
$DIMSHO
 70
     1
  9
$DIMPOST
  1

  9
$DIMAPOST
  1

  9
$DIMALT
 70
     0
  9
$DIMALTD
 70
     2
  9
$DIMALTF
 40
25.4
  9
$DIMLFAC
 40
1.0
  9
$DIMTOFL
 70
     0
  9
$DIMTVP
 40
0.0
  9
$DIMTIX
 70
     0
  9
$DIMSOXD
 70
     0
  9
$DIMSAH
 70
     0
  9
$DIMBLK1
  1

  9
$DIMBLK2
  1

  9
$DIMSTYLE
  2
Standard
  9
$DIMCLRD
 70
     0
  9
$DIMCLRE
 70
     0
  9
$DIMCLRT
 70
     0
  9
$DIMTFAC
 40
1.0
  9
$DIMGAP
 40
0.09
  9
$DIMJUST
 70
     0
  9
$DIMSD1
 70
     0
  9
$DIMSD2
 70
     0
  9
$DIMTOLJ
 70
     1
  9
$DIMTZIN
 70
     0
  9
$DIMALTZ
 70
     0
  9
$DIMALTTZ
 70
     0
  9
$DIMUPT
 70
     0
  9
$DIMDEC
 70
     4
  9
$DIMTDEC
 70
     4
  9
$DIMALTU
 70
     2
  9
$DIMALTTD
 70
     2
  9
$DIMTXSTY
  7
Standard
  9
$DIMAUNIT
 70
     0
  9
$DIMADEC
 70
     0
  9
$DIMALTRND
 40
0.0
  9
$DIMAZIN
 70
     0
  9
$DIMDSEP
 70
    46
  9
$DIMATFIT
 70
     3
  9
$DIMFRAC
 70
     0
  9
$DIMLDRBLK
  1

  9
$DIMLUNIT
 70
     2
  9
$DIMLWD
 70
    -2
  9
$DIMLWE
 70
    -2
  9
$DIMTMOVE
 70
     0
  9
$LUNITS
 70
     2
  9
$LUPREC
 70
     4
  9
$SKETCHINC
 40
0.1
  9
$FILLETRAD
 40
0.5
  9
$AUNITS
 70
     0
  9
$AUPREC
 70
     0
  9
$MENU
  1
.
  9
$ELEVATION
 40
0.0
  9
$PELEVATION
 40
0.0
  9
$THICKNESS
 40
0.0
  9
$LIMCHECK
 70
     0
  9
$CHAMFERA
 40
0.5
  9
$CHAMFERB
 40
0.5
  9
$CHAMFERC
 40
1.0
  9
$CHAMFERD
 40
0.0
  9
$SKPOLY
 70
     0
  9
$TDCREATE
 40
2457841.70012169
  9
$TDUCREATE
 40
2457841.32512169
  9
$TDUPDATE
 40
2457841.700121701
  9
$TDUUPDATE
 40
2457841.325121701
  9
$TDINDWG
 40
0.0000000116
  9
$TDUSRTIMER
 40
0.0000000116
  9
$USRTIMER
 70
     1
  9
$ANGBASE
 50
0.0
  9
$ANGDIR
 70
     0
  9
$PDMODE
 70
     0
  9
$PDSIZE
 40
0.0
  9
$PLINEWID
 40
0.0
  9
$SPLFRAME
 70
     0
  9
$SPLINETYPE
 70
     6
  9
$SPLINESEGS
 70
     8
  9
$HANDSEED
  5
B1
  9
$SURFTAB1
 70
     6
  9
$SURFTAB2
 70
     6
  9
$SURFTYPE
 70
     6
  9
$SURFU
 70
     6
  9
$SURFV
 70
     6
  9
$UCSBASE
  2

  9
$UCSNAME
  2

  9
$UCSORG
 10
0.0
 20
0.0
 30
0.0
  9
$UCSXDIR
 10
1.0
 20
0.0
 30
0.0
  9
$UCSYDIR
 10
0.0
 20
1.0
 30
0.0
  9
$UCSORTHOREF
  2

  9
$UCSORTHOVIEW
 70
     0
  9
$UCSORGTOP
 10
0.0
 20
0.0
 30
0.0
  9
$UCSORGBOTTOM
 10
0.0
 20
0.0
 30
0.0
  9
$UCSORGLEFT
 10
0.0
 20
0.0
 30
0.0
  9
$UCSORGRIGHT
 10
0.0
 20
0.0
 30
0.0
  9
$UCSORGFRONT
 10
0.0
 20
0.0
 30
0.0
  9
$UCSORGBACK
 10
0.0
 20
0.0
 30
0.0
  9
$PUCSBASE
  2

  9
$PUCSNAME
  2

  9
$PUCSORG
 10
0.0
 20
0.0
 30
0.0
  9
$PUCSXDIR
 10
1.0
 20
0.0
 30
0.0
  9
$PUCSYDIR
 10
0.0
 20
1.0
 30
0.0
  9
$PUCSORTHOREF
  2

  9
$PUCSORTHOVIEW
 70
     0
  9
$PUCSORGTOP
 10
0.0
 20
0.0
 30
0.0
  9
$PUCSORGBOTTOM
 10
0.0
 20
0.0
 30
0.0
  9
$PUCSORGLEFT
 10
0.0
 20
0.0
 30
0.0
  9
$PUCSORGRIGHT
 10
0.0
 20
0.0
 30
0.0
  9
$PUCSORGFRONT
 10
0.0
 20
0.0
 30
0.0
  9
$PUCSORGBACK
 10
0.0
 20
0.0
 30
0.0
  9
$USERI1
 70
     0
  9
$USERI2
 70
     0
  9
$USERI3
 70
     0
  9
$USERI4
 70
     0
  9
$USERI5
 70
     0
  9
$USERR1
 40
0.0
  9
$USERR2
 40
0.0
  9
$USERR3
 40
0.0
  9
$USERR4
 40
0.0
  9
$USERR5
 40
0.0
  9
$WORLDVIEW
 70
     1
  9
$SHADEDGE
 70
     3
  9
$SHADEDIF
 70
    70
  9
$TILEMODE
 70
     1
  9
$MAXACTVP
 70
    64
  9
$PINSBASE
 10
0.0
 20
0.0
 30
0.0
  9
$PLIMCHECK
 70
     0
  9
$PEXTMIN
 10
1.000000000000000E+20
 20
1.000000000000000E+20
 30
1.000000000000000E+20
  9
$PEXTMAX
 10
-1.000000000000000E+20
 20
-1.000000000000000E+20
 30
-1.000000000000000E+20
  9
$PLIMMIN
 10
0.0
 20
0.0
  9
$PLIMMAX
 10
12.0
 20
9.0
  9
$UNITMODE
 70
     0
  9
$VISRETAIN
 70
     1
  9
$PLINEGEN
 70
     0
  9
$PSLTSCALE
 70
     1
  9
$TREEDEPTH
 70
  3020
  9
$CMLSTYLE
  2
Standard
  9
$CMLJUST
 70
     0
  9
$CMLSCALE
 40
1.0
  9
$PROXYGRAPHICS
 70
     1
  9
$MEASUREMENT
 70
     0
  9
$CELWEIGHT
370
    -1
  9
$ENDCAPS
280
     0
  9
$JOINSTYLE
280
     0
  9
$LWDISPLAY
290
     1
  9
$INSUNITS
 70
     1
  9
$HYPERLINKBASE
  1

  9
$STYLESHEET
  1

  9
$XEDIT
290
     1
  9
$CEPSNTYPE
380
     0
  9
$PSTYLEMODE
290
     1
  9
$FINGERPRINTGUID
  2
{076EA4CB-1393-4F3B-A978-668982B86F00}
  9
$VERSIONGUID
  2
{FAEB1C32-E019-11D5-929B-00C0DF256EC4}
  9
$EXTNAMES
290
     1
  9
$PSVPSCALE
 40
0.0
  9
$OLESTARTUP
290
     0
  9
$SORTENTS
280
   127
  9
$INDEXCTL
280
     0
  9
$HIDETEXT
280
     1
  9
$XCLIPFRAME
290
     0
  9
$HALOGAP
280
     0
  9
$OBSCOLOR
 70
   257
  9
$OBSLTYPE
280
     0
  9
$INTERSECTIONDISPLAY
280
     0
  9
$INTERSECTIONCOLOR
 70
   257
  9
$DIMASSOC
280
     2
  9
$PROJECTNAME
  1

  0
ENDSEC
  0
SECTION
  2
CLASSES
  0
CLASS
  1
ACDBDICTIONARYWDFLT
  2
AcDbDictionaryWithDefault
  3
ObjectDBX Classes
 90
        0
 91
        3
280
     0
281
     0
  0
CLASS
  1
VISUALSTYLE
  2
AcDbVisualStyle
  3
ObjectDBX Classes
 90
     4095
 91
        3
280
     0
281
     0
  0
ENDSEC
  0
SECTION
  2
TABLES
  0
TABLE
  2
VPORT
  5
8
330
0
100
AcDbSymbolTable
 70
     1
  0
VPORT
  5
29
330
8
100
AcDbSymbolTableRecord
100
AcDbViewportTableRecord
  2
*Active
 70
     0
 10
0.0
 20
0.0
 11
1.0
 21
1.0
 12
0.0
 22
0.0
 13
0.0
 23
0.0
 14
0.5
 24
0.5
 15
0.5
 25
0.5
 16
0.0
 26
0.0
 36
1.0
 17
209.9997571632119
 27
-148.4999796178229
 37
0.0
 40
296.9999592356459
 41
1.414139972972816
 42
50.0
 43
0.0
 44
0.0
 50
0.0
 51
0.0
 71
     0
 72
   100
 73
     1
 74
     3
 75
     0
 76
     0
 77
     0
 78
     0
281
     0
 65
     1
110
0.0
120
0.0
130
0.0
111
1.0
121
0.0
131
0.0
112
0.0
122
1.0
132
0.0
 79
     0
146
0.0
  0
ENDTAB
  0
TABLE
  2
LTYPE
  5
5
330
0
100
AcDbSymbolTable
 70
     1
  0
LTYPE
  5
14
330
5
100
AcDbSymbolTableRecord
100
AcDbLinetypeTableRecord
  2
ByBlock
 70
     0
  3

 72
    65
 73
     0
 40
0.0
  0
LTYPE
  5
15
330
5
100
AcDbSymbolTableRecord
100
AcDbLinetypeTableRecord
  2
ByLayer
 70
     0
  3

 72
    65
 73
     0
 40
0.0
  0
LTYPE
  5
16
330
5
100
AcDbSymbolTableRecord
100
AcDbLinetypeTableRecord
  2
Continuous
 70
     0
  3
Solid line
 72
    65
 73
     0
 40
0.0
  0
ENDTAB
  0
TABLE
  2
LAYER
  5
2
330
0
100
AcDbSymbolTable
 70
     2
  0
LAYER
  5
10
330
2
100
AcDbSymbolTableRecord
100
AcDbLayerTableRecord
  2
0
 70
     0
 62
     7
  6
Continuous
370
    -3
390
F
  0
LAYER
  5
3B
330
2
100
AcDbSymbolTableRecord
100
AcDbLayerTableRecord
  2
\U+30EC\U+30A4\U+30E4\U+30FC 1
 70
     0
 62
     7
  6
Continuous
370
    -3
390
F
  0
ENDTAB
  0
TABLE
  2
STYLE
  5
3
330
0
100
AcDbSymbolTable
 70
     1
  0
STYLE
  5
11
330
3
100
AcDbSymbolTableRecord
100
AcDbTextStyleTableRecord
  2
Standard
 70
     0
 40
0.0
 41
1.0
 50
0.0
 71
     0
 42
0.2
  3
txt
  4

  0
ENDTAB
  0
TABLE
  2
VIEW
  5
6
330
0
100
AcDbSymbolTable
 70
     0
  0
ENDTAB
  0
TABLE
  2
UCS
  5
7
330
0
100
AcDbSymbolTable
 70
     0
  0
ENDTAB
  0
TABLE
  2
APPID
  5
9
330
0
100
AcDbSymbolTable
 70
     1
  0
APPID
  5
12
330
9
100
AcDbSymbolTableRecord
100
AcDbRegAppTableRecord
  2
ACAD
 70
     0
  0
ENDTAB
  0
TABLE
  2
DIMSTYLE
  5
A
330
0
100
AcDbSymbolTable
 70
     1
100
AcDbDimStyleTable
  0
DIMSTYLE
105
27
330
A
100
AcDbSymbolTableRecord
100
AcDbDimStyleTableRecord
  2
Standard
 70
     0
340
11
  0
ENDTAB
  0
TABLE
  2
BLOCK_RECORD
  5
1
330
0
100
AcDbSymbolTable
 70
     3
  0
BLOCK_RECORD
  5
1F
330
1
100
AcDbSymbolTableRecord
100
AcDbBlockTableRecord
  2
*Model_Space
340
22
  0
BLOCK_RECORD
  5
1B
330
1
100
AcDbSymbolTableRecord
100
AcDbBlockTableRecord
  2
*Paper_Space
340
1E
  0
BLOCK_RECORD
  5
23
330
1
100
AcDbSymbolTableRecord
100
AcDbBlockTableRecord
  2
*Paper_Space0
340
26
  0
BLOCK_RECORD
  5
4B
330
1
100
AcDbSymbolTableRecord
100
AcDbBlockTableRecord
  2
block 2
340
0
102
{BLKREFS
331
4C
102
}
  0
BLOCK_RECORD
  5
5E
330
1
100
AcDbSymbolTableRecord
100
AcDbBlockTableRecord
  2
block 3
340
0
102
{BLKREFS
331
5F
102
}
  0
ENDTAB
  0
ENDSEC
  0
SECTION
  2
BLOCKS
  0
BLOCK
  5
20
330
1F
100
AcDbEntity
  8
0
100
AcDbBlockBegin
  2
*Model_Space
 70
     0
 71
     0
 10
0.0
 20
0.0
 30
0.0
  3
*Model_Space
  1

  0
ENDBLK
  5
21
330
1F
100
AcDbEntity
  8
0
100
AcDbBlockEnd
  0
BLOCK
  5
1C
330
1B
100
AcDbEntity
 67
     1
  8
0
100
AcDbBlockBegin
  2
*Paper_Space
 70
     0
 71
     0
 10
0.0
 20
0.0
 30
0.0
  3
*Paper_Space
  1

  0
ENDBLK
  5
1D
330
1B
100
AcDbEntity
 67
     1
  8
0
100
AcDbBlockEnd
  0
BLOCK
  5
24
330
23
100
AcDbEntity
  8
0
100
AcDbBlockBegin
  2
*Paper_Space0
 70
     0
 71
     0
 10
0.0
 20
0.0
 30
0.0
  3
*Paper_Space0
  1

  0
ENDBLK
  5
25
330
23
100
AcDbEntity
  8
0
100
AcDbBlockEnd
  0
BLOCK
  5
4D
330
4B
100
AcDbEntity
  8
0
100
AcDbBlockBegin
  2
block 2
 70
     0
 71
     0
 10
0.0
 20
0.0
 30
0.0
  3
block 2
  1

  0
POLYLINE
  5
4F
330
4B
100
AcDbEntity
  8
\U+30EC\U+30A4\U+30E4\U+30FC 1
 62
     7
420
 16777215
370
    25
100
AcDb2dPolyline
 66
     1
 10
0.0
 20
0.0
 30
0.0
  0
VERTEX
  5
50
330
4F
100
AcDbEntity
  8
\U+30EC\U+30A4\U+30E4\U+30FC 1
 62
     7
420
 16777215
370
    25
100
AcDbVertex
100
AcDb2dVertex
 10
318.1542235532739
 20
-190.499999952375
 30
0.0
  0
VERTEX
  5
51
330
4F
100
AcDbEntity
  8
\U+30EC\U+30A4\U+30E4\U+30FC 1
 62
     7
420
 16777215
370
    25
100
AcDbVertex
100
AcDb2dVertex
 10
32.15410969248231
 20
-190.499999952375
 30
0.0
  0
VERTEX
  5
52
330
4F
100
AcDbEntity
  8
\U+30EC\U+30A4\U+30E4\U+30FC 1
 62
     7
420
 16777215
370
    25
100
AcDbVertex
100
AcDb2dVertex
 10
32.15410969248231
 20
-155.4998968795278
 30
0.0
  0
VERTEX
  5
53
330
4F
100
AcDbEntity
  8
\U+30EC\U+30A4\U+30E4\U+30FC 1
 62
     7
420
 16777215
370
    25
100
AcDbVertex
100
AcDb2dVertex
 10
28.15418157933298
 20
-155.4998968795278
 30
0.0
  0
VERTEX
  5
54
330
4F
100
AcDbEntity
  8
\U+30EC\U+30A4\U+30E4\U+30FC 1
 62
     7
420
 16777215
370
    25
100
AcDbVertex
100
AcDb2dVertex
 10
28.15418157933298
 20
-190.499999952375
 30
0.0
  0
VERTEX
  5
55
330
4F
100
AcDbEntity
  8
\U+30EC\U+30A4\U+30E4\U+30FC 1
 62
     7
420
 16777215
370
    25
100
AcDbVertex
100
AcDb2dVertex
 10
18.15410291429828
 20
-190.499999952375
 30
0.0
  0
VERTEX
  5
56
330
4F
100
AcDbEntity
  8
\U+30EC\U+30A4\U+30E4\U+30FC 1
 62
     7
420
 16777215
370
    25
100
AcDbVertex
100
AcDb2dVertex
 10
18.15410291429828
 20
-120.4999660614549
 30
0.0
  0
VERTEX
  5
57
330
4F
100
AcDbEntity
  8
\U+30EC\U+30A4\U+30E4\U+30FC 1
 62
     7
420
 16777215
370
    25
100
AcDbVertex
100
AcDb2dVertex
 10
332.1540580766837
 20
-120.4999660614549
 30
0.0
  0
VERTEX
  5
58
330
4F
100
AcDbEntity
  8
\U+30EC\U+30A4\U+30E4\U+30FC 1
 62
     7
420
 16777215
370
    25
100
AcDbVertex
100
AcDb2dVertex
 10
332.1540580766837
 20
-190.499999952375
 30
0.0
  0
VERTEX
  5
59
330
4F
100
AcDbEntity
  8
\U+30EC\U+30A4\U+30E4\U+30FC 1
 62
     7
420
 16777215
370
    25
100
AcDbVertex
100
AcDb2dVertex
 10
322.1543239211975
 20
-190.499999952375
 30
0.0
  0
VERTEX
  5
5A
330
4F
100
AcDbEntity
  8
\U+30EC\U+30A4\U+30E4\U+30FC 1
 62
     7
420
 16777215
370
    25
100
AcDbVertex
100
AcDb2dVertex
 10
322.1543239211975
 20
-155.4998968795278
 30
0.0
  0
VERTEX
  5
5B
330
4F
100
AcDbEntity
  8
\U+30EC\U+30A4\U+30E4\U+30FC 1
 62
     7
420
 16777215
370
    25
100
AcDbVertex
100
AcDb2dVertex
 10
318.1542235532739
 20
-155.4998968795278
 30
0.0
  0
VERTEX
  5
5C
330
4F
100
AcDbEntity
  8
\U+30EC\U+30A4\U+30E4\U+30FC 1
 62
     7
420
 16777215
370
    25
100
AcDbVertex
100
AcDb2dVertex
 10
318.1542235532739
 20
-190.499999952375
 30
0.0
  0
SEQEND
  5
5D
330
4F
100
AcDbEntity
  8
\U+30EC\U+30A4\U+30E4\U+30FC 1
370
    25
  0
ENDBLK
  5
4E
330
4B
100
AcDbEntity
  8
0
100
AcDbBlockEnd
  0
BLOCK
  5
60
330
5E
100
AcDbEntity
  8
0
100
AcDbBlockBegin
  2
block 3
 70
     0
 71
     0
 10
0.0
 20
0.0
 30
0.0
  3
block 3
  1

  0
SPLINE
  5
62
330
5E
100
AcDbEntity
  8
\U+30EC\U+30A4\U+30E4\U+30FC 1
370
     0
100
AcDbSpline
210
0.0
220
0.0
230
1.0
 70
    11
 71
     3
 72
    41
 73
    37
 74
     0
 42
0.0000000001
 43
0.0000000001
 40
0.0
 40
0.0
 40
0.0
 40
0.0
 40
1.0
 40
1.0
 40
1.0
 40
2.0
 40
2.0
 40
2.0
 40
3.0
 40
3.0
 40
3.0
 40
4.0
 40
4.0
 40
4.0
 40
5.0
 40
5.0
 40
5.0
 40
6.0
 40
6.0
 40
6.0
 40
7.0
 40
7.0
 40
7.0
 40
8.0
 40
8.0
 40
8.0
 40
9.0
 40
9.0
 40
9.0
 40
10.0
 40
10.0
 40
10.0
 40
11.0
 40
11.0
 40
11.0
 40
12.0
 40
12.0
 40
12.0
 40
12.0
 10
19.33267007980225
 20
-16.53042941210003
 30
0.0
 10
19.5726209803499
 20
-16.08583983972854
 30
0.0
 10
20.01014810697663
 20
-15.81763915620184
 30
0.0
 10
20.60993923095863
 20
-15.81763915620184
 30
0.0
 10
21.5203057129359
 20
-15.81763915620184
 30
0.0
 10
22.16247151138647
 20
-16.60105386954766
 30
0.0
 10
22.16247151138647
 20
-17.78668348079638
 30
0.0
 10
22.16247151138647
 20
-19.18401420961372
 30
0.0
 10
21.3086045953673
 20
-19.84030489955381
 30
0.0
 10
20.51123724530622
 20
-19.84030489955381
 30
0.0
 10
19.95364854101853
 20
-19.84030489955381
 30
0.0
 10
19.54437119737085
 20
-19.61447889049569
 30
0.0
 10
19.26910806809939
 20
-19.12045219791086
 30
0.0
 10
19.26910806809939
 20
-19.12045219791086
 30
0.0
 10
19.2479207308651
 20
-19.12045219791086
 30
0.0
 10
19.2479207308651
 20
-19.12045219791086
 30
0.0
 10
19.2479207308651
 20
-19.12045219791086
 30
0.0
 10
19.21260850214129
 20
-19.75555555061667
 30
0.0
 10
19.21260850214129
 20
-19.75555555061667
 30
0.0
 10
19.21260850214129
 20
-19.75555555061667
 30
0.0
 10
18.70462917284121
 20
-19.75555555061667
 30
0.0
 10
18.70462917284121
 20
-19.75555555061667
 30
0.0
 10
18.71875406433073
 20
-19.50147975857949
 30
0.0
 10
18.73270670104599
 20
-19.1133897521661
 30
0.0
 10
18.73270670104599
 20
-18.80281439417082
 30
0.0
 10
18.73270670104599
 20
-18.80281439417082
 30
0.0
 10
18.73270670104599
 20
-14.1099053241635
 30
0.0
 10
18.73270670104599
 20
-14.1099053241635
 30
0.0
 10
18.73270670104599
 20
-14.1099053241635
 30
0.0
 10
19.31854518831273
 20
-14.1099053241635
 30
0.0
 10
19.31854518831273
 20
-14.1099053241635
 30
0.0
 10
19.31854518831273
 20
-14.1099053241635
 30
0.0
 10
19.31854518831273
 20
-16.53042941210003
 30
0.0
 10
19.31854518831273
 20
-16.53042941210003
 30
0.0
 10
19.31854518831273
 20
-16.53042941210003
 30
0.0
 10
19.33267007980225
 20
-16.53042941210003
 30
0.0
 10
19.33267007980225
 20
-16.53042941210003
 30
0.0
  0
SPLINE
  5
63
330
5E
100
AcDbEntity
  8
\U+30EC\U+30A4\U+30E4\U+30FC 1
370
     0
100
AcDbSpline
210
0.0
220
0.0
230
1.0
 70
    11
 71
     3
 72
    20
 73
    16
 74
     0
 42
0.0000000001
 43
0.0000000001
 40
0.0
 40
0.0
 40
0.0
 40
0.0
 40
1.0
 40
1.0
 40
1.0
 40
2.0
 40
2.0
 40
2.0
 40
3.0
 40
3.0
 40
3.0
 40
4.0
 40
4.0
 40
4.0
 40
5.0
 40
5.0
 40
5.0
 40
5.0
 10
19.31854518831273
 20
-18.25246039040216
 30
0.0
 10
19.31854518831273
 20
-18.82400173140511
 30
0.0
 10
19.74900986919469
 20
-19.36040309845851
 30
0.0
 10
20.39823811339003
 20
-19.36040309845851
 30
0.0
 10
21.14634059801203
 20
-19.36040309845851
 30
0.0
 10
21.56268038740447
 20
-18.71823730000794
 30
0.0
 10
21.56268038740447
 20
-17.80787081803067
 30
0.0
 10
21.56268038740447
 20
-17.00326876745057
 30
0.0
 10
21.16752793524631
 20
-16.29754095729714
 30
0.0
 10
20.41942545062431
 20
-16.29754095729714
 30
0.0
 10
19.74900986919469
 20
-16.29754095729714
 30
0.0
 10
19.31854518831273
 20
-16.92575411903245
 30
0.0
 10
19.31854518831273
 20
-17.49023301429064
 30
0.0
 10
19.31854518831273
 20
-17.49023301429064
 30
0.0
 10
19.31854518831273
 20
-18.25246039040216
 30
0.0
 10
19.31854518831273
 20
-18.25246039040216
 30
0.0
  0
HATCH
  5
64
330
5E
100
AcDbEntity
  8
\U+30EC\U+30A4\U+30E4\U+30FC 1
 62
     7
420
 16777215
100
AcDbHatch
 10
0.0
 20
0.0
 30
0.0
210
0.0
220
0.0
230
1.0
  2
SOLID
 70
     1
 71
     0
 91
        2
 92
        1
 93
        1
 72
     4
 94
        3
 73
     0
 74
     1
 95
       41
 96
       37
 40
0.0
 40
0.0
 40
0.0
 40
0.0
 40
1.0
 40
1.0
 40
1.0
 40
2.0
 40
2.0
 40
2.0
 40
3.0
 40
3.0
 40
3.0
 40
4.0
 40
4.0
 40
4.0
 40
5.0
 40
5.0
 40
5.0
 40
6.0
 40
6.0
 40
6.0
 40
7.0
 40
7.0
 40
7.0
 40
8.0
 40
8.0
 40
8.0
 40
9.0
 40
9.0
 40
9.0
 40
10.0
 40
10.0
 40
10.0
 40
11.0
 40
11.0
 40
11.0
 40
12.0
 40
12.0
 40
12.0
 40
12.0
 10
19.33267007980225
 20
-16.53042941210003
 10
19.5726209803499
 20
-16.08583983972854
 10
20.01014810697663
 20
-15.81763915620184
 10
20.60993923095863
 20
-15.81763915620184
 10
21.5203057129359
 20
-15.81763915620184
 10
22.16247151138647
 20
-16.60105386954766
 10
22.16247151138647
 20
-17.78668348079638
 10
22.16247151138647
 20
-19.18401420961372
 10
21.3086045953673
 20
-19.84030489955381
 10
20.51123724530622
 20
-19.84030489955381
 10
19.95364854101853
 20
-19.84030489955381
 10
19.54437119737085
 20
-19.61447889049569
 10
19.26910806809939
 20
-19.12045219791086
 10
19.26910806809939
 20
-19.12045219791086
 10
19.2479207308651
 20
-19.12045219791086
 10
19.2479207308651
 20
-19.12045219791086
 10
19.2479207308651
 20
-19.12045219791086
 10
19.21260850214129
 20
-19.75555555061667
 10
19.21260850214129
 20
-19.75555555061667
 10
19.21260850214129
 20
-19.75555555061667
 10
18.70462917284121
 20
-19.75555555061667
 10
18.70462917284121
 20
-19.75555555061667
 10
18.71875406433073
 20
-19.50147975857949
 10
18.73270670104599
 20
-19.1133897521661
 10
18.73270670104599
 20
-18.80281439417082
 10
18.73270670104599
 20
-18.80281439417082
 10
18.73270670104599
 20
-14.1099053241635
 10
18.73270670104599
 20
-14.1099053241635
 10
18.73270670104599
 20
-14.1099053241635
 10
19.31854518831273
 20
-14.1099053241635
 10
19.31854518831273
 20
-14.1099053241635
 10
19.31854518831273
 20
-14.1099053241635
 10
19.31854518831273
 20
-16.53042941210003
 10
19.31854518831273
 20
-16.53042941210003
 10
19.31854518831273
 20
-16.53042941210003
 10
19.33267007980225
 20
-16.53042941210003
 10
19.33267007980225
 20
-16.53042941210003
 97
        0
 92
        1
 93
        1
 72
     4
 94
        3
 73
     0
 74
     1
 95
       20
 96
       16
 40
0.0
 40
0.0
 40
0.0
 40
0.0
 40
1.0
 40
1.0
 40
1.0
 40
2.0
 40
2.0
 40
2.0
 40
3.0
 40
3.0
 40
3.0
 40
4.0
 40
4.0
 40
4.0
 40
5.0
 40
5.0
 40
5.0
 40
5.0
 10
19.31854518831273
 20
-18.25246039040216
 10
19.31854518831273
 20
-18.82400173140511
 10
19.74900986919469
 20
-19.36040309845851
 10
20.39823811339003
 20
-19.36040309845851
 10
21.14634059801203
 20
-19.36040309845851
 10
21.56268038740447
 20
-18.71823730000794
 10
21.56268038740447
 20
-17.80787081803067
 10
21.56268038740447
 20
-17.00326876745057
 10
21.16752793524631
 20
-16.29754095729714
 10
20.41942545062431
 20
-16.29754095729714
 10
19.74900986919469
 20
-16.29754095729714
 10
19.31854518831273
 20
-16.92575411903245
 10
19.31854518831273
 20
-17.49023301429064
 10
19.31854518831273
 20
-17.49023301429064
 10
19.31854518831273
 20
-18.25246039040216
 10
19.31854518831273
 20
-18.25246039040216
 97
        0
 75
     2
 76
     1
 98
        0
  0
SPLINE
  5
65
330
5E
100
AcDbEntity
  8
\U+30EC\U+30A4\U+30E4\U+30FC 1
370
     0
100
AcDbSpline
210
0.0
220
0.0
230
1.0
 70
    11
 71
     3
 72
    44
 73
    40
 74
     0
 42
0.0000000001
 43
0.0000000001
 40
0.0
 40
0.0
 40
0.0
 40
0.0
 40
1.0
 40
1.0
 40
1.0
 40
2.0
 40
2.0
 40
2.0
 40
3.0
 40
3.0
 40
3.0
 40
4.0
 40
4.0
 40
4.0
 40
5.0
 40
5.0
 40
5.0
 40
6.0
 40
6.0
 40
6.0
 40
7.0
 40
7.0
 40
7.0
 40
8.0
 40
8.0
 40
8.0
 40
9.0
 40
9.0
 40
9.0
 40
10.0
 40
10.0
 40
10.0
 40
11.0
 40
11.0
 40
11.0
 40
12.0
 40
12.0
 40
12.0
 40
13.0
 40
13.0
 40
13.0
 40
13.0
 10
25.56295301010232
 20
-18.83812662289463
 30
0.0
 10
25.56295301010232
 20
-19.15576442663467
 30
0.0
 10
25.57001545584708
 20
-19.48735486708997
 30
0.0
 10
25.61945257606041
 20
-19.75555555061667
 30
0.0
 10
25.61945257606041
 20
-19.75555555061667
 30
0.0
 10
25.08305120900702
 20
-19.75555555061667
 30
0.0
 10
25.08305120900702
 20
-19.75555555061667
 30
0.0
 10
25.08305120900702
 20
-19.75555555061667
 30
0.0
 10
25.02672389782318
 20
-19.26152885803184
 30
0.0
 10
25.02672389782318
 20
-19.26152885803184
 30
0.0
 10
25.02672389782318
 20
-19.26152885803184
 30
0.0
 10
25.00553656058889
 20
-19.26152885803184
 30
0.0
 10
25.00553656058889
 20
-19.26152885803184
 30
0.0
 10
24.80796033450981
 20
-19.56504177028235
 30
0.0
 10
24.4126356275774
 20
-19.84030489955381
 30
0.0
 10
23.8693440695535
 20
-19.84030489955381
 30
0.0
 10
23.13536647642102
 20
-19.84030489955381
 30
0.0
 10
22.74727647000763
 20
-19.30390353250041
 30
0.0
 10
22.74727647000763
 20
-18.74631482821273
 30
0.0
 10
22.74727647000763
 20
-17.82199570952019
 30
0.0
 10
23.55170626581346
 20
-17.32090657119061
 30
0.0
 10
24.97728677760984
 20
-17.32796901693537
 30
0.0
 10
24.97728677760984
 20
-17.00326876745057
 30
0.0
 10
24.97728677760984
 20
-16.2692911743181
 30
0.0
 10
24.10223252435639
 20
-16.2692911743181
 30
0.0
 10
23.77046982912683
 20
-16.2692911743181
 30
0.0
 10
23.42475449718201
 20
-16.361102969
 30
0.0
 10
23.16361625940007
 20
-16.54455430358956
 30
0.0
 10
23.16361625940007
 20
-16.54455430358956
 30
0.0
 10
23.02253959927909
 20
-16.14233940568664
 30
0.0
 10
23.02253959927909
 20
-16.14233940568664
 30
0.0
 10
23.3329427025001
 20
-15.9377007338628
 30
0.0
 10
23.76340738338207
 20
-15.81763915620184
 30
0.0
 10
24.19387206426403
 20
-15.81763915620184
 30
0.0
 10
25.28079968986036
 20
-15.81763915620184
 30
0.0
 10
25.56295301010232
 20
-16.58692897805813
 30
0.0
 10
25.56295301010232
 20
-17.34915635416966
 30
0.0
 10
25.56295301010232
 20
-17.34915635416966
 30
0.0
 10
25.56295301010232
 20
-18.83812662289463
 30
0.0
 10
25.56295301010232
 20
-18.83812662289463
 30
0.0
  0
SPLINE
  5
66
330
5E
100
AcDbEntity
  8
\U+30EC\U+30A4\U+30E4\U+30FC 1
370
     0
100
AcDbSpline
210
0.0
220
0.0
230
1.0
 70
    11
 71
     3
 72
    17
 73
    13
 74
     0
 42
0.0000000001
 43
0.0000000001
 40
0.0
 40
0.0
 40
0.0
 40
0.0
 40
1.0
 40
1.0
 40
1.0
 40
2.0
 40
2.0
 40
2.0
 40
3.0
 40
3.0
 40
3.0
 40
4.0
 40
4.0
 40
4.0
 40
4.0
 10
24.98434922335461
 20
-17.75843369781734
 30
0.0
 10
24.25743407596689
 20
-17.75843369781734
 30
0.0
 10
23.34706759398962
 20
-17.86419812921451
 30
0.0
 10
23.34706759398962
 20
-18.67586262553937
 30
0.0
 10
23.34706759398962
 20
-19.16988931812419
 30
0.0
 10
23.6576429519849
 20
-19.38865288143756
 30
0.0
 10
24.01042072967448
 20
-19.38865288143756
 30
0.0
 10
24.58213432545169
 20
-19.38865288143756
 30
0.0
 10
24.98434922335461
 20
-18.95112575481083
 30
0.0
 10
24.98434922335461
 20
-18.48534884520505
 30
0.0
 10
24.98434922335461
 20
-18.48534884520505
 30
0.0
 10
24.98434922335461
 20
-17.75843369781734
 30
0.0
 10
24.98434922335461
 20
-17.75843369781734
 30
0.0
  0
HATCH
  5
67
330
5E
100
AcDbEntity
  8
\U+30EC\U+30A4\U+30E4\U+30FC 1
 62
     7
420
 16777215
100
AcDbHatch
 10
0.0
 20
0.0
 30
0.0
210
0.0
220
0.0
230
1.0
  2
SOLID
 70
     1
 71
     0
 91
        2
 92
        1
 93
        1
 72
     4
 94
        3
 73
     0
 74
     1
 95
       44
 96
       40
 40
0.0
 40
0.0
 40
0.0
 40
0.0
 40
1.0
 40
1.0
 40
1.0
 40
2.0
 40
2.0
 40
2.0
 40
3.0
 40
3.0
 40
3.0
 40
4.0
 40
4.0
 40
4.0
 40
5.0
 40
5.0
 40
5.0
 40
6.0
 40
6.0
 40
6.0
 40
7.0
 40
7.0
 40
7.0
 40
8.0
 40
8.0
 40
8.0
 40
9.0
 40
9.0
 40
9.0
 40
10.0
 40
10.0
 40
10.0
 40
11.0
 40
11.0
 40
11.0
 40
12.0
 40
12.0
 40
12.0
 40
13.0
 40
13.0
 40
13.0
 40
13.0
 10
25.56295301010232
 20
-18.83812662289463
 10
25.56295301010232
 20
-19.15576442663467
 10
25.57001545584708
 20
-19.48735486708997
 10
25.61945257606041
 20
-19.75555555061667
 10
25.61945257606041
 20
-19.75555555061667
 10
25.08305120900702
 20
-19.75555555061667
 10
25.08305120900702
 20
-19.75555555061667
 10
25.08305120900702
 20
-19.75555555061667
 10
25.02672389782318
 20
-19.26152885803184
 10
25.02672389782318
 20
-19.26152885803184
 10
25.02672389782318
 20
-19.26152885803184
 10
25.00553656058889
 20
-19.26152885803184
 10
25.00553656058889
 20
-19.26152885803184
 10
24.80796033450981
 20
-19.56504177028235
 10
24.4126356275774
 20
-19.84030489955381
 10
23.8693440695535
 20
-19.84030489955381
 10
23.13536647642102
 20
-19.84030489955381
 10
22.74727647000763
 20
-19.30390353250041
 10
22.74727647000763
 20
-18.74631482821273
 10
22.74727647000763
 20
-17.82199570952019
 10
23.55170626581346
 20
-17.32090657119061
 10
24.97728677760984
 20
-17.32796901693537
 10
24.97728677760984
 20
-17.00326876745057
 10
24.97728677760984
 20
-16.2692911743181
 10
24.10223252435639
 20
-16.2692911743181
 10
23.77046982912683
 20
-16.2692911743181
 10
23.42475449718201
 20
-16.361102969
 10
23.16361625940007
 20
-16.54455430358956
 10
23.16361625940007
 20
-16.54455430358956
 10
23.02253959927909
 20
-16.14233940568664
 10
23.02253959927909
 20
-16.14233940568664
 10
23.3329427025001
 20
-15.9377007338628
 10
23.76340738338207
 20
-15.81763915620184
 10
24.19387206426403
 20
-15.81763915620184
 10
25.28079968986036
 20
-15.81763915620184
 10
25.56295301010232
 20
-16.58692897805813
 10
25.56295301010232
 20
-17.34915635416966
 10
25.56295301010232
 20
-17.34915635416966
 10
25.56295301010232
 20
-18.83812662289463
 10
25.56295301010232
 20
-18.83812662289463
 97
        0
 92
        1
 93
        1
 72
     4
 94
        3
 73
     0
 74
     1
 95
       17
 96
       13
 40
0.0
 40
0.0
 40
0.0
 40
0.0
 40
1.0
 40
1.0
 40
1.0
 40
2.0
 40
2.0
 40
2.0
 40
3.0
 40
3.0
 40
3.0
 40
4.0
 40
4.0
 40
4.0
 40
4.0
 10
24.98434922335461
 20
-17.75843369781734
 10
24.25743407596689
 20
-17.75843369781734
 10
23.34706759398962
 20
-17.86419812921451
 10
23.34706759398962
 20
-18.67586262553937
 10
23.34706759398962
 20
-19.16988931812419
 10
23.6576429519849
 20
-19.38865288143756
 10
24.01042072967448
 20
-19.38865288143756
 10
24.58213432545169
 20
-19.38865288143756
 10
24.98434922335461
 20
-18.95112575481083
 10
24.98434922335461
 20
-18.48534884520505
 10
24.98434922335461
 20
-18.48534884520505
 10
24.98434922335461
 20
-17.75843369781734
 10
24.98434922335461
 20
-17.75843369781734
 97
        0
 75
     2
 76
     1
 98
        0
  0
SPLINE
  5
68
330
5E
100
AcDbEntity
  8
\U+30EC\U+30A4\U+30E4\U+30FC 1
370
     0
100
AcDbSpline
210
0.0
220
0.0
230
1.0
 70
    11
 71
     3
 72
    47
 73
    43
 74
     0
 42
0.0000000001
 43
0.0000000001
 40
0.0
 40
0.0
 40
0.0
 40
0.0
 40
1.0
 40
1.0
 40
1.0
 40
2.0
 40
2.0
 40
2.0
 40
3.0
 40
3.0
 40
3.0
 40
4.0
 40
4.0
 40
4.0
 40
5.0
 40
5.0
 40
5.0
 40
6.0
 40
6.0
 40
6.0
 40
7.0
 40
7.0
 40
7.0
 40
8.0
 40
8.0
 40
8.0
 40
9.0
 40
9.0
 40
9.0
 40
10.0
 40
10.0
 40
10.0
 40
11.0
 40
11.0
 40
11.0
 40
12.0
 40
12.0
 40
12.0
 40
13.0
 40
13.0
 40
13.0
 40
14.0
 40
14.0
 40
14.0
 40
14.0
 10
28.49076740824189
 20
-16.49511718337622
 30
0.0
 10
28.34969074812091
 20
-16.40347764346858
 30
0.0
 10
28.08855251033897
 20
-16.2692911743181
 30
0.0
 10
27.74283717839415
 20
-16.2692911743181
 30
0.0
 10
27.31943494325695
 20
-16.2692911743181
 30
0.0
 10
27.09360893419882
 20
-16.53042941210003
 30
0.0
 10
27.09360893419882
 20
-16.84100477009531
 30
0.0
 10
27.09360893419882
 20
-17.1725952105506
 30
0.0
 10
27.31237249751219
 20
-17.32796901693537
 30
0.0
 10
27.80622693532275
 20
-17.53967013450397
 30
0.0
 10
28.4273776513133
 20
-17.79374592654115
 30
0.0
 10
28.78721787474764
 20
-18.11827392125168
 30
0.0
 10
28.78721787474764
 20
-18.69704996277365
 30
0.0
 10
28.78721787474764
 20
-19.3815904356928
 30
0.0
 10
28.26494139918377
 20
-19.83324245380905
 30
0.0
 10
27.42519937465412
 20
-19.83324245380905
 30
0.0
 10
27.04417181398549
 20
-19.83324245380905
 30
0.0
 10
26.67726914480638
 20
-19.72730576763762
 30
0.0
 10
26.41613090702444
 20
-19.57210421602711
 30
0.0
 10
26.41613090702444
 20
-19.57210421602711
 30
0.0
 10
26.57839490437971
 20
-19.12045219791086
 30
0.0
 10
26.57839490437971
 20
-19.12045219791086
 30
0.0
 10
26.78303357620355
 20
-19.24034152079755
 30
0.0
 10
27.11479627143311
 20
-19.3815904356928
 30
0.0
 10
27.4463867118884
 20
-19.3815904356928
 30
0.0
 10
27.96160074170752
 20
-19.3815904356928
 30
0.0
 10
28.21567653374469
 20
-19.10632730642133
 30
0.0
 10
28.21567653374469
 20
-18.76043971970225
 30
0.0
 10
28.21567653374469
 20
-18.40059949626791
 30
0.0
 10
28.01103786192085
 20
-18.20302327018883
 30
0.0
 10
27.5028862778465
 20
-17.99838459836499
 30
0.0
 10
26.85365803365117
 20
-17.73724636058305
 30
0.0
 10
26.52189533842161
 20
-17.3774061371487
 30
0.0
 10
26.52189533842161
 20
-16.91162922754293
 30
0.0
 10
26.52189533842161
 20
-16.31166584878667
 30
0.0
 10
27.00179713951691
 20
-15.81763915620184
 30
0.0
 10
27.77814940711797
 20
-15.81763915620184
 30
0.0
 10
28.14505207629707
 20
-15.81763915620184
 30
0.0
 10
28.45562743429235
 20
-15.92357584237327
 30
0.0
 10
28.66026610611619
 20
-16.05052761100473
 30
0.0
 10
28.66026610611619
 20
-16.05052761100473
 30
0.0
 10
28.49076740824189
 20
-16.49511718337622
 30
0.0
 10
28.49076740824189
 20
-16.49511718337622
 30
0.0
  0
HATCH
  5
69
330
5E
100
AcDbEntity
  8
\U+30EC\U+30A4\U+30E4\U+30FC 1
 62
     7
420
 16777215
100
AcDbHatch
 10
0.0
 20
0.0
 30
0.0
210
0.0
220
0.0
230
1.0
  2
SOLID
 70
     1
 71
     0
 91
        1
 92
        1
 93
        1
 72
     4
 94
        3
 73
     0
 74
     1
 95
       47
 96
       43
 40
0.0
 40
0.0
 40
0.0
 40
0.0
 40
1.0
 40
1.0
 40
1.0
 40
2.0
 40
2.0
 40
2.0
 40
3.0
 40
3.0
 40
3.0
 40
4.0
 40
4.0
 40
4.0
 40
5.0
 40
5.0
 40
5.0
 40
6.0
 40
6.0
 40
6.0
 40
7.0
 40
7.0
 40
7.0
 40
8.0
 40
8.0
 40
8.0
 40
9.0
 40
9.0
 40
9.0
 40
10.0
 40
10.0
 40
10.0
 40
11.0
 40
11.0
 40
11.0
 40
12.0
 40
12.0
 40
12.0
 40
13.0
 40
13.0
 40
13.0
 40
14.0
 40
14.0
 40
14.0
 40
14.0
 10
28.49076740824189
 20
-16.49511718337622
 10
28.34969074812091
 20
-16.40347764346858
 10
28.08855251033897
 20
-16.2692911743181
 10
27.74283717839415
 20
-16.2692911743181
 10
27.31943494325695
 20
-16.2692911743181
 10
27.09360893419882
 20
-16.53042941210003
 10
27.09360893419882
 20
-16.84100477009531
 10
27.09360893419882
 20
-17.1725952105506
 10
27.31237249751219
 20
-17.32796901693537
 10
27.80622693532275
 20
-17.53967013450397
 10
28.4273776513133
 20
-17.79374592654115
 10
28.78721787474764
 20
-18.11827392125168
 10
28.78721787474764
 20
-18.69704996277365
 10
28.78721787474764
 20
-19.3815904356928
 10
28.26494139918377
 20
-19.83324245380905
 10
27.42519937465412
 20
-19.83324245380905
 10
27.04417181398549
 20
-19.83324245380905
 10
26.67726914480638
 20
-19.72730576763762
 10
26.41613090702444
 20
-19.57210421602711
 10
26.41613090702444
 20
-19.57210421602711
 10
26.57839490437971
 20
-19.12045219791086
 10
26.57839490437971
 20
-19.12045219791086
 10
26.78303357620355
 20
-19.24034152079755
 10
27.11479627143311
 20
-19.3815904356928
 10
27.4463867118884
 20
-19.3815904356928
 10
27.96160074170752
 20
-19.3815904356928
 10
28.21567653374469
 20
-19.10632730642133
 10
28.21567653374469
 20
-18.76043971970225
 10
28.21567653374469
 20
-18.40059949626791
 10
28.01103786192085
 20
-18.20302327018883
 10
27.5028862778465
 20
-17.99838459836499
 10
26.85365803365117
 20
-17.73724636058305
 10
26.52189533842161
 20
-17.3774061371487
 10
26.52189533842161
 20
-16.91162922754293
 10
26.52189533842161
 20
-16.31166584878667
 10
27.00179713951691
 20
-15.81763915620184
 10
27.77814940711797
 20
-15.81763915620184
 10
28.14505207629707
 20
-15.81763915620184
 10
28.45562743429235
 20
-15.92357584237327
 10
28.66026610611619
 20
-16.05052761100473
 10
28.66026610611619
 20
-16.05052761100473
 10
28.49076740824189
 20
-16.49511718337622
 10
28.49076740824189
 20
-16.49511718337622
 97
        0
 75
     2
 76
     1
 98
        0
  0
SPLINE
  5
6A
330
5E
100
AcDbEntity
  8
\U+30EC\U+30A4\U+30E4\U+30FC 1
370
     0
100
AcDbSpline
210
0.0
220
0.0
230
1.0
 70
    11
 71
     3
 72
    32
 73
    28
 74
     0
 42
0.0000000001
 43
0.0000000001
 40
0.0
 40
0.0
 40
0.0
 40
0.0
 40
1.0
 40
1.0
 40
1.0
 40
2.0
 40
2.0
 40
2.0
 40
3.0
 40
3.0
 40
3.0
 40
4.0
 40
4.0
 40
4.0
 40
5.0
 40
5.0
 40
5.0
 40
6.0
 40
6.0
 40
6.0
 40
7.0
 40
7.0
 40
7.0
 40
8.0
 40
8.0
 40
8.0
 40
9.0
 40
9.0
 40
9.0
 40
9.0
 10
32.40680744632538
 20
-19.5932915532614
 30
0.0
 10
32.18804388301202
 20
-19.69905598465857
 30
0.0
 10
31.7858289851091
 20
-19.83324245380905
 30
0.0
 10
31.20016275261663
 20
-19.83324245380905
 30
0.0
 10
30.07809515307076
 20
-19.83324245380905
 30
0.0
 10
29.40767957164114
 20
-19.04276529471847
 30
0.0
 10
29.40767957164114
 20
-17.89244791219356
 30
0.0
 10
29.40767957164114
 20
-16.6858032184848
 30
0.0
 10
30.08515759881552
 20
-15.81763915620184
 30
0.0
 10
31.12247584942424
 20
-15.81763915620184
 30
0.0
 10
32.30810546067298
 20
-15.81763915620184
 30
0.0
 10
32.61144611814922
 20
-16.90456678179816
 30
0.0
 10
32.61144611814922
 20
-17.57498236322778
 30
0.0
 10
32.61144611814922
 20
-17.708996577604
 30
0.0
 10
32.60455592717872
 20
-17.80787081803067
 30
0.0
 10
32.59749348143396
 20
-17.89951035793832
 30
0.0
 10
32.59749348143396
 20
-17.89951035793832
 30
0.0
 10
29.97922091264408
 20
-17.89951035793832
 30
0.0
 10
29.97922091264408
 20
-17.89951035793832
 30
0.0
 10
29.98628335838885
 20
-18.96525064630035
 30
0.0
 10
30.59313692811561
 20
-19.36746554420327
 30
0.0
 10
31.28473984677951
 20
-19.36746554420327
 30
0.0
 10
31.76464164787481
 20
-19.36746554420327
 30
0.0
 10
32.0540296686358
 20
-19.2685913037766
 30
0.0
 10
32.29398056918345
 20
-19.16988931812419
 30
0.0
 10
32.29398056918345
 20
-19.16988931812419
 30
0.0
 10
32.40680744632538
 20
-19.5932915532614
 30
0.0
 10
32.40680744632538
 20
-19.5932915532614
 30
0.0
  0
SPLINE
  5
6B
330
5E
100
AcDbEntity
  8
\U+30EC\U+30A4\U+30E4\U+30FC 1
370
     0
100
AcDbSpline
210
0.0
220
0.0
230
1.0
 70
    11
 71
     3
 72
    14
 73
    10
 74
     0
 42
0.0000000001
 43
0.0000000001
 40
0.0
 40
0.0
 40
0.0
 40
0.0
 40
1.0
 40
1.0
 40
1.0
 40
2.0
 40
2.0
 40
2.0
 40
3.0
 40
3.0
 40
3.0
 40
3.0
 10
32.03284233140151
 20
-17.46198323131159
 30
0.0
 10
32.03990477714628
 20
-16.93970675574771
 30
0.0
 10
31.82114121383291
 20
-16.26222872857333
 30
0.0
 10
31.06597628346615
 20
-16.26222872857333
 30
0.0
 10
30.36024847331272
 20
-16.26222872857333
 30
0.0
 10
30.04984537009171
 20
-16.93264431000295
 30
0.0
 10
29.99334580413361
 20
-17.46198323131159
 30
0.0
 10
29.99334580413361
 20
-17.46198323131159
 30
0.0
 10
32.03284233140151
 20
-17.46198323131159
 30
0.0
 10
32.03284233140151
 20
-17.46198323131159
 30
0.0
  0
HATCH
  5
6C
330
5E
100
AcDbEntity
  8
\U+30EC\U+30A4\U+30E4\U+30FC 1
 62
     7
420
 16777215
100
AcDbHatch
 10
0.0
 20
0.0
 30
0.0
210
0.0
220
0.0
230
1.0
  2
SOLID
 70
     1
 71
     0
 91
        2
 92
        1
 93
        1
 72
     4
 94
        3
 73
     0
 74
     1
 95
       32
 96
       28
 40
0.0
 40
0.0
 40
0.0
 40
0.0
 40
1.0
 40
1.0
 40
1.0
 40
2.0
 40
2.0
 40
2.0
 40
3.0
 40
3.0
 40
3.0
 40
4.0
 40
4.0
 40
4.0
 40
5.0
 40
5.0
 40
5.0
 40
6.0
 40
6.0
 40
6.0
 40
7.0
 40
7.0
 40
7.0
 40
8.0
 40
8.0
 40
8.0
 40
9.0
 40
9.0
 40
9.0
 40
9.0
 10
32.40680744632538
 20
-19.5932915532614
 10
32.18804388301202
 20
-19.69905598465857
 10
31.7858289851091
 20
-19.83324245380905
 10
31.20016275261663
 20
-19.83324245380905
 10
30.07809515307076
 20
-19.83324245380905
 10
29.40767957164114
 20
-19.04276529471847
 10
29.40767957164114
 20
-17.89244791219356
 10
29.40767957164114
 20
-16.6858032184848
 10
30.08515759881552
 20
-15.81763915620184
 10
31.12247584942424
 20
-15.81763915620184
 10
32.30810546067298
 20
-15.81763915620184
 10
32.61144611814922
 20
-16.90456678179816
 10
32.61144611814922
 20
-17.57498236322778
 10
32.61144611814922
 20
-17.708996577604
 10
32.60455592717872
 20
-17.80787081803067
 10
32.59749348143396
 20
-17.89951035793832
 10
32.59749348143396
 20
-17.89951035793832
 10
29.97922091264408
 20
-17.89951035793832
 10
29.97922091264408
 20
-17.89951035793832
 10
29.98628335838885
 20
-18.96525064630035
 10
30.59313692811561
 20
-19.36746554420327
 10
31.28473984677951
 20
-19.36746554420327
 10
31.76464164787481
 20
-19.36746554420327
 10
32.0540296686358
 20
-19.2685913037766
 10
32.29398056918345
 20
-19.16988931812419
 10
32.29398056918345
 20
-19.16988931812419
 10
32.40680744632538
 20
-19.5932915532614
 10
32.40680744632538
 20
-19.5932915532614
 97
        0
 92
        1
 93
        1
 72
     4
 94
        3
 73
     0
 74
     1
 95
       14
 96
       10
 40
0.0
 40
0.0
 40
0.0
 40
0.0
 40
1.0
 40
1.0
 40
1.0
 40
2.0
 40
2.0
 40
2.0
 40
3.0
 40
3.0
 40
3.0
 40
3.0
 10
32.03284233140151
 20
-17.46198323131159
 10
32.03990477714628
 20
-16.93970675574771
 10
31.82114121383291
 20
-16.26222872857333
 10
31.06597628346615
 20
-16.26222872857333
 10
30.36024847331272
 20
-16.26222872857333
 10
30.04984537009171
 20
-16.93264431000295
 10
29.99334580413361
 20
-17.46198323131159
 10
29.99334580413361
 20
-17.46198323131159
 10
32.03284233140151
 20
-17.46198323131159
 10
32.03284233140151
 20
-17.46198323131159
 97
        0
 75
     2
 76
     1
 98
        0
  0
POLYLINE
  5
6D
330
5E
100
AcDbEntity
  8
\U+30EC\U+30A4\U+30E4\U+30FC 1
370
     0
100
AcDb2dPolyline
 66
     1
 10
0.0
 20
0.0
 30
0.0
  0
VERTEX
  5
6E
330
6D
100
AcDbEntity
  8
\U+30EC\U+30A4\U+30E4\U+30FC 1
370
     0
100
AcDbVertex
100
AcDb2dVertex
 10
32.90703531078366
 20
-20.28489447192531
 30
0.0
  0
VERTEX
  5
6F
330
6D
100
AcDbEntity
  8
\U+30EC\U+30A4\U+30E4\U+30FC 1
370
     0
100
AcDbVertex
100
AcDb2dVertex
 10
36.89421657063756
 20
-20.28489447192531
 30
0.0
  0
VERTEX
  5
70
330
6D
100
AcDbEntity
  8
\U+30EC\U+30A4\U+30E4\U+30FC 1
370
     0
100
AcDbVertex
100
AcDb2dVertex
 10
36.89421657063756
 20
-20.63767224961489
 30
0.0
  0
VERTEX
  5
71
330
6D
100
AcDbEntity
  8
\U+30EC\U+30A4\U+30E4\U+30FC 1
370
     0
100
AcDbVertex
100
AcDb2dVertex
 10
32.90703531078366
 20
-20.63767224961489
 30
0.0
  0
VERTEX
  5
72
330
6D
100
AcDbEntity
  8
\U+30EC\U+30A4\U+30E4\U+30FC 1
370
     0
100
AcDbVertex
100
AcDb2dVertex
 10
32.90703531078366
 20
-20.28489447192531
 30
0.0
  0
SEQEND
  5
73
330
6D
100
AcDbEntity
  8
\U+30EC\U+30A4\U+30E4\U+30FC 1
370
     0
  0
HATCH
  5
74
330
5E
100
AcDbEntity
  8
\U+30EC\U+30A4\U+30E4\U+30FC 1
 62
     7
420
 16777215
100
AcDbHatch
 10
0.0
 20
0.0
 30
0.0
210
0.0
220
0.0
230
1.0
  2
SOLID
 70
     1
 71
     0
 91
        1
 92
        1
 93
        4
 72
     1
 10
32.90703531078366
 20
-20.28489447192531
 11
36.89421657063756
 21
-20.28489447192531
 72
     1
 10
36.89421657063756
 20
-20.28489447192531
 11
36.89421657063756
 21
-20.63767224961489
 72
     1
 10
36.89421657063756
 20
-20.63767224961489
 11
32.90703531078366
 21
-20.63767224961489
 72
     1
 10
32.90703531078366
 20
-20.63767224961489
 11
32.90703531078366
 21
-20.28489447192531
 97
        0
 75
     2
 76
     1
 98
        0
  0
SPLINE
  5
75
330
5E
100
AcDbEntity
  8
\U+30EC\U+30A4\U+30E4\U+30FC 1
370
     0
100
AcDbSpline
210
0.0
220
0.0
230
1.0
 70
    11
 71
     3
 72
    47
 73
    43
 74
     0
 42
0.0000000001
 43
0.0000000001
 40
0.0
 40
0.0
 40
0.0
 40
0.0
 40
1.0
 40
1.0
 40
1.0
 40
2.0
 40
2.0
 40
2.0
 40
3.0
 40
3.0
 40
3.0
 40
4.0
 40
4.0
 40
4.0
 40
5.0
 40
5.0
 40
5.0
 40
6.0
 40
6.0
 40
6.0
 40
7.0
 40
7.0
 40
7.0
 40
8.0
 40
8.0
 40
8.0
 40
9.0
 40
9.0
 40
9.0
 40
10.0
 40
10.0
 40
10.0
 40
11.0
 40
11.0
 40
11.0
 40
12.0
 40
12.0
 40
12.0
 40
13.0
 40
13.0
 40
13.0
 40
14.0
 40
14.0
 40
14.0
 40
14.0
 10
39.27150471023421
 20
-16.49511718337622
 30
0.0
 10
39.13042805011323
 20
-16.40347764346858
 30
0.0
 10
38.86928981233129
 20
-16.2692911743181
 30
0.0
 10
38.52357448038647
 20
-16.2692911743181
 30
0.0
 10
38.10017224524926
 20
-16.2692911743181
 30
0.0
 10
37.87434623619114
 20
-16.53042941210003
 30
0.0
 10
37.87434623619114
 20
-16.84100477009531
 30
0.0
 10
37.87434623619114
 20
-17.1725952105506
 30
0.0
 10
38.0931097995045
 20
-17.32796901693537
 30
0.0
 10
38.58696423731507
 20
-17.53967013450397
 30
0.0
 10
39.20811495330561
 20
-17.79374592654115
 30
0.0
 10
39.56795517673996
 20
-18.11827392125168
 30
0.0
 10
39.56795517673996
 20
-18.69704996277365
 30
0.0
 10
39.56795517673996
 20
-19.3815904356928
 30
0.0
 10
39.04567870117608
 20
-19.83324245380905
 30
0.0
 10
38.20593667664643
 20
-19.83324245380905
 30
0.0
 10
37.8249091159778
 20
-19.83324245380905
 30
0.0
 10
37.45800644679869
 20
-19.72730576763762
 30
0.0
 10
37.19686820901676
 20
-19.57210421602711
 30
0.0
 10
37.19686820901676
 20
-19.57210421602711
 30
0.0
 10
37.35913220637202
 20
-19.12045219791086
 30
0.0
 10
37.35913220637202
 20
-19.12045219791086
 30
0.0
 10
37.56377087819587
 20
-19.24034152079755
 30
0.0
 10
37.89553357342542
 20
-19.3815904356928
 30
0.0
 10
38.22712401388072
 20
-19.3815904356928
 30
0.0
 10
38.74233804369983
 20
-19.3815904356928
 30
0.0
 10
38.99641383573701
 20
-19.10632730642133
 30
0.0
 10
38.99641383573701
 20
-18.76043971970225
 30
0.0
 10
38.99641383573701
 20
-18.40059949626791
 30
0.0
 10
38.79177516391317
 20
-18.20302327018883
 30
0.0
 10
38.28362357983882
 20
-17.99838459836499
 30
0.0
 10
37.63439533564349
 20
-17.73724636058305
 30
0.0
 10
37.30263264041393
 20
-17.3774061371487
 30
0.0
 10
37.30263264041393
 20
-16.91162922754293
 30
0.0
 10
37.30263264041393
 20
-16.31166584878667
 30
0.0
 10
37.78253444150923
 20
-15.81763915620184
 30
0.0
 10
38.55888670911028
 20
-15.81763915620184
 30
0.0
 10
38.92578937828939
 20
-15.81763915620184
 30
0.0
 10
39.23636473628466
 20
-15.92357584237327
 30
0.0
 10
39.4410034081085
 20
-16.05052761100473
 30
0.0
 10
39.4410034081085
 20
-16.05052761100473
 30
0.0
 10
39.27150471023421
 20
-16.49511718337622
 30
0.0
 10
39.27150471023421
 20
-16.49511718337622
 30
0.0
  0
HATCH
  5
76
330
5E
100
AcDbEntity
  8
\U+30EC\U+30A4\U+30E4\U+30FC 1
 62
     7
420
 16777215
100
AcDbHatch
 10
0.0
 20
0.0
 30
0.0
210
0.0
220
0.0
230
1.0
  2
SOLID
 70
     1
 71
     0
 91
        1
 92
        1
 93
        1
 72
     4
 94
        3
 73
     0
 74
     1
 95
       47
 96
       43
 40
0.0
 40
0.0
 40
0.0
 40
0.0
 40
1.0
 40
1.0
 40
1.0
 40
2.0
 40
2.0
 40
2.0
 40
3.0
 40
3.0
 40
3.0
 40
4.0
 40
4.0
 40
4.0
 40
5.0
 40
5.0
 40
5.0
 40
6.0
 40
6.0
 40
6.0
 40
7.0
 40
7.0
 40
7.0
 40
8.0
 40
8.0
 40
8.0
 40
9.0
 40
9.0
 40
9.0
 40
10.0
 40
10.0
 40
10.0
 40
11.0
 40
11.0
 40
11.0
 40
12.0
 40
12.0
 40
12.0
 40
13.0
 40
13.0
 40
13.0
 40
14.0
 40
14.0
 40
14.0
 40
14.0
 10
39.27150471023421
 20
-16.49511718337622
 10
39.13042805011323
 20
-16.40347764346858
 10
38.86928981233129
 20
-16.2692911743181
 10
38.52357448038647
 20
-16.2692911743181
 10
38.10017224524926
 20
-16.2692911743181
 10
37.87434623619114
 20
-16.53042941210003
 10
37.87434623619114
 20
-16.84100477009531
 10
37.87434623619114
 20
-17.1725952105506
 10
38.0931097995045
 20
-17.32796901693537
 10
38.58696423731507
 20
-17.53967013450397
 10
39.20811495330561
 20
-17.79374592654115
 10
39.56795517673996
 20
-18.11827392125168
 10
39.56795517673996
 20
-18.69704996277365
 10
39.56795517673996
 20
-19.3815904356928
 10
39.04567870117608
 20
-19.83324245380905
 10
38.20593667664643
 20
-19.83324245380905
 10
37.8249091159778
 20
-19.83324245380905
 10
37.45800644679869
 20
-19.72730576763762
 10
37.19686820901676
 20
-19.57210421602711
 10
37.19686820901676
 20
-19.57210421602711
 10
37.35913220637202
 20
-19.12045219791086
 10
37.35913220637202
 20
-19.12045219791086
 10
37.56377087819587
 20
-19.24034152079755
 10
37.89553357342542
 20
-19.3815904356928
 10
38.22712401388072
 20
-19.3815904356928
 10
38.74233804369983
 20
-19.3815904356928
 10
38.99641383573701
 20
-19.10632730642133
 10
38.99641383573701
 20
-18.76043971970225
 10
38.99641383573701
 20
-18.40059949626791
 10
38.79177516391317
 20
-18.20302327018883
 10
38.28362357983882
 20
-17.99838459836499
 10
37.63439533564349
 20
-17.73724636058305
 10
37.30263264041393
 20
-17.3774061371487
 10
37.30263264041393
 20
-16.91162922754293
 10
37.30263264041393
 20
-16.31166584878667
 10
37.78253444150923
 20
-15.81763915620184
 10
38.55888670911028
 20
-15.81763915620184
 10
38.92578937828939
 20
-15.81763915620184
 10
39.23636473628466
 20
-15.92357584237327
 10
39.4410034081085
 20
-16.05052761100473
 10
39.4410034081085
 20
-16.05052761100473
 10
39.27150471023421
 20
-16.49511718337622
 10
39.27150471023421
 20
-16.49511718337622
 97
        0
 75
     2
 76
     1
 98
        0
  0
SPLINE
  5
77
330
5E
100
AcDbEntity
  8
\U+30EC\U+30A4\U+30E4\U+30FC 1
370
     0
100
AcDbSpline
210
0.0
220
0.0
230
1.0
 70
    11
 71
     3
 72
    17
 73
    13
 74
     0
 42
0.0000000001
 43
0.0000000001
 40
0.0
 40
0.0
 40
0.0
 40
0.0
 40
1.0
 40
1.0
 40
1.0
 40
2.0
 40
2.0
 40
2.0
 40
3.0
 40
3.0
 40
3.0
 40
4.0
 40
4.0
 40
4.0
 40
4.0
 10
40.75289576889164
 20
-15.23197292370937
 30
0.0
 10
40.52706975983351
 20
-15.23197292370937
 30
0.0
 10
40.37186820822301
 20
-15.05558403486458
 30
0.0
 10
40.37186820822301
 20
-14.82975802580645
 30
0.0
 10
40.37186820822301
 20
-14.61099446249309
 30
0.0
 10
40.53413220557827
 20
-14.43460557364829
 30
0.0
 10
40.7599582146364
 20
-14.43460557364829
 30
0.0
 10
40.99284666943929
 20
-14.43460557364829
 30
0.0
 10
41.14098577530503
 20
-14.61099446249309
 30
0.0
 10
41.14098577530503
 20
-14.82975802580645
 30
0.0
 10
41.14098577530503
 20
-15.07677137209886
 30
0.0
 10
40.97872177794977
 20
-15.23197292370937
 30
0.0
 10
40.75289576889164
 20
-15.23197292370937
 30
0.0
  0
POLYLINE
  5
78
330
5E
100
AcDbEntity
  8
\U+30EC\U+30A4\U+30E4\U+30FC 1
370
     0
100
AcDb2dPolyline
 66
     1
 10
0.0
 20
0.0
 30
0.0
  0
VERTEX
  5
79
330
78
100
AcDbEntity
  8
\U+30EC\U+30A4\U+30E4\U+30FC 1
370
     0
100
AcDbVertex
100
AcDb2dVertex
 10
41.04934623539739
 20
-19.75555555061667
 30
0.0
  0
VERTEX
  5
7A
330
78
100
AcDbEntity
  8
\U+30EC\U+30A4\U+30E4\U+30FC 1
370
     0
100
AcDbVertex
100
AcDb2dVertex
 10
40.46350774813065
 20
-19.75555555061667
 30
0.0
  0
VERTEX
  5
7B
330
78
100
AcDbEntity
  8
\U+30EC\U+30A4\U+30E4\U+30FC 1
370
     0
100
AcDbVertex
100
AcDb2dVertex
 10
40.46350774813065
 20
-15.90945095088375
 30
0.0
  0
VERTEX
  5
7C
330
78
100
AcDbEntity
  8
\U+30EC\U+30A4\U+30E4\U+30FC 1
370
     0
100
AcDbVertex
100
AcDb2dVertex
 10
41.04934623539739
 20
-15.90945095088375
 30
0.0
  0
VERTEX
  5
7D
330
78
100
AcDbEntity
  8
\U+30EC\U+30A4\U+30E4\U+30FC 1
370
     0
100
AcDbVertex
100
AcDb2dVertex
 10
41.04934623539739
 20
-19.75555555061667
 30
0.0
  0
SEQEND
  5
7E
330
78
100
AcDbEntity
  8
\U+30EC\U+30A4\U+30E4\U+30FC 1
370
     0
  0
HATCH
  5
7F
330
5E
100
AcDbEntity
  8
\U+30EC\U+30A4\U+30E4\U+30FC 1
 62
     7
420
 16777215
100
AcDbHatch
 10
0.0
 20
0.0
 30
0.0
210
0.0
220
0.0
230
1.0
  2
SOLID
 70
     1
 71
     0
 91
        2
 92
        1
 93
        1
 72
     4
 94
        3
 73
     0
 74
     1
 95
       17
 96
       13
 40
0.0
 40
0.0
 40
0.0
 40
0.0
 40
1.0
 40
1.0
 40
1.0
 40
2.0
 40
2.0
 40
2.0
 40
3.0
 40
3.0
 40
3.0
 40
4.0
 40
4.0
 40
4.0
 40
4.0
 10
40.75289576889164
 20
-15.23197292370937
 10
40.52706975983351
 20
-15.23197292370937
 10
40.37186820822301
 20
-15.05558403486458
 10
40.37186820822301
 20
-14.82975802580645
 10
40.37186820822301
 20
-14.61099446249309
 10
40.53413220557827
 20
-14.43460557364829
 10
40.7599582146364
 20
-14.43460557364829
 10
40.99284666943929
 20
-14.43460557364829
 10
41.14098577530503
 20
-14.61099446249309
 10
41.14098577530503
 20
-14.82975802580645
 10
41.14098577530503
 20
-15.07677137209886
 10
40.97872177794977
 20
-15.23197292370937
 10
40.75289576889164
 20
-15.23197292370937
 97
        0
 92
        1
 93
        4
 72
     1
 10
41.04934623539739
 20
-19.75555555061667
 11
40.46350774813065
 21
-19.75555555061667
 72
     1
 10
40.46350774813065
 20
-19.75555555061667
 11
40.46350774813065
 21
-15.90945095088375
 72
     1
 10
40.46350774813065
 20
-15.90945095088375
 11
41.04934623539739
 21
-15.90945095088375
 72
     1
 10
41.04934623539739
 20
-15.90945095088375
 11
41.04934623539739
 21
-19.75555555061667
 97
        0
 75
     2
 76
     1
 98
        0
  0
SPLINE
  5
80
330
5E
100
AcDbEntity
  8
\U+30EC\U+30A4\U+30E4\U+30FC 1
370
     0
100
AcDbSpline
210
0.0
220
0.0
230
1.0
 70
    11
 71
     3
 72
    41
 73
    37
 74
     0
 42
0.0000000001
 43
0.0000000001
 40
0.0
 40
0.0
 40
0.0
 40
0.0
 40
1.0
 40
1.0
 40
1.0
 40
2.0
 40
2.0
 40
2.0
 40
3.0
 40
3.0
 40
3.0
 40
4.0
 40
4.0
 40
4.0
 40
5.0
 40
5.0
 40
5.0
 40
6.0
 40
6.0
 40
6.0
 40
7.0
 40
7.0
 40
7.0
 40
8.0
 40
8.0
 40
8.0
 40
9.0
 40
9.0
 40
9.0
 40
10.0
 40
10.0
 40
10.0
 40
11.0
 40
11.0
 40
11.0
 40
12.0
 40
12.0
 40
12.0
 40
12.0
 10
45.31833630594473
 20
-18.80281439417082
 30
0.0
 10
45.31833630594473
 20
-19.1133897521661
 30
0.0
 10
45.33246119743425
 20
-19.49441731283473
 30
0.0
 10
45.34658608892377
 20
-19.75555555061667
 30
0.0
 10
45.34658608892377
 20
-19.75555555061667
 30
0.0
 10
44.82430961335989
 20
-19.75555555061667
 30
0.0
 10
44.82430961335989
 20
-19.75555555061667
 30
0.0
 10
44.82430961335989
 20
-19.75555555061667
 30
0.0
 10
44.79605983038085
 20
-19.09926486067657
 30
0.0
 10
44.79605983038085
 20
-19.09926486067657
 30
0.0
 10
44.79605983038085
 20
-19.09926486067657
 30
0.0
 10
44.77487249314656
 20
-19.09926486067657
 30
0.0
 10
44.77487249314656
 20
-19.09926486067657
 30
0.0
 10
44.57729626706748
 20
-19.50147975857949
 30
0.0
 10
44.13976914044076
 20
-19.84030489955381
 30
0.0
 10
43.51879067922447
 20
-19.84030489955381
 30
0.0
 10
42.62961153448149
 20
-19.84030489955381
 30
0.0
 10
41.93800861581758
 20
-19.07101507769752
 30
0.0
 10
41.93800861581758
 20
-17.88538546644879
 30
0.0
 10
41.93800861581758
 20
-16.58692897805813
 30
0.0
 10
42.70006373715485
 20
-15.8247016019466
 30
0.0
 10
43.59630532764259
 20
-15.8247016019466
 30
0.0
 10
44.16095647767504
 20
-15.8247016019466
 30
0.0
 10
44.54198403834367
 20
-16.09996473121807
 30
0.0
 10
44.71837292718846
 20
-16.4176025349581
 30
0.0
 10
44.71837292718846
 20
-16.4176025349581
 30
0.0
 10
44.73249781867799
 20
-16.4176025349581
 30
0.0
 10
44.73249781867799
 20
-16.4176025349581
 30
0.0
 10
44.73249781867799
 20
-16.4176025349581
 30
0.0
 10
44.73249781867799
 20
-14.1099053241635
 30
0.0
 10
44.73249781867799
 20
-14.1099053241635
 30
0.0
 10
44.73249781867799
 20
-14.1099053241635
 30
0.0
 10
45.31833630594473
 20
-14.1099053241635
 30
0.0
 10
45.31833630594473
 20
-14.1099053241635
 30
0.0
 10
45.31833630594473
 20
-14.1099053241635
 30
0.0
 10
45.31833630594473
 20
-18.80281439417082
 30
0.0
 10
45.31833630594473
 20
-18.80281439417082
 30
0.0
  0
SPLINE
  5
81
330
5E
100
AcDbEntity
  8
\U+30EC\U+30A4\U+30E4\U+30FC 1
370
     0
100
AcDbSpline
210
0.0
220
0.0
230
1.0
 70
    11
 71
     3
 72
    20
 73
    16
 74
     0
 42
0.0000000001
 43
0.0000000001
 40
0.0
 40
0.0
 40
0.0
 40
0.0
 40
1.0
 40
1.0
 40
1.0
 40
2.0
 40
2.0
 40
2.0
 40
3.0
 40
3.0
 40
3.0
 40
4.0
 40
4.0
 40
4.0
 40
5.0
 40
5.0
 40
5.0
 40
5.0
 10
44.73249781867799
 20
-17.44785833982207
 30
0.0
 10
44.73249781867799
 20
-16.67874077274004
 30
0.0
 10
44.18920626065409
 20
-16.29754095729714
 30
0.0
 10
43.69517956806926
 20
-16.29754095729714
 30
0.0
 10
42.96826442068155
 20
-16.29754095729714
 30
0.0
 10
42.53779973979958
 20
-16.97501898447153
 30
0.0
 10
42.53779973979958
 20
-17.85713568346975
 30
0.0
 10
42.53779973979958
 20
-18.66880017979461
 30
0.0
 10
42.91882730046821
 20
-19.36040309845851
 30
0.0
 10
43.67399223083498
 20
-19.36040309845851
 30
0.0
 10
44.30909558354078
 20
-19.36040309845851
 30
0.0
 10
44.73249781867799
 20
-18.80281439417082
 30
0.0
 10
44.73249781867799
 20
-18.1888983786993
 30
0.0
 10
44.73249781867799
 20
-18.1888983786993
 30
0.0
 10
44.73249781867799
 20
-17.44785833982207
 30
0.0
 10
44.73249781867799
 20
-17.44785833982207
 30
0.0
  0
HATCH
  5
82
330
5E
100
AcDbEntity
  8
\U+30EC\U+30A4\U+30E4\U+30FC 1
 62
     7
420
 16777215
100
AcDbHatch
 10
0.0
 20
0.0
 30
0.0
210
0.0
220
0.0
230
1.0
  2
SOLID
 70
     1
 71
     0
 91
        2
 92
        1
 93
        1
 72
     4
 94
        3
 73
     0
 74
     1
 95
       41
 96
       37
 40
0.0
 40
0.0
 40
0.0
 40
0.0
 40
1.0
 40
1.0
 40
1.0
 40
2.0
 40
2.0
 40
2.0
 40
3.0
 40
3.0
 40
3.0
 40
4.0
 40
4.0
 40
4.0
 40
5.0
 40
5.0
 40
5.0
 40
6.0
 40
6.0
 40
6.0
 40
7.0
 40
7.0
 40
7.0
 40
8.0
 40
8.0
 40
8.0
 40
9.0
 40
9.0
 40
9.0
 40
10.0
 40
10.0
 40
10.0
 40
11.0
 40
11.0
 40
11.0
 40
12.0
 40
12.0
 40
12.0
 40
12.0
 10
45.31833630594473
 20
-18.80281439417082
 10
45.31833630594473
 20
-19.1133897521661
 10
45.33246119743425
 20
-19.49441731283473
 10
45.34658608892377
 20
-19.75555555061667
 10
45.34658608892377
 20
-19.75555555061667
 10
44.82430961335989
 20
-19.75555555061667
 10
44.82430961335989
 20
-19.75555555061667
 10
44.82430961335989
 20
-19.75555555061667
 10
44.79605983038085
 20
-19.09926486067657
 10
44.79605983038085
 20
-19.09926486067657
 10
44.79605983038085
 20
-19.09926486067657
 10
44.77487249314656
 20
-19.09926486067657
 10
44.77487249314656
 20
-19.09926486067657
 10
44.57729626706748
 20
-19.50147975857949
 10
44.13976914044076
 20
-19.84030489955381
 10
43.51879067922447
 20
-19.84030489955381
 10
42.62961153448149
 20
-19.84030489955381
 10
41.93800861581758
 20
-19.07101507769752
 10
41.93800861581758
 20
-17.88538546644879
 10
41.93800861581758
 20
-16.58692897805813
 10
42.70006373715485
 20
-15.8247016019466
 10
43.59630532764259
 20
-15.8247016019466
 10
44.16095647767504
 20
-15.8247016019466
 10
44.54198403834367
 20
-16.09996473121807
 10
44.71837292718846
 20
-16.4176025349581
 10
44.71837292718846
 20
-16.4176025349581
 10
44.73249781867799
 20
-16.4176025349581
 10
44.73249781867799
 20
-16.4176025349581
 10
44.73249781867799
 20
-16.4176025349581
 10
44.73249781867799
 20
-14.1099053241635
 10
44.73249781867799
 20
-14.1099053241635
 10
44.73249781867799
 20
-14.1099053241635
 10
45.31833630594473
 20
-14.1099053241635
 10
45.31833630594473
 20
-14.1099053241635
 10
45.31833630594473
 20
-14.1099053241635
 10
45.31833630594473
 20
-18.80281439417082
 10
45.31833630594473
 20
-18.80281439417082
 97
        0
 92
        1
 93
        1
 72
     4
 94
        3
 73
     0
 74
     1
 95
       20
 96
       16
 40
0.0
 40
0.0
 40
0.0
 40
0.0
 40
1.0
 40
1.0
 40
1.0
 40
2.0
 40
2.0
 40
2.0
 40
3.0
 40
3.0
 40
3.0
 40
4.0
 40
4.0
 40
4.0
 40
5.0
 40
5.0
 40
5.0
 40
5.0
 10
44.73249781867799
 20
-17.44785833982207
 10
44.73249781867799
 20
-16.67874077274004
 10
44.18920626065409
 20
-16.29754095729714
 10
43.69517956806926
 20
-16.29754095729714
 10
42.96826442068155
 20
-16.29754095729714
 10
42.53779973979958
 20
-16.97501898447153
 10
42.53779973979958
 20
-17.85713568346975
 10
42.53779973979958
 20
-18.66880017979461
 10
42.91882730046821
 20
-19.36040309845851
 10
43.67399223083498
 20
-19.36040309845851
 10
44.30909558354078
 20
-19.36040309845851
 10
44.73249781867799
 20
-18.80281439417082
 10
44.73249781867799
 20
-18.1888983786993
 10
44.73249781867799
 20
-18.1888983786993
 10
44.73249781867799
 20
-17.44785833982207
 10
44.73249781867799
 20
-17.44785833982207
 97
        0
 75
     2
 76
     1
 98
        0
  0
SPLINE
  5
83
330
5E
100
AcDbEntity
  8
\U+30EC\U+30A4\U+30E4\U+30FC 1
370
     0
100
AcDbSpline
210
0.0
220
0.0
230
1.0
 70
    11
 71
     3
 72
    32
 73
    28
 74
     0
 42
0.0000000001
 43
0.0000000001
 40
0.0
 40
0.0
 40
0.0
 40
0.0
 40
1.0
 40
1.0
 40
1.0
 40
2.0
 40
2.0
 40
2.0
 40
3.0
 40
3.0
 40
3.0
 40
4.0
 40
4.0
 40
4.0
 40
5.0
 40
5.0
 40
5.0
 40
6.0
 40
6.0
 40
6.0
 40
7.0
 40
7.0
 40
7.0
 40
8.0
 40
8.0
 40
8.0
 40
9.0
 40
9.0
 40
9.0
 40
9.0
 10
49.19854735098161
 20
-19.5932915532614
 30
0.0
 10
48.97978378766825
 20
-19.69905598465857
 30
0.0
 10
48.57756888976533
 20
-19.83324245380905
 30
0.0
 10
47.99190265727286
 20
-19.83324245380905
 30
0.0
 10
46.86983505772699
 20
-19.83324245380905
 30
0.0
 10
46.19941947629737
 20
-19.04276529471847
 30
0.0
 10
46.19941947629737
 20
-17.89244791219356
 30
0.0
 10
46.19941947629737
 20
-16.6858032184848
 30
0.0
 10
46.87689750347175
 20
-15.81763915620184
 30
0.0
 10
47.91421575408047
 20
-15.81763915620184
 30
0.0
 10
49.09984536532921
 20
-15.81763915620184
 30
0.0
 10
49.40318602280546
 20
-16.90456678179816
 30
0.0
 10
49.40318602280546
 20
-17.57498236322778
 30
0.0
 10
49.40318602280546
 20
-17.708996577604
 30
0.0
 10
49.39629583183495
 20
-17.80787081803067
 30
0.0
 10
49.3892333860902
 20
-17.89951035793832
 30
0.0
 10
49.3892333860902
 20
-17.89951035793832
 30
0.0
 10
46.77096081730032
 20
-17.89951035793832
 30
0.0
 10
46.77096081730032
 20
-17.89951035793832
 30
0.0
 10
46.77802326304508
 20
-18.96525064630035
 30
0.0
 10
47.38487683277184
 20
-19.36746554420327
 30
0.0
 10
48.07647975143574
 20
-19.36746554420327
 30
0.0
 10
48.55638155253104
 20
-19.36746554420327
 30
0.0
 10
48.84576957329203
 20
-19.2685913037766
 30
0.0
 10
49.08572047383969
 20
-19.16988931812419
 30
0.0
 10
49.08572047383969
 20
-19.16988931812419
 30
0.0
 10
49.19854735098161
 20
-19.5932915532614
 30
0.0
 10
49.19854735098161
 20
-19.5932915532614
 30
0.0
  0
SPLINE
  5
84
330
5E
100
AcDbEntity
  8
\U+30EC\U+30A4\U+30E4\U+30FC 1
370
     0
100
AcDbSpline
210
0.0
220
0.0
230
1.0
 70
    11
 71
     3
 72
    14
 73
    10
 74
     0
 42
0.0000000001
 43
0.0000000001
 40
0.0
 40
0.0
 40
0.0
 40
0.0
 40
1.0
 40
1.0
 40
1.0
 40
2.0
 40
2.0
 40
2.0
 40
3.0
 40
3.0
 40
3.0
 40
3.0
 10
48.82458223605774
 20
-17.46198323131159
 30
0.0
 10
48.83164468180251
 20
-16.93970675574771
 30
0.0
 10
48.61288111848914
 20
-16.26222872857333
 30
0.0
 10
47.85771618812238
 20
-16.26222872857333
 30
0.0
 10
47.15198837796895
 20
-16.26222872857333
 30
0.0
 10
46.84158527474794
 20
-16.93264431000295
 30
0.0
 10
46.78508570878984
 20
-17.46198323131159
 30
0.0
 10
46.78508570878984
 20
-17.46198323131159
 30
0.0
 10
48.82458223605774
 20
-17.46198323131159
 30
0.0
 10
48.82458223605774
 20
-17.46198323131159
 30
0.0
  0
HATCH
  5
85
330
5E
100
AcDbEntity
  8
\U+30EC\U+30A4\U+30E4\U+30FC 1
 62
     7
420
 16777215
100
AcDbHatch
 10
0.0
 20
0.0
 30
0.0
210
0.0
220
0.0
230
1.0
  2
SOLID
 70
     1
 71
     0
 91
        2
 92
        1
 93
        1
 72
     4
 94
        3
 73
     0
 74
     1
 95
       32
 96
       28
 40
0.0
 40
0.0
 40
0.0
 40
0.0
 40
1.0
 40
1.0
 40
1.0
 40
2.0
 40
2.0
 40
2.0
 40
3.0
 40
3.0
 40
3.0
 40
4.0
 40
4.0
 40
4.0
 40
5.0
 40
5.0
 40
5.0
 40
6.0
 40
6.0
 40
6.0
 40
7.0
 40
7.0
 40
7.0
 40
8.0
 40
8.0
 40
8.0
 40
9.0
 40
9.0
 40
9.0
 40
9.0
 10
49.19854735098161
 20
-19.5932915532614
 10
48.97978378766825
 20
-19.69905598465857
 10
48.57756888976533
 20
-19.83324245380905
 10
47.99190265727286
 20
-19.83324245380905
 10
46.86983505772699
 20
-19.83324245380905
 10
46.19941947629737
 20
-19.04276529471847
 10
46.19941947629737
 20
-17.89244791219356
 10
46.19941947629737
 20
-16.6858032184848
 10
46.87689750347175
 20
-15.81763915620184
 10
47.91421575408047
 20
-15.81763915620184
 10
49.09984536532921
 20
-15.81763915620184
 10
49.40318602280546
 20
-16.90456678179816
 10
49.40318602280546
 20
-17.57498236322778
 10
49.40318602280546
 20
-17.708996577604
 10
49.39629583183495
 20
-17.80787081803067
 10
49.3892333860902
 20
-17.89951035793832
 10
49.3892333860902
 20
-17.89951035793832
 10
46.77096081730032
 20
-17.89951035793832
 10
46.77096081730032
 20
-17.89951035793832
 10
46.77802326304508
 20
-18.96525064630035
 10
47.38487683277184
 20
-19.36746554420327
 10
48.07647975143574
 20
-19.36746554420327
 10
48.55638155253104
 20
-19.36746554420327
 10
48.84576957329203
 20
-19.2685913037766
 10
49.08572047383969
 20
-19.16988931812419
 10
49.08572047383969
 20
-19.16988931812419
 10
49.19854735098161
 20
-19.5932915532614
 10
49.19854735098161
 20
-19.5932915532614
 97
        0
 92
        1
 93
        1
 72
     4
 94
        3
 73
     0
 74
     1
 95
       14
 96
       10
 40
0.0
 40
0.0
 40
0.0
 40
0.0
 40
1.0
 40
1.0
 40
1.0
 40
2.0
 40
2.0
 40
2.0
 40
3.0
 40
3.0
 40
3.0
 40
3.0
 10
48.82458223605774
 20
-17.46198323131159
 10
48.83164468180251
 20
-16.93970675574771
 10
48.61288111848914
 20
-16.26222872857333
 10
47.85771618812238
 20
-16.26222872857333
 10
47.15198837796895
 20
-16.26222872857333
 10
46.84158527474794
 20
-16.93264431000295
 10
46.78508570878984
 20
-17.46198323131159
 10
46.78508570878984
 20
-17.46198323131159
 10
48.82458223605774
 20
-17.46198323131159
 10
48.82458223605774
 20
-17.46198323131159
 97
        0
 75
     2
 76
     1
 98
        0
  0
SPLINE
  5
86
330
5E
100
AcDbEntity
  8
\U+30EC\U+30A4\U+30E4\U+30FC 1
370
     0
100
AcDbSpline
210
0.0
220
0.0
230
1.0
 70
    11
 71
     3
 72
    53
 73
    49
 74
     0
 42
0.0000000001
 43
0.0000000001
 40
0.0
 40
0.0
 40
0.0
 40
0.0
 40
1.0
 40
1.0
 40
1.0
 40
2.0
 40
2.0
 40
2.0
 40
3.0
 40
3.0
 40
3.0
 40
4.0
 40
4.0
 40
4.0
 40
5.0
 40
5.0
 40
5.0
 40
6.0
 40
6.0
 40
6.0
 40
7.0
 40
7.0
 40
7.0
 40
8.0
 40
8.0
 40
8.0
 40
9.0
 40
9.0
 40
9.0
 40
10.0
 40
10.0
 40
10.0
 40
11.0
 40
11.0
 40
11.0
 40
12.0
 40
12.0
 40
12.0
 40
13.0
 40
13.0
 40
13.0
 40
14.0
 40
14.0
 40
14.0
 40
15.0
 40
15.0
 40
15.0
 40
16.0
 40
16.0
 40
16.0
 40
16.0
 10
18.88808050743076
 20
-27.5580078056105
 30
0.0
 10
18.88808050743076
 20
-27.5580078056105
 30
0.0
 10
19.46668429417847
 20
-27.36043157953142
 30
0.0
 10
19.46668429417847
 20
-27.36043157953142
 30
0.0
 10
19.46668429417847
 20
-27.36043157953142
 30
0.0
 10
19.46668429417847
 20
-28.25667317001917
 30
0.0
 10
19.46668429417847
 20
-28.25667317001917
 30
0.0
 10
19.46668429417847
 20
-28.25667317001917
 30
0.0
 10
20.46180012509289
 20
-28.25667317001917
 30
0.0
 10
20.46180012509289
 20
-28.25667317001917
 30
0.0
 10
20.46180012509289
 20
-28.25667317001917
 30
0.0
 10
20.46180012509289
 20
-28.71538763388018
 30
0.0
 10
20.46180012509289
 20
-28.71538763388018
 30
0.0
 10
20.46180012509289
 20
-28.71538763388018
 30
0.0
 10
19.46668429417847
 20
-28.71538763388018
 30
0.0
 10
19.46668429417847
 20
-28.71538763388018
 30
0.0
 10
19.46668429417847
 20
-28.71538763388018
 30
0.0
 10
19.46668429417847
 20
-30.93833549573764
 30
0.0
 10
19.46668429417847
 20
-30.93833549573764
 30
0.0
 10
19.46668429417847
 20
-31.4252997425777
 30
0.0
 10
19.61499565481848
 20
-31.6935004261044
 30
0.0
 10
19.98896076974235
 20
-31.6935004261044
 30
0.0
 10
20.16534965858714
 20
-31.6935004261044
 30
0.0
 10
20.28541123624809
 20
-31.67231308887012
 30
0.0
 10
20.3841132219005
 20
-31.63700086014631
 30
0.0
 10
20.3841132219005
 20
-31.63700086014631
 30
0.0
 10
20.41942545062431
 20
-32.08865287826256
 30
0.0
 10
20.41942545062431
 20
-32.08865287826256
 30
0.0
 10
20.29247368199286
 20
-32.14515244422066
 30
0.0
 10
20.09472520113951
 20
-32.18046467294447
 30
0.0
 10
19.8477118548471
 20
-32.18046467294447
 30
0.0
 10
18.91633029040981
 20
-32.18046467294447
 30
0.0
 10
18.88808050743076
 20
-31.3334879478958
 30
0.0
 10
18.88808050743076
 20
-30.92421060424812
 30
0.0
 10
18.88808050743076
 20
-30.92421060424812
 30
0.0
 10
18.88808050743076
 20
-28.71538763388018
 30
0.0
 10
18.88808050743076
 20
-28.71538763388018
 30
0.0
 10
18.88808050743076
 20
-28.71538763388018
 30
0.0
 10
18.29517957441926
 20
-28.71538763388018
 30
0.0
 10
18.29517957441926
 20
-28.71538763388018
 30
0.0
 10
18.29517957441926
 20
-28.71538763388018
 30
0.0
 10
18.29517957441926
 20
-28.25667317001917
 30
0.0
 10
18.29517957441926
 20
-28.25667317001917
 30
0.0
 10
18.29517957441926
 20
-28.25667317001917
 30
0.0
 10
18.88808050743076
 20
-28.25667317001917
 30
0.0
 10
18.88808050743076
 20
-28.25667317001917
 30
0.0
 10
18.88808050743076
 20
-28.25667317001917
 30
0.0
 10
18.88808050743076
 20
-27.5580078056105
 30
0.0
 10
18.88808050743076
 20
-27.5580078056105
 30
0.0
  0
HATCH
  5
87
330
5E
100
AcDbEntity
  8
\U+30EC\U+30A4\U+30E4\U+30FC 1
 62
     7
420
 16777215
100
AcDbHatch
 10
0.0
 20
0.0
 30
0.0
210
0.0
220
0.0
230
1.0
  2
SOLID
 70
     1
 71
     0
 91
        1
 92
        1
 93
        1
 72
     4
 94
        3
 73
     0
 74
     1
 95
       53
 96
       49
 40
0.0
 40
0.0
 40
0.0
 40
0.0
 40
1.0
 40
1.0
 40
1.0
 40
2.0
 40
2.0
 40
2.0
 40
3.0
 40
3.0
 40
3.0
 40
4.0
 40
4.0
 40
4.0
 40
5.0
 40
5.0
 40
5.0
 40
6.0
 40
6.0
 40
6.0
 40
7.0
 40
7.0
 40
7.0
 40
8.0
 40
8.0
 40
8.0
 40
9.0
 40
9.0
 40
9.0
 40
10.0
 40
10.0
 40
10.0
 40
11.0
 40
11.0
 40
11.0
 40
12.0
 40
12.0
 40
12.0
 40
13.0
 40
13.0
 40
13.0
 40
14.0
 40
14.0
 40
14.0
 40
15.0
 40
15.0
 40
15.0
 40
16.0
 40
16.0
 40
16.0
 40
16.0
 10
18.88808050743076
 20
-27.5580078056105
 10
18.88808050743076
 20
-27.5580078056105
 10
19.46668429417847
 20
-27.36043157953142
 10
19.46668429417847
 20
-27.36043157953142
 10
19.46668429417847
 20
-27.36043157953142
 10
19.46668429417847
 20
-28.25667317001917
 10
19.46668429417847
 20
-28.25667317001917
 10
19.46668429417847
 20
-28.25667317001917
 10
20.46180012509289
 20
-28.25667317001917
 10
20.46180012509289
 20
-28.25667317001917
 10
20.46180012509289
 20
-28.25667317001917
 10
20.46180012509289
 20
-28.71538763388018
 10
20.46180012509289
 20
-28.71538763388018
 10
20.46180012509289
 20
-28.71538763388018
 10
19.46668429417847
 20
-28.71538763388018
 10
19.46668429417847
 20
-28.71538763388018
 10
19.46668429417847
 20
-28.71538763388018
 10
19.46668429417847
 20
-30.93833549573764
 10
19.46668429417847
 20
-30.93833549573764
 10
19.46668429417847
 20
-31.4252997425777
 10
19.61499565481848
 20
-31.6935004261044
 10
19.98896076974235
 20
-31.6935004261044
 10
20.16534965858714
 20
-31.6935004261044
 10
20.28541123624809
 20
-31.67231308887012
 10
20.3841132219005
 20
-31.63700086014631
 10
20.3841132219005
 20
-31.63700086014631
 10
20.41942545062431
 20
-32.08865287826256
 10
20.41942545062431
 20
-32.08865287826256
 10
20.29247368199286
 20
-32.14515244422066
 10
20.09472520113951
 20
-32.18046467294447
 10
19.8477118548471
 20
-32.18046467294447
 10
18.91633029040981
 20
-32.18046467294447
 10
18.88808050743076
 20
-31.3334879478958
 10
18.88808050743076
 20
-30.92421060424812
 10
18.88808050743076
 20
-30.92421060424812
 10
18.88808050743076
 20
-28.71538763388018
 10
18.88808050743076
 20
-28.71538763388018
 10
18.88808050743076
 20
-28.71538763388018
 10
18.29517957441926
 20
-28.71538763388018
 10
18.29517957441926
 20
-28.71538763388018
 10
18.29517957441926
 20
-28.71538763388018
 10
18.29517957441926
 20
-28.25667317001917
 10
18.29517957441926
 20
-28.25667317001917
 10
18.29517957441926
 20
-28.25667317001917
 10
18.88808050743076
 20
-28.25667317001917
 10
18.88808050743076
 20
-28.25667317001917
 10
18.88808050743076
 20
-28.25667317001917
 10
18.88808050743076
 20
-27.5580078056105
 10
18.88808050743076
 20
-27.5580078056105
 97
        0
 75
     2
 76
     1
 98
        0
  0
POLYLINE
  5
88
330
5E
100
AcDbEntity
  8
\U+30EC\U+30A4\U+30E4\U+30FC 1
370
     0
100
AcDb2dPolyline
 66
     1
 10
0.0
 20
0.0
 30
0.0
  0
VERTEX
  5
89
330
88
100
AcDbEntity
  8
\U+30EC\U+30A4\U+30E4\U+30FC 1
370
     0
100
AcDbVertex
100
AcDb2dVertex
 10
25.08339571855554
 20
-29.39286566105456
 30
0.0
  0
VERTEX
  5
8A
330
88
100
AcDbEntity
  8
\U+30EC\U+30A4\U+30E4\U+30FC 1
370
     0
100
AcDbVertex
100
AcDb2dVertex
 10
20.96926269007018
 20
-29.39286566105456
 30
0.0
  0
VERTEX
  5
8B
330
88
100
AcDbEntity
  8
\U+30EC\U+30A4\U+30E4\U+30FC 1
370
     0
100
AcDbVertex
100
AcDb2dVertex
 10
20.96926269007018
 20
-28.96946342591736
 30
0.0
  0
VERTEX
  5
8C
330
88
100
AcDbEntity
  8
\U+30EC\U+30A4\U+30E4\U+30FC 1
370
     0
100
AcDbVertex
100
AcDb2dVertex
 10
25.08339571855554
 20
-28.96946342591736
 30
0.0
  0
VERTEX
  5
8D
330
88
100
AcDbEntity
  8
\U+30EC\U+30A4\U+30E4\U+30FC 1
370
     0
100
AcDbVertex
100
AcDb2dVertex
 10
25.08339571855554
 20
-29.39286566105456
 30
0.0
  0
SEQEND
  5
8E
330
88
100
AcDbEntity
  8
\U+30EC\U+30A4\U+30E4\U+30FC 1
370
     0
  0
POLYLINE
  5
8F
330
5E
100
AcDbEntity
  8
\U+30EC\U+30A4\U+30E4\U+30FC 1
370
     0
100
AcDb2dPolyline
 66
     1
 10
0.0
 20
0.0
 30
0.0
  0
VERTEX
  5
90
330
8F
100
AcDbEntity
  8
\U+30EC\U+30A4\U+30E4\U+30FC 1
370
     0
100
AcDbVertex
100
AcDb2dVertex
 10
25.08339571855554
 20
-30.93833549573764
 30
0.0
  0
VERTEX
  5
91
330
8F
100
AcDbEntity
  8
\U+30EC\U+30A4\U+30E4\U+30FC 1
370
     0
100
AcDbVertex
100
AcDb2dVertex
 10
20.96926269007018
 20
-30.93833549573764
 30
0.0
  0
VERTEX
  5
92
330
8F
100
AcDbEntity
  8
\U+30EC\U+30A4\U+30E4\U+30FC 1
370
     0
100
AcDbVertex
100
AcDb2dVertex
 10
20.96926269007018
 20
-30.51493326060044
 30
0.0
  0
VERTEX
  5
93
330
8F
100
AcDbEntity
  8
\U+30EC\U+30A4\U+30E4\U+30FC 1
370
     0
100
AcDbVertex
100
AcDb2dVertex
 10
25.08339571855554
 20
-30.51493326060044
 30
0.0
  0
VERTEX
  5
94
330
8F
100
AcDbEntity
  8
\U+30EC\U+30A4\U+30E4\U+30FC 1
370
     0
100
AcDbVertex
100
AcDb2dVertex
 10
25.08339571855554
 20
-30.93833549573764
 30
0.0
  0
SEQEND
  5
95
330
8F
100
AcDbEntity
  8
\U+30EC\U+30A4\U+30E4\U+30FC 1
370
     0
  0
HATCH
  5
96
330
5E
100
AcDbEntity
  8
\U+30EC\U+30A4\U+30E4\U+30FC 1
 62
     7
420
 16777215
100
AcDbHatch
 10
0.0
 20
0.0
 30
0.0
210
0.0
220
0.0
230
1.0
  2
SOLID
 70
     1
 71
     0
 91
        2
 92
        1
 93
        4
 72
     1
 10
25.08339571855554
 20
-29.39286566105456
 11
20.96926269007018
 21
-29.39286566105456
 72
     1
 10
20.96926269007018
 20
-29.39286566105456
 11
20.96926269007018
 21
-28.96946342591736
 72
     1
 10
20.96926269007018
 20
-28.96946342591736
 11
25.08339571855554
 21
-28.96946342591736
 72
     1
 10
25.08339571855554
 20
-28.96946342591736
 11
25.08339571855554
 21
-29.39286566105456
 97
        0
 92
        1
 93
        4
 72
     1
 10
25.08339571855554
 20
-30.93833549573764
 11
20.96926269007018
 21
-30.93833549573764
 72
     1
 10
20.96926269007018
 20
-30.93833549573764
 11
20.96926269007018
 21
-30.51493326060044
 72
     1
 10
20.96926269007018
 20
-30.51493326060044
 11
25.08339571855554
 21
-30.51493326060044
 72
     1
 10
25.08339571855554
 20
-30.51493326060044
 11
25.08339571855554
 21
-30.93833549573764
 97
        0
 75
     2
 76
     1
 98
        0
  0
POLYLINE
  5
97
330
5E
100
AcDbEntity
  8
\U+30EC\U+30A4\U+30E4\U+30FC 1
370
     0
100
AcDb2dPolyline
 66
     1
 10
0.0
 20
0.0
 30
0.0
  0
VERTEX
  5
98
330
97
100
AcDbEntity
  8
\U+30EC\U+30A4\U+30E4\U+30FC 1
370
     0
100
AcDbVertex
100
AcDb2dVertex
 10
28.41342501459803
 20
-32.10277776975209
 30
0.0
  0
VERTEX
  5
99
330
97
100
AcDbEntity
  8
\U+30EC\U+30A4\U+30E4\U+30FC 1
370
     0
100
AcDbVertex
100
AcDb2dVertex
 10
27.85583631031035
 20
-32.10277776975209
 30
0.0
  0
VERTEX
  5
9A
330
97
100
AcDbEntity
  8
\U+30EC\U+30A4\U+30E4\U+30FC 1
370
     0
100
AcDbVertex
100
AcDb2dVertex
 10
27.85583631031035
 20
-30.62086994677187
 30
0.0
  0
VERTEX
  5
9B
330
97
100
AcDbEntity
  8
\U+30EC\U+30A4\U+30E4\U+30FC 1
370
     0
100
AcDbVertex
100
AcDb2dVertex
 10
25.54813909951574
 20
-30.62086994677187
 30
0.0
  0
VERTEX
  5
9C
330
97
100
AcDbEntity
  8
\U+30EC\U+30A4\U+30E4\U+30FC 1
370
     0
100
AcDbVertex
100
AcDb2dVertex
 10
25.54813909951574
 20
-30.24673257707374
 30
0.0
  0
VERTEX
  5
9D
330
97
100
AcDbEntity
  8
\U+30EC\U+30A4\U+30E4\U+30FC 1
370
     0
100
AcDbVertex
100
AcDb2dVertex
 10
27.80639919009701
 20
-26.81696776673326
 30
0.0
  0
VERTEX
  5
9E
330
97
100
AcDbEntity
  8
\U+30EC\U+30A4\U+30E4\U+30FC 1
370
     0
100
AcDbVertex
100
AcDb2dVertex
 10
28.41342501459803
 20
-26.81696776673326
 30
0.0
  0
VERTEX
  5
9F
330
97
100
AcDbEntity
  8
\U+30EC\U+30A4\U+30E4\U+30FC 1
370
     0
100
AcDbVertex
100
AcDb2dVertex
 10
28.41342501459803
 20
-30.16921792865561
 30
0.0
  0
VERTEX
  5
A0
330
97
100
AcDbEntity
  8
\U+30EC\U+30A4\U+30E4\U+30FC 1
370
     0
100
AcDbVertex
100
AcDb2dVertex
 10
29.13327771624099
 20
-30.16921792865561
 30
0.0
  0
VERTEX
  5
A1
330
97
100
AcDbEntity
  8
\U+30EC\U+30A4\U+30E4\U+30FC 1
370
     0
100
AcDbVertex
100
AcDb2dVertex
 10
29.13327771624099
 20
-30.62086994677187
 30
0.0
  0
VERTEX
  5
A2
330
97
100
AcDbEntity
  8
\U+30EC\U+30A4\U+30E4\U+30FC 1
370
     0
100
AcDbVertex
100
AcDb2dVertex
 10
28.41342501459803
 20
-30.62086994677187
 30
0.0
  0
VERTEX
  5
A3
330
97
100
AcDbEntity
  8
\U+30EC\U+30A4\U+30E4\U+30FC 1
370
     0
100
AcDbVertex
100
AcDb2dVertex
 10
28.41342501459803
 20
-32.10277776975209
 30
0.0
  0
SEQEND
  5
A4
330
97
100
AcDbEntity
  8
\U+30EC\U+30A4\U+30E4\U+30FC 1
370
     0
  0
SPLINE
  5
A5
330
5E
100
AcDbEntity
  8
\U+30EC\U+30A4\U+30E4\U+30FC 1
370
     0
100
AcDbSpline
210
0.0
220
0.0
230
1.0
 70
    11
 71
     3
 72
    26
 73
    22
 74
     0
 42
0.0000000001
 43
0.0000000001
 40
0.0
 40
0.0
 40
0.0
 40
0.0
 40
1.0
 40
1.0
 40
1.0
 40
2.0
 40
2.0
 40
2.0
 40
3.0
 40
3.0
 40
3.0
 40
4.0
 40
4.0
 40
4.0
 40
5.0
 40
5.0
 40
5.0
 40
6.0
 40
6.0
 40
6.0
 40
7.0
 40
7.0
 40
7.0
 40
7.0
 10
26.14104003252724
 20
-30.16921792865561
 30
0.0
 10
26.14104003252724
 20
-30.16921792865561
 30
0.0
 10
27.85583631031035
 20
-30.16921792865561
 30
0.0
 10
27.85583631031035
 20
-30.16921792865561
 30
0.0
 10
27.85583631031035
 20
-30.16921792865561
 30
0.0
 10
27.85583631031035
 20
-28.29198539874298
 30
0.0
 10
27.85583631031035
 20
-28.29198539874298
 30
0.0
 10
27.85583631031035
 20
-28.00259737798199
 30
0.0
 10
27.86996120179987
 20
-27.72027180296577
 30
0.0
 10
27.8840860932894
 20
-27.44518092846857
 30
0.0
 10
27.8840860932894
 20
-27.44518092846857
 30
0.0
 10
27.85583631031035
 20
-27.44518092846857
 30
0.0
 10
27.85583631031035
 20
-27.44518092846857
 30
0.0
 10
27.69357231295508
 20
-27.7697089231791
 30
0.0
 10
27.56644828954936
 20
-27.99553493223723
 30
0.0
 10
27.43243407517314
 20
-28.23548583278488
 30
0.0
 10
27.43243407517314
 20
-28.23548583278488
 30
0.0
 10
26.14104003252724
 20
-30.15509303716609
 30
0.0
 10
26.14104003252724
 20
-30.15509303716609
 30
0.0
 10
26.14104003252724
 20
-30.15509303716609
 30
0.0
 10
26.14104003252724
 20
-30.16921792865561
 30
0.0
 10
26.14104003252724
 20
-30.16921792865561
 30
0.0
  0
HATCH
  5
A6
330
5E
100
AcDbEntity
  8
\U+30EC\U+30A4\U+30E4\U+30FC 1
 62
     7
420
 16777215
100
AcDbHatch
 10
0.0
 20
0.0
 30
0.0
210
0.0
220
0.0
230
1.0
  2
SOLID
 70
     1
 71
     0
 91
        2
 92
        1
 93
       11
 72
     1
 10
28.41342501459803
 20
-32.10277776975209
 11
27.85583631031035
 21
-32.10277776975209
 72
     1
 10
27.85583631031035
 20
-32.10277776975209
 11
27.85583631031035
 21
-30.62086994677187
 72
     1
 10
27.85583631031035
 20
-30.62086994677187
 11
25.54813909951574
 21
-30.62086994677187
 72
     1
 10
25.54813909951574
 20
-30.62086994677187
 11
25.54813909951574
 21
-30.24673257707374
 72
     1
 10
25.54813909951574
 20
-30.24673257707374
 11
27.80639919009701
 21
-26.81696776673326
 72
     1
 10
27.80639919009701
 20
-26.81696776673326
 11
28.41342501459803
 21
-26.81696776673326
 72
     1
 10
28.41342501459803
 20
-26.81696776673326
 11
28.41342501459803
 21
-30.16921792865561
 72
     1
 10
28.41342501459803
 20
-30.16921792865561
 11
29.13327771624099
 21
-30.16921792865561
 72
     1
 10
29.13327771624099
 20
-30.16921792865561
 11
29.13327771624099
 21
-30.62086994677187
 72
     1
 10
29.13327771624099
 20
-30.62086994677187
 11
28.41342501459803
 21
-30.62086994677187
 72
     1
 10
28.41342501459803
 20
-30.62086994677187
 11
28.41342501459803
 21
-32.10277776975209
 97
        0
 92
        1
 93
        1
 72
     4
 94
        3
 73
     0
 74
     1
 95
       26
 96
       22
 40
0.0
 40
0.0
 40
0.0
 40
0.0
 40
1.0
 40
1.0
 40
1.0
 40
2.0
 40
2.0
 40
2.0
 40
3.0
 40
3.0
 40
3.0
 40
4.0
 40
4.0
 40
4.0
 40
5.0
 40
5.0
 40
5.0
 40
6.0
 40
6.0
 40
6.0
 40
7.0
 40
7.0
 40
7.0
 40
7.0
 10
26.14104003252724
 20
-30.16921792865561
 10
26.14104003252724
 20
-30.16921792865561
 10
27.85583631031035
 20
-30.16921792865561
 10
27.85583631031035
 20
-30.16921792865561
 10
27.85583631031035
 20
-30.16921792865561
 10
27.85583631031035
 20
-28.29198539874298
 10
27.85583631031035
 20
-28.29198539874298
 10
27.85583631031035
 20
-28.00259737798199
 10
27.86996120179987
 20
-27.72027180296577
 10
27.8840860932894
 20
-27.44518092846857
 10
27.8840860932894
 20
-27.44518092846857
 10
27.85583631031035
 20
-27.44518092846857
 10
27.85583631031035
 20
-27.44518092846857
 10
27.69357231295508
 20
-27.7697089231791
 10
27.56644828954936
 20
-27.99553493223723
 10
27.43243407517314
 20
-28.23548583278488
 10
27.43243407517314
 20
-28.23548583278488
 10
26.14104003252724
 20
-30.15509303716609
 10
26.14104003252724
 20
-30.15509303716609
 10
26.14104003252724
 20
-30.15509303716609
 10
26.14104003252724
 20
-30.16921792865561
 10
26.14104003252724
 20
-30.16921792865561
 97
        0
 75
     2
 76
     1
 98
        0
  0
SPLINE
  5
A7
330
5E
100
AcDbEntity
  8
\U+30EC\U+30A4\U+30E4\U+30FC 1
370
     0
100
AcDbSpline
210
0.0
220
0.0
230
1.0
 70
    11
 71
     3
 72
    17
 73
    13
 74
     0
 42
0.0000000001
 43
0.0000000001
 40
0.0
 40
0.0
 40
0.0
 40
0.0
 40
1.0
 40
1.0
 40
1.0
 40
2.0
 40
2.0
 40
2.0
 40
3.0
 40
3.0
 40
3.0
 40
4.0
 40
4.0
 40
4.0
 40
4.0
 10
29.71102022911738
 20
-31.74293754631774
 30
0.0
 10
29.71102022911738
 20
-31.47473686279104
 30
0.0
 10
29.88740911796218
 20
-31.28422308245672
 30
0.0
 10
30.13442246425459
 20
-31.28422308245672
 30
0.0
 10
30.381435810547
 20
-31.28422308245672
 30
0.0
 10
30.55076225364703
 20
-31.47473686279104
 30
0.0
 10
30.55076225364703
 20
-31.74293754631774
 30
0.0
 10
30.55076225364703
 20
-31.99684108358065
 30
0.0
 10
30.38849825629176
 20
-32.18752711868923
 30
0.0
 10
30.12736001850983
 20
-32.18752711868923
 30
0.0
 10
29.85915933498313
 20
-32.18752711868923
 30
0.0
 10
29.71102022911738
 20
-31.97582600112063
 30
0.0
 10
29.71102022911738
 20
-31.74293754631774
 30
0.0
  0
HATCH
  5
A8
330
5E
100
AcDbEntity
  8
\U+30EC\U+30A4\U+30E4\U+30FC 1
 62
     7
420
 16777215
100
AcDbHatch
 10
0.0
 20
0.0
 30
0.0
210
0.0
220
0.0
230
1.0
  2
SOLID
 70
     1
 71
     0
 91
        1
 92
        1
 93
        1
 72
     4
 94
        3
 73
     0
 74
     1
 95
       17
 96
       13
 40
0.0
 40
0.0
 40
0.0
 40
0.0
 40
1.0
 40
1.0
 40
1.0
 40
2.0
 40
2.0
 40
2.0
 40
3.0
 40
3.0
 40
3.0
 40
4.0
 40
4.0
 40
4.0
 40
4.0
 10
29.71102022911738
 20
-31.74293754631774
 10
29.71102022911738
 20
-31.47473686279104
 10
29.88740911796218
 20
-31.28422308245672
 10
30.13442246425459
 20
-31.28422308245672
 10
30.381435810547
 20
-31.28422308245672
 10
30.55076225364703
 20
-31.47473686279104
 10
30.55076225364703
 20
-31.74293754631774
 10
30.55076225364703
 20
-31.99684108358065
 10
30.38849825629176
 20
-32.18752711868923
 10
30.12736001850983
 20
-32.18752711868923
 10
29.85915933498313
 20
-32.18752711868923
 10
29.71102022911738
 20
-31.97582600112063
 10
29.71102022911738
 20
-31.74293754631774
 97
        0
 75
     2
 76
     1
 98
        0
  0
SPLINE
  5
A9
330
5E
100
AcDbEntity
  8
\U+30EC\U+30A4\U+30E4\U+30FC 1
370
     0
100
AcDbSpline
210
0.0
220
0.0
230
1.0
 70
    11
 71
     3
 72
    17
 73
    13
 74
     0
 42
0.0000000001
 43
0.0000000001
 40
0.0
 40
0.0
 40
0.0
 40
0.0
 40
1.0
 40
1.0
 40
1.0
 40
2.0
 40
2.0
 40
2.0
 40
3.0
 40
3.0
 40
3.0
 40
4.0
 40
4.0
 40
4.0
 40
4.0
 10
31.11506889413096
 20
-29.47761500999171
 30
0.0
 10
31.11506889413096
 20
-27.62863226305812
 30
0.0
 10
31.83492159577391
 20
-26.73239067257038
 30
0.0
 10
32.8228027261693
 20
-26.73239067257038
 30
0.0
 10
33.82498100282848
 20
-26.73239067257038
 30
0.0
 10
34.4388970183
 20
-27.67806938327146
 30
0.0
 10
34.4388970183
 20
-29.40699055254409
 30
0.0
 10
34.4388970183
 20
-31.24184840798815
 30
0.0
 10
33.79673121984943
 20
-32.18752711868923
 30
0.0
 10
32.74528807775118
 20
-32.18752711868923
 30
0.0
 10
31.78548447556058
 20
-32.18752711868923
 30
0.0
 10
31.11506889413096
 20
-31.24184840798815
 30
0.0
 10
31.11506889413096
 20
-29.47761500999171
 30
0.0
  0
SPLINE
  5
AA
330
5E
100
AcDbEntity
  8
\U+30EC\U+30A4\U+30E4\U+30FC 1
370
     0
100
AcDbSpline
210
0.0
220
0.0
230
1.0
 70
    11
 71
     3
 72
    17
 73
    13
 74
     0
 42
0.0000000001
 43
0.0000000001
 40
0.0
 40
0.0
 40
0.0
 40
0.0
 40
1.0
 40
1.0
 40
1.0
 40
2.0
 40
2.0
 40
2.0
 40
3.0
 40
3.0
 40
3.0
 40
4.0
 40
4.0
 40
4.0
 40
4.0
 10
33.84616834006277
 20
-29.43524033552314
 30
0.0
 10
33.84616834006277
 20
-28.11559650989819
 30
0.0
 10
33.52853053632273
 20
-27.20523002792092
 30
0.0
 10
32.78749049744549
 20
-27.20523002792092
 30
0.0
 10
32.15944959048444
 20
-27.20523002792092
 30
0.0
 10
31.71486001811295
 20
-28.04497205245056
 30
0.0
 10
31.71486001811295
 20
-29.43524033552314
 30
0.0
 10
31.71486001811295
 20
-30.82550861859571
 30
0.0
 10
32.10295002452635
 20
-31.70762531759393
 30
0.0
 10
32.7663031602112
 20
-31.70762531759393
 30
0.0
 10
33.54971787355701
 20
-31.70762531759393
 30
0.0
 10
33.84616834006277
 20
-30.69132214944523
 30
0.0
 10
33.84616834006277
 20
-29.43524033552314
 30
0.0
  0
HATCH
  5
AB
330
5E
100
AcDbEntity
  8
\U+30EC\U+30A4\U+30E4\U+30FC 1
 62
     7
420
 16777215
100
AcDbHatch
 10
0.0
 20
0.0
 30
0.0
210
0.0
220
0.0
230
1.0
  2
SOLID
 70
     1
 71
     0
 91
        2
 92
        1
 93
        1
 72
     4
 94
        3
 73
     0
 74
     1
 95
       17
 96
       13
 40
0.0
 40
0.0
 40
0.0
 40
0.0
 40
1.0
 40
1.0
 40
1.0
 40
2.0
 40
2.0
 40
2.0
 40
3.0
 40
3.0
 40
3.0
 40
4.0
 40
4.0
 40
4.0
 40
4.0
 10
31.11506889413096
 20
-29.47761500999171
 10
31.11506889413096
 20
-27.62863226305812
 10
31.83492159577391
 20
-26.73239067257038
 10
32.8228027261693
 20
-26.73239067257038
 10
33.82498100282848
 20
-26.73239067257038
 10
34.4388970183
 20
-27.67806938327146
 10
34.4388970183
 20
-29.40699055254409
 10
34.4388970183
 20
-31.24184840798815
 10
33.79673121984943
 20
-32.18752711868923
 10
32.74528807775118
 20
-32.18752711868923
 10
31.78548447556058
 20
-32.18752711868923
 10
31.11506889413096
 20
-31.24184840798815
 10
31.11506889413096
 20
-29.47761500999171
 97
        0
 92
        1
 93
        1
 72
     4
 94
        3
 73
     0
 74
     1
 95
       17
 96
       13
 40
0.0
 40
0.0
 40
0.0
 40
0.0
 40
1.0
 40
1.0
 40
1.0
 40
2.0
 40
2.0
 40
2.0
 40
3.0
 40
3.0
 40
3.0
 40
4.0
 40
4.0
 40
4.0
 40
4.0
 10
33.84616834006277
 20
-29.43524033552314
 10
33.84616834006277
 20
-28.11559650989819
 10
33.52853053632273
 20
-27.20523002792092
 10
32.78749049744549
 20
-27.20523002792092
 10
32.15944959048444
 20
-27.20523002792092
 10
31.71486001811295
 20
-28.04497205245056
 10
31.71486001811295
 20
-29.43524033552314
 10
31.71486001811295
 20
-30.82550861859571
 10
32.10295002452635
 20
-31.70762531759393
 10
32.7663031602112
 20
-31.70762531759393
 10
33.54971787355701
 20
-31.70762531759393
 10
33.84616834006277
 20
-30.69132214944523
 10
33.84616834006277
 20
-29.43524033552314
 97
        0
 75
     2
 76
     1
 98
        0
  0
SPLINE
  5
AC
330
5E
100
AcDbEntity
  8
\U+30EC\U+30A4\U+30E4\U+30FC 1
370
     0
100
AcDbSpline
210
0.0
220
0.0
230
1.0
 70
    11
 71
     3
 72
    71
 73
    67
 74
     0
 42
0.0000000001
 43
0.0000000001
 40
0.0
 40
0.0
 40
0.0
 40
0.0
 40
1.0
 40
1.0
 40
1.0
 40
2.0
 40
2.0
 40
2.0
 40
3.0
 40
3.0
 40
3.0
 40
4.0
 40
4.0
 40
4.0
 40
5.0
 40
5.0
 40
5.0
 40
6.0
 40
6.0
 40
6.0
 40
7.0
 40
7.0
 40
7.0
 40
8.0
 40
8.0
 40
8.0
 40
9.0
 40
9.0
 40
9.0
 40
10.0
 40
10.0
 40
10.0
 40
11.0
 40
11.0
 40
11.0
 40
12.0
 40
12.0
 40
12.0
 40
13.0
 40
13.0
 40
13.0
 40
14.0
 40
14.0
 40
14.0
 40
15.0
 40
15.0
 40
15.0
 40
16.0
 40
16.0
 40
16.0
 40
17.0
 40
17.0
 40
17.0
 40
18.0
 40
18.0
 40
18.0
 40
19.0
 40
19.0
 40
19.0
 40
20.0
 40
20.0
 40
20.0
 40
21.0
 40
21.0
 40
21.0
 40
22.0
 40
22.0
 40
22.0
 40
22.0
 10
40.53533798899811
 20
-32.10277776975209
 30
0.0
 10
40.53533798899811
 20
-32.10277776975209
 30
0.0
 10
39.9567342022504
 20
-32.10277776975209
 30
0.0
 10
39.9567342022504
 20
-32.10277776975209
 30
0.0
 10
39.9567342022504
 20
-32.10277776975209
 30
0.0
 10
39.9567342022504
 20
-29.87982990789463
 30
0.0
 10
39.9567342022504
 20
-29.87982990789463
 30
0.0
 10
39.9567342022504
 20
-29.13172742327263
 30
0.0
 10
39.6885335187237
 20
-28.65182562217732
 30
0.0
 10
39.10992973197599
 20
-28.65182562217732
 30
0.0
 10
38.63709037662545
 20
-28.65182562217732
 30
0.0
 10
38.20662569574348
 20
-29.09641519454881
 30
0.0
 10
38.20662569574348
 20
-29.68225368181555
 30
0.0
 10
38.20662569574348
 20
-29.68225368181555
 30
0.0
 10
38.20662569574348
 20
-32.10277776975209
 30
0.0
 10
38.20662569574348
 20
-32.10277776975209
 30
0.0
 10
38.20662569574348
 20
-32.10277776975209
 30
0.0
 10
37.62784965422151
 20
-32.10277776975209
 30
0.0
 10
37.62784965422151
 20
-32.10277776975209
 30
0.0
 10
37.62784965422151
 20
-32.10277776975209
 30
0.0
 10
37.62784965422151
 20
-29.73151854725462
 30
0.0
 10
37.62784965422151
 20
-29.73151854725462
 30
0.0
 10
37.62784965422151
 20
-29.1176025317831
 30
0.0
 10
37.36671141643957
 20
-28.65182562217732
 30
0.0
 10
36.82341985841568
 20
-28.65182562217732
 30
0.0
 10
36.32233072008609
 20
-28.65182562217732
 30
0.0
 10
35.87774114771459
 20
-29.14585231476215
 30
0.0
 10
35.87774114771459
 20
-29.74564343874415
 30
0.0
 10
35.87774114771459
 20
-29.74564343874415
 30
0.0
 10
35.87774114771459
 20
-32.10277776975209
 30
0.0
 10
35.87774114771459
 20
-32.10277776975209
 30
0.0
 10
35.87774114771459
 20
-32.10277776975209
 30
0.0
 10
35.29896510619262
 20
-32.10277776975209
 30
0.0
 10
35.29896510619262
 20
-32.10277776975209
 30
0.0
 10
35.29896510619262
 20
-32.10277776975209
 30
0.0
 10
35.29896510619262
 20
-29.24472655518882
 30
0.0
 10
35.29896510619262
 20
-29.24472655518882
 30
0.0
 10
35.29896510619262
 20
-28.8494018482564
 30
0.0
 10
35.2848402147031
 20
-28.56724852801444
 30
0.0
 10
35.27088757798784
 20
-28.2496107242744
 30
0.0
 10
35.27088757798784
 20
-28.2496107242744
 30
0.0
 10
35.78592935303269
 20
-28.2496107242744
 30
0.0
 10
35.78592935303269
 20
-28.2496107242744
 30
0.0
 10
35.78592935303269
 20
-28.2496107242744
 30
0.0
 10
35.8212415817565
 20
-28.87058918549069
 30
0.0
 10
35.8212415817565
 20
-28.87058918549069
 30
0.0
 10
35.8212415817565
 20
-28.87058918549069
 30
0.0
 10
35.84242891899078
 20
-28.87058918549069
 30
0.0
 10
35.84242891899078
 20
-28.87058918549069
 30
0.0
 10
36.05413003655939
 20
-28.49662407056682
 30
0.0
 10
36.40708006902323
 20
-28.16486137533726
 30
0.0
 10
37.01393363874999
 20
-28.16486137533726
 30
0.0
 10
37.51502277707958
 20
-28.16486137533726
 30
0.0
 10
37.90311278349297
 20
-28.47543673333253
 30
0.0
 10
38.06537678084824
 20
-28.93415119719355
 30
0.0
 10
38.06537678084824
 20
-28.93415119719355
 30
0.0
 10
38.07950167233776
 20
-28.93415119719355
 30
0.0
 10
38.07950167233776
 20
-28.93415119719355
 30
0.0
 10
38.33357746437494
 20
-28.47543673333253
 30
0.0
 10
38.72166747078833
 20
-28.16486137533726
 30
0.0
 10
39.31456840379983
 20
-28.16486137533726
 30
0.0
 10
39.78740775915037
 20
-28.16486137533726
 30
0.0
 10
40.53533798899811
 20
-28.46837428758777
 30
0.0
 10
40.53533798899811
 20
-29.78801811321272
 30
0.0
 10
40.53533798899811
 20
-29.78801811321272
 30
0.0
 10
40.53533798899811
 20
-32.10277776975209
 30
0.0
 10
40.53533798899811
 20
-32.10277776975209
 30
0.0
  0
HATCH
  5
AD
330
5E
100
AcDbEntity
  8
\U+30EC\U+30A4\U+30E4\U+30FC 1
 62
     7
420
 16777215
100
AcDbHatch
 10
0.0
 20
0.0
 30
0.0
210
0.0
220
0.0
230
1.0
  2
SOLID
 70
     1
 71
     0
 91
        1
 92
        1
 93
        1
 72
     4
 94
        3
 73
     0
 74
     1
 95
       71
 96
       67
 40
0.0
 40
0.0
 40
0.0
 40
0.0
 40
1.0
 40
1.0
 40
1.0
 40
2.0
 40
2.0
 40
2.0
 40
3.0
 40
3.0
 40
3.0
 40
4.0
 40
4.0
 40
4.0
 40
5.0
 40
5.0
 40
5.0
 40
6.0
 40
6.0
 40
6.0
 40
7.0
 40
7.0
 40
7.0
 40
8.0
 40
8.0
 40
8.0
 40
9.0
 40
9.0
 40
9.0
 40
10.0
 40
10.0
 40
10.0
 40
11.0
 40
11.0
 40
11.0
 40
12.0
 40
12.0
 40
12.0
 40
13.0
 40
13.0
 40
13.0
 40
14.0
 40
14.0
 40
14.0
 40
15.0
 40
15.0
 40
15.0
 40
16.0
 40
16.0
 40
16.0
 40
17.0
 40
17.0
 40
17.0
 40
18.0
 40
18.0
 40
18.0
 40
19.0
 40
19.0
 40
19.0
 40
20.0
 40
20.0
 40
20.0
 40
21.0
 40
21.0
 40
21.0
 40
22.0
 40
22.0
 40
22.0
 40
22.0
 10
40.53533798899811
 20
-32.10277776975209
 10
40.53533798899811
 20
-32.10277776975209
 10
39.9567342022504
 20
-32.10277776975209
 10
39.9567342022504
 20
-32.10277776975209
 10
39.9567342022504
 20
-32.10277776975209
 10
39.9567342022504
 20
-29.87982990789463
 10
39.9567342022504
 20
-29.87982990789463
 10
39.9567342022504
 20
-29.13172742327263
 10
39.6885335187237
 20
-28.65182562217732
 10
39.10992973197599
 20
-28.65182562217732
 10
38.63709037662545
 20
-28.65182562217732
 10
38.20662569574348
 20
-29.09641519454881
 10
38.20662569574348
 20
-29.68225368181555
 10
38.20662569574348
 20
-29.68225368181555
 10
38.20662569574348
 20
-32.10277776975209
 10
38.20662569574348
 20
-32.10277776975209
 10
38.20662569574348
 20
-32.10277776975209
 10
37.62784965422151
 20
-32.10277776975209
 10
37.62784965422151
 20
-32.10277776975209
 10
37.62784965422151
 20
-32.10277776975209
 10
37.62784965422151
 20
-29.73151854725462
 10
37.62784965422151
 20
-29.73151854725462
 10
37.62784965422151
 20
-29.1176025317831
 10
37.36671141643957
 20
-28.65182562217732
 10
36.82341985841568
 20
-28.65182562217732
 10
36.32233072008609
 20
-28.65182562217732
 10
35.87774114771459
 20
-29.14585231476215
 10
35.87774114771459
 20
-29.74564343874415
 10
35.87774114771459
 20
-29.74564343874415
 10
35.87774114771459
 20
-32.10277776975209
 10
35.87774114771459
 20
-32.10277776975209
 10
35.87774114771459
 20
-32.10277776975209
 10
35.29896510619262
 20
-32.10277776975209
 10
35.29896510619262
 20
-32.10277776975209
 10
35.29896510619262
 20
-32.10277776975209
 10
35.29896510619262
 20
-29.24472655518882
 10
35.29896510619262
 20
-29.24472655518882
 10
35.29896510619262
 20
-28.8494018482564
 10
35.2848402147031
 20
-28.56724852801444
 10
35.27088757798784
 20
-28.2496107242744
 10
35.27088757798784
 20
-28.2496107242744
 10
35.78592935303269
 20
-28.2496107242744
 10
35.78592935303269
 20
-28.2496107242744
 10
35.78592935303269
 20
-28.2496107242744
 10
35.8212415817565
 20
-28.87058918549069
 10
35.8212415817565
 20
-28.87058918549069
 10
35.8212415817565
 20
-28.87058918549069
 10
35.84242891899078
 20
-28.87058918549069
 10
35.84242891899078
 20
-28.87058918549069
 10
36.05413003655939
 20
-28.49662407056682
 10
36.40708006902323
 20
-28.16486137533726
 10
37.01393363874999
 20
-28.16486137533726
 10
37.51502277707958
 20
-28.16486137533726
 10
37.90311278349297
 20
-28.47543673333253
 10
38.06537678084824
 20
-28.93415119719355
 10
38.06537678084824
 20
-28.93415119719355
 10
38.07950167233776
 20
-28.93415119719355
 10
38.07950167233776
 20
-28.93415119719355
 10
38.33357746437494
 20
-28.47543673333253
 10
38.72166747078833
 20
-28.16486137533726
 10
39.31456840379983
 20
-28.16486137533726
 10
39.78740775915037
 20
-28.16486137533726
 10
40.53533798899811
 20
-28.46837428758777
 10
40.53533798899811
 20
-29.78801811321272
 10
40.53533798899811
 20
-29.78801811321272
 10
40.53533798899811
 20
-32.10277776975209
 10
40.53533798899811
 20
-32.10277776975209
 97
        0
 75
     2
 76
     1
 98
        0
  0
SPLINE
  5
AE
330
5E
100
AcDbEntity
  8
\U+30EC\U+30A4\U+30E4\U+30FC 1
370
     0
100
AcDbSpline
210
0.0
220
0.0
230
1.0
 70
    11
 71
     3
 72
    71
 73
    67
 74
     0
 42
0.0000000001
 43
0.0000000001
 40
0.0
 40
0.0
 40
0.0
 40
0.0
 40
1.0
 40
1.0
 40
1.0
 40
2.0
 40
2.0
 40
2.0
 40
3.0
 40
3.0
 40
3.0
 40
4.0
 40
4.0
 40
4.0
 40
5.0
 40
5.0
 40
5.0
 40
6.0
 40
6.0
 40
6.0
 40
7.0
 40
7.0
 40
7.0
 40
8.0
 40
8.0
 40
8.0
 40
9.0
 40
9.0
 40
9.0
 40
10.0
 40
10.0
 40
10.0
 40
11.0
 40
11.0
 40
11.0
 40
12.0
 40
12.0
 40
12.0
 40
13.0
 40
13.0
 40
13.0
 40
14.0
 40
14.0
 40
14.0
 40
15.0
 40
15.0
 40
15.0
 40
16.0
 40
16.0
 40
16.0
 40
17.0
 40
17.0
 40
17.0
 40
18.0
 40
18.0
 40
18.0
 40
19.0
 40
19.0
 40
19.0
 40
20.0
 40
20.0
 40
20.0
 40
21.0
 40
21.0
 40
21.0
 40
22.0
 40
22.0
 40
22.0
 40
22.0
 10
46.9065253246449
 20
-32.10277776975209
 30
0.0
 10
46.9065253246449
 20
-32.10277776975209
 30
0.0
 10
46.32792153789719
 20
-32.10277776975209
 30
0.0
 10
46.32792153789719
 20
-32.10277776975209
 30
0.0
 10
46.32792153789719
 20
-32.10277776975209
 30
0.0
 10
46.32792153789719
 20
-29.87982990789463
 30
0.0
 10
46.32792153789719
 20
-29.87982990789463
 30
0.0
 10
46.32792153789719
 20
-29.13172742327263
 30
0.0
 10
46.05972085437049
 20
-28.65182562217732
 30
0.0
 10
45.48111706762278
 20
-28.65182562217732
 30
0.0
 10
45.00827771227224
 20
-28.65182562217732
 30
0.0
 10
44.57781303139027
 20
-29.09641519454881
 30
0.0
 10
44.57781303139027
 20
-29.68225368181555
 30
0.0
 10
44.57781303139027
 20
-29.68225368181555
 30
0.0
 10
44.57781303139027
 20
-32.10277776975209
 30
0.0
 10
44.57781303139027
 20
-32.10277776975209
 30
0.0
 10
44.57781303139027
 20
-32.10277776975209
 30
0.0
 10
43.9990369898683
 20
-32.10277776975209
 30
0.0
 10
43.9990369898683
 20
-32.10277776975209
 30
0.0
 10
43.9990369898683
 20
-32.10277776975209
 30
0.0
 10
43.9990369898683
 20
-29.73151854725462
 30
0.0
 10
43.9990369898683
 20
-29.73151854725462
 30
0.0
 10
43.9990369898683
 20
-29.1176025317831
 30
0.0
 10
43.73789875208636
 20
-28.65182562217732
 30
0.0
 10
43.19460719406246
 20
-28.65182562217732
 30
0.0
 10
42.69351805573287
 20
-28.65182562217732
 30
0.0
 10
42.24892848336138
 20
-29.14585231476215
 30
0.0
 10
42.24892848336138
 20
-29.74564343874415
 30
0.0
 10
42.24892848336138
 20
-29.74564343874415
 30
0.0
 10
42.24892848336138
 20
-32.10277776975209
 30
0.0
 10
42.24892848336138
 20
-32.10277776975209
 30
0.0
 10
42.24892848336138
 20
-32.10277776975209
 30
0.0
 10
41.67015244183941
 20
-32.10277776975209
 30
0.0
 10
41.67015244183941
 20
-32.10277776975209
 30
0.0
 10
41.67015244183941
 20
-32.10277776975209
 30
0.0
 10
41.67015244183941
 20
-29.24472655518882
 30
0.0
 10
41.67015244183941
 20
-29.24472655518882
 30
0.0
 10
41.67015244183941
 20
-28.8494018482564
 30
0.0
 10
41.65619980512415
 20
-28.56724852801444
 30
0.0
 10
41.64207491363462
 20
-28.2496107242744
 30
0.0
 10
41.64207491363462
 20
-28.2496107242744
 30
0.0
 10
42.15711668867947
 20
-28.2496107242744
 30
0.0
 10
42.15711668867947
 20
-28.2496107242744
 30
0.0
 10
42.15711668867947
 20
-28.2496107242744
 30
0.0
 10
42.19242891740328
 20
-28.87058918549069
 30
0.0
 10
42.19242891740328
 20
-28.87058918549069
 30
0.0
 10
42.19242891740328
 20
-28.87058918549069
 30
0.0
 10
42.21361625463757
 20
-28.87058918549069
 30
0.0
 10
42.21361625463757
 20
-28.87058918549069
 30
0.0
 10
42.42531737220617
 20
-28.49662407056682
 30
0.0
 10
42.77826740467002
 20
-28.16486137533726
 30
0.0
 10
43.38512097439678
 20
-28.16486137533726
 30
0.0
 10
43.88621011272637
 20
-28.16486137533726
 30
0.0
 10
44.27430011913976
 20
-28.47543673333253
 30
0.0
 10
44.43656411649503
 20
-28.93415119719355
 30
0.0
 10
44.43656411649503
 20
-28.93415119719355
 30
0.0
 10
44.45068900798455
 20
-28.93415119719355
 30
0.0
 10
44.45068900798455
 20
-28.93415119719355
 30
0.0
 10
44.70476480002173
 20
-28.47543673333253
 30
0.0
 10
45.09285480643512
 20
-28.16486137533726
 30
0.0
 10
45.68575573944662
 20
-28.16486137533726
 30
0.0
 10
46.15859509479716
 20
-28.16486137533726
 30
0.0
 10
46.9065253246449
 20
-28.46837428758777
 30
0.0
 10
46.9065253246449
 20
-29.78801811321272
 30
0.0
 10
46.9065253246449
 20
-29.78801811321272
 30
0.0
 10
46.9065253246449
 20
-32.10277776975209
 30
0.0
 10
46.9065253246449
 20
-32.10277776975209
 30
0.0
  0
HATCH
  5
AF
330
5E
100
AcDbEntity
  8
\U+30EC\U+30A4\U+30E4\U+30FC 1
 62
     7
420
 16777215
100
AcDbHatch
 10
0.0
 20
0.0
 30
0.0
210
0.0
220
0.0
230
1.0
  2
SOLID
 70
     1
 71
     0
 91
        1
 92
        1
 93
        1
 72
     4
 94
        3
 73
     0
 74
     1
 95
       71
 96
       67
 40
0.0
 40
0.0
 40
0.0
 40
0.0
 40
1.0
 40
1.0
 40
1.0
 40
2.0
 40
2.0
 40
2.0
 40
3.0
 40
3.0
 40
3.0
 40
4.0
 40
4.0
 40
4.0
 40
5.0
 40
5.0
 40
5.0
 40
6.0
 40
6.0
 40
6.0
 40
7.0
 40
7.0
 40
7.0
 40
8.0
 40
8.0
 40
8.0
 40
9.0
 40
9.0
 40
9.0
 40
10.0
 40
10.0
 40
10.0
 40
11.0
 40
11.0
 40
11.0
 40
12.0
 40
12.0
 40
12.0
 40
13.0
 40
13.0
 40
13.0
 40
14.0
 40
14.0
 40
14.0
 40
15.0
 40
15.0
 40
15.0
 40
16.0
 40
16.0
 40
16.0
 40
17.0
 40
17.0
 40
17.0
 40
18.0
 40
18.0
 40
18.0
 40
19.0
 40
19.0
 40
19.0
 40
20.0
 40
20.0
 40
20.0
 40
21.0
 40
21.0
 40
21.0
 40
22.0
 40
22.0
 40
22.0
 40
22.0
 10
46.9065253246449
 20
-32.10277776975209
 10
46.9065253246449
 20
-32.10277776975209
 10
46.32792153789719
 20
-32.10277776975209
 10
46.32792153789719
 20
-32.10277776975209
 10
46.32792153789719
 20
-32.10277776975209
 10
46.32792153789719
 20
-29.87982990789463
 10
46.32792153789719
 20
-29.87982990789463
 10
46.32792153789719
 20
-29.13172742327263
 10
46.05972085437049
 20
-28.65182562217732
 10
45.48111706762278
 20
-28.65182562217732
 10
45.00827771227224
 20
-28.65182562217732
 10
44.57781303139027
 20
-29.09641519454881
 10
44.57781303139027
 20
-29.68225368181555
 10
44.57781303139027
 20
-29.68225368181555
 10
44.57781303139027
 20
-32.10277776975209
 10
44.57781303139027
 20
-32.10277776975209
 10
44.57781303139027
 20
-32.10277776975209
 10
43.9990369898683
 20
-32.10277776975209
 10
43.9990369898683
 20
-32.10277776975209
 10
43.9990369898683
 20
-32.10277776975209
 10
43.9990369898683
 20
-29.73151854725462
 10
43.9990369898683
 20
-29.73151854725462
 10
43.9990369898683
 20
-29.1176025317831
 10
43.73789875208636
 20
-28.65182562217732
 10
43.19460719406246
 20
-28.65182562217732
 10
42.69351805573287
 20
-28.65182562217732
 10
42.24892848336138
 20
-29.14585231476215
 10
42.24892848336138
 20
-29.74564343874415
 10
42.24892848336138
 20
-29.74564343874415
 10
42.24892848336138
 20
-32.10277776975209
 10
42.24892848336138
 20
-32.10277776975209
 10
42.24892848336138
 20
-32.10277776975209
 10
41.67015244183941
 20
-32.10277776975209
 10
41.67015244183941
 20
-32.10277776975209
 10
41.67015244183941
 20
-32.10277776975209
 10
41.67015244183941
 20
-29.24472655518882
 10
41.67015244183941
 20
-29.24472655518882
 10
41.67015244183941
 20
-28.8494018482564
 10
41.65619980512415
 20
-28.56724852801444
 10
41.64207491363462
 20
-28.2496107242744
 10
41.64207491363462
 20
-28.2496107242744
 10
42.15711668867947
 20
-28.2496107242744
 10
42.15711668867947
 20
-28.2496107242744
 10
42.15711668867947
 20
-28.2496107242744
 10
42.19242891740328
 20
-28.87058918549069
 10
42.19242891740328
 20
-28.87058918549069
 10
42.19242891740328
 20
-28.87058918549069
 10
42.21361625463757
 20
-28.87058918549069
 10
42.21361625463757
 20
-28.87058918549069
 10
42.42531737220617
 20
-28.49662407056682
 10
42.77826740467002
 20
-28.16486137533726
 10
43.38512097439678
 20
-28.16486137533726
 10
43.88621011272637
 20
-28.16486137533726
 10
44.27430011913976
 20
-28.47543673333253
 10
44.43656411649503
 20
-28.93415119719355
 10
44.43656411649503
 20
-28.93415119719355
 10
44.45068900798455
 20
-28.93415119719355
 10
44.45068900798455
 20
-28.93415119719355
 10
44.70476480002173
 20
-28.47543673333253
 10
45.09285480643512
 20
-28.16486137533726
 10
45.68575573944662
 20
-28.16486137533726
 10
46.15859509479716
 20
-28.16486137533726
 10
46.9065253246449
 20
-28.46837428758777
 10
46.9065253246449
 20
-29.78801811321272
 10
46.9065253246449
 20
-29.78801811321272
 10
46.9065253246449
 20
-32.10277776975209
 10
46.9065253246449
 20
-32.10277776975209
 97
        0
 75
     2
 76
     1
 98
        0
  0
ENDBLK
  5
61
330
5E
100
AcDbEntity
  8
0
100
AcDbBlockEnd
  0
ENDSEC
  0
SECTION
  2
ENTITIES
  0
POLYLINE
  5
3C
330
1F
100
AcDbEntity
  8
\U+30EC\U+30A4\U+30E4\U+30FC 1
 62
     7
420
 16777215
370
    25
100
AcDb2dPolyline
 66
     1
 10
0.0
 20
0.0
 30
0.0
  0
VERTEX
  5
3D
330
3C
100
AcDbEntity
  8
\U+30EC\U+30A4\U+30E4\U+30FC 1
 62
     7
420
 16777215
370
    25
100
AcDbVertex
100
AcDb2dVertex
 10
318.1542235532739
 20
-114.4500338798076
 30
0.0
  0
VERTEX
  5
3E
330
3C
100
AcDbEntity
  8
\U+30EC\U+30A4\U+30E4\U+30FC 1
 62
     7
420
 16777215
370
    25
100
AcDbVertex
100
AcDb2dVertex
 10
32.15410969248231
 20
-114.4500338798076
 30
0.0
  0
VERTEX
  5
3F
330
3C
100
AcDbEntity
  8
\U+30EC\U+30A4\U+30E4\U+30FC 1
 62
     7
420
 16777215
370
    25
100
AcDbVertex
100
AcDb2dVertex
 10
32.15410969248231
 20
-79.44993080696044
 30
0.0
  0
VERTEX
  5
40
330
3C
100
AcDbEntity
  8
\U+30EC\U+30A4\U+30E4\U+30FC 1
 62
     7
420
 16777215
370
    25
100
AcDbVertex
100
AcDb2dVertex
 10
28.15418157933298
 20
-79.44993080696044
 30
0.0
  0
VERTEX
  5
41
330
3C
100
AcDbEntity
  8
\U+30EC\U+30A4\U+30E4\U+30FC 1
 62
     7
420
 16777215
370
    25
100
AcDbVertex
100
AcDb2dVertex
 10
28.15418157933298
 20
-114.4500338798076
 30
0.0
  0
VERTEX
  5
42
330
3C
100
AcDbEntity
  8
\U+30EC\U+30A4\U+30E4\U+30FC 1
 62
     7
420
 16777215
370
    25
100
AcDbVertex
100
AcDb2dVertex
 10
18.15410291429828
 20
-114.4500338798076
 30
0.0
  0
VERTEX
  5
43
330
3C
100
AcDbEntity
  8
\U+30EC\U+30A4\U+30E4\U+30FC 1
 62
     7
420
 16777215
370
    25
100
AcDbVertex
100
AcDb2dVertex
 10
18.15410291429828
 20
-44.44999998888751
 30
0.0
  0
VERTEX
  5
44
330
3C
100
AcDbEntity
  8
\U+30EC\U+30A4\U+30E4\U+30FC 1
 62
     7
420
 16777215
370
    25
100
AcDbVertex
100
AcDb2dVertex
 10
332.1540580766837
 20
-44.44999998888751
 30
0.0
  0
VERTEX
  5
45
330
3C
100
AcDbEntity
  8
\U+30EC\U+30A4\U+30E4\U+30FC 1
 62
     7
420
 16777215
370
    25
100
AcDbVertex
100
AcDb2dVertex
 10
332.1540580766837
 20
-114.4500338798076
 30
0.0
  0
VERTEX
  5
46
330
3C
100
AcDbEntity
  8
\U+30EC\U+30A4\U+30E4\U+30FC 1
 62
     7
420
 16777215
370
    25
100
AcDbVertex
100
AcDb2dVertex
 10
322.1543239211975
 20
-114.4500338798076
 30
0.0
  0
VERTEX
  5
47
330
3C
100
AcDbEntity
  8
\U+30EC\U+30A4\U+30E4\U+30FC 1
 62
     7
420
 16777215
370
    25
100
AcDbVertex
100
AcDb2dVertex
 10
322.1543239211975
 20
-79.44993080696044
 30
0.0
  0
VERTEX
  5
48
330
3C
100
AcDbEntity
  8
\U+30EC\U+30A4\U+30E4\U+30FC 1
 62
     7
420
 16777215
370
    25
100
AcDbVertex
100
AcDb2dVertex
 10
318.1542235532739
 20
-79.44993080696044
 30
0.0
  0
VERTEX
  5
49
330
3C
100
AcDbEntity
  8
\U+30EC\U+30A4\U+30E4\U+30FC 1
 62
     7
420
 16777215
370
    25
100
AcDbVertex
100
AcDb2dVertex
 10
318.1542235532739
 20
-114.4500338798076
 30
0.0
  0
SEQEND
  5
4A
330
3C
100
AcDbEntity
  8
\U+30EC\U+30A4\U+30E4\U+30FC 1
370
    25
  0
INSERT
  5
4C
330
1F
100
AcDbEntity
  8
\U+30EC\U+30A4\U+30E4\U+30FC 1
100
AcDbBlockReference
  2
block 2
 10
0.0
 20
0.0
 30
0.0
  0
INSERT
  5
5F
330
1F
100
AcDbEntity
  8
\U+30EC\U+30A4\U+30E4\U+30FC 1
100
AcDbBlockReference
  2
block 3
 10
0.0
 20
0.0
 30
0.0
  0
ENDSEC
  0
SECTION
  2
OBJECTS
  0
DICTIONARY
  5
C
330
0
100
AcDbDictionary
281
     1
  3
ACAD_GROUP
350
D
  3
ACAD_LAYOUT
350
1A
  3
ACAD_MLINESTYLE
350
17
  3
ACAD_PLOTSETTINGS
350
19
  3
ACAD_PLOTSTYLENAME
350
E
  3
ACAD_TABLESTYLE
350
B0
  3
ACAD_VISUALSTYLE
350
2A
  0
DICTIONARY
  5
D
102
{ACAD_REACTORS
330
C
102
}
330
C
100
AcDbDictionary
281
     1
  0
DICTIONARY
  5
1A
102
{ACAD_REACTORS
330
C
102
}
330
C
100
AcDbDictionary
281
     1
  3
Layout1
350
1E
  3
Layout2
350
26
  3
Model
350
22
  0
DICTIONARY
  5
17
102
{ACAD_REACTORS
330
C
102
}
330
C
100
AcDbDictionary
281
     1
  3
Standard
350
18
  0
DICTIONARY
  5
19
102
{ACAD_REACTORS
330
C
102
}
330
C
100
AcDbDictionary
281
     1
  0
ACDBDICTIONARYWDFLT
  5
E
102
{ACAD_REACTORS
330
C
102
}
330
C
100
AcDbDictionary
281
     1
  3
Normal
350
F
100
AcDbDictionaryWithDefault
340
F
  0
DICTIONARY
  5
B0
102
{ACAD_REACTORS
330
C
102
}
330
C
100
AcDbDictionary
281
     1
  0
DICTIONARY
  5
2A
102
{ACAD_REACTORS
330
C
102
}
330
C
100
AcDbDictionary
281
     1
  3
2dWireframe
350
2F
  3
3D Hidden
350
31
  3
3dWireframe
350
30
  3
Basic
350
32
  3
Brighten
350
36
  3
ColorChange
350
3A
  3
Conceptual
350
34
  3
Dim
350
35
  3
Facepattern
350
39
  3
Flat
350
2B
  3
FlatWithEdges
350
2C
  3
Gouraud
350
2D
  3
GouraudWithEdges
350
2E
  3
Linepattern
350
38
  3
Realistic
350
33
  3
Thicken
350
37
  0
LAYOUT
  5
1E
102
{ACAD_REACTORS
330
1A
102
}
330
1A
100
AcDbPlotSettings
  1

  2
none_device
  4

  6

 40
0.0
 41
0.0
 42
0.0
 43
0.0
 44
0.0
 45
0.0
 46
0.0
 47
0.0
 48
0.0
 49
0.0
140
0.0
141
0.0
142
1.0
143
1.0
 70
   688
 72
     0
 73
     0
 74
     5
  7

 75
    16
 76
     0
 77
     2
 78
   300
147
1.0
148
0.0
149
0.0
100
AcDbLayout
  1
Layout1
 70
     1
 71
     1
 10
0.0
 20
0.0
 11
12.0
 21
9.0
 12
0.0
 22
0.0
 32
0.0
 14
1.000000000000000E+20
 24
1.000000000000000E+20
 34
1.000000000000000E+20
 15
-1.000000000000000E+20
 25
-1.000000000000000E+20
 35
-1.000000000000000E+20
146
0.0
 13
0.0
 23
0.0
 33
0.0
 16
1.0
 26
0.0
 36
0.0
 17
0.0
 27
1.0
 37
0.0
 76
     0
330
1B
  0
LAYOUT
  5
26
102
{ACAD_REACTORS
330
1A
102
}
330
1A
100
AcDbPlotSettings
  1

  2
none_device
  4

  6

 40
0.0
 41
0.0
 42
0.0
 43
0.0
 44
0.0
 45
0.0
 46
0.0
 47
0.0
 48
0.0
 49
0.0
140
0.0
141
0.0
142
1.0
143
1.0
 70
   688
 72
     0
 73
     0
 74
     5
  7

 75
    16
 76
     0
 77
     2
 78
   300
147
1.0
148
0.0
149
0.0
100
AcDbLayout
  1
Layout2
 70
     1
 71
     2
 10
0.0
 20
0.0
 11
0.0
 21
0.0
 12
0.0
 22
0.0
 32
0.0
 14
0.0
 24
0.0
 34
0.0
 15
0.0
 25
0.0
 35
0.0
146
0.0
 13
0.0
 23
0.0
 33
0.0
 16
1.0
 26
0.0
 36
0.0
 17
0.0
 27
1.0
 37
0.0
 76
     0
330
23
  0
LAYOUT
  5
22
102
{ACAD_REACTORS
330
1A
102
}
330
1A
100
AcDbPlotSettings
  1

  2
none_device
  4

  6

 40
0.0
 41
0.0
 42
0.0
 43
0.0
 44
0.0
 45
0.0
 46
0.0
 47
0.0
 48
0.0
 49
0.0
140
0.0
141
0.0
142
1.0
143
1.0
 70
  1712
 72
     0
 73
     0
 74
     0
  7

 75
     0
 76
     0
 77
     2
 78
   300
147
1.0
148
0.0
149
0.0
100
AcDbLayout
  1
Model
 70
     1
 71
     0
 10
0.0
 20
0.0
 11
12.0
 21
9.0
 12
0.0
 22
0.0
 32
0.0
 14
1.000000000000000E+20
 24
1.000000000000000E+20
 34
1.000000000000000E+20
 15
-1.000000000000000E+20
 25
-1.000000000000000E+20
 35
-1.000000000000000E+20
146
0.0
 13
0.0
 23
0.0
 33
0.0
 16
1.0
 26
0.0
 36
0.0
 17
0.0
 27
1.0
 37
0.0
 76
     0
330
1F
331
29
  0
MLINESTYLE
  5
18
102
{ACAD_REACTORS
330
17
102
}
330
17
100
AcDbMlineStyle
  2
Standard
 70
     0
  3

 62
   256
 51
90.0
 52
90.0
 71
     2
 49
0.5
 62
   256
  6
BYLAYER
 49
-0.5
 62
   256
  6
BYLAYER
  0
ACDBPLACEHOLDER
  5
F
102
{ACAD_REACTORS
330
E
102
}
330
E
  0
VISUALSTYLE
  5
2F
102
{ACAD_REACTORS
330
2A
102
}
330
2A
100
AcDbVisualStyle
  2
2dWireframe
 70
     4
 71
     0
 72
     2
 73
     0
 90
        0
 40
-0.6
 41
-30.0
 62
     5
 63
     7
421
 16777215
 74
     1
 91
        4
 64
     7
 65
   257
 75
     1
175
     1
 42
1.0
 92
        0
 66
   257
 43
1.0
 76
     1
 77
     6
 78
     2
 67
     7
 79
     5
170
     0
171
     0
290
     0
174
     0
 93
        1
 44
0.0
173
     0
291
     0
 45
0.0
1001
ACAD
1000
AcDbSavedByObjectVersion
1070
     0
  0
VISUALSTYLE
  5
31
102
{ACAD_REACTORS
330
2A
102
}
330
2A
100
AcDbVisualStyle
  2
3D Hidden
 70
     6
 71
     1
 72
     2
 73
     2
 90
        0
 40
-0.6
 41
-30.0
 62
     5
 63
     7
421
 16777215
 74
     2
 91
        2
 64
     7
 65
   257
 75
     2
175
     1
 42
40.0
 92
        0
 66
   257
 43
1.0
 76
     1
 77
     6
 78
     2
 67
     7
 79
     3
170
     0
171
     0
290
     0
174
     0
 93
        1
 44
0.0
173
     0
291
     0
 45
0.0
1001
ACAD
1000
AcDbSavedByObjectVersion
1070
     0
  0
VISUALSTYLE
  5
30
102
{ACAD_REACTORS
330
2A
102
}
330
2A
100
AcDbVisualStyle
  2
3dWireframe
 70
     5
 71
     0
 72
     2
 73
     0
 90
        0
 40
-0.6
 41
-30.0
 62
     5
 63
     7
421
 16777215
 74
     1
 91
        4
 64
     7
 65
   257
 75
     1
175
     1
 42
1.0
 92
        0
 66
   257
 43
1.0
 76
     1
 77
     6
 78
     2
 67
     7
 79
     5
170
     0
171
     0
290
     0
174
     0
 93
        1
 44
0.0
173
     0
291
     0
 45
0.0
1001
ACAD
1000
AcDbSavedByObjectVersion
1070
     0
  0
VISUALSTYLE
  5
32
102
{ACAD_REACTORS
330
2A
102
}
330
2A
100
AcDbVisualStyle
  2
Basic
 70
     7
 71
     1
 72
     0
 73
     1
 90
        0
 40
-0.6
 41
-30.0
 62
     5
 63
     7
421
 16777215
 74
     0
 91
        4
 64
     7
 65
   257
 75
     1
175
     1
 42
1.0
 92
        8
 66
     7
 43
1.0
 76
     1
 77
     6
 78
     2
 67
     7
 79
     5
170
     0
171
     0
290
     0
174
     0
 93
        1
 44
0.0
173
     0
291
     1
 45
0.0
1001
ACAD
1000
AcDbSavedByObjectVersion
1070
     0
  0
VISUALSTYLE
  5
36
102
{ACAD_REACTORS
330
2A
102
}
330
2A
100
AcDbVisualStyle
  2
Brighten
 70
    12
 71
     2
 72
     2
 73
     0
 90
        0
 40
-0.6
 41
-30.0
 62
     5
 63
     7
421
 16777215
 74
     1
 91
        4
 64
     7
 65
   257
 75
     1
175
     1
 42
1.0
 92
        8
 66
     7
 43
1.0
 76
     1
 77
     6
 78
     2
 67
     7
 79
     5
170
     0
171
     0
290
     0
174
     0
 93
        1
 44
50.0
173
     0
291
     1
 45
0.0
1001
ACAD
1000
AcDbSavedByObjectVersion
1070
     0
  0
VISUALSTYLE
  5
3A
102
{ACAD_REACTORS
330
2A
102
}
330
2A
100
AcDbVisualStyle
  2
ColorChange
 70
    16
 71
     2
 72
     2
 73
     3
 90
        0
 40
-0.6
 41
-30.0
 62
     5
 63
     8
421
  8421504
 74
     1
 91
        4
 64
     7
 65
   257
 75
     1
175
     1
 42
1.0
 92
        8
 66
     8
424
  8421504
 43
1.0
 76
     1
 77
     6
 78
     2
 67
     7
 79
     5
170
     0
171
     0
290
     0
174
     0
 93
        1
 44
0.0
173
     0
291
     1
 45
0.0
1001
ACAD
1000
AcDbSavedByObjectVersion
1070
     0
  0
VISUALSTYLE
  5
34
102
{ACAD_REACTORS
330
2A
102
}
330
2A
100
AcDbVisualStyle
  2
Conceptual
 70
     9
 71
     3
 72
     2
 73
     0
 90
        0
 40
-0.6
 41
-30.0
 62
     5
 63
     7
421
 16777215
 74
     2
 91
        2
 64
     7
 65
   257
 75
     1
175
     1
 42
40.0
 92
        8
 66
     7
 43
1.0
 76
     1
 77
     6
 78
     2
 67
     7
 79
     3
170
     0
171
     0
290
     0
174
     0
 93
        1
 44
0.0
173
     0
291
     0
 45
0.0
1001
ACAD
1000
AcDbSavedByObjectVersion
1070
     0
  0
VISUALSTYLE
  5
35
102
{ACAD_REACTORS
330
2A
102
}
330
2A
100
AcDbVisualStyle
  2
Dim
 70
    11
 71
     2
 72
     2
 73
     0
 90
        0
 40
-0.6
 41
-30.0
 62
     5
 63
     7
421
 16777215
 74
     1
 91
        4
 64
     7
 65
   257
 75
     1
175
     1
 42
1.0
 92
        8
 66
     7
 43
1.0
 76
     1
 77
     6
 78
     2
 67
     7
 79
     5
170
     0
171
     0
290
     0
174
     0
 93
        1
 44
-50.0
173
     0
291
     1
 45
0.0
1001
ACAD
1000
AcDbSavedByObjectVersion
1070
     0
  0
VISUALSTYLE
  5
39
102
{ACAD_REACTORS
330
2A
102
}
330
2A
100
AcDbVisualStyle
  2
Facepattern
 70
    15
 71
     2
 72
     2
 73
     0
 90
        0
 40
-0.6
 41
-30.0
 62
     5
 63
     7
421
 16777215
 74
     1
 91
        4
 64
     7
 65
   257
 75
     1
175
     1
 42
1.0
 92
        8
 66
     7
 43
1.0
 76
     1
 77
     6
 78
     2
 67
     7
 79
     5
170
     0
171
     0
290
     0
174
     0
 93
        1
 44
0.0
173
     0
291
     1
 45
0.0
1001
ACAD
1000
AcDbSavedByObjectVersion
1070
     0
  0
VISUALSTYLE
  5
2B
102
{ACAD_REACTORS
330
2A
102
}
330
2A
100
AcDbVisualStyle
  2
Flat
 70
     0
 71
     2
 72
     1
 73
     1
 90
        2
 40
-0.6
 41
30.0
 62
     5
 63
     7
421
 16777215
 74
     0
 91
        4
 64
     7
 65
   257
 75
     1
175
     1
 42
1.0
 92
        8
 66
     7
 43
1.0
 76
     1
 77
     6
 78
     2
 67
     7
 79
     5
170
     0
171
     0
290
     0
174
     0
 93
       13
 44
0.0
173
     0
291
     1
 45
0.0
1001
ACAD
1000
AcDbSavedByObjectVersion
1070
     0
  0
VISUALSTYLE
  5
2C
102
{ACAD_REACTORS
330
2A
102
}
330
2A
100
AcDbVisualStyle
  2
FlatWithEdges
 70
     1
 71
     2
 72
     1
 73
     1
 90
        2
 40
-0.6
 41
30.0
 62
     5
 63
     7
421
 16777215
 74
     1
 91
        4
 64
     7
 65
   257
 75
     1
175
     1
 42
1.0
 92
        0
 66
   257
 43
1.0
 76
     1
 77
     6
 78
     2
 67
     7
 79
     5
170
     0
171
     0
290
     0
174
     0
 93
       13
 44
0.0
173
     0
291
     1
 45
0.0
1001
ACAD
1000
AcDbSavedByObjectVersion
1070
     0
  0
VISUALSTYLE
  5
2D
102
{ACAD_REACTORS
330
2A
102
}
330
2A
100
AcDbVisualStyle
  2
Gouraud
 70
     2
 71
     2
 72
     2
 73
     1
 90
        2
 40
-0.6
 41
30.0
 62
     5
 63
     7
421
 16777215
 74
     0
 91
        4
 64
     7
 65
   257
 75
     1
175
     1
 42
1.0
 92
        0
 66
     7
 43
1.0
 76
     1
 77
     6
 78
     2
 67
     7
 79
     5
170
     0
171
     0
290
     0
174
     0
 93
       13
 44
0.0
173
     0
291
     1
 45
0.0
1001
ACAD
1000
AcDbSavedByObjectVersion
1070
     0
  0
VISUALSTYLE
  5
2E
102
{ACAD_REACTORS
330
2A
102
}
330
2A
100
AcDbVisualStyle
  2
GouraudWithEdges
 70
     3
 71
     2
 72
     2
 73
     1
 90
        2
 40
-0.6
 41
30.0
 62
     5
 63
     7
421
 16777215
 74
     1
 91
        4
 64
     7
 65
   257
 75
     1
175
     1
 42
1.0
 92
        0
 66
   257
 43
1.0
 76
     1
 77
     6
 78
     2
 67
     7
 79
     5
170
     0
171
     0
290
     0
174
     0
 93
       13
 44
0.0
173
     0
291
     1
 45
0.0
1001
ACAD
1000
AcDbSavedByObjectVersion
1070
     0
  0
VISUALSTYLE
  5
38
102
{ACAD_REACTORS
330
2A
102
}
330
2A
100
AcDbVisualStyle
  2
Linepattern
 70
    14
 71
     2
 72
     2
 73
     0
 90
        0
 40
-0.6
 41
-30.0
 62
     5
 63
     7
421
 16777215
 74
     1
 91
        4
 64
     7
 65
   257
 75
     7
175
     7
 42
1.0
 92
        8
 66
     7
 43
1.0
 76
     1
 77
     6
 78
     2
 67
     7
 79
     5
170
     0
171
     0
290
     0
174
     0
 93
        1
 44
0.0
173
     0
291
     1
 45
0.0
1001
ACAD
1000
AcDbSavedByObjectVersion
1070
     0
  0
VISUALSTYLE
  5
33
102
{ACAD_REACTORS
330
2A
102
}
330
2A
100
AcDbVisualStyle
  2
Realistic
 70
     8
 71
     2
 72
     2
 73
     0
 90
        0
 40
-0.6
 41
-30.0
 62
     5
 63
     7
421
 16777215
 74
     1
 91
        0
 64
     7
 65
   257
 75
     1
175
     1
 42
1.0
 92
        8
 66
     8
424
  7895160
 43
1.0
 76
     1
 77
     6
 78
     2
 67
     7
 79
     5
170
     0
171
     0
290
     0
174
     0
 93
       13
 44
0.0
173
     0
291
     0
 45
0.0
1001
ACAD
1000
AcDbSavedByObjectVersion
1070
     0
  0
VISUALSTYLE
  5
37
102
{ACAD_REACTORS
330
2A
102
}
330
2A
100
AcDbVisualStyle
  2
Thicken
 70
    13
 71
     2
 72
     2
 73
     0
 90
        0
 40
-0.6
 41
-30.0
 62
     5
 63
     7
421
 16777215
 74
     1
 91
        4
 64
     7
 65
   257
 75
     1
175
     1
 42
1.0
 92
       12
 66
     7
 43
1.0
 76
     1
 77
     6
 78
     2
 67
     7
 79
     5
170
     0
171
     0
290
     0
174
     0
 93
        1
 44
0.0
173
     0
291
     1
 45
0.0
1001
ACAD
1000
AcDbSavedByObjectVersion
1070
     0
  0
ENDSEC
  0
EOF
