  0
SECTION
  2
HEADER
  9
$ACADVER
  1
AC1018
  9
$ACADMAINTVER
 70
     0
  9
$DWGCODEPAGE
  3
ANSI_932
  9
$INSBASE
 10
0.0
 20
0.0
 30
0.0
  9
$EXTMIN
 10
1.000000000000000E+20
 20
1.000000000000000E+20
 30
1.000000000000000E+20
  9
$EXTMAX
 10
-1.000000000000000E+20
 20
-1.000000000000000E+20
 30
-1.000000000000000E+20
  9
$LIMMIN
 10
0.0
 20
0.0
  9
$LIMMAX
 10
12.0
 20
9.0
  9
$ORTHOMODE
 70
     0
  9
$REGENMODE
 70
     1
  9
$FILLMODE
 70
     1
  9
$QTEXTMODE
 70
     0
  9
$MIRRTEXT
 70
     1
  9
$LTSCALE
 40
1.0
  9
$ATTMODE
 70
     1
  9
$TEXTSIZE
 40
0.2
  9
$TRACEWID
 40
0.05
  9
$TEXTSTYLE
  7
Standard
  9
$CLAYER
  8
0
  9
$CELTYPE
  6
ByLayer
  9
$CECOLOR
 62
   256
  9
$CELTSCALE
 40
1.0
  9
$DISPSILH
 70
     0
  9
$DIMSCALE
 40
1.0
  9
$DIMASZ
 40
0.18
  9
$DIMEXO
 40
0.0625
  9
$DIMDLI
 40
0.38
  9
$DIMRND
 40
0.0
  9
$DIMDLE
 40
0.0
  9
$DIMEXE
 40
0.18
  9
$DIMTP
 40
0.0
  9
$DIMTM
 40
0.0
  9
$DIMTXT
 40
0.18
  9
$DIMCEN
 40
0.09
  9
$DIMTSZ
 40
0.0
  9
$DIMTOL
 70
     0
  9
$DIMLIM
 70
     0
  9
$DIMTIH
 70
     1
  9
$DIMTOH
 70
     1
  9
$DIMSE1
 70
     0
  9
$DIMSE2
 70
     0
  9
$DIMTAD
 70
     0
  9
$DIMZIN
 70
     0
  9
$DIMBLK
  1

  9
$DIMASO
 70
     1
  9
$DIMSHO
 70
     1
  9
$DIMPOST
  1

  9
$DIMAPOST
  1

  9
$DIMALT
 70
     0
  9
$DIMALTD
 70
     2
  9
$DIMALTF
 40
25.4
  9
$DIMLFAC
 40
1.0
  9
$DIMTOFL
 70
     0
  9
$DIMTVP
 40
0.0
  9
$DIMTIX
 70
     0
  9
$DIMSOXD
 70
     0
  9
$DIMSAH
 70
     0
  9
$DIMBLK1
  1

  9
$DIMBLK2
  1

  9
$DIMSTYLE
  2
Standard
  9
$DIMCLRD
 70
     0
  9
$DIMCLRE
 70
     0
  9
$DIMCLRT
 70
     0
  9
$DIMTFAC
 40
1.0
  9
$DIMGAP
 40
0.09
  9
$DIMJUST
 70
     0
  9
$DIMSD1
 70
     0
  9
$DIMSD2
 70
     0
  9
$DIMTOLJ
 70
     1
  9
$DIMTZIN
 70
     0
  9
$DIMALTZ
 70
     0
  9
$DIMALTTZ
 70
     0
  9
$DIMUPT
 70
     0
  9
$DIMDEC
 70
     4
  9
$DIMTDEC
 70
     4
  9
$DIMALTU
 70
     2
  9
$DIMALTTD
 70
     2
  9
$DIMTXSTY
  7
Standard
  9
$DIMAUNIT
 70
     0
  9
$DIMADEC
 70
     0
  9
$DIMALTRND
 40
0.0
  9
$DIMAZIN
 70
     0
  9
$DIMDSEP
 70
    46
  9
$DIMATFIT
 70
     3
  9
$DIMFRAC
 70
     0
  9
$DIMLDRBLK
  1

  9
$DIMLUNIT
 70
     2
  9
$DIMLWD
 70
    -2
  9
$DIMLWE
 70
    -2
  9
$DIMTMOVE
 70
     0
  9
$LUNITS
 70
     2
  9
$LUPREC
 70
     4
  9
$SKETCHINC
 40
0.1
  9
$FILLETRAD
 40
0.5
  9
$AUNITS
 70
     0
  9
$AUPREC
 70
     0
  9
$MENU
  1
.
  9
$ELEVATION
 40
0.0
  9
$PELEVATION
 40
0.0
  9
$THICKNESS
 40
0.0
  9
$LIMCHECK
 70
     0
  9
$CHAMFERA
 40
0.5
  9
$CHAMFERB
 40
0.5
  9
$CHAMFERC
 40
1.0
  9
$CHAMFERD
 40
0.0
  9
$SKPOLY
 70
     0
  9
$TDCREATE
 40
2457841.70057081
  9
$TDUCREATE
 40
2457841.32557081
  9
$TDUPDATE
 40
2457841.700570822
  9
$TDUUPDATE
 40
2457841.325570822
  9
$TDINDWG
 40
0.0000000116
  9
$TDUSRTIMER
 40
0.0000000116
  9
$USRTIMER
 70
     1
  9
$ANGBASE
 50
0.0
  9
$ANGDIR
 70
     0
  9
$PDMODE
 70
     0
  9
$PDSIZE
 40
0.0
  9
$PLINEWID
 40
0.0
  9
$SPLFRAME
 70
     0
  9
$SPLINETYPE
 70
     6
  9
$SPLINESEGS
 70
     8
  9
$HANDSEED
  5
167
  9
$SURFTAB1
 70
     6
  9
$SURFTAB2
 70
     6
  9
$SURFTYPE
 70
     6
  9
$SURFU
 70
     6
  9
$SURFV
 70
     6
  9
$UCSBASE
  2

  9
$UCSNAME
  2

  9
$UCSORG
 10
0.0
 20
0.0
 30
0.0
  9
$UCSXDIR
 10
1.0
 20
0.0
 30
0.0
  9
$UCSYDIR
 10
0.0
 20
1.0
 30
0.0
  9
$UCSORTHOREF
  2

  9
$UCSORTHOVIEW
 70
     0
  9
$UCSORGTOP
 10
0.0
 20
0.0
 30
0.0
  9
$UCSORGBOTTOM
 10
0.0
 20
0.0
 30
0.0
  9
$UCSORGLEFT
 10
0.0
 20
0.0
 30
0.0
  9
$UCSORGRIGHT
 10
0.0
 20
0.0
 30
0.0
  9
$UCSORGFRONT
 10
0.0
 20
0.0
 30
0.0
  9
$UCSORGBACK
 10
0.0
 20
0.0
 30
0.0
  9
$PUCSBASE
  2

  9
$PUCSNAME
  2

  9
$PUCSORG
 10
0.0
 20
0.0
 30
0.0
  9
$PUCSXDIR
 10
1.0
 20
0.0
 30
0.0
  9
$PUCSYDIR
 10
0.0
 20
1.0
 30
0.0
  9
$PUCSORTHOREF
  2

  9
$PUCSORTHOVIEW
 70
     0
  9
$PUCSORGTOP
 10
0.0
 20
0.0
 30
0.0
  9
$PUCSORGBOTTOM
 10
0.0
 20
0.0
 30
0.0
  9
$PUCSORGLEFT
 10
0.0
 20
0.0
 30
0.0
  9
$PUCSORGRIGHT
 10
0.0
 20
0.0
 30
0.0
  9
$PUCSORGFRONT
 10
0.0
 20
0.0
 30
0.0
  9
$PUCSORGBACK
 10
0.0
 20
0.0
 30
0.0
  9
$USERI1
 70
     0
  9
$USERI2
 70
     0
  9
$USERI3
 70
     0
  9
$USERI4
 70
     0
  9
$USERI5
 70
     0
  9
$USERR1
 40
0.0
  9
$USERR2
 40
0.0
  9
$USERR3
 40
0.0
  9
$USERR4
 40
0.0
  9
$USERR5
 40
0.0
  9
$WORLDVIEW
 70
     1
  9
$SHADEDGE
 70
     3
  9
$SHADEDIF
 70
    70
  9
$TILEMODE
 70
     1
  9
$MAXACTVP
 70
    64
  9
$PINSBASE
 10
0.0
 20
0.0
 30
0.0
  9
$PLIMCHECK
 70
     0
  9
$PEXTMIN
 10
1.000000000000000E+20
 20
1.000000000000000E+20
 30
1.000000000000000E+20
  9
$PEXTMAX
 10
-1.000000000000000E+20
 20
-1.000000000000000E+20
 30
-1.000000000000000E+20
  9
$PLIMMIN
 10
0.0
 20
0.0
  9
$PLIMMAX
 10
12.0
 20
9.0
  9
$UNITMODE
 70
     0
  9
$VISRETAIN
 70
     1
  9
$PLINEGEN
 70
     0
  9
$PSLTSCALE
 70
     1
  9
$TREEDEPTH
 70
  3020
  9
$CMLSTYLE
  2
Standard
  9
$CMLJUST
 70
     0
  9
$CMLSCALE
 40
1.0
  9
$PROXYGRAPHICS
 70
     1
  9
$MEASUREMENT
 70
     0
  9
$CELWEIGHT
370
    -1
  9
$ENDCAPS
280
     0
  9
$JOINSTYLE
280
     0
  9
$LWDISPLAY
290
     1
  9
$INSUNITS
 70
     1
  9
$HYPERLINKBASE
  1

  9
$STYLESHEET
  1

  9
$XEDIT
290
     1
  9
$CEPSNTYPE
380
     0
  9
$PSTYLEMODE
290
     1
  9
$FINGERPRINTGUID
  2
{B07824D6-FBE2-47D0-8918-3C6D5F1533AD}
  9
$VERSIONGUID
  2
{FAEB1C32-E019-11D5-929B-00C0DF256EC4}
  9
$EXTNAMES
290
     1
  9
$PSVPSCALE
 40
0.0
  9
$OLESTARTUP
290
     0
  9
$SORTENTS
280
   127
  9
$INDEXCTL
280
     0
  9
$HIDETEXT
280
     1
  9
$XCLIPFRAME
290
     0
  9
$HALOGAP
280
     0
  9
$OBSCOLOR
 70
   257
  9
$OBSLTYPE
280
     0
  9
$INTERSECTIONDISPLAY
280
     0
  9
$INTERSECTIONCOLOR
 70
   257
  9
$DIMASSOC
280
     2
  9
$PROJECTNAME
  1

  0
ENDSEC
  0
SECTION
  2
CLASSES
  0
CLASS
  1
ACDBDICTIONARYWDFLT
  2
AcDbDictionaryWithDefault
  3
ObjectDBX Classes
 90
        0
 91
        3
280
     0
281
     0
  0
CLASS
  1
VISUALSTYLE
  2
AcDbVisualStyle
  3
ObjectDBX Classes
 90
     4095
 91
        3
280
     0
281
     0
  0
ENDSEC
  0
SECTION
  2
TABLES
  0
TABLE
  2
VPORT
  5
8
330
0
100
AcDbSymbolTable
 70
     1
  0
VPORT
  5
29
330
8
100
AcDbSymbolTableRecord
100
AcDbViewportTableRecord
  2
*Active
 70
     0
 10
0.0
 20
0.0
 11
1.0
 21
1.0
 12
0.0
 22
0.0
 13
0.0
 23
0.0
 14
0.5
 24
0.5
 15
0.5
 25
0.5
 16
0.0
 26
0.0
 36
1.0
 17
209.9997571632119
 27
-148.4999796178229
 37
0.0
 40
296.9999592356459
 41
1.414139972972816
 42
50.0
 43
0.0
 44
0.0
 50
0.0
 51
0.0
 71
     0
 72
   100
 73
     1
 74
     3
 75
     0
 76
     0
 77
     0
 78
     0
281
     0
 65
     1
110
0.0
120
0.0
130
0.0
111
1.0
121
0.0
131
0.0
112
0.0
122
1.0
132
0.0
 79
     0
146
0.0
  0
ENDTAB
  0
TABLE
  2
LTYPE
  5
5
330
0
100
AcDbSymbolTable
 70
     1
  0
LTYPE
  5
14
330
5
100
AcDbSymbolTableRecord
100
AcDbLinetypeTableRecord
  2
ByBlock
 70
     0
  3

 72
    65
 73
     0
 40
0.0
  0
LTYPE
  5
15
330
5
100
AcDbSymbolTableRecord
100
AcDbLinetypeTableRecord
  2
ByLayer
 70
     0
  3

 72
    65
 73
     0
 40
0.0
  0
LTYPE
  5
16
330
5
100
AcDbSymbolTableRecord
100
AcDbLinetypeTableRecord
  2
Continuous
 70
     0
  3
Solid line
 72
    65
 73
     0
 40
0.0
  0
ENDTAB
  0
TABLE
  2
LAYER
  5
2
330
0
100
AcDbSymbolTable
 70
     2
  0
LAYER
  5
10
330
2
100
AcDbSymbolTableRecord
100
AcDbLayerTableRecord
  2
0
 70
     0
 62
     7
  6
Continuous
370
    -3
390
F
  0
LAYER
  5
3B
330
2
100
AcDbSymbolTableRecord
100
AcDbLayerTableRecord
  2
\U+30EC\U+30A4\U+30E4\U+30FC 1
 70
     0
 62
     7
  6
Continuous
370
    -3
390
F
  0
ENDTAB
  0
TABLE
  2
STYLE
  5
3
330
0
100
AcDbSymbolTable
 70
     1
  0
STYLE
  5
11
330
3
100
AcDbSymbolTableRecord
100
AcDbTextStyleTableRecord
  2
Standard
 70
     0
 40
0.0
 41
1.0
 50
0.0
 71
     0
 42
0.2
  3
txt
  4

  0
ENDTAB
  0
TABLE
  2
VIEW
  5
6
330
0
100
AcDbSymbolTable
 70
     0
  0
ENDTAB
  0
TABLE
  2
UCS
  5
7
330
0
100
AcDbSymbolTable
 70
     0
  0
ENDTAB
  0
TABLE
  2
APPID
  5
9
330
0
100
AcDbSymbolTable
 70
     1
  0
APPID
  5
12
330
9
100
AcDbSymbolTableRecord
100
AcDbRegAppTableRecord
  2
ACAD
 70
     0
  0
ENDTAB
  0
TABLE
  2
DIMSTYLE
  5
A
330
0
100
AcDbSymbolTable
 70
     1
100
AcDbDimStyleTable
  0
DIMSTYLE
105
27
330
A
100
AcDbSymbolTableRecord
100
AcDbDimStyleTableRecord
  2
Standard
 70
     0
340
11
  0
ENDTAB
  0
TABLE
  2
BLOCK_RECORD
  5
1
330
0
100
AcDbSymbolTable
 70
    26
  0
BLOCK_RECORD
  5
1F
330
1
100
AcDbSymbolTableRecord
100
AcDbBlockTableRecord
  2
*Model_Space
340
22
  0
BLOCK_RECORD
  5
1B
330
1
100
AcDbSymbolTableRecord
100
AcDbBlockTableRecord
  2
*Paper_Space
340
1E
  0
BLOCK_RECORD
  5
23
330
1
100
AcDbSymbolTableRecord
100
AcDbBlockTableRecord
  2
*Paper_Space0
340
26
  0
BLOCK_RECORD
  5
3C
330
1
100
AcDbSymbolTableRecord
100
AcDbBlockTableRecord
  2
block 2
340
0
102
{BLKREFS
331
3D
102
}
  0
BLOCK_RECORD
  5
47
330
1
100
AcDbSymbolTableRecord
100
AcDbBlockTableRecord
  2
block 3
340
0
102
{BLKREFS
331
48
102
}
  0
BLOCK_RECORD
  5
52
330
1
100
AcDbSymbolTableRecord
100
AcDbBlockTableRecord
  2
block 4
340
0
102
{BLKREFS
331
53
102
}
  0
BLOCK_RECORD
  5
5D
330
1
100
AcDbSymbolTableRecord
100
AcDbBlockTableRecord
  2
block 5
340
0
102
{BLKREFS
331
5E
102
}
  0
BLOCK_RECORD
  5
77
330
1
100
AcDbSymbolTableRecord
100
AcDbBlockTableRecord
  2
block 6
340
0
102
{BLKREFS
331
78
102
}
  0
BLOCK_RECORD
  5
7C
330
1
100
AcDbSymbolTableRecord
100
AcDbBlockTableRecord
  2
block 7
340
0
102
{BLKREFS
331
7D
102
}
  0
BLOCK_RECORD
  5
81
330
1
100
AcDbSymbolTableRecord
100
AcDbBlockTableRecord
  2
block 8
340
0
102
{BLKREFS
331
82
102
}
  0
BLOCK_RECORD
  5
86
330
1
100
AcDbSymbolTableRecord
100
AcDbBlockTableRecord
  2
block 9
340
0
102
{BLKREFS
331
87
102
}
  0
BLOCK_RECORD
  5
8B
330
1
100
AcDbSymbolTableRecord
100
AcDbBlockTableRecord
  2
block 10
340
0
102
{BLKREFS
331
8C
102
}
  0
BLOCK_RECORD
  5
90
330
1
100
AcDbSymbolTableRecord
100
AcDbBlockTableRecord
  2
block 11
340
0
102
{BLKREFS
331
91
102
}
  0
BLOCK_RECORD
  5
95
330
1
100
AcDbSymbolTableRecord
100
AcDbBlockTableRecord
  2
block 12
340
0
102
{BLKREFS
331
96
102
}
  0
BLOCK_RECORD
  5
9A
330
1
100
AcDbSymbolTableRecord
100
AcDbBlockTableRecord
  2
block 13
340
0
102
{BLKREFS
331
9B
102
}
  0
BLOCK_RECORD
  5
A2
330
1
100
AcDbSymbolTableRecord
100
AcDbBlockTableRecord
  2
block 14
340
0
102
{BLKREFS
331
A3
102
}
  0
BLOCK_RECORD
  5
AD
330
1
100
AcDbSymbolTableRecord
100
AcDbBlockTableRecord
  2
block 15
340
0
102
{BLKREFS
331
AE
102
}
  0
BLOCK_RECORD
  5
B8
330
1
100
AcDbSymbolTableRecord
100
AcDbBlockTableRecord
  2
block 16
340
0
102
{BLKREFS
331
B9
102
}
  0
BLOCK_RECORD
  5
C3
330
1
100
AcDbSymbolTableRecord
100
AcDbBlockTableRecord
  2
block 17
340
0
102
{BLKREFS
331
C4
102
}
  0
BLOCK_RECORD
  5
DD
330
1
100
AcDbSymbolTableRecord
100
AcDbBlockTableRecord
  2
block 18
340
0
102
{BLKREFS
331
DE
102
}
  0
BLOCK_RECORD
  5
E2
330
1
100
AcDbSymbolTableRecord
100
AcDbBlockTableRecord
  2
block 19
340
0
102
{BLKREFS
331
E3
102
}
  0
BLOCK_RECORD
  5
E7
330
1
100
AcDbSymbolTableRecord
100
AcDbBlockTableRecord
  2
block 20
340
0
102
{BLKREFS
331
E8
102
}
  0
BLOCK_RECORD
  5
EC
330
1
100
AcDbSymbolTableRecord
100
AcDbBlockTableRecord
  2
block 21
340
0
102
{BLKREFS
331
ED
102
}
  0
BLOCK_RECORD
  5
F1
330
1
100
AcDbSymbolTableRecord
100
AcDbBlockTableRecord
  2
block 22
340
0
102
{BLKREFS
331
F2
102
}
  0
BLOCK_RECORD
  5
F6
330
1
100
AcDbSymbolTableRecord
100
AcDbBlockTableRecord
  2
block 23
340
0
102
{BLKREFS
331
F7
102
}
  0
BLOCK_RECORD
  5
FB
330
1
100
AcDbSymbolTableRecord
100
AcDbBlockTableRecord
  2
block 24
340
0
102
{BLKREFS
331
FC
102
}
  0
BLOCK_RECORD
  5
100
330
1
100
AcDbSymbolTableRecord
100
AcDbBlockTableRecord
  2
block 25
340
0
102
{BLKREFS
331
101
102
}
  0
BLOCK_RECORD
  5
108
330
1
100
AcDbSymbolTableRecord
100
AcDbBlockTableRecord
  2
block 26
340
0
102
{BLKREFS
331
109
102
}
  0
ENDTAB
  0
ENDSEC
  0
SECTION
  2
BLOCKS
  0
BLOCK
  5
20
330
1F
100
AcDbEntity
  8
0
100
AcDbBlockBegin
  2
*Model_Space
 70
     0
 71
     0
 10
0.0
 20
0.0
 30
0.0
  3
*Model_Space
  1

  0
ENDBLK
  5
21
330
1F
100
AcDbEntity
  8
0
100
AcDbBlockEnd
  0
BLOCK
  5
1C
330
1B
100
AcDbEntity
 67
     1
  8
0
100
AcDbBlockBegin
  2
*Paper_Space
 70
     0
 71
     0
 10
0.0
 20
0.0
 30
0.0
  3
*Paper_Space
  1

  0
ENDBLK
  5
1D
330
1B
100
AcDbEntity
 67
     1
  8
0
100
AcDbBlockEnd
  0
BLOCK
  5
24
330
23
100
AcDbEntity
  8
0
100
AcDbBlockBegin
  2
*Paper_Space0
 70
     0
 71
     0
 10
0.0
 20
0.0
 30
0.0
  3
*Paper_Space0
  1

  0
ENDBLK
  5
25
330
23
100
AcDbEntity
  8
0
100
AcDbBlockEnd
  0
BLOCK
  5
3E
330
3C
100
AcDbEntity
  8
0
100
AcDbBlockBegin
  2
block 2
 70
     0
 71
     0
 10
0.0
 20
0.0
 30
0.0
  3
block 2
  1

  0
POLYLINE
  5
40
330
3C
100
AcDbEntity
  8
\U+30EC\U+30A4\U+30E4\U+30FC 1
 62
     7
420
 16777215
370
    25
100
AcDb2dPolyline
 66
     1
 10
0.0
 20
0.0
 30
0.0
  0
VERTEX
  5
41
330
40
100
AcDbEntity
  8
\U+30EC\U+30A4\U+30E4\U+30FC 1
 62
     7
420
 16777215
370
    25
100
AcDbVertex
100
AcDb2dVertex
 10
312.4997883333334
 20
-97.05574677478121
 30
0.0
  0
VERTEX
  5
42
330
40
100
AcDbEntity
  8
\U+30EC\U+30A4\U+30E4\U+30FC 1
 62
     7
420
 16777215
370
    25
100
AcDbVertex
100
AcDb2dVertex
 10
362.4998371489584
 20
-97.05574677478121
 30
0.0
  0
VERTEX
  5
43
330
40
100
AcDbEntity
  8
\U+30EC\U+30A4\U+30E4\U+30FC 1
 62
     7
420
 16777215
370
    25
100
AcDbVertex
100
AcDb2dVertex
 10
362.4998371489584
 20
-93.05564640685762
 30
0.0
  0
VERTEX
  5
44
330
40
100
AcDbEntity
  8
\U+30EC\U+30A4\U+30E4\U+30FC 1
 62
     7
420
 16777215
370
    25
100
AcDbVertex
100
AcDb2dVertex
 10
312.4997883333334
 20
-93.05564640685762
 30
0.0
  0
VERTEX
  5
45
330
40
100
AcDbEntity
  8
\U+30EC\U+30A4\U+30E4\U+30FC 1
 62
     7
420
 16777215
370
    25
100
AcDbVertex
100
AcDb2dVertex
 10
312.4997883333334
 20
-97.05574677478121
 30
0.0
  0
SEQEND
  5
46
330
40
100
AcDbEntity
  8
\U+30EC\U+30A4\U+30E4\U+30FC 1
370
    25
  0
ENDBLK
  5
3F
330
3C
100
AcDbEntity
  8
0
100
AcDbBlockEnd
  0
BLOCK
  5
49
330
47
100
AcDbEntity
  8
0
100
AcDbBlockBegin
  2
block 3
 70
     0
 71
     0
 10
0.0
 20
0.0
 30
0.0
  3
block 3
  1

  0
POLYLINE
  5
4B
330
47
100
AcDbEntity
  8
\U+30EC\U+30A4\U+30E4\U+30FC 1
 62
     7
420
 16777215
370
    25
100
AcDb2dPolyline
 66
     1
 10
0.0
 20
0.0
 30
0.0
  0
VERTEX
  5
4C
330
4B
100
AcDbEntity
  8
\U+30EC\U+30A4\U+30E4\U+30FC 1
 62
     7
420
 16777215
370
    25
100
AcDbVertex
100
AcDb2dVertex
 10
227.4999809544098
 20
-97.05574677478121
 30
0.0
  0
VERTEX
  5
4D
330
4B
100
AcDbEntity
  8
\U+30EC\U+30A4\U+30E4\U+30FC 1
 62
     7
420
 16777215
370
    25
100
AcDbVertex
100
AcDb2dVertex
 10
277.5000297700347
 20
-97.05574677478121
 30
0.0
  0
VERTEX
  5
4E
330
4B
100
AcDbEntity
  8
\U+30EC\U+30A4\U+30E4\U+30FC 1
 62
     7
420
 16777215
370
    25
100
AcDbVertex
100
AcDb2dVertex
 10
277.5000297700347
 20
-93.05564640685762
 30
0.0
  0
VERTEX
  5
4F
330
4B
100
AcDbEntity
  8
\U+30EC\U+30A4\U+30E4\U+30FC 1
 62
     7
420
 16777215
370
    25
100
AcDbVertex
100
AcDb2dVertex
 10
227.4999809544098
 20
-93.05564640685762
 30
0.0
  0
VERTEX
  5
50
330
4B
100
AcDbEntity
  8
\U+30EC\U+30A4\U+30E4\U+30FC 1
 62
     7
420
 16777215
370
    25
100
AcDbVertex
100
AcDb2dVertex
 10
227.4999809544098
 20
-97.05574677478121
 30
0.0
  0
SEQEND
  5
51
330
4B
100
AcDbEntity
  8
\U+30EC\U+30A4\U+30E4\U+30FC 1
370
    25
  0
ENDBLK
  5
4A
330
47
100
AcDbEntity
  8
0
100
AcDbBlockEnd
  0
BLOCK
  5
54
330
52
100
AcDbEntity
  8
0
100
AcDbBlockBegin
  2
block 4
 70
     0
 71
     0
 10
0.0
 20
0.0
 30
0.0
  3
block 4
  1

  0
POLYLINE
  5
56
330
52
100
AcDbEntity
  8
\U+30EC\U+30A4\U+30E4\U+30FC 1
 62
     7
420
 16777215
370
    25
100
AcDb2dPolyline
 66
     1
 10
0.0
 20
0.0
 30
0.0
  0
VERTEX
  5
57
330
56
100
AcDbEntity
  8
\U+30EC\U+30A4\U+30E4\U+30FC 1
 62
     7
420
 16777215
370
    25
100
AcDbVertex
100
AcDb2dVertex
 10
142.5000013207118
 20
-97.05574677478121
 30
0.0
  0
VERTEX
  5
58
330
56
100
AcDbEntity
  8
\U+30EC\U+30A4\U+30E4\U+30FC 1
 62
     7
420
 16777215
370
    25
100
AcDbVertex
100
AcDb2dVertex
 10
192.4998778815625
 20
-97.05574677478121
 30
0.0
  0
VERTEX
  5
59
330
56
100
AcDbEntity
  8
\U+30EC\U+30A4\U+30E4\U+30FC 1
 62
     7
420
 16777215
370
    25
100
AcDbVertex
100
AcDb2dVertex
 10
192.4998778815625
 20
-93.05564640685762
 30
0.0
  0
VERTEX
  5
5A
330
56
100
AcDbEntity
  8
\U+30EC\U+30A4\U+30E4\U+30FC 1
 62
     7
420
 16777215
370
    25
100
AcDbVertex
100
AcDb2dVertex
 10
142.5000013207118
 20
-93.05564640685762
 30
0.0
  0
VERTEX
  5
5B
330
56
100
AcDbEntity
  8
\U+30EC\U+30A4\U+30E4\U+30FC 1
 62
     7
420
 16777215
370
    25
100
AcDbVertex
100
AcDb2dVertex
 10
142.5000013207118
 20
-97.05574677478121
 30
0.0
  0
SEQEND
  5
5C
330
56
100
AcDbEntity
  8
\U+30EC\U+30A4\U+30E4\U+30FC 1
370
    25
  0
ENDBLK
  5
55
330
52
100
AcDbEntity
  8
0
100
AcDbBlockEnd
  0
BLOCK
  5
5F
330
5D
100
AcDbEntity
  8
0
100
AcDbBlockBegin
  2
block 5
 70
     0
 71
     0
 10
0.0
 20
0.0
 30
0.0
  3
block 5
  1

  0
POLYLINE
  5
61
330
5D
100
AcDbEntity
  8
\U+30EC\U+30A4\U+30E4\U+30FC 1
 62
     7
420
 16777215
370
    25
100
AcDb2dPolyline
 66
     1
 10
0.0
 20
0.0
 30
0.0
  0
VERTEX
  5
62
330
61
100
AcDbEntity
  8
\U+30EC\U+30A4\U+30E4\U+30FC 1
 62
     7
420
 16777215
370
    25
100
AcDbVertex
100
AcDb2dVertex
 10
57.49984943223962
 20
-93.05564640685762
 30
0.0
  0
VERTEX
  5
63
330
61
100
AcDbEntity
  8
\U+30EC\U+30A4\U+30E4\U+30FC 1
 62
     7
420
 16777215
370
    25
100
AcDbVertex
100
AcDb2dVertex
 10
57.49984943223962
 20
-97.05574677478121
 30
0.0
  0
VERTEX
  5
64
330
61
100
AcDbEntity
  8
\U+30EC\U+30A4\U+30E4\U+30FC 1
 62
     7
420
 16777215
370
    25
100
AcDbVertex
100
AcDb2dVertex
 10
107.4998982478646
 20
-97.05574677478121
 30
0.0
  0
VERTEX
  5
65
330
61
100
AcDbEntity
  8
\U+30EC\U+30A4\U+30E4\U+30FC 1
 62
     7
420
 16777215
370
    25
100
AcDbVertex
100
AcDb2dVertex
 10
107.4998982478646
 20
-93.05564640685762
 30
0.0
  0
VERTEX
  5
66
330
61
100
AcDbEntity
  8
\U+30EC\U+30A4\U+30E4\U+30FC 1
 62
     7
420
 16777215
370
    25
100
AcDbVertex
100
AcDb2dVertex
 10
57.49984943223962
 20
-93.05564640685762
 30
0.0
  0
SEQEND
  5
67
330
61
100
AcDbEntity
  8
\U+30EC\U+30A4\U+30E4\U+30FC 1
370
    25
  0
ENDBLK
  5
60
330
5D
100
AcDbEntity
  8
0
100
AcDbBlockEnd
  0
BLOCK
  5
79
330
77
100
AcDbEntity
  8
0
100
AcDbBlockBegin
  2
block 6
 70
     0
 71
     0
 10
0.0
 20
0.0
 30
0.0
  3
block 6
  1

  0
SPLINE
  5
7B
330
77
100
AcDbEntity
  8
\U+30EC\U+30A4\U+30E4\U+30FC 1
 62
     7
420
 16777215
370
    25
100
AcDbSpline
210
0.0
220
0.0
230
1.0
 70
    11
 71
     3
 72
    20
 73
    16
 74
     0
 42
0.0000000001
 43
0.0000000001
 40
0.0
 40
0.0
 40
0.0
 40
0.0
 40
1.0
 40
1.0
 40
1.0
 40
2.0
 40
2.0
 40
2.0
 40
3.0
 40
3.0
 40
3.0
 40
4.0
 40
4.0
 40
4.0
 40
5.0
 40
5.0
 40
5.0
 40
5.0
 10
214.0499836704458
 20
-67.05585528922562
 30
0.0
 10
214.0499836704458
 20
-64.81895479065291
 30
0.0
 10
212.2368299165589
 20
-63.00580103676592
 30
0.0
 10
209.9999294179862
 20
-63.00580103676592
 30
0.0
 10
207.763373428962
 20
-63.00580103676592
 30
0.0
 10
205.9498751655264
 20
-64.81895479065291
 30
0.0
 10
205.9498751655264
 20
-67.05585528922562
 30
0.0
 10
205.9498751655264
 20
-69.29241127824982
 30
0.0
 10
207.763373428962
 20
-71.10590954168534
 30
0.0
 10
209.9999294179862
 20
-71.10590954168534
 30
0.0
 10
212.2368299165589
 20
-71.10590954168534
 30
0.0
 10
214.0499836704458
 20
-69.29241127824982
 30
0.0
 10
214.0499836704458
 20
-67.05585528922562
 30
0.0
 10
214.0499836704458
 20
-67.05585528922562
 30
0.0
 10
214.0499836704458
 20
-67.05585528922562
 30
0.0
 10
214.0499836704458
 20
-67.05585528922562
 30
0.0
  0
ENDBLK
  5
7A
330
77
100
AcDbEntity
  8
0
100
AcDbBlockEnd
  0
BLOCK
  5
7E
330
7C
100
AcDbEntity
  8
0
100
AcDbBlockBegin
  2
block 7
 70
     0
 71
     0
 10
0.0
 20
0.0
 30
0.0
  3
block 7
  1

  0
SPLINE
  5
80
330
7C
100
AcDbEntity
  8
\U+30EC\U+30A4\U+30E4\U+30FC 1
 62
     7
420
 16777215
370
    25
100
AcDbSpline
210
0.0
220
0.0
230
1.0
 70
    11
 71
     3
 72
    20
 73
    16
 74
     0
 42
0.0000000001
 43
0.0000000001
 40
0.0
 40
0.0
 40
0.0
 40
0.0
 40
1.0
 40
1.0
 40
1.0
 40
2.0
 40
2.0
 40
2.0
 40
3.0
 40
3.0
 40
3.0
 40
4.0
 40
4.0
 40
4.0
 40
5.0
 40
5.0
 40
5.0
 40
5.0
 10
66.374932166566
 20
-67.05585528922562
 30
0.0
 10
66.374932166566
 20
-63.53496770330029
 30
0.0
 10
63.5206705570365
 20
-60.6807060937708
 30
0.0
 10
59.99995522588543
 20
-60.6807060937708
 30
0.0
 10
56.4790676399601
 20
-60.6807060937708
 30
0.0
 10
53.62497828520487
 20
-63.53496770330029
 30
0.0
 10
53.62497828520487
 20
-67.05585528922562
 30
0.0
 10
53.62497828520487
 20
-70.57674287515096
 30
0.0
 10
56.4790676399601
 20
-73.43065997513192
 30
0.0
 10
59.99995522588543
 20
-73.43065997513192
 30
0.0
 10
63.5206705570365
 20
-73.43065997513192
 30
0.0
 10
66.374932166566
 20
-70.57674287515096
 30
0.0
 10
66.374932166566
 20
-67.05585528922562
 30
0.0
 10
66.374932166566
 20
-67.05585528922562
 30
0.0
 10
66.374932166566
 20
-67.05585528922562
 30
0.0
 10
66.374932166566
 20
-67.05585528922562
 30
0.0
  0
ENDBLK
  5
7F
330
7C
100
AcDbEntity
  8
0
100
AcDbBlockEnd
  0
BLOCK
  5
83
330
81
100
AcDbEntity
  8
0
100
AcDbBlockBegin
  2
block 8
 70
     0
 71
     0
 10
0.0
 20
0.0
 30
0.0
  3
block 8
  1

  0
SPLINE
  5
85
330
81
100
AcDbEntity
  8
\U+30EC\U+30A4\U+30E4\U+30FC 1
 62
     7
420
 16777215
370
    25
100
AcDbSpline
210
0.0
220
0.0
230
1.0
 70
    11
 71
     3
 72
    20
 73
    16
 74
     0
 42
0.0000000001
 43
0.0000000001
 40
0.0
 40
0.0
 40
0.0
 40
0.0
 40
1.0
 40
1.0
 40
1.0
 40
2.0
 40
2.0
 40
2.0
 40
3.0
 40
3.0
 40
3.0
 40
4.0
 40
4.0
 40
4.0
 40
5.0
 40
5.0
 40
5.0
 40
5.0
 10
366.3748805507674
 20
-67.05585528922562
 30
0.0
 10
366.3748805507674
 20
-63.53496770330029
 30
0.0
 10
363.5206189412379
 20
-60.6807060937708
 30
0.0
 10
360.0000758648611
 20
-60.6807060937708
 30
0.0
 10
356.4791882789358
 20
-60.6807060937708
 30
0.0
 10
353.6249266694063
 20
-63.53496770330029
 30
0.0
 10
353.6249266694063
 20
-67.05585528922562
 30
0.0
 10
353.6249266694063
 20
-70.57674287515096
 30
0.0
 10
356.4791882789358
 20
-73.43065997513192
 30
0.0
 10
360.0000758648611
 20
-73.43065997513192
 30
0.0
 10
363.5206189412379
 20
-73.43065997513192
 30
0.0
 10
366.3748805507674
 20
-70.57674287515096
 30
0.0
 10
366.3748805507674
 20
-67.05585528922562
 30
0.0
 10
366.3748805507674
 20
-67.05585528922562
 30
0.0
 10
366.3748805507674
 20
-67.05585528922562
 30
0.0
 10
366.3748805507674
 20
-67.05585528922562
 30
0.0
  0
ENDBLK
  5
84
330
81
100
AcDbEntity
  8
0
100
AcDbBlockEnd
  0
BLOCK
  5
88
330
86
100
AcDbEntity
  8
0
100
AcDbBlockBegin
  2
block 9
 70
     0
 71
     0
 10
0.0
 20
0.0
 30
0.0
  3
block 9
  1

  0
SPLINE
  5
8A
330
86
100
AcDbEntity
  8
\U+30EC\U+30A4\U+30E4\U+30FC 1
 62
     7
420
 16777215
370
    25
100
AcDbSpline
210
0.0
220
0.0
230
1.0
 70
    11
 71
     3
 72
    20
 73
    16
 74
     0
 42
0.0000000001
 43
0.0000000001
 40
0.0
 40
0.0
 40
0.0
 40
0.0
 40
1.0
 40
1.0
 40
1.0
 40
2.0
 40
2.0
 40
2.0
 40
3.0
 40
3.0
 40
3.0
 40
4.0
 40
4.0
 40
4.0
 40
5.0
 40
5.0
 40
5.0
 40
5.0
 10
195.9435953286183
 20
-51.49952662557998
 30
0.0
 10
195.9435953286183
 20
-50.6709811613774
 30
0.0
 10
195.2721462185431
 20
-49.9995320513022
 30
0.0
 10
194.4436007543405
 20
-49.9995320513022
 30
0.0
 10
193.6150552901379
 20
-49.9995320513022
 30
0.0
 10
192.9436061800627
 20
-50.6709811613774
 30
0.0
 10
192.9436061800627
 20
-51.49952662557998
 30
0.0
 10
192.9436061800627
 20
-52.32772758023404
 30
0.0
 10
193.6150552901379
 20
-52.99952119985776
 30
0.0
 10
194.4436007543405
 20
-52.99952119985776
 30
0.0
 10
195.2721462185431
 20
-52.99952119985776
 30
0.0
 10
195.9435953286183
 20
-52.32772758023404
 30
0.0
 10
195.9435953286183
 20
-51.49952662557998
 30
0.0
 10
195.9435953286183
 20
-51.49952662557998
 30
0.0
 10
195.9435953286183
 20
-51.49952662557998
 30
0.0
 10
195.9435953286183
 20
-51.49952662557998
 30
0.0
  0
ENDBLK
  5
89
330
86
100
AcDbEntity
  8
0
100
AcDbBlockEnd
  0
BLOCK
  5
8D
330
8B
100
AcDbEntity
  8
0
100
AcDbBlockBegin
  2
block 10
 70
     0
 71
     0
 10
0.0
 20
0.0
 30
0.0
  3
block 10
  1

  0
SPLINE
  5
8F
330
8B
100
AcDbEntity
  8
\U+30EC\U+30A4\U+30E4\U+30FC 1
 62
     7
420
 16777215
370
    25
100
AcDbSpline
210
0.0
220
0.0
230
1.0
 70
    11
 71
     3
 72
    20
 73
    16
 74
     0
 42
0.0000000001
 43
0.0000000001
 40
0.0
 40
0.0
 40
0.0
 40
0.0
 40
1.0
 40
1.0
 40
1.0
 40
2.0
 40
2.0
 40
2.0
 40
3.0
 40
3.0
 40
3.0
 40
4.0
 40
4.0
 40
4.0
 40
5.0
 40
5.0
 40
5.0
 40
5.0
 10
195.9435953286183
 20
-82.61218395287126
 30
0.0
 10
195.9435953286183
 20
-81.78363848866867
 30
0.0
 10
195.2721462185431
 20
-81.11218937859348
 30
0.0
 10
194.4436007543405
 20
-81.11218937859348
 30
0.0
 10
193.6150552901379
 20
-81.11218937859348
 30
0.0
 10
192.9436061800627
 20
-81.78363848866867
 30
0.0
 10
192.9436061800627
 20
-82.61218395287126
 30
0.0
 10
192.9436061800627
 20
-83.44038490752533
 30
0.0
 10
193.6150552901379
 20
-84.11217852714904
 30
0.0
 10
194.4436007543405
 20
-84.11217852714904
 30
0.0
 10
195.2721462185431
 20
-84.11217852714904
 30
0.0
 10
195.9435953286183
 20
-83.44038490752533
 30
0.0
 10
195.9435953286183
 20
-82.61218395287126
 30
0.0
 10
195.9435953286183
 20
-82.61218395287126
 30
0.0
 10
195.9435953286183
 20
-82.61218395287126
 30
0.0
 10
195.9435953286183
 20
-82.61218395287126
 30
0.0
  0
ENDBLK
  5
8E
330
8B
100
AcDbEntity
  8
0
100
AcDbBlockEnd
  0
BLOCK
  5
92
330
90
100
AcDbEntity
  8
0
100
AcDbBlockBegin
  2
block 11
 70
     0
 71
     0
 10
0.0
 20
0.0
 30
0.0
  3
block 11
  1

  0
SPLINE
  5
94
330
90
100
AcDbEntity
  8
\U+30EC\U+30A4\U+30E4\U+30FC 1
 62
     7
420
 16777215
370
    25
100
AcDbSpline
210
0.0
220
0.0
230
1.0
 70
    11
 71
     3
 72
    20
 73
    16
 74
     0
 42
0.0000000001
 43
0.0000000001
 40
0.0
 40
0.0
 40
0.0
 40
0.0
 40
1.0
 40
1.0
 40
1.0
 40
2.0
 40
2.0
 40
2.0
 40
3.0
 40
3.0
 40
3.0
 40
4.0
 40
4.0
 40
4.0
 40
5.0
 40
5.0
 40
5.0
 40
5.0
 10
227.0562526559096
 20
-82.61218395287126
 30
0.0
 10
227.0562526559096
 20
-81.78363848866867
 30
0.0
 10
226.3848035458344
 20
-81.11218937859348
 30
0.0
 10
225.5562580816318
 20
-81.11218937859348
 30
0.0
 10
224.7277126174292
 20
-81.11218937859348
 30
0.0
 10
224.056263507354
 20
-81.78363848866867
 30
0.0
 10
224.056263507354
 20
-82.61218395287126
 30
0.0
 10
224.056263507354
 20
-83.44038490752533
 30
0.0
 10
224.7277126174292
 20
-84.11217852714904
 30
0.0
 10
225.5562580816318
 20
-84.11217852714904
 30
0.0
 10
226.3848035458344
 20
-84.11217852714904
 30
0.0
 10
227.0562526559096
 20
-83.44038490752533
 30
0.0
 10
227.0562526559096
 20
-82.61218395287126
 30
0.0
 10
227.0562526559096
 20
-82.61218395287126
 30
0.0
 10
227.0562526559096
 20
-82.61218395287126
 30
0.0
 10
227.0562526559096
 20
-82.61218395287126
 30
0.0
  0
ENDBLK
  5
93
330
90
100
AcDbEntity
  8
0
100
AcDbBlockEnd
  0
BLOCK
  5
97
330
95
100
AcDbEntity
  8
0
100
AcDbBlockBegin
  2
block 12
 70
     0
 71
     0
 10
0.0
 20
0.0
 30
0.0
  3
block 12
  1

  0
SPLINE
  5
99
330
95
100
AcDbEntity
  8
\U+30EC\U+30A4\U+30E4\U+30FC 1
 62
     7
420
 16777215
370
    25
100
AcDbSpline
210
0.0
220
0.0
230
1.0
 70
    11
 71
     3
 72
    20
 73
    16
 74
     0
 42
0.0000000001
 43
0.0000000001
 40
0.0
 40
0.0
 40
0.0
 40
0.0
 40
1.0
 40
1.0
 40
1.0
 40
2.0
 40
2.0
 40
2.0
 40
3.0
 40
3.0
 40
3.0
 40
4.0
 40
4.0
 40
4.0
 40
5.0
 40
5.0
 40
5.0
 40
5.0
 10
227.0562526559096
 20
-51.49952662557998
 30
0.0
 10
227.0562526559096
 20
-50.6709811613774
 30
0.0
 10
226.3848035458344
 20
-49.9995320513022
 30
0.0
 10
225.5562580816318
 20
-49.9995320513022
 30
0.0
 10
224.7277126174292
 20
-49.9995320513022
 30
0.0
 10
224.056263507354
 20
-50.6709811613774
 30
0.0
 10
224.056263507354
 20
-51.49952662557998
 30
0.0
 10
224.056263507354
 20
-52.32772758023404
 30
0.0
 10
224.7277126174292
 20
-52.99952119985776
 30
0.0
 10
225.5562580816318
 20
-52.99952119985776
 30
0.0
 10
226.3848035458344
 20
-52.99952119985776
 30
0.0
 10
227.0562526559096
 20
-52.32772758023404
 30
0.0
 10
227.0562526559096
 20
-51.49952662557998
 30
0.0
 10
227.0562526559096
 20
-51.49952662557998
 30
0.0
 10
227.0562526559096
 20
-51.49952662557998
 30
0.0
 10
227.0562526559096
 20
-51.49952662557998
 30
0.0
  0
ENDBLK
  5
98
330
95
100
AcDbEntity
  8
0
100
AcDbBlockEnd
  0
BLOCK
  5
9C
330
9A
100
AcDbEntity
  8
0
100
AcDbBlockBegin
  2
block 13
 70
     0
 71
     0
 10
0.0
 20
0.0
 30
0.0
  3
block 13
  1

  0
POLYLINE
  5
9E
330
9A
100
AcDbEntity
  8
\U+30EC\U+30A4\U+30E4\U+30FC 1
 62
     7
420
 16777215
370
    25
100
AcDb2dPolyline
 66
     1
 10
0.0
 20
0.0
 30
0.0
  0
VERTEX
  5
9F
330
9E
100
AcDbEntity
  8
\U+30EC\U+30A4\U+30E4\U+30FC 1
 62
     7
420
 16777215
370
    25
100
AcDbVertex
100
AcDb2dVertex
 10
57.49984943223962
 20
-97.05574677478121
 30
0.0
  0
VERTEX
  5
A0
330
9E
100
AcDbEntity
  8
\U+30EC\U+30A4\U+30E4\U+30FC 1
 62
     7
420
 16777215
370
    25
100
AcDbVertex
100
AcDb2dVertex
 10
107.4998982478646
 20
-97.05574677478121
 30
0.0
  0
SEQEND
  5
A1
330
9E
100
AcDbEntity
  8
\U+30EC\U+30A4\U+30E4\U+30FC 1
370
    25
  0
ENDBLK
  5
9D
330
9A
100
AcDbEntity
  8
0
100
AcDbBlockEnd
  0
BLOCK
  5
A4
330
A2
100
AcDbEntity
  8
0
100
AcDbBlockBegin
  2
block 14
 70
     0
 71
     0
 10
0.0
 20
0.0
 30
0.0
  3
block 14
  1

  0
POLYLINE
  5
A6
330
A2
100
AcDbEntity
  8
\U+30EC\U+30A4\U+30E4\U+30FC 1
 62
     7
420
 16777215
370
    25
100
AcDb2dPolyline
 66
     1
 10
0.0
 20
0.0
 30
0.0
  0
VERTEX
  5
A7
330
A6
100
AcDbEntity
  8
\U+30EC\U+30A4\U+30E4\U+30FC 1
 62
     7
420
 16777215
370
    25
100
AcDbVertex
100
AcDb2dVertex
 10
312.4997883333334
 20
-176.0540255636254
 30
0.0
  0
VERTEX
  5
A8
330
A6
100
AcDbEntity
  8
\U+30EC\U+30A4\U+30E4\U+30FC 1
 62
     7
420
 16777215
370
    25
100
AcDbVertex
100
AcDb2dVertex
 10
362.4998371489584
 20
-176.0540255636254
 30
0.0
  0
VERTEX
  5
A9
330
A6
100
AcDbEntity
  8
\U+30EC\U+30A4\U+30E4\U+30FC 1
 62
     7
420
 16777215
370
    25
100
AcDbVertex
100
AcDb2dVertex
 10
362.4998371489584
 20
-172.0539251957018
 30
0.0
  0
VERTEX
  5
AA
330
A6
100
AcDbEntity
  8
\U+30EC\U+30A4\U+30E4\U+30FC 1
 62
     7
420
 16777215
370
    25
100
AcDbVertex
100
AcDb2dVertex
 10
312.4997883333334
 20
-172.0539251957018
 30
0.0
  0
VERTEX
  5
AB
330
A6
100
AcDbEntity
  8
\U+30EC\U+30A4\U+30E4\U+30FC 1
 62
     7
420
 16777215
370
    25
100
AcDbVertex
100
AcDb2dVertex
 10
312.4997883333334
 20
-176.0540255636254
 30
0.0
  0
SEQEND
  5
AC
330
A6
100
AcDbEntity
  8
\U+30EC\U+30A4\U+30E4\U+30FC 1
370
    25
  0
ENDBLK
  5
A5
330
A2
100
AcDbEntity
  8
0
100
AcDbBlockEnd
  0
BLOCK
  5
AF
330
AD
100
AcDbEntity
  8
0
100
AcDbBlockBegin
  2
block 15
 70
     0
 71
     0
 10
0.0
 20
0.0
 30
0.0
  3
block 15
  1

  0
POLYLINE
  5
B1
330
AD
100
AcDbEntity
  8
\U+30EC\U+30A4\U+30E4\U+30FC 1
 62
     7
420
 16777215
370
    25
100
AcDb2dPolyline
 66
     1
 10
0.0
 20
0.0
 30
0.0
  0
VERTEX
  5
B2
330
B1
100
AcDbEntity
  8
\U+30EC\U+30A4\U+30E4\U+30FC 1
 62
     7
420
 16777215
370
    25
100
AcDbVertex
100
AcDb2dVertex
 10
227.4999809544098
 20
-176.0540255636254
 30
0.0
  0
VERTEX
  5
B3
330
B1
100
AcDbEntity
  8
\U+30EC\U+30A4\U+30E4\U+30FC 1
 62
     7
420
 16777215
370
    25
100
AcDbVertex
100
AcDb2dVertex
 10
277.5000297700347
 20
-176.0540255636254
 30
0.0
  0
VERTEX
  5
B4
330
B1
100
AcDbEntity
  8
\U+30EC\U+30A4\U+30E4\U+30FC 1
 62
     7
420
 16777215
370
    25
100
AcDbVertex
100
AcDb2dVertex
 10
277.5000297700347
 20
-172.0539251957018
 30
0.0
  0
VERTEX
  5
B5
330
B1
100
AcDbEntity
  8
\U+30EC\U+30A4\U+30E4\U+30FC 1
 62
     7
420
 16777215
370
    25
100
AcDbVertex
100
AcDb2dVertex
 10
227.4999809544098
 20
-172.0539251957018
 30
0.0
  0
VERTEX
  5
B6
330
B1
100
AcDbEntity
  8
\U+30EC\U+30A4\U+30E4\U+30FC 1
 62
     7
420
 16777215
370
    25
100
AcDbVertex
100
AcDb2dVertex
 10
227.4999809544098
 20
-176.0540255636254
 30
0.0
  0
SEQEND
  5
B7
330
B1
100
AcDbEntity
  8
\U+30EC\U+30A4\U+30E4\U+30FC 1
370
    25
  0
ENDBLK
  5
B0
330
AD
100
AcDbEntity
  8
0
100
AcDbBlockEnd
  0
BLOCK
  5
BA
330
B8
100
AcDbEntity
  8
0
100
AcDbBlockBegin
  2
block 16
 70
     0
 71
     0
 10
0.0
 20
0.0
 30
0.0
  3
block 16
  1

  0
POLYLINE
  5
BC
330
B8
100
AcDbEntity
  8
\U+30EC\U+30A4\U+30E4\U+30FC 1
 62
     7
420
 16777215
370
    25
100
AcDb2dPolyline
 66
     1
 10
0.0
 20
0.0
 30
0.0
  0
VERTEX
  5
BD
330
BC
100
AcDbEntity
  8
\U+30EC\U+30A4\U+30E4\U+30FC 1
 62
     7
420
 16777215
370
    25
100
AcDbVertex
100
AcDb2dVertex
 10
142.5000013207118
 20
-176.0540255636254
 30
0.0
  0
VERTEX
  5
BE
330
BC
100
AcDbEntity
  8
\U+30EC\U+30A4\U+30E4\U+30FC 1
 62
     7
420
 16777215
370
    25
100
AcDbVertex
100
AcDb2dVertex
 10
192.4998778815625
 20
-176.0540255636254
 30
0.0
  0
VERTEX
  5
BF
330
BC
100
AcDbEntity
  8
\U+30EC\U+30A4\U+30E4\U+30FC 1
 62
     7
420
 16777215
370
    25
100
AcDbVertex
100
AcDb2dVertex
 10
192.4998778815625
 20
-172.0539251957018
 30
0.0
  0
VERTEX
  5
C0
330
BC
100
AcDbEntity
  8
\U+30EC\U+30A4\U+30E4\U+30FC 1
 62
     7
420
 16777215
370
    25
100
AcDbVertex
100
AcDb2dVertex
 10
142.5000013207118
 20
-172.0539251957018
 30
0.0
  0
VERTEX
  5
C1
330
BC
100
AcDbEntity
  8
\U+30EC\U+30A4\U+30E4\U+30FC 1
 62
     7
420
 16777215
370
    25
100
AcDbVertex
100
AcDb2dVertex
 10
142.5000013207118
 20
-176.0540255636254
 30
0.0
  0
SEQEND
  5
C2
330
BC
100
AcDbEntity
  8
\U+30EC\U+30A4\U+30E4\U+30FC 1
370
    25
  0
ENDBLK
  5
BB
330
B8
100
AcDbEntity
  8
0
100
AcDbBlockEnd
  0
BLOCK
  5
C5
330
C3
100
AcDbEntity
  8
0
100
AcDbBlockBegin
  2
block 17
 70
     0
 71
     0
 10
0.0
 20
0.0
 30
0.0
  3
block 17
  1

  0
POLYLINE
  5
C7
330
C3
100
AcDbEntity
  8
\U+30EC\U+30A4\U+30E4\U+30FC 1
 62
     7
420
 16777215
370
    25
100
AcDb2dPolyline
 66
     1
 10
0.0
 20
0.0
 30
0.0
  0
VERTEX
  5
C8
330
C7
100
AcDbEntity
  8
\U+30EC\U+30A4\U+30E4\U+30FC 1
 62
     7
420
 16777215
370
    25
100
AcDbVertex
100
AcDb2dVertex
 10
57.49984943223962
 20
-172.0539251957018
 30
0.0
  0
VERTEX
  5
C9
330
C7
100
AcDbEntity
  8
\U+30EC\U+30A4\U+30E4\U+30FC 1
 62
     7
420
 16777215
370
    25
100
AcDbVertex
100
AcDb2dVertex
 10
57.49984943223962
 20
-176.0540255636254
 30
0.0
  0
VERTEX
  5
CA
330
C7
100
AcDbEntity
  8
\U+30EC\U+30A4\U+30E4\U+30FC 1
 62
     7
420
 16777215
370
    25
100
AcDbVertex
100
AcDb2dVertex
 10
107.4998982478646
 20
-176.0540255636254
 30
0.0
  0
VERTEX
  5
CB
330
C7
100
AcDbEntity
  8
\U+30EC\U+30A4\U+30E4\U+30FC 1
 62
     7
420
 16777215
370
    25
100
AcDbVertex
100
AcDb2dVertex
 10
107.4998982478646
 20
-172.0539251957018
 30
0.0
  0
VERTEX
  5
CC
330
C7
100
AcDbEntity
  8
\U+30EC\U+30A4\U+30E4\U+30FC 1
 62
     7
420
 16777215
370
    25
100
AcDbVertex
100
AcDb2dVertex
 10
57.49984943223962
 20
-172.0539251957018
 30
0.0
  0
SEQEND
  5
CD
330
C7
100
AcDbEntity
  8
\U+30EC\U+30A4\U+30E4\U+30FC 1
370
    25
  0
ENDBLK
  5
C6
330
C3
100
AcDbEntity
  8
0
100
AcDbBlockEnd
  0
BLOCK
  5
DF
330
DD
100
AcDbEntity
  8
0
100
AcDbBlockBegin
  2
block 18
 70
     0
 71
     0
 10
0.0
 20
0.0
 30
0.0
  3
block 18
  1

  0
SPLINE
  5
E1
330
DD
100
AcDbEntity
  8
\U+30EC\U+30A4\U+30E4\U+30FC 1
 62
     7
420
 16777215
370
    25
100
AcDbSpline
210
0.0
220
0.0
230
1.0
 70
    11
 71
     3
 72
    20
 73
    16
 74
     0
 42
0.0000000001
 43
0.0000000001
 40
0.0
 40
0.0
 40
0.0
 40
0.0
 40
1.0
 40
1.0
 40
1.0
 40
2.0
 40
2.0
 40
2.0
 40
3.0
 40
3.0
 40
3.0
 40
4.0
 40
4.0
 40
4.0
 40
5.0
 40
5.0
 40
5.0
 40
5.0
 10
214.0499836704458
 20
-146.0577514283293
 30
0.0
 10
214.0499836704458
 20
-143.8208509297566
 30
0.0
 10
212.2368299165589
 20
-142.0076971758696
 30
0.0
 10
209.9999294179862
 20
-142.0076971758696
 30
0.0
 10
207.763373428962
 20
-142.0076971758696
 30
0.0
 10
205.9498751655264
 20
-143.8208509297566
 30
0.0
 10
205.9498751655264
 20
-146.0577514283293
 30
0.0
 10
205.9498751655264
 20
-148.2943074173535
 30
0.0
 10
207.763373428962
 20
-150.1076334260148
 30
0.0
 10
209.9999294179862
 20
-150.1076334260148
 30
0.0
 10
212.2368299165589
 20
-150.1076334260148
 30
0.0
 10
214.0499836704458
 20
-148.2943074173535
 30
0.0
 10
214.0499836704458
 20
-146.0577514283293
 30
0.0
 10
214.0499836704458
 20
-146.0577514283293
 30
0.0
 10
214.0499836704458
 20
-146.0577514283293
 30
0.0
 10
214.0499836704458
 20
-146.0577514283293
 30
0.0
  0
ENDBLK
  5
E0
330
DD
100
AcDbEntity
  8
0
100
AcDbBlockEnd
  0
BLOCK
  5
E4
330
E2
100
AcDbEntity
  8
0
100
AcDbBlockBegin
  2
block 19
 70
     0
 71
     0
 10
0.0
 20
0.0
 30
0.0
  3
block 19
  1

  0
SPLINE
  5
E6
330
E2
100
AcDbEntity
  8
\U+30EC\U+30A4\U+30E4\U+30FC 1
 62
     7
420
 16777215
370
    25
100
AcDbSpline
210
0.0
220
0.0
230
1.0
 70
    11
 71
     3
 72
    20
 73
    16
 74
     0
 42
0.0000000001
 43
0.0000000001
 40
0.0
 40
0.0
 40
0.0
 40
0.0
 40
1.0
 40
1.0
 40
1.0
 40
2.0
 40
2.0
 40
2.0
 40
3.0
 40
3.0
 40
3.0
 40
4.0
 40
4.0
 40
4.0
 40
5.0
 40
5.0
 40
5.0
 40
5.0
 10
66.374932166566
 20
-146.0577514283293
 30
0.0
 10
66.374932166566
 20
-142.536863842404
 30
0.0
 10
63.5206705570365
 20
-139.6826022328745
 30
0.0
 10
59.99995522588543
 20
-139.6826022328745
 30
0.0
 10
56.4790676399601
 20
-139.6826022328745
 30
0.0
 10
53.62497828520487
 20
-142.536863842404
 30
0.0
 10
53.62497828520487
 20
-146.0577514283293
 30
0.0
 10
53.62497828520487
 20
-149.5784667594804
 30
0.0
 10
56.4790676399601
 20
-152.4323838594614
 30
0.0
 10
59.99995522588543
 20
-152.4323838594614
 30
0.0
 10
63.5206705570365
 20
-152.4323838594614
 30
0.0
 10
66.374932166566
 20
-149.5784667594804
 30
0.0
 10
66.374932166566
 20
-146.0577514283293
 30
0.0
 10
66.374932166566
 20
-146.0577514283293
 30
0.0
 10
66.374932166566
 20
-146.0577514283293
 30
0.0
 10
66.374932166566
 20
-146.0577514283293
 30
0.0
  0
ENDBLK
  5
E5
330
E2
100
AcDbEntity
  8
0
100
AcDbBlockEnd
  0
BLOCK
  5
E9
330
E7
100
AcDbEntity
  8
0
100
AcDbBlockBegin
  2
block 20
 70
     0
 71
     0
 10
0.0
 20
0.0
 30
0.0
  3
block 20
  1

  0
SPLINE
  5
EB
330
E7
100
AcDbEntity
  8
\U+30EC\U+30A4\U+30E4\U+30FC 1
 62
     7
420
 16777215
370
    25
100
AcDbSpline
210
0.0
220
0.0
230
1.0
 70
    11
 71
     3
 72
    20
 73
    16
 74
     0
 42
0.0000000001
 43
0.0000000001
 40
0.0
 40
0.0
 40
0.0
 40
0.0
 40
1.0
 40
1.0
 40
1.0
 40
2.0
 40
2.0
 40
2.0
 40
3.0
 40
3.0
 40
3.0
 40
4.0
 40
4.0
 40
4.0
 40
5.0
 40
5.0
 40
5.0
 40
5.0
 10
366.3748805507674
 20
-146.0577514283293
 30
0.0
 10
366.3748805507674
 20
-142.536863842404
 30
0.0
 10
363.5206189412379
 20
-139.6826022328745
 30
0.0
 10
360.0000758648611
 20
-139.6826022328745
 30
0.0
 10
356.4791882789358
 20
-139.6826022328745
 30
0.0
 10
353.6249266694063
 20
-142.536863842404
 30
0.0
 10
353.6249266694063
 20
-146.0577514283293
 30
0.0
 10
353.6249266694063
 20
-149.5784667594804
 30
0.0
 10
356.4791882789358
 20
-152.4323838594614
 30
0.0
 10
360.0000758648611
 20
-152.4323838594614
 30
0.0
 10
363.5206189412379
 20
-152.4323838594614
 30
0.0
 10
366.3748805507674
 20
-149.5784667594804
 30
0.0
 10
366.3748805507674
 20
-146.0577514283293
 30
0.0
 10
366.3748805507674
 20
-146.0577514283293
 30
0.0
 10
366.3748805507674
 20
-146.0577514283293
 30
0.0
 10
366.3748805507674
 20
-146.0577514283293
 30
0.0
  0
ENDBLK
  5
EA
330
E7
100
AcDbEntity
  8
0
100
AcDbBlockEnd
  0
BLOCK
  5
EE
330
EC
100
AcDbEntity
  8
0
100
AcDbBlockBegin
  2
block 21
 70
     0
 71
     0
 10
0.0
 20
0.0
 30
0.0
  3
block 21
  1

  0
SPLINE
  5
F0
330
EC
100
AcDbEntity
  8
\U+30EC\U+30A4\U+30E4\U+30FC 1
 62
     7
420
 16777215
370
    25
100
AcDbSpline
210
0.0
220
0.0
230
1.0
 70
    11
 71
     3
 72
    20
 73
    16
 74
     0
 42
0.0000000001
 43
0.0000000001
 40
0.0
 40
0.0
 40
0.0
 40
0.0
 40
1.0
 40
1.0
 40
1.0
 40
2.0
 40
2.0
 40
2.0
 40
3.0
 40
3.0
 40
3.0
 40
4.0
 40
4.0
 40
4.0
 40
5.0
 40
5.0
 40
5.0
 40
5.0
 10
195.9435953286183
 20
-130.5014227646837
 30
0.0
 10
195.9435953286183
 20
-129.6728773004811
 30
0.0
 10
195.2721462185431
 20
-129.0014281904059
 30
0.0
 10
194.4436007543405
 20
-129.0014281904059
 30
0.0
 10
193.6150552901379
 20
-129.0014281904059
 30
0.0
 10
192.9436061800627
 20
-129.6728773004811
 30
0.0
 10
192.9436061800627
 20
-130.5014227646837
 30
0.0
 10
192.9436061800627
 20
-131.3296237193377
 30
0.0
 10
193.6150552901379
 20
-132.0014173389615
 30
0.0
 10
194.4436007543405
 20
-132.0014173389615
 30
0.0
 10
195.2721462185431
 20
-132.0014173389615
 30
0.0
 10
195.9435953286183
 20
-131.3296237193377
 30
0.0
 10
195.9435953286183
 20
-130.5014227646837
 30
0.0
 10
195.9435953286183
 20
-130.5014227646837
 30
0.0
 10
195.9435953286183
 20
-130.5014227646837
 30
0.0
 10
195.9435953286183
 20
-130.5014227646837
 30
0.0
  0
ENDBLK
  5
EF
330
EC
100
AcDbEntity
  8
0
100
AcDbBlockEnd
  0
BLOCK
  5
F3
330
F1
100
AcDbEntity
  8
0
100
AcDbBlockBegin
  2
block 22
 70
     0
 71
     0
 10
0.0
 20
0.0
 30
0.0
  3
block 22
  1

  0
SPLINE
  5
F5
330
F1
100
AcDbEntity
  8
\U+30EC\U+30A4\U+30E4\U+30FC 1
 62
     7
420
 16777215
370
    25
100
AcDbSpline
210
0.0
220
0.0
230
1.0
 70
    11
 71
     3
 72
    20
 73
    16
 74
     0
 42
0.0000000001
 43
0.0000000001
 40
0.0
 40
0.0
 40
0.0
 40
0.0
 40
1.0
 40
1.0
 40
1.0
 40
2.0
 40
2.0
 40
2.0
 40
3.0
 40
3.0
 40
3.0
 40
4.0
 40
4.0
 40
4.0
 40
5.0
 40
5.0
 40
5.0
 40
5.0
 10
195.9435953286183
 20
-161.6142523467492
 30
0.0
 10
195.9435953286183
 20
-160.7853623729981
 30
0.0
 10
195.2721462185431
 20
-160.1142577724714
 30
0.0
 10
194.4436007543405
 20
-160.1142577724714
 30
0.0
 10
193.6150552901379
 20
-160.1142577724714
 30
0.0
 10
192.9436061800627
 20
-160.7853623729981
 30
0.0
 10
192.9436061800627
 20
-161.6142523467492
 30
0.0
 10
192.9436061800627
 20
-162.4424533014033
 30
0.0
 10
193.6150552901379
 20
-163.114246921027
 30
0.0
 10
194.4436007543405
 20
-163.114246921027
 30
0.0
 10
195.2721462185431
 20
-163.114246921027
 30
0.0
 10
195.9435953286183
 20
-162.4424533014033
 30
0.0
 10
195.9435953286183
 20
-161.6142523467492
 30
0.0
 10
195.9435953286183
 20
-161.6142523467492
 30
0.0
 10
195.9435953286183
 20
-161.6142523467492
 30
0.0
 10
195.9435953286183
 20
-161.6142523467492
 30
0.0
  0
ENDBLK
  5
F4
330
F1
100
AcDbEntity
  8
0
100
AcDbBlockEnd
  0
BLOCK
  5
F8
330
F6
100
AcDbEntity
  8
0
100
AcDbBlockBegin
  2
block 23
 70
     0
 71
     0
 10
0.0
 20
0.0
 30
0.0
  3
block 23
  1

  0
SPLINE
  5
FA
330
F6
100
AcDbEntity
  8
\U+30EC\U+30A4\U+30E4\U+30FC 1
 62
     7
420
 16777215
370
    25
100
AcDbSpline
210
0.0
220
0.0
230
1.0
 70
    11
 71
     3
 72
    20
 73
    16
 74
     0
 42
0.0000000001
 43
0.0000000001
 40
0.0
 40
0.0
 40
0.0
 40
0.0
 40
1.0
 40
1.0
 40
1.0
 40
2.0
 40
2.0
 40
2.0
 40
3.0
 40
3.0
 40
3.0
 40
4.0
 40
4.0
 40
4.0
 40
5.0
 40
5.0
 40
5.0
 40
5.0
 10
227.0562526559096
 20
-161.6142523467492
 30
0.0
 10
227.0562526559096
 20
-160.7853623729981
 30
0.0
 10
226.3848035458344
 20
-160.1142577724714
 30
0.0
 10
225.5562580816318
 20
-160.1142577724714
 30
0.0
 10
224.7277126174292
 20
-160.1142577724714
 30
0.0
 10
224.056263507354
 20
-160.7853623729981
 30
0.0
 10
224.056263507354
 20
-161.6142523467492
 30
0.0
 10
224.056263507354
 20
-162.4424533014033
 30
0.0
 10
224.7277126174292
 20
-163.114246921027
 30
0.0
 10
225.5562580816318
 20
-163.114246921027
 30
0.0
 10
226.3848035458344
 20
-163.114246921027
 30
0.0
 10
227.0562526559096
 20
-162.4424533014033
 30
0.0
 10
227.0562526559096
 20
-161.6142523467492
 30
0.0
 10
227.0562526559096
 20
-161.6142523467492
 30
0.0
 10
227.0562526559096
 20
-161.6142523467492
 30
0.0
 10
227.0562526559096
 20
-161.6142523467492
 30
0.0
  0
ENDBLK
  5
F9
330
F6
100
AcDbEntity
  8
0
100
AcDbBlockEnd
  0
BLOCK
  5
FD
330
FB
100
AcDbEntity
  8
0
100
AcDbBlockBegin
  2
block 24
 70
     0
 71
     0
 10
0.0
 20
0.0
 30
0.0
  3
block 24
  1

  0
SPLINE
  5
FF
330
FB
100
AcDbEntity
  8
\U+30EC\U+30A4\U+30E4\U+30FC 1
 62
     7
420
 16777215
370
    25
100
AcDbSpline
210
0.0
220
0.0
230
1.0
 70
    11
 71
     3
 72
    20
 73
    16
 74
     0
 42
0.0000000001
 43
0.0000000001
 40
0.0
 40
0.0
 40
0.0
 40
0.0
 40
1.0
 40
1.0
 40
1.0
 40
2.0
 40
2.0
 40
2.0
 40
3.0
 40
3.0
 40
3.0
 40
4.0
 40
4.0
 40
4.0
 40
5.0
 40
5.0
 40
5.0
 40
5.0
 10
227.0562526559096
 20
-130.5014227646837
 30
0.0
 10
227.0562526559096
 20
-129.6728773004811
 30
0.0
 10
226.3848035458344
 20
-129.0014281904059
 30
0.0
 10
225.5562580816318
 20
-129.0014281904059
 30
0.0
 10
224.7277126174292
 20
-129.0014281904059
 30
0.0
 10
224.056263507354
 20
-129.6728773004811
 30
0.0
 10
224.056263507354
 20
-130.5014227646837
 30
0.0
 10
224.056263507354
 20
-131.3296237193377
 30
0.0
 10
224.7277126174292
 20
-132.0014173389615
 30
0.0
 10
225.5562580816318
 20
-132.0014173389615
 30
0.0
 10
226.3848035458344
 20
-132.0014173389615
 30
0.0
 10
227.0562526559096
 20
-131.3296237193377
 30
0.0
 10
227.0562526559096
 20
-130.5014227646837
 30
0.0
 10
227.0562526559096
 20
-130.5014227646837
 30
0.0
 10
227.0562526559096
 20
-130.5014227646837
 30
0.0
 10
227.0562526559096
 20
-130.5014227646837
 30
0.0
  0
ENDBLK
  5
FE
330
FB
100
AcDbEntity
  8
0
100
AcDbBlockEnd
  0
BLOCK
  5
102
330
100
100
AcDbEntity
  8
0
100
AcDbBlockBegin
  2
block 25
 70
     0
 71
     0
 10
0.0
 20
0.0
 30
0.0
  3
block 25
  1

  0
POLYLINE
  5
104
330
100
100
AcDbEntity
  8
\U+30EC\U+30A4\U+30E4\U+30FC 1
 62
     7
420
 16777215
370
    25
100
AcDb2dPolyline
 66
     1
 10
0.0
 20
0.0
 30
0.0
  0
VERTEX
  5
105
330
104
100
AcDbEntity
  8
\U+30EC\U+30A4\U+30E4\U+30FC 1
 62
     7
420
 16777215
370
    25
100
AcDbVertex
100
AcDb2dVertex
 10
57.49984943223962
 20
-176.0540255636254
 30
0.0
  0
VERTEX
  5
106
330
104
100
AcDbEntity
  8
\U+30EC\U+30A4\U+30E4\U+30FC 1
 62
     7
420
 16777215
370
    25
100
AcDbVertex
100
AcDb2dVertex
 10
107.4998982478646
 20
-176.0540255636254
 30
0.0
  0
SEQEND
  5
107
330
104
100
AcDbEntity
  8
\U+30EC\U+30A4\U+30E4\U+30FC 1
370
    25
  0
ENDBLK
  5
103
330
100
100
AcDbEntity
  8
0
100
AcDbBlockEnd
  0
BLOCK
  5
10A
330
108
100
AcDbEntity
  8
0
100
AcDbBlockBegin
  2
block 26
 70
     0
 71
     0
 10
0.0
 20
0.0
 30
0.0
  3
block 26
  1

  0
SPLINE
  5
10C
330
108
100
AcDbEntity
  8
\U+30EC\U+30A4\U+30E4\U+30FC 1
370
     0
100
AcDbSpline
210
0.0
220
0.0
230
1.0
 70
    11
 71
     3
 72
    41
 73
    37
 74
     0
 42
0.0000000001
 43
0.0000000001
 40
0.0
 40
0.0
 40
0.0
 40
0.0
 40
1.0
 40
1.0
 40
1.0
 40
2.0
 40
2.0
 40
2.0
 40
3.0
 40
3.0
 40
3.0
 40
4.0
 40
4.0
 40
4.0
 40
5.0
 40
5.0
 40
5.0
 40
6.0
 40
6.0
 40
6.0
 40
7.0
 40
7.0
 40
7.0
 40
8.0
 40
8.0
 40
8.0
 40
9.0
 40
9.0
 40
9.0
 40
10.0
 40
10.0
 40
10.0
 40
11.0
 40
11.0
 40
11.0
 40
12.0
 40
12.0
 40
12.0
 40
12.0
 10
17.17845187287553
 20
-11.59154052444586
 30
0.0
 10
17.41840277342318
 20
-11.14695095207437
 30
0.0
 10
17.85592990004991
 20
-10.87875026854767
 30
0.0
 10
18.4557210240319
 20
-10.87875026854767
 30
0.0
 10
19.36608750600917
 20
-10.87875026854767
 30
0.0
 10
20.00825330445974
 20
-11.66216498189349
 30
0.0
 10
20.00825330445974
 20
-12.84779459314222
 30
0.0
 10
20.00825330445974
 20
-14.24512532195955
 30
0.0
 10
19.15438638844057
 20
-14.90141601189965
 30
0.0
 10
18.35701903837949
 20
-14.90141601189965
 30
0.0
 10
17.79943033409181
 20
-14.90141601189965
 30
0.0
 10
17.39015299044413
 20
-14.67559000284152
 30
0.0
 10
17.11488986117267
 20
-14.18156331025669
 30
0.0
 10
17.11488986117267
 20
-14.18156331025669
 30
0.0
 10
17.09370252393838
 20
-14.18156331025669
 30
0.0
 10
17.09370252393838
 20
-14.18156331025669
 30
0.0
 10
17.09370252393838
 20
-14.18156331025669
 30
0.0
 10
17.05839029521457
 20
-14.8166666629625
 30
0.0
 10
17.05839029521457
 20
-14.8166666629625
 30
0.0
 10
17.05839029521457
 20
-14.8166666629625
 30
0.0
 10
16.55041096591448
 20
-14.8166666629625
 30
0.0
 10
16.55041096591448
 20
-14.8166666629625
 30
0.0
 10
16.56453585740401
 20
-14.56259087092532
 30
0.0
 10
16.57848849411927
 20
-14.17450086451193
 30
0.0
 10
16.57848849411927
 20
-13.86392550651666
 30
0.0
 10
16.57848849411927
 20
-13.86392550651666
 30
0.0
 10
16.57848849411927
 20
-9.17101643650933
 30
0.0
 10
16.57848849411927
 20
-9.17101643650933
 30
0.0
 10
16.57848849411927
 20
-9.17101643650933
 30
0.0
 10
17.164326981386
 20
-9.17101643650933
 30
0.0
 10
17.164326981386
 20
-9.17101643650933
 30
0.0
 10
17.164326981386
 20
-9.17101643650933
 30
0.0
 10
17.164326981386
 20
-11.59154052444586
 30
0.0
 10
17.164326981386
 20
-11.59154052444586
 30
0.0
 10
17.164326981386
 20
-11.59154052444586
 30
0.0
 10
17.17845187287553
 20
-11.59154052444586
 30
0.0
 10
17.17845187287553
 20
-11.59154052444586
 30
0.0
  0
SPLINE
  5
10D
330
108
100
AcDbEntity
  8
\U+30EC\U+30A4\U+30E4\U+30FC 1
370
     0
100
AcDbSpline
210
0.0
220
0.0
230
1.0
 70
    11
 71
     3
 72
    20
 73
    16
 74
     0
 42
0.0000000001
 43
0.0000000001
 40
0.0
 40
0.0
 40
0.0
 40
0.0
 40
1.0
 40
1.0
 40
1.0
 40
2.0
 40
2.0
 40
2.0
 40
3.0
 40
3.0
 40
3.0
 40
4.0
 40
4.0
 40
4.0
 40
5.0
 40
5.0
 40
5.0
 40
5.0
 10
17.164326981386
 20
-13.313571502748
 30
0.0
 10
17.164326981386
 20
-13.88511284375094
 30
0.0
 10
17.59479166226797
 20
-14.42151421080434
 30
0.0
 10
18.2440199064633
 20
-14.42151421080434
 30
0.0
 10
18.9921223910853
 20
-14.42151421080434
 30
0.0
 10
19.40846218047774
 20
-13.77934841235377
 30
0.0
 10
19.40846218047774
 20
-12.8689819303765
 30
0.0
 10
19.40846218047774
 20
-12.06437987979641
 30
0.0
 10
19.01330972831959
 20
-11.35865206964298
 30
0.0
 10
18.26520724369759
 20
-11.35865206964298
 30
0.0
 10
17.59479166226797
 20
-11.35865206964298
 30
0.0
 10
17.164326981386
 20
-11.98686523137828
 30
0.0
 10
17.164326981386
 20
-12.55134412663647
 30
0.0
 10
17.164326981386
 20
-12.55134412663647
 30
0.0
 10
17.164326981386
 20
-13.313571502748
 30
0.0
 10
17.164326981386
 20
-13.313571502748
 30
0.0
  0
HATCH
  5
10E
330
108
100
AcDbEntity
  8
\U+30EC\U+30A4\U+30E4\U+30FC 1
 62
     7
420
 16777215
100
AcDbHatch
 10
0.0
 20
0.0
 30
0.0
210
0.0
220
0.0
230
1.0
  2
SOLID
 70
     1
 71
     0
 91
        2
 92
        1
 93
        1
 72
     4
 94
        3
 73
     0
 74
     1
 95
       41
 96
       37
 40
0.0
 40
0.0
 40
0.0
 40
0.0
 40
1.0
 40
1.0
 40
1.0
 40
2.0
 40
2.0
 40
2.0
 40
3.0
 40
3.0
 40
3.0
 40
4.0
 40
4.0
 40
4.0
 40
5.0
 40
5.0
 40
5.0
 40
6.0
 40
6.0
 40
6.0
 40
7.0
 40
7.0
 40
7.0
 40
8.0
 40
8.0
 40
8.0
 40
9.0
 40
9.0
 40
9.0
 40
10.0
 40
10.0
 40
10.0
 40
11.0
 40
11.0
 40
11.0
 40
12.0
 40
12.0
 40
12.0
 40
12.0
 10
17.17845187287553
 20
-11.59154052444586
 10
17.41840277342318
 20
-11.14695095207437
 10
17.85592990004991
 20
-10.87875026854767
 10
18.4557210240319
 20
-10.87875026854767
 10
19.36608750600917
 20
-10.87875026854767
 10
20.00825330445974
 20
-11.66216498189349
 10
20.00825330445974
 20
-12.84779459314222
 10
20.00825330445974
 20
-14.24512532195955
 10
19.15438638844057
 20
-14.90141601189965
 10
18.35701903837949
 20
-14.90141601189965
 10
17.79943033409181
 20
-14.90141601189965
 10
17.39015299044413
 20
-14.67559000284152
 10
17.11488986117267
 20
-14.18156331025669
 10
17.11488986117267
 20
-14.18156331025669
 10
17.09370252393838
 20
-14.18156331025669
 10
17.09370252393838
 20
-14.18156331025669
 10
17.09370252393838
 20
-14.18156331025669
 10
17.05839029521457
 20
-14.8166666629625
 10
17.05839029521457
 20
-14.8166666629625
 10
17.05839029521457
 20
-14.8166666629625
 10
16.55041096591448
 20
-14.8166666629625
 10
16.55041096591448
 20
-14.8166666629625
 10
16.56453585740401
 20
-14.56259087092532
 10
16.57848849411927
 20
-14.17450086451193
 10
16.57848849411927
 20
-13.86392550651666
 10
16.57848849411927
 20
-13.86392550651666
 10
16.57848849411927
 20
-9.17101643650933
 10
16.57848849411927
 20
-9.17101643650933
 10
16.57848849411927
 20
-9.17101643650933
 10
17.164326981386
 20
-9.17101643650933
 10
17.164326981386
 20
-9.17101643650933
 10
17.164326981386
 20
-9.17101643650933
 10
17.164326981386
 20
-11.59154052444586
 10
17.164326981386
 20
-11.59154052444586
 10
17.164326981386
 20
-11.59154052444586
 10
17.17845187287553
 20
-11.59154052444586
 10
17.17845187287553
 20
-11.59154052444586
 97
        0
 92
        1
 93
        1
 72
     4
 94
        3
 73
     0
 74
     1
 95
       20
 96
       16
 40
0.0
 40
0.0
 40
0.0
 40
0.0
 40
1.0
 40
1.0
 40
1.0
 40
2.0
 40
2.0
 40
2.0
 40
3.0
 40
3.0
 40
3.0
 40
4.0
 40
4.0
 40
4.0
 40
5.0
 40
5.0
 40
5.0
 40
5.0
 10
17.164326981386
 20
-13.313571502748
 10
17.164326981386
 20
-13.88511284375094
 10
17.59479166226797
 20
-14.42151421080434
 10
18.2440199064633
 20
-14.42151421080434
 10
18.9921223910853
 20
-14.42151421080434
 10
19.40846218047774
 20
-13.77934841235377
 10
19.40846218047774
 20
-12.8689819303765
 10
19.40846218047774
 20
-12.06437987979641
 10
19.01330972831959
 20
-11.35865206964298
 10
18.26520724369759
 20
-11.35865206964298
 10
17.59479166226797
 20
-11.35865206964298
 10
17.164326981386
 20
-11.98686523137828
 10
17.164326981386
 20
-12.55134412663647
 10
17.164326981386
 20
-12.55134412663647
 10
17.164326981386
 20
-13.313571502748
 10
17.164326981386
 20
-13.313571502748
 97
        0
 75
     2
 76
     1
 98
        0
  0
SPLINE
  5
10F
330
108
100
AcDbEntity
  8
\U+30EC\U+30A4\U+30E4\U+30FC 1
370
     0
100
AcDbSpline
210
0.0
220
0.0
230
1.0
 70
    11
 71
     3
 72
    44
 73
    40
 74
     0
 42
0.0000000001
 43
0.0000000001
 40
0.0
 40
0.0
 40
0.0
 40
0.0
 40
1.0
 40
1.0
 40
1.0
 40
2.0
 40
2.0
 40
2.0
 40
3.0
 40
3.0
 40
3.0
 40
4.0
 40
4.0
 40
4.0
 40
5.0
 40
5.0
 40
5.0
 40
6.0
 40
6.0
 40
6.0
 40
7.0
 40
7.0
 40
7.0
 40
8.0
 40
8.0
 40
8.0
 40
9.0
 40
9.0
 40
9.0
 40
10.0
 40
10.0
 40
10.0
 40
11.0
 40
11.0
 40
11.0
 40
12.0
 40
12.0
 40
12.0
 40
13.0
 40
13.0
 40
13.0
 40
13.0
 10
23.40873480317559
 20
-13.89923773524047
 30
0.0
 10
23.40873480317559
 20
-14.2168755389805
 30
0.0
 10
23.41579724892036
 20
-14.5484659794358
 30
0.0
 10
23.46523436913369
 20
-14.8166666629625
 30
0.0
 10
23.46523436913369
 20
-14.8166666629625
 30
0.0
 10
22.92883300208029
 20
-14.8166666629625
 30
0.0
 10
22.92883300208029
 20
-14.8166666629625
 30
0.0
 10
22.92883300208029
 20
-14.8166666629625
 30
0.0
 10
22.87250569089646
 20
-14.32263997037767
 30
0.0
 10
22.87250569089646
 20
-14.32263997037767
 30
0.0
 10
22.87250569089646
 20
-14.32263997037767
 30
0.0
 10
22.85131835366217
 20
-14.32263997037767
 30
0.0
 10
22.85131835366217
 20
-14.32263997037767
 30
0.0
 10
22.65374212758309
 20
-14.62615288262819
 30
0.0
 10
22.25841742065067
 20
-14.90141601189965
 30
0.0
 10
21.71512586262677
 20
-14.90141601189965
 30
0.0
 10
20.9811482694943
 20
-14.90141601189965
 30
0.0
 10
20.5930582630809
 20
-14.36501464484625
 30
0.0
 10
20.5930582630809
 20
-13.80742594055856
 30
0.0
 10
20.5930582630809
 20
-12.88310682186603
 30
0.0
 10
21.39748805888674
 20
-12.38201768353644
 30
0.0
 10
22.82306857068312
 20
-12.3890801292812
 30
0.0
 10
22.82306857068312
 20
-12.06437987979641
 30
0.0
 10
22.82306857068312
 20
-11.33040228666393
 30
0.0
 10
21.94801431742966
 20
-11.33040228666393
 30
0.0
 10
21.6162516222001
 20
-11.33040228666393
 30
0.0
 10
21.27053629025528
 20
-11.42221408134584
 30
0.0
 10
21.00939805247335
 20
-11.60566541593539
 30
0.0
 10
21.00939805247335
 20
-11.60566541593539
 30
0.0
 10
20.86832139235236
 20
-11.20345051803247
 30
0.0
 10
20.86832139235236
 20
-11.20345051803247
 30
0.0
 10
21.17872449557338
 20
-10.99881184620863
 30
0.0
 10
21.60918917645534
 20
-10.87875026854767
 30
0.0
 10
22.03965385733731
 20
-10.87875026854767
 30
0.0
 10
23.12658148293363
 20
-10.87875026854767
 30
0.0
 10
23.40873480317559
 20
-11.64804009040396
 30
0.0
 10
23.40873480317559
 20
-12.41026746651549
 30
0.0
 10
23.40873480317559
 20
-12.41026746651549
 30
0.0
 10
23.40873480317559
 20
-13.89923773524047
 30
0.0
 10
23.40873480317559
 20
-13.89923773524047
 30
0.0
  0
SPLINE
  5
110
330
108
100
AcDbEntity
  8
\U+30EC\U+30A4\U+30E4\U+30FC 1
370
     0
100
AcDbSpline
210
0.0
220
0.0
230
1.0
 70
    11
 71
     3
 72
    17
 73
    13
 74
     0
 42
0.0000000001
 43
0.0000000001
 40
0.0
 40
0.0
 40
0.0
 40
0.0
 40
1.0
 40
1.0
 40
1.0
 40
2.0
 40
2.0
 40
2.0
 40
3.0
 40
3.0
 40
3.0
 40
4.0
 40
4.0
 40
4.0
 40
4.0
 10
22.83013101642788
 20
-12.81954481016317
 30
0.0
 10
22.10321586904017
 20
-12.81954481016317
 30
0.0
 10
21.1928493870629
 20
-12.92530924156034
 30
0.0
 10
21.1928493870629
 20
-13.7369737378852
 30
0.0
 10
21.1928493870629
 20
-14.23100043047003
 30
0.0
 10
21.50342474505817
 20
-14.44976399378339
 30
0.0
 10
21.85620252274776
 20
-14.44976399378339
 30
0.0
 10
22.42791611852497
 20
-14.44976399378339
 30
0.0
 10
22.83013101642788
 20
-14.01223686715666
 30
0.0
 10
22.83013101642788
 20
-13.54645995755089
 30
0.0
 10
22.83013101642788
 20
-13.54645995755089
 30
0.0
 10
22.83013101642788
 20
-12.81954481016317
 30
0.0
 10
22.83013101642788
 20
-12.81954481016317
 30
0.0
  0
HATCH
  5
111
330
108
100
AcDbEntity
  8
\U+30EC\U+30A4\U+30E4\U+30FC 1
 62
     7
420
 16777215
100
AcDbHatch
 10
0.0
 20
0.0
 30
0.0
210
0.0
220
0.0
230
1.0
  2
SOLID
 70
     1
 71
     0
 91
        2
 92
        1
 93
        1
 72
     4
 94
        3
 73
     0
 74
     1
 95
       44
 96
       40
 40
0.0
 40
0.0
 40
0.0
 40
0.0
 40
1.0
 40
1.0
 40
1.0
 40
2.0
 40
2.0
 40
2.0
 40
3.0
 40
3.0
 40
3.0
 40
4.0
 40
4.0
 40
4.0
 40
5.0
 40
5.0
 40
5.0
 40
6.0
 40
6.0
 40
6.0
 40
7.0
 40
7.0
 40
7.0
 40
8.0
 40
8.0
 40
8.0
 40
9.0
 40
9.0
 40
9.0
 40
10.0
 40
10.0
 40
10.0
 40
11.0
 40
11.0
 40
11.0
 40
12.0
 40
12.0
 40
12.0
 40
13.0
 40
13.0
 40
13.0
 40
13.0
 10
23.40873480317559
 20
-13.89923773524047
 10
23.40873480317559
 20
-14.2168755389805
 10
23.41579724892036
 20
-14.5484659794358
 10
23.46523436913369
 20
-14.8166666629625
 10
23.46523436913369
 20
-14.8166666629625
 10
22.92883300208029
 20
-14.8166666629625
 10
22.92883300208029
 20
-14.8166666629625
 10
22.92883300208029
 20
-14.8166666629625
 10
22.87250569089646
 20
-14.32263997037767
 10
22.87250569089646
 20
-14.32263997037767
 10
22.87250569089646
 20
-14.32263997037767
 10
22.85131835366217
 20
-14.32263997037767
 10
22.85131835366217
 20
-14.32263997037767
 10
22.65374212758309
 20
-14.62615288262819
 10
22.25841742065067
 20
-14.90141601189965
 10
21.71512586262677
 20
-14.90141601189965
 10
20.9811482694943
 20
-14.90141601189965
 10
20.5930582630809
 20
-14.36501464484625
 10
20.5930582630809
 20
-13.80742594055856
 10
20.5930582630809
 20
-12.88310682186603
 10
21.39748805888674
 20
-12.38201768353644
 10
22.82306857068312
 20
-12.3890801292812
 10
22.82306857068312
 20
-12.06437987979641
 10
22.82306857068312
 20
-11.33040228666393
 10
21.94801431742966
 20
-11.33040228666393
 10
21.6162516222001
 20
-11.33040228666393
 10
21.27053629025528
 20
-11.42221408134584
 10
21.00939805247335
 20
-11.60566541593539
 10
21.00939805247335
 20
-11.60566541593539
 10
20.86832139235236
 20
-11.20345051803247
 10
20.86832139235236
 20
-11.20345051803247
 10
21.17872449557338
 20
-10.99881184620863
 10
21.60918917645534
 20
-10.87875026854767
 10
22.03965385733731
 20
-10.87875026854767
 10
23.12658148293363
 20
-10.87875026854767
 10
23.40873480317559
 20
-11.64804009040396
 10
23.40873480317559
 20
-12.41026746651549
 10
23.40873480317559
 20
-12.41026746651549
 10
23.40873480317559
 20
-13.89923773524047
 10
23.40873480317559
 20
-13.89923773524047
 97
        0
 92
        1
 93
        1
 72
     4
 94
        3
 73
     0
 74
     1
 95
       17
 96
       13
 40
0.0
 40
0.0
 40
0.0
 40
0.0
 40
1.0
 40
1.0
 40
1.0
 40
2.0
 40
2.0
 40
2.0
 40
3.0
 40
3.0
 40
3.0
 40
4.0
 40
4.0
 40
4.0
 40
4.0
 10
22.83013101642788
 20
-12.81954481016317
 10
22.10321586904017
 20
-12.81954481016317
 10
21.1928493870629
 20
-12.92530924156034
 10
21.1928493870629
 20
-13.7369737378852
 10
21.1928493870629
 20
-14.23100043047003
 10
21.50342474505817
 20
-14.44976399378339
 10
21.85620252274776
 20
-14.44976399378339
 10
22.42791611852497
 20
-14.44976399378339
 10
22.83013101642788
 20
-14.01223686715666
 10
22.83013101642788
 20
-13.54645995755089
 10
22.83013101642788
 20
-13.54645995755089
 10
22.83013101642788
 20
-12.81954481016317
 10
22.83013101642788
 20
-12.81954481016317
 97
        0
 75
     2
 76
     1
 98
        0
  0
SPLINE
  5
112
330
108
100
AcDbEntity
  8
\U+30EC\U+30A4\U+30E4\U+30FC 1
370
     0
100
AcDbSpline
210
0.0
220
0.0
230
1.0
 70
    11
 71
     3
 72
    47
 73
    43
 74
     0
 42
0.0000000001
 43
0.0000000001
 40
0.0
 40
0.0
 40
0.0
 40
0.0
 40
1.0
 40
1.0
 40
1.0
 40
2.0
 40
2.0
 40
2.0
 40
3.0
 40
3.0
 40
3.0
 40
4.0
 40
4.0
 40
4.0
 40
5.0
 40
5.0
 40
5.0
 40
6.0
 40
6.0
 40
6.0
 40
7.0
 40
7.0
 40
7.0
 40
8.0
 40
8.0
 40
8.0
 40
9.0
 40
9.0
 40
9.0
 40
10.0
 40
10.0
 40
10.0
 40
11.0
 40
11.0
 40
11.0
 40
12.0
 40
12.0
 40
12.0
 40
13.0
 40
13.0
 40
13.0
 40
14.0
 40
14.0
 40
14.0
 40
14.0
 10
26.33654920131517
 20
-11.55622829572205
 30
0.0
 10
26.19547254119419
 20
-11.46458875581441
 30
0.0
 10
25.93433430341225
 20
-11.33040228666393
 30
0.0
 10
25.58861897146743
 20
-11.33040228666393
 30
0.0
 10
25.16521673633023
 20
-11.33040228666393
 30
0.0
 10
24.9393907272721
 20
-11.59154052444586
 30
0.0
 10
24.9393907272721
 20
-11.90211588244114
 30
0.0
 10
24.9393907272721
 20
-12.23370632289643
 30
0.0
 10
25.15815429058546
 20
-12.3890801292812
 30
0.0
 10
25.65200872839603
 20
-12.60078124684981
 30
0.0
 10
26.27315944438657
 20
-12.85485703888698
 30
0.0
 10
26.63299966782092
 20
-13.17938503359752
 30
0.0
 10
26.63299966782092
 20
-13.75816107511949
 30
0.0
 10
26.63299966782092
 20
-14.44270154803863
 30
0.0
 10
26.11072319225704
 20
-14.89435356615489
 30
0.0
 10
25.2709811677274
 20
-14.89435356615489
 30
0.0
 10
24.88995360705876
 20
-14.89435356615489
 30
0.0
 10
24.52305093787966
 20
-14.78841687998345
 30
0.0
 10
24.26191270009772
 20
-14.63321532837295
 30
0.0
 10
24.26191270009772
 20
-14.63321532837295
 30
0.0
 10
24.42417669745299
 20
-14.18156331025669
 30
0.0
 10
24.42417669745299
 20
-14.18156331025669
 30
0.0
 10
24.62881536927683
 20
-14.30145263314339
 30
0.0
 10
24.96057806450639
 20
-14.44270154803863
 30
0.0
 10
25.29216850496168
 20
-14.44270154803863
 30
0.0
 10
25.8073825347808
 20
-14.44270154803863
 30
0.0
 10
26.06145832681797
 20
-14.16743841876717
 30
0.0
 10
26.06145832681797
 20
-13.82155083204809
 30
0.0
 10
26.06145832681797
 20
-13.46171060861374
 30
0.0
 10
25.85681965499413
 20
-13.26413438253466
 30
0.0
 10
25.34866807091978
 20
-13.05949571071082
 30
0.0
 10
24.69943982672445
 20
-12.79835747292888
 30
0.0
 10
24.36767713149489
 20
-12.43851724949454
 30
0.0
 10
24.36767713149489
 20
-11.97274033988876
 30
0.0
 10
24.36767713149489
 20
-11.3727769611325
 30
0.0
 10
24.84757893259019
 20
-10.87875026854767
 30
0.0
 10
25.62393120019124
 20
-10.87875026854767
 30
0.0
 10
25.99083386937035
 20
-10.87875026854767
 30
0.0
 10
26.30140922736562
 20
-10.98468695471911
 30
0.0
 10
26.50604789918946
 20
-11.11163872335056
 30
0.0
 10
26.50604789918946
 20
-11.11163872335056
 30
0.0
 10
26.33654920131517
 20
-11.55622829572205
 30
0.0
 10
26.33654920131517
 20
-11.55622829572205
 30
0.0
  0
HATCH
  5
113
330
108
100
AcDbEntity
  8
\U+30EC\U+30A4\U+30E4\U+30FC 1
 62
     7
420
 16777215
100
AcDbHatch
 10
0.0
 20
0.0
 30
0.0
210
0.0
220
0.0
230
1.0
  2
SOLID
 70
     1
 71
     0
 91
        1
 92
        1
 93
        1
 72
     4
 94
        3
 73
     0
 74
     1
 95
       47
 96
       43
 40
0.0
 40
0.0
 40
0.0
 40
0.0
 40
1.0
 40
1.0
 40
1.0
 40
2.0
 40
2.0
 40
2.0
 40
3.0
 40
3.0
 40
3.0
 40
4.0
 40
4.0
 40
4.0
 40
5.0
 40
5.0
 40
5.0
 40
6.0
 40
6.0
 40
6.0
 40
7.0
 40
7.0
 40
7.0
 40
8.0
 40
8.0
 40
8.0
 40
9.0
 40
9.0
 40
9.0
 40
10.0
 40
10.0
 40
10.0
 40
11.0
 40
11.0
 40
11.0
 40
12.0
 40
12.0
 40
12.0
 40
13.0
 40
13.0
 40
13.0
 40
14.0
 40
14.0
 40
14.0
 40
14.0
 10
26.33654920131517
 20
-11.55622829572205
 10
26.19547254119419
 20
-11.46458875581441
 10
25.93433430341225
 20
-11.33040228666393
 10
25.58861897146743
 20
-11.33040228666393
 10
25.16521673633023
 20
-11.33040228666393
 10
24.9393907272721
 20
-11.59154052444586
 10
24.9393907272721
 20
-11.90211588244114
 10
24.9393907272721
 20
-12.23370632289643
 10
25.15815429058546
 20
-12.3890801292812
 10
25.65200872839603
 20
-12.60078124684981
 10
26.27315944438657
 20
-12.85485703888698
 10
26.63299966782092
 20
-13.17938503359752
 10
26.63299966782092
 20
-13.75816107511949
 10
26.63299966782092
 20
-14.44270154803863
 10
26.11072319225704
 20
-14.89435356615489
 10
25.2709811677274
 20
-14.89435356615489
 10
24.88995360705876
 20
-14.89435356615489
 10
24.52305093787966
 20
-14.78841687998345
 10
24.26191270009772
 20
-14.63321532837295
 10
24.26191270009772
 20
-14.63321532837295
 10
24.42417669745299
 20
-14.18156331025669
 10
24.42417669745299
 20
-14.18156331025669
 10
24.62881536927683
 20
-14.30145263314339
 10
24.96057806450639
 20
-14.44270154803863
 10
25.29216850496168
 20
-14.44270154803863
 10
25.8073825347808
 20
-14.44270154803863
 10
26.06145832681797
 20
-14.16743841876717
 10
26.06145832681797
 20
-13.82155083204809
 10
26.06145832681797
 20
-13.46171060861374
 10
25.85681965499413
 20
-13.26413438253466
 10
25.34866807091978
 20
-13.05949571071082
 10
24.69943982672445
 20
-12.79835747292888
 10
24.36767713149489
 20
-12.43851724949454
 10
24.36767713149489
 20
-11.97274033988876
 10
24.36767713149489
 20
-11.3727769611325
 10
24.84757893259019
 20
-10.87875026854767
 10
25.62393120019124
 20
-10.87875026854767
 10
25.99083386937035
 20
-10.87875026854767
 10
26.30140922736562
 20
-10.98468695471911
 10
26.50604789918946
 20
-11.11163872335056
 10
26.50604789918946
 20
-11.11163872335056
 10
26.33654920131517
 20
-11.55622829572205
 10
26.33654920131517
 20
-11.55622829572205
 97
        0
 75
     2
 76
     1
 98
        0
  0
SPLINE
  5
114
330
108
100
AcDbEntity
  8
\U+30EC\U+30A4\U+30E4\U+30FC 1
370
     0
100
AcDbSpline
210
0.0
220
0.0
230
1.0
 70
    11
 71
     3
 72
    32
 73
    28
 74
     0
 42
0.0000000001
 43
0.0000000001
 40
0.0
 40
0.0
 40
0.0
 40
0.0
 40
1.0
 40
1.0
 40
1.0
 40
2.0
 40
2.0
 40
2.0
 40
3.0
 40
3.0
 40
3.0
 40
4.0
 40
4.0
 40
4.0
 40
5.0
 40
5.0
 40
5.0
 40
6.0
 40
6.0
 40
6.0
 40
7.0
 40
7.0
 40
7.0
 40
8.0
 40
8.0
 40
8.0
 40
9.0
 40
9.0
 40
9.0
 40
9.0
 10
30.25258923939866
 20
-14.65440266560723
 30
0.0
 10
30.0338256760853
 20
-14.7601670970044
 30
0.0
 10
29.63161077818238
 20
-14.89435356615489
 30
0.0
 10
29.0459445456899
 20
-14.89435356615489
 30
0.0
 10
27.92387694614403
 20
-14.89435356615489
 30
0.0
 10
27.25346136471441
 20
-14.10387640706431
 30
0.0
 10
27.25346136471441
 20
-12.95355902453939
 30
0.0
 10
27.25346136471441
 20
-11.74691433083063
 30
0.0
 10
27.9309393918888
 20
-10.87875026854767
 30
0.0
 10
28.96825764249752
 20
-10.87875026854767
 30
0.0
 10
30.15388725374625
 20
-10.87875026854767
 30
0.0
 10
30.4572279112225
 20
-11.965677894144
 30
0.0
 10
30.4572279112225
 20
-12.63609347557362
 30
0.0
 10
30.4572279112225
 20
-12.77010768994984
 30
0.0
 10
30.450337720252
 20
-12.8689819303765
 30
0.0
 10
30.44327527450724
 20
-12.96062147028415
 30
0.0
 10
30.44327527450724
 20
-12.96062147028415
 30
0.0
 10
27.82500270571736
 20
-12.96062147028415
 30
0.0
 10
27.82500270571736
 20
-12.96062147028415
 30
0.0
 10
27.83206515146212
 20
-14.02636175864619
 30
0.0
 10
28.43891872118888
 20
-14.42857665654911
 30
0.0
 10
29.13052163985279
 20
-14.42857665654911
 30
0.0
 10
29.61042344094809
 20
-14.42857665654911
 30
0.0
 10
29.89981146170908
 20
-14.32970241612244
 30
0.0
 10
30.13976236225673
 20
-14.23100043047003
 30
0.0
 10
30.13976236225673
 20
-14.23100043047003
 30
0.0
 10
30.25258923939866
 20
-14.65440266560723
 30
0.0
 10
30.25258923939866
 20
-14.65440266560723
 30
0.0
  0
SPLINE
  5
115
330
108
100
AcDbEntity
  8
\U+30EC\U+30A4\U+30E4\U+30FC 1
370
     0
100
AcDbSpline
210
0.0
220
0.0
230
1.0
 70
    11
 71
     3
 72
    14
 73
    10
 74
     0
 42
0.0000000001
 43
0.0000000001
 40
0.0
 40
0.0
 40
0.0
 40
0.0
 40
1.0
 40
1.0
 40
1.0
 40
2.0
 40
2.0
 40
2.0
 40
3.0
 40
3.0
 40
3.0
 40
3.0
 10
29.87862412447479
 20
-12.52309434365742
 30
0.0
 10
29.88568657021955
 20
-12.00081786809355
 30
0.0
 10
29.66692300690619
 20
-11.32333984091917
 30
0.0
 10
28.91175807653942
 20
-11.32333984091917
 30
0.0
 10
28.20603026638599
 20
-11.32333984091917
 30
0.0
 10
27.89562716316498
 20
-11.99375542234878
 30
0.0
 10
27.83912759720689
 20
-12.52309434365742
 30
0.0
 10
27.83912759720689
 20
-12.52309434365742
 30
0.0
 10
29.87862412447479
 20
-12.52309434365742
 30
0.0
 10
29.87862412447479
 20
-12.52309434365742
 30
0.0
  0
HATCH
  5
116
330
108
100
AcDbEntity
  8
\U+30EC\U+30A4\U+30E4\U+30FC 1
 62
     7
420
 16777215
100
AcDbHatch
 10
0.0
 20
0.0
 30
0.0
210
0.0
220
0.0
230
1.0
  2
SOLID
 70
     1
 71
     0
 91
        2
 92
        1
 93
        1
 72
     4
 94
        3
 73
     0
 74
     1
 95
       32
 96
       28
 40
0.0
 40
0.0
 40
0.0
 40
0.0
 40
1.0
 40
1.0
 40
1.0
 40
2.0
 40
2.0
 40
2.0
 40
3.0
 40
3.0
 40
3.0
 40
4.0
 40
4.0
 40
4.0
 40
5.0
 40
5.0
 40
5.0
 40
6.0
 40
6.0
 40
6.0
 40
7.0
 40
7.0
 40
7.0
 40
8.0
 40
8.0
 40
8.0
 40
9.0
 40
9.0
 40
9.0
 40
9.0
 10
30.25258923939866
 20
-14.65440266560723
 10
30.0338256760853
 20
-14.7601670970044
 10
29.63161077818238
 20
-14.89435356615489
 10
29.0459445456899
 20
-14.89435356615489
 10
27.92387694614403
 20
-14.89435356615489
 10
27.25346136471441
 20
-14.10387640706431
 10
27.25346136471441
 20
-12.95355902453939
 10
27.25346136471441
 20
-11.74691433083063
 10
27.9309393918888
 20
-10.87875026854767
 10
28.96825764249752
 20
-10.87875026854767
 10
30.15388725374625
 20
-10.87875026854767
 10
30.4572279112225
 20
-11.965677894144
 10
30.4572279112225
 20
-12.63609347557362
 10
30.4572279112225
 20
-12.77010768994984
 10
30.450337720252
 20
-12.8689819303765
 10
30.44327527450724
 20
-12.96062147028415
 10
30.44327527450724
 20
-12.96062147028415
 10
27.82500270571736
 20
-12.96062147028415
 10
27.82500270571736
 20
-12.96062147028415
 10
27.83206515146212
 20
-14.02636175864619
 10
28.43891872118888
 20
-14.42857665654911
 10
29.13052163985279
 20
-14.42857665654911
 10
29.61042344094809
 20
-14.42857665654911
 10
29.89981146170908
 20
-14.32970241612244
 10
30.13976236225673
 20
-14.23100043047003
 10
30.13976236225673
 20
-14.23100043047003
 10
30.25258923939866
 20
-14.65440266560723
 10
30.25258923939866
 20
-14.65440266560723
 97
        0
 92
        1
 93
        1
 72
     4
 94
        3
 73
     0
 74
     1
 95
       14
 96
       10
 40
0.0
 40
0.0
 40
0.0
 40
0.0
 40
1.0
 40
1.0
 40
1.0
 40
2.0
 40
2.0
 40
2.0
 40
3.0
 40
3.0
 40
3.0
 40
3.0
 10
29.87862412447479
 20
-12.52309434365742
 10
29.88568657021955
 20
-12.00081786809355
 10
29.66692300690619
 20
-11.32333984091917
 10
28.91175807653942
 20
-11.32333984091917
 10
28.20603026638599
 20
-11.32333984091917
 10
27.89562716316498
 20
-11.99375542234878
 10
27.83912759720689
 20
-12.52309434365742
 10
27.83912759720689
 20
-12.52309434365742
 10
29.87862412447479
 20
-12.52309434365742
 10
29.87862412447479
 20
-12.52309434365742
 97
        0
 75
     2
 76
     1
 98
        0
  0
POLYLINE
  5
117
330
108
100
AcDbEntity
  8
\U+30EC\U+30A4\U+30E4\U+30FC 1
370
     0
100
AcDb2dPolyline
 66
     1
 10
0.0
 20
0.0
 30
0.0
  0
VERTEX
  5
118
330
117
100
AcDbEntity
  8
\U+30EC\U+30A4\U+30E4\U+30FC 1
370
     0
100
AcDbVertex
100
AcDb2dVertex
 10
30.75281710385694
 20
-15.34600558427114
 30
0.0
  0
VERTEX
  5
119
330
117
100
AcDbEntity
  8
\U+30EC\U+30A4\U+30E4\U+30FC 1
370
     0
100
AcDbVertex
100
AcDb2dVertex
 10
34.73999836371083
 20
-15.34600558427114
 30
0.0
  0
VERTEX
  5
11A
330
117
100
AcDbEntity
  8
\U+30EC\U+30A4\U+30E4\U+30FC 1
370
     0
100
AcDbVertex
100
AcDb2dVertex
 10
34.73999836371083
 20
-15.69878336196072
 30
0.0
  0
VERTEX
  5
11B
330
117
100
AcDbEntity
  8
\U+30EC\U+30A4\U+30E4\U+30FC 1
370
     0
100
AcDbVertex
100
AcDb2dVertex
 10
30.75281710385694
 20
-15.69878336196072
 30
0.0
  0
VERTEX
  5
11C
330
117
100
AcDbEntity
  8
\U+30EC\U+30A4\U+30E4\U+30FC 1
370
     0
100
AcDbVertex
100
AcDb2dVertex
 10
30.75281710385694
 20
-15.34600558427114
 30
0.0
  0
SEQEND
  5
11D
330
117
100
AcDbEntity
  8
\U+30EC\U+30A4\U+30E4\U+30FC 1
370
     0
  0
HATCH
  5
11E
330
108
100
AcDbEntity
  8
\U+30EC\U+30A4\U+30E4\U+30FC 1
 62
     7
420
 16777215
100
AcDbHatch
 10
0.0
 20
0.0
 30
0.0
210
0.0
220
0.0
230
1.0
  2
SOLID
 70
     1
 71
     0
 91
        1
 92
        1
 93
        4
 72
     1
 10
30.75281710385694
 20
-15.34600558427114
 11
34.73999836371083
 21
-15.34600558427114
 72
     1
 10
34.73999836371083
 20
-15.34600558427114
 11
34.73999836371083
 21
-15.69878336196072
 72
     1
 10
34.73999836371083
 20
-15.69878336196072
 11
30.75281710385694
 21
-15.69878336196072
 72
     1
 10
30.75281710385694
 20
-15.69878336196072
 11
30.75281710385694
 21
-15.34600558427114
 97
        0
 75
     2
 76
     1
 98
        0
  0
SPLINE
  5
11F
330
108
100
AcDbEntity
  8
\U+30EC\U+30A4\U+30E4\U+30FC 1
370
     0
100
AcDbSpline
210
0.0
220
0.0
230
1.0
 70
    11
 71
     3
 72
    53
 73
    49
 74
     0
 42
0.0000000001
 43
0.0000000001
 40
0.0
 40
0.0
 40
0.0
 40
0.0
 40
1.0
 40
1.0
 40
1.0
 40
2.0
 40
2.0
 40
2.0
 40
3.0
 40
3.0
 40
3.0
 40
4.0
 40
4.0
 40
4.0
 40
5.0
 40
5.0
 40
5.0
 40
6.0
 40
6.0
 40
6.0
 40
7.0
 40
7.0
 40
7.0
 40
8.0
 40
8.0
 40
8.0
 40
9.0
 40
9.0
 40
9.0
 40
10.0
 40
10.0
 40
10.0
 40
11.0
 40
11.0
 40
11.0
 40
12.0
 40
12.0
 40
12.0
 40
13.0
 40
13.0
 40
13.0
 40
14.0
 40
14.0
 40
14.0
 40
15.0
 40
15.0
 40
15.0
 40
16.0
 40
16.0
 40
16.0
 40
16.0
 10
35.38130288829009
 20
-10.97056206322958
 30
0.0
 10
35.38130288829009
 20
-10.49066026213428
 30
0.0
 10
35.38130288829009
 20
-9.862619355173235
 30
0.0
 10
35.8047051234273
 20
-9.432154674291267
 30
0.0
 10
36.05878091546447
 20
-9.185141327998855
 30
0.0
 10
36.39054361069403
 20
-9.086267087572184
 30
0.0
 10
36.69388426817028
 20
-9.086267087572184
 30
0.0
 10
36.94089761446269
 20
-9.086267087572184
 30
0.0
 10
37.13847384054177
 20
-9.14276665353028
 30
0.0
 10
37.26559786394749
 20
-9.19926621948838
 30
0.0
 10
37.26559786394749
 20
-9.19926621948838
 30
0.0
 10
37.16672362352082
 20
-9.657980683349393
 30
0.0
 10
37.16672362352082
 20
-9.657980683349393
 30
0.0
 10
37.06095919212365
 20
-9.615606008880821
 30
0.0
 10
36.92677272297317
 20
-9.566168888667486
 30
0.0
 10
36.72213405114933
 20
-9.566168888667486
 30
0.0
 10
36.11528048142257
 20
-9.566168888667486
 30
0.0
 10
35.96714137555683
 20
-10.13082003869993
 30
0.0
 10
35.96714137555683
 20
-10.75179849991622
 30
0.0
 10
35.96714137555683
 20
-10.75179849991622
 30
0.0
 10
35.96714137555683
 20
-10.97056206322958
 30
0.0
 10
35.96714137555683
 20
-10.97056206322958
 30
0.0
 10
35.96714137555683
 20
-10.97056206322958
 30
0.0
 10
36.89852293999412
 20
-10.97056206322958
 30
0.0
 10
36.89852293999412
 20
-10.97056206322958
 30
0.0
 10
36.89852293999412
 20
-10.97056206322958
 30
0.0
 10
36.89852293999412
 20
-11.4292765270906
 30
0.0
 10
36.89852293999412
 20
-11.4292765270906
 30
0.0
 10
36.89852293999412
 20
-11.4292765270906
 30
0.0
 10
35.96714137555683
 20
-11.4292765270906
 30
0.0
 10
35.96714137555683
 20
-11.4292765270906
 30
0.0
 10
35.96714137555683
 20
-11.4292765270906
 30
0.0
 10
35.96714137555683
 20
-14.8166666629625
 30
0.0
 10
35.96714137555683
 20
-14.8166666629625
 30
0.0
 10
35.96714137555683
 20
-14.8166666629625
 30
0.0
 10
35.38130288829009
 20
-14.8166666629625
 30
0.0
 10
35.38130288829009
 20
-14.8166666629625
 30
0.0
 10
35.38130288829009
 20
-14.8166666629625
 30
0.0
 10
35.38130288829009
 20
-11.4292765270906
 30
0.0
 10
35.38130288829009
 20
-11.4292765270906
 30
0.0
 10
35.38130288829009
 20
-11.4292765270906
 30
0.0
 10
34.85213622175571
 20
-11.4292765270906
 30
0.0
 10
34.85213622175571
 20
-11.4292765270906
 30
0.0
 10
34.85213622175571
 20
-11.4292765270906
 30
0.0
 10
34.85213622175571
 20
-10.97056206322958
 30
0.0
 10
34.85213622175571
 20
-10.97056206322958
 30
0.0
 10
34.85213622175571
 20
-10.97056206322958
 30
0.0
 10
35.38130288829009
 20
-10.97056206322958
 30
0.0
 10
35.38130288829009
 20
-10.97056206322958
 30
0.0
  0
HATCH
  5
120
330
108
100
AcDbEntity
  8
\U+30EC\U+30A4\U+30E4\U+30FC 1
 62
     7
420
 16777215
100
AcDbHatch
 10
0.0
 20
0.0
 30
0.0
210
0.0
220
0.0
230
1.0
  2
SOLID
 70
     1
 71
     0
 91
        1
 92
        1
 93
        1
 72
     4
 94
        3
 73
     0
 74
     1
 95
       53
 96
       49
 40
0.0
 40
0.0
 40
0.0
 40
0.0
 40
1.0
 40
1.0
 40
1.0
 40
2.0
 40
2.0
 40
2.0
 40
3.0
 40
3.0
 40
3.0
 40
4.0
 40
4.0
 40
4.0
 40
5.0
 40
5.0
 40
5.0
 40
6.0
 40
6.0
 40
6.0
 40
7.0
 40
7.0
 40
7.0
 40
8.0
 40
8.0
 40
8.0
 40
9.0
 40
9.0
 40
9.0
 40
10.0
 40
10.0
 40
10.0
 40
11.0
 40
11.0
 40
11.0
 40
12.0
 40
12.0
 40
12.0
 40
13.0
 40
13.0
 40
13.0
 40
14.0
 40
14.0
 40
14.0
 40
15.0
 40
15.0
 40
15.0
 40
16.0
 40
16.0
 40
16.0
 40
16.0
 10
35.38130288829009
 20
-10.97056206322958
 10
35.38130288829009
 20
-10.49066026213428
 10
35.38130288829009
 20
-9.862619355173235
 10
35.8047051234273
 20
-9.432154674291267
 10
36.05878091546447
 20
-9.185141327998855
 10
36.39054361069403
 20
-9.086267087572184
 10
36.69388426817028
 20
-9.086267087572184
 10
36.94089761446269
 20
-9.086267087572184
 10
37.13847384054177
 20
-9.14276665353028
 10
37.26559786394749
 20
-9.19926621948838
 10
37.26559786394749
 20
-9.19926621948838
 10
37.16672362352082
 20
-9.657980683349393
 10
37.16672362352082
 20
-9.657980683349393
 10
37.06095919212365
 20
-9.615606008880821
 10
36.92677272297317
 20
-9.566168888667486
 10
36.72213405114933
 20
-9.566168888667486
 10
36.11528048142257
 20
-9.566168888667486
 10
35.96714137555683
 20
-10.13082003869993
 10
35.96714137555683
 20
-10.75179849991622
 10
35.96714137555683
 20
-10.75179849991622
 10
35.96714137555683
 20
-10.97056206322958
 10
35.96714137555683
 20
-10.97056206322958
 10
35.96714137555683
 20
-10.97056206322958
 10
36.89852293999412
 20
-10.97056206322958
 10
36.89852293999412
 20
-10.97056206322958
 10
36.89852293999412
 20
-10.97056206322958
 10
36.89852293999412
 20
-11.4292765270906
 10
36.89852293999412
 20
-11.4292765270906
 10
36.89852293999412
 20
-11.4292765270906
 10
35.96714137555683
 20
-11.4292765270906
 10
35.96714137555683
 20
-11.4292765270906
 10
35.96714137555683
 20
-11.4292765270906
 10
35.96714137555683
 20
-14.8166666629625
 10
35.96714137555683
 20
-14.8166666629625
 10
35.96714137555683
 20
-14.8166666629625
 10
35.38130288829009
 20
-14.8166666629625
 10
35.38130288829009
 20
-14.8166666629625
 10
35.38130288829009
 20
-14.8166666629625
 10
35.38130288829009
 20
-11.4292765270906
 10
35.38130288829009
 20
-11.4292765270906
 10
35.38130288829009
 20
-11.4292765270906
 10
34.85213622175571
 20
-11.4292765270906
 10
34.85213622175571
 20
-11.4292765270906
 10
34.85213622175571
 20
-11.4292765270906
 10
34.85213622175571
 20
-10.97056206322958
 10
34.85213622175571
 20
-10.97056206322958
 10
34.85213622175571
 20
-10.97056206322958
 10
35.38130288829009
 20
-10.97056206322958
 10
35.38130288829009
 20
-10.97056206322958
 97
        0
 75
     2
 76
     1
 98
        0
  0
SPLINE
  5
121
330
108
100
AcDbEntity
  8
\U+30EC\U+30A4\U+30E4\U+30FC 1
370
     0
100
AcDbSpline
210
0.0
220
0.0
230
1.0
 70
    11
 71
     3
 72
    41
 73
    37
 74
     0
 42
0.0000000001
 43
0.0000000001
 40
0.0
 40
0.0
 40
0.0
 40
0.0
 40
1.0
 40
1.0
 40
1.0
 40
2.0
 40
2.0
 40
2.0
 40
3.0
 40
3.0
 40
3.0
 40
4.0
 40
4.0
 40
4.0
 40
5.0
 40
5.0
 40
5.0
 40
6.0
 40
6.0
 40
6.0
 40
7.0
 40
7.0
 40
7.0
 40
8.0
 40
8.0
 40
8.0
 40
9.0
 40
9.0
 40
9.0
 40
10.0
 40
10.0
 40
10.0
 40
11.0
 40
11.0
 40
11.0
 40
12.0
 40
12.0
 40
12.0
 40
12.0
 10
39.2623752071983
 20
-11.46458875581441
 30
0.0
 10
39.19881319549544
 20
-11.45752631006965
 30
0.0
 10
39.13525118379258
 20
-11.45046386432488
 30
0.0
 10
39.05067408962969
 20
-11.45046386432488
 30
0.0
 10
38.41539848214963
 20
-11.45046386432488
 30
0.0
 10
38.09087048743909
 20
-12.07850477128593
 30
0.0
 10
38.09087048743909
 20
-12.72773301548126
 30
0.0
 10
38.09087048743909
 20
-12.72773301548126
 30
0.0
 10
38.09087048743909
 20
-14.8166666629625
 30
0.0
 10
38.09087048743909
 20
-14.8166666629625
 30
0.0
 10
38.09087048743909
 20
-14.8166666629625
 30
0.0
 10
37.50503200017236
 20
-14.8166666629625
 30
0.0
 10
37.50503200017236
 20
-14.8166666629625
 30
0.0
 10
37.50503200017236
 20
-14.8166666629625
 30
0.0
 10
37.50503200017236
 20
-12.1208794457545
 30
0.0
 10
37.50503200017236
 20
-12.1208794457545
 30
0.0
 10
37.50503200017236
 20
-11.71160210210682
 30
0.0
 10
37.49796955442759
 20
-11.33746473240869
 30
0.0
 10
37.47695447196757
 20
-10.97056206322958
 30
0.0
 10
37.47695447196757
 20
-10.97056206322958
 30
0.0
 10
37.99199624701242
 20
-10.97056206322958
 30
0.0
 10
37.99199624701242
 20
-10.97056206322958
 30
0.0
 10
37.99199624701242
 20
-10.97056206322958
 30
0.0
 10
38.02024602999147
 20
-11.71160210210682
 30
0.0
 10
38.02024602999147
 20
-11.71160210210682
 30
0.0
 10
38.02024602999147
 20
-11.71160210210682
 30
0.0
 10
38.04143336722576
 20
-11.71160210210682
 30
0.0
 10
38.04143336722576
 20
-11.71160210210682
 30
0.0
 10
38.21075981032578
 20
-11.23170030101152
 30
0.0
 10
38.61314696300297
 20
-10.88581271429244
 30
0.0
 10
39.08581406357924
 20
-10.88581271429244
 30
0.0
 10
39.1493760752821
 20
-10.88581271429244
 30
0.0
 10
39.19881319549544
 20
-10.89993760578196
 30
0.0
 10
39.2623752071983
 20
-10.90700005152672
 30
0.0
 10
39.2623752071983
 20
-10.90700005152672
 30
0.0
 10
39.2623752071983
 20
-11.46458875581441
 30
0.0
 10
39.2623752071983
 20
-11.46458875581441
 30
0.0
  0
HATCH
  5
122
330
108
100
AcDbEntity
  8
\U+30EC\U+30A4\U+30E4\U+30FC 1
 62
     7
420
 16777215
100
AcDbHatch
 10
0.0
 20
0.0
 30
0.0
210
0.0
220
0.0
230
1.0
  2
SOLID
 70
     1
 71
     0
 91
        1
 92
        1
 93
        1
 72
     4
 94
        3
 73
     0
 74
     1
 95
       41
 96
       37
 40
0.0
 40
0.0
 40
0.0
 40
0.0
 40
1.0
 40
1.0
 40
1.0
 40
2.0
 40
2.0
 40
2.0
 40
3.0
 40
3.0
 40
3.0
 40
4.0
 40
4.0
 40
4.0
 40
5.0
 40
5.0
 40
5.0
 40
6.0
 40
6.0
 40
6.0
 40
7.0
 40
7.0
 40
7.0
 40
8.0
 40
8.0
 40
8.0
 40
9.0
 40
9.0
 40
9.0
 40
10.0
 40
10.0
 40
10.0
 40
11.0
 40
11.0
 40
11.0
 40
12.0
 40
12.0
 40
12.0
 40
12.0
 10
39.2623752071983
 20
-11.46458875581441
 10
39.19881319549544
 20
-11.45752631006965
 10
39.13525118379258
 20
-11.45046386432488
 10
39.05067408962969
 20
-11.45046386432488
 10
38.41539848214963
 20
-11.45046386432488
 10
38.09087048743909
 20
-12.07850477128593
 10
38.09087048743909
 20
-12.72773301548126
 10
38.09087048743909
 20
-12.72773301548126
 10
38.09087048743909
 20
-14.8166666629625
 10
38.09087048743909
 20
-14.8166666629625
 10
38.09087048743909
 20
-14.8166666629625
 10
37.50503200017236
 20
-14.8166666629625
 10
37.50503200017236
 20
-14.8166666629625
 10
37.50503200017236
 20
-14.8166666629625
 10
37.50503200017236
 20
-12.1208794457545
 10
37.50503200017236
 20
-12.1208794457545
 10
37.50503200017236
 20
-11.71160210210682
 10
37.49796955442759
 20
-11.33746473240869
 10
37.47695447196757
 20
-10.97056206322958
 10
37.47695447196757
 20
-10.97056206322958
 10
37.99199624701242
 20
-10.97056206322958
 10
37.99199624701242
 20
-10.97056206322958
 10
37.99199624701242
 20
-10.97056206322958
 10
38.02024602999147
 20
-11.71160210210682
 10
38.02024602999147
 20
-11.71160210210682
 10
38.02024602999147
 20
-11.71160210210682
 10
38.04143336722576
 20
-11.71160210210682
 10
38.04143336722576
 20
-11.71160210210682
 10
38.21075981032578
 20
-11.23170030101152
 10
38.61314696300297
 20
-10.88581271429244
 10
39.08581406357924
 20
-10.88581271429244
 10
39.1493760752821
 20
-10.88581271429244
 10
39.19881319549544
 20
-10.89993760578196
 10
39.2623752071983
 20
-10.90700005152672
 10
39.2623752071983
 20
-10.90700005152672
 10
39.2623752071983
 20
-11.46458875581441
 10
39.2623752071983
 20
-11.46458875581441
 97
        0
 75
     2
 76
     1
 98
        0
  0
SPLINE
  5
123
330
108
100
AcDbEntity
  8
\U+30EC\U+30A4\U+30E4\U+30FC 1
370
     0
100
AcDbSpline
210
0.0
220
0.0
230
1.0
 70
    11
 71
     3
 72
    17
 73
    13
 74
     0
 42
0.0000000001
 43
0.0000000001
 40
0.0
 40
0.0
 40
0.0
 40
0.0
 40
1.0
 40
1.0
 40
1.0
 40
2.0
 40
2.0
 40
2.0
 40
3.0
 40
3.0
 40
3.0
 40
4.0
 40
4.0
 40
4.0
 40
4.0
 10
43.21372747400559
 20
-12.86191948463174
 30
0.0
 10
43.21372747400559
 20
-14.29439018739862
 30
0.0
 10
42.26804876330452
 20
-14.90141601189965
 30
0.0
 10
41.41418184728535
 20
-14.90141601189965
 30
0.0
 10
40.42612846211569
 20
-14.90141601189965
 30
0.0
 10
39.66407334077843
 20
-14.16037597302241
 30
0.0
 10
39.66407334077843
 20
-12.91824679581558
 30
0.0
 10
39.66407334077843
 20
-11.60566541593539
 30
0.0
 10
40.48262802807379
 20
-10.87875026854767
 30
0.0
 10
41.46361896749868
 20
-10.87875026854767
 30
0.0
 10
42.51506210959693
 20
-10.87875026854767
 30
0.0
 10
43.21372747400559
 20
-11.68335231912777
 30
0.0
 10
43.21372747400559
 20
-12.86191948463174
 30
0.0
  0
SPLINE
  5
124
330
108
100
AcDbEntity
  8
\U+30EC\U+30A4\U+30E4\U+30FC 1
370
     0
100
AcDbSpline
210
0.0
220
0.0
230
1.0
 70
    11
 71
     3
 72
    17
 73
    13
 74
     0
 42
0.0000000001
 43
0.0000000001
 40
0.0
 40
0.0
 40
0.0
 40
0.0
 40
1.0
 40
1.0
 40
1.0
 40
2.0
 40
2.0
 40
2.0
 40
3.0
 40
3.0
 40
3.0
 40
4.0
 40
4.0
 40
4.0
 40
4.0
 10
41.44243163026439
 20
-11.33746473240869
 30
0.0
 10
40.60957979670525
 20
-11.33746473240869
 30
0.0
 10
40.26386446476042
 20
-12.15619167447831
 30
0.0
 10
40.26386446476042
 20
-12.89705945858129
 30
0.0
 10
40.26386446476042
 20
-13.75109862937473
 30
0.0
 10
40.73670382011097
 20
-14.44270154803863
 30
0.0
 10
41.42830673877487
 20
-14.44270154803863
 30
0.0
 10
42.12697210318353
 20
-14.44270154803863
 30
0.0
 10
42.6139363500236
 20
-13.75109862937473
 30
0.0
 10
42.6139363500236
 20
-12.88310682186603
 30
0.0
 10
42.6139363500236
 20
-12.19856634894689
 30
0.0
 10
42.28217365479404
 20
-11.33746473240869
 30
0.0
 10
41.44243163026439
 20
-11.33746473240869
 30
0.0
  0
HATCH
  5
125
330
108
100
AcDbEntity
  8
\U+30EC\U+30A4\U+30E4\U+30FC 1
 62
     7
420
 16777215
100
AcDbHatch
 10
0.0
 20
0.0
 30
0.0
210
0.0
220
0.0
230
1.0
  2
SOLID
 70
     1
 71
     0
 91
        2
 92
        1
 93
        1
 72
     4
 94
        3
 73
     0
 74
     1
 95
       17
 96
       13
 40
0.0
 40
0.0
 40
0.0
 40
0.0
 40
1.0
 40
1.0
 40
1.0
 40
2.0
 40
2.0
 40
2.0
 40
3.0
 40
3.0
 40
3.0
 40
4.0
 40
4.0
 40
4.0
 40
4.0
 10
43.21372747400559
 20
-12.86191948463174
 10
43.21372747400559
 20
-14.29439018739862
 10
42.26804876330452
 20
-14.90141601189965
 10
41.41418184728535
 20
-14.90141601189965
 10
40.42612846211569
 20
-14.90141601189965
 10
39.66407334077843
 20
-14.16037597302241
 10
39.66407334077843
 20
-12.91824679581558
 10
39.66407334077843
 20
-11.60566541593539
 10
40.48262802807379
 20
-10.87875026854767
 10
41.46361896749868
 20
-10.87875026854767
 10
42.51506210959693
 20
-10.87875026854767
 10
43.21372747400559
 20
-11.68335231912777
 10
43.21372747400559
 20
-12.86191948463174
 97
        0
 92
        1
 93
        1
 72
     4
 94
        3
 73
     0
 74
     1
 95
       17
 96
       13
 40
0.0
 40
0.0
 40
0.0
 40
0.0
 40
1.0
 40
1.0
 40
1.0
 40
2.0
 40
2.0
 40
2.0
 40
3.0
 40
3.0
 40
3.0
 40
4.0
 40
4.0
 40
4.0
 40
4.0
 10
41.44243163026439
 20
-11.33746473240869
 10
40.60957979670525
 20
-11.33746473240869
 10
40.26386446476042
 20
-12.15619167447831
 10
40.26386446476042
 20
-12.89705945858129
 10
40.26386446476042
 20
-13.75109862937473
 10
40.73670382011097
 20
-14.44270154803863
 10
41.42830673877487
 20
-14.44270154803863
 10
42.12697210318353
 20
-14.44270154803863
 10
42.6139363500236
 20
-13.75109862937473
 10
42.6139363500236
 20
-12.88310682186603
 10
42.6139363500236
 20
-12.19856634894689
 10
42.28217365479404
 20
-11.33746473240869
 10
41.44243163026439
 20
-11.33746473240869
 97
        0
 75
     2
 76
     1
 98
        0
  0
SPLINE
  5
126
330
108
100
AcDbEntity
  8
\U+30EC\U+30A4\U+30E4\U+30FC 1
370
     0
100
AcDbSpline
210
0.0
220
0.0
230
1.0
 70
    11
 71
     3
 72
    47
 73
    43
 74
     0
 42
0.0000000001
 43
0.0000000001
 40
0.0
 40
0.0
 40
0.0
 40
0.0
 40
1.0
 40
1.0
 40
1.0
 40
2.0
 40
2.0
 40
2.0
 40
3.0
 40
3.0
 40
3.0
 40
4.0
 40
4.0
 40
4.0
 40
5.0
 40
5.0
 40
5.0
 40
6.0
 40
6.0
 40
6.0
 40
7.0
 40
7.0
 40
7.0
 40
8.0
 40
8.0
 40
8.0
 40
9.0
 40
9.0
 40
9.0
 40
10.0
 40
10.0
 40
10.0
 40
11.0
 40
11.0
 40
11.0
 40
12.0
 40
12.0
 40
12.0
 40
13.0
 40
13.0
 40
13.0
 40
14.0
 40
14.0
 40
14.0
 40
14.0
 10
47.1788601227539
 20
-14.8166666629625
 30
0.0
 10
47.1788601227539
 20
-14.8166666629625
 30
0.0
 10
46.59302163548716
 20
-14.8166666629625
 30
0.0
 10
46.59302163548716
 20
-14.8166666629625
 30
0.0
 10
46.59302163548716
 20
-14.8166666629625
 30
0.0
 10
46.59302163548716
 20
-12.54428168089171
 30
0.0
 10
46.59302163548716
 20
-12.54428168089171
 30
0.0
 10
46.59302163548716
 20
-11.91624077393066
 30
0.0
 10
46.36719562642904
 20
-11.36571451538774
 30
0.0
 10
45.69678004499942
 20
-11.36571451538774
 30
0.0
 10
45.19586316144409
 20
-11.36571451538774
 30
0.0
 10
44.68771157736974
 20
-11.78911675052494
 30
0.0
 10
44.68771157736974
 20
-12.45953233195456
 30
0.0
 10
44.68771157736974
 20
-12.45953233195456
 30
0.0
 10
44.68771157736974
 20
-14.8166666629625
 30
0.0
 10
44.68771157736974
 20
-14.8166666629625
 30
0.0
 10
44.68771157736974
 20
-14.8166666629625
 30
0.0
 10
44.10187309010301
 20
-14.8166666629625
 30
0.0
 10
44.10187309010301
 20
-14.8166666629625
 30
0.0
 10
44.10187309010301
 20
-14.8166666629625
 30
0.0
 10
44.10187309010301
 20
-11.95861544839924
 30
0.0
 10
44.10187309010301
 20
-11.95861544839924
 30
0.0
 10
44.10187309010301
 20
-11.56329074146682
 30
0.0
 10
44.08774819861348
 20
-11.27407497548009
 30
0.0
 10
44.07379556189822
 20
-10.96349961748482
 30
0.0
 10
44.07379556189822
 20
-10.96349961748482
 30
0.0
 10
44.59589978268783
 20
-10.96349961748482
 30
0.0
 10
44.59589978268783
 20
-10.96349961748482
 30
0.0
 10
44.59589978268783
 20
-10.96349961748482
 30
0.0
 10
44.63121201141164
 20
-11.59154052444586
 30
0.0
 10
44.63121201141164
 20
-11.59154052444586
 30
0.0
 10
44.63121201141164
 20
-11.59154052444586
 30
0.0
 10
44.64533690290117
 20
-11.59154052444586
 30
0.0
 10
44.64533690290117
 20
-11.59154052444586
 30
0.0
 10
44.83585068323548
 20
-11.217575409522
 30
0.0
 10
45.28044025560698
 20
-10.87875026854767
 30
0.0
 10
45.88040363436323
 20
-10.87875026854767
 30
0.0
 10
46.36013318068427
 20
-10.87875026854767
 30
0.0
 10
47.1788601227539
 20
-11.16813828930866
 30
0.0
 10
47.1788601227539
 20
-12.47365722344409
 30
0.0
 10
47.1788601227539
 20
-12.47365722344409
 30
0.0
 10
47.1788601227539
 20
-14.8166666629625
 30
0.0
 10
47.1788601227539
 20
-14.8166666629625
 30
0.0
  0
HATCH
  5
127
330
108
100
AcDbEntity
  8
\U+30EC\U+30A4\U+30E4\U+30FC 1
 62
     7
420
 16777215
100
AcDbHatch
 10
0.0
 20
0.0
 30
0.0
210
0.0
220
0.0
230
1.0
  2
SOLID
 70
     1
 71
     0
 91
        1
 92
        1
 93
        1
 72
     4
 94
        3
 73
     0
 74
     1
 95
       47
 96
       43
 40
0.0
 40
0.0
 40
0.0
 40
0.0
 40
1.0
 40
1.0
 40
1.0
 40
2.0
 40
2.0
 40
2.0
 40
3.0
 40
3.0
 40
3.0
 40
4.0
 40
4.0
 40
4.0
 40
5.0
 40
5.0
 40
5.0
 40
6.0
 40
6.0
 40
6.0
 40
7.0
 40
7.0
 40
7.0
 40
8.0
 40
8.0
 40
8.0
 40
9.0
 40
9.0
 40
9.0
 40
10.0
 40
10.0
 40
10.0
 40
11.0
 40
11.0
 40
11.0
 40
12.0
 40
12.0
 40
12.0
 40
13.0
 40
13.0
 40
13.0
 40
14.0
 40
14.0
 40
14.0
 40
14.0
 10
47.1788601227539
 20
-14.8166666629625
 10
47.1788601227539
 20
-14.8166666629625
 10
46.59302163548716
 20
-14.8166666629625
 10
46.59302163548716
 20
-14.8166666629625
 10
46.59302163548716
 20
-14.8166666629625
 10
46.59302163548716
 20
-12.54428168089171
 10
46.59302163548716
 20
-12.54428168089171
 10
46.59302163548716
 20
-11.91624077393066
 10
46.36719562642904
 20
-11.36571451538774
 10
45.69678004499942
 20
-11.36571451538774
 10
45.19586316144409
 20
-11.36571451538774
 10
44.68771157736974
 20
-11.78911675052494
 10
44.68771157736974
 20
-12.45953233195456
 10
44.68771157736974
 20
-12.45953233195456
 10
44.68771157736974
 20
-14.8166666629625
 10
44.68771157736974
 20
-14.8166666629625
 10
44.68771157736974
 20
-14.8166666629625
 10
44.10187309010301
 20
-14.8166666629625
 10
44.10187309010301
 20
-14.8166666629625
 10
44.10187309010301
 20
-14.8166666629625
 10
44.10187309010301
 20
-11.95861544839924
 10
44.10187309010301
 20
-11.95861544839924
 10
44.10187309010301
 20
-11.56329074146682
 10
44.08774819861348
 20
-11.27407497548009
 10
44.07379556189822
 20
-10.96349961748482
 10
44.07379556189822
 20
-10.96349961748482
 10
44.59589978268783
 20
-10.96349961748482
 10
44.59589978268783
 20
-10.96349961748482
 10
44.59589978268783
 20
-10.96349961748482
 10
44.63121201141164
 20
-11.59154052444586
 10
44.63121201141164
 20
-11.59154052444586
 10
44.63121201141164
 20
-11.59154052444586
 10
44.64533690290117
 20
-11.59154052444586
 10
44.64533690290117
 20
-11.59154052444586
 10
44.83585068323548
 20
-11.217575409522
 10
45.28044025560698
 20
-10.87875026854767
 10
45.88040363436323
 20
-10.87875026854767
 10
46.36013318068427
 20
-10.87875026854767
 10
47.1788601227539
 20
-11.16813828930866
 10
47.1788601227539
 20
-12.47365722344409
 10
47.1788601227539
 20
-12.47365722344409
 10
47.1788601227539
 20
-14.8166666629625
 10
47.1788601227539
 20
-14.8166666629625
 97
        0
 75
     2
 76
     1
 98
        0
  0
SPLINE
  5
128
330
108
100
AcDbEntity
  8
\U+30EC\U+30A4\U+30E4\U+30FC 1
370
     0
100
AcDbSpline
210
0.0
220
0.0
230
1.0
 70
    11
 71
     3
 72
    53
 73
    49
 74
     0
 42
0.0000000001
 43
0.0000000001
 40
0.0
 40
0.0
 40
0.0
 40
0.0
 40
1.0
 40
1.0
 40
1.0
 40
2.0
 40
2.0
 40
2.0
 40
3.0
 40
3.0
 40
3.0
 40
4.0
 40
4.0
 40
4.0
 40
5.0
 40
5.0
 40
5.0
 40
6.0
 40
6.0
 40
6.0
 40
7.0
 40
7.0
 40
7.0
 40
8.0
 40
8.0
 40
8.0
 40
9.0
 40
9.0
 40
9.0
 40
10.0
 40
10.0
 40
10.0
 40
11.0
 40
11.0
 40
11.0
 40
12.0
 40
12.0
 40
12.0
 40
13.0
 40
13.0
 40
13.0
 40
14.0
 40
14.0
 40
14.0
 40
15.0
 40
15.0
 40
15.0
 40
16.0
 40
16.0
 40
16.0
 40
16.0
 10
48.46939289152849
 20
-10.27189669882092
 30
0.0
 10
48.46939289152849
 20
-10.27189669882092
 30
0.0
 10
49.0479966782762
 20
-10.07432047274184
 30
0.0
 10
49.0479966782762
 20
-10.07432047274184
 30
0.0
 10
49.0479966782762
 20
-10.07432047274184
 30
0.0
 10
49.0479966782762
 20
-10.97056206322958
 30
0.0
 10
49.0479966782762
 20
-10.97056206322958
 30
0.0
 10
49.0479966782762
 20
-10.97056206322958
 30
0.0
 10
50.04311250919061
 20
-10.97056206322958
 30
0.0
 10
50.04311250919061
 20
-10.97056206322958
 30
0.0
 10
50.04311250919061
 20
-10.97056206322958
 30
0.0
 10
50.04311250919061
 20
-11.4292765270906
 30
0.0
 10
50.04311250919061
 20
-11.4292765270906
 30
0.0
 10
50.04311250919061
 20
-11.4292765270906
 30
0.0
 10
49.0479966782762
 20
-11.4292765270906
 30
0.0
 10
49.0479966782762
 20
-11.4292765270906
 30
0.0
 10
49.0479966782762
 20
-11.4292765270906
 30
0.0
 10
49.0479966782762
 20
-13.65222438894806
 30
0.0
 10
49.0479966782762
 20
-13.65222438894806
 30
0.0
 10
49.0479966782762
 20
-14.13918863578812
 30
0.0
 10
49.1963080389162
 20
-14.40738931931482
 30
0.0
 10
49.57027315384007
 20
-14.40738931931482
 30
0.0
 10
49.74666204268487
 20
-14.40738931931482
 30
0.0
 10
49.86672362034582
 20
-14.38620198208053
 30
0.0
 10
49.96542560599823
 20
-14.35088975335672
 30
0.0
 10
49.96542560599823
 20
-14.35088975335672
 30
0.0
 10
50.00073783472204
 20
-14.80254177147298
 30
0.0
 10
50.00073783472204
 20
-14.80254177147298
 30
0.0
 10
49.87378606609058
 20
-14.85904133743107
 30
0.0
 10
49.67603758523725
 20
-14.89435356615489
 30
0.0
 10
49.42902423894483
 20
-14.89435356615489
 30
0.0
 10
48.49764267450754
 20
-14.89435356615489
 30
0.0
 10
48.46939289152849
 20
-14.04737684110621
 30
0.0
 10
48.46939289152849
 20
-13.63809949745853
 30
0.0
 10
48.46939289152849
 20
-13.63809949745853
 30
0.0
 10
48.46939289152849
 20
-11.4292765270906
 30
0.0
 10
48.46939289152849
 20
-11.4292765270906
 30
0.0
 10
48.46939289152849
 20
-11.4292765270906
 30
0.0
 10
47.87649195851699
 20
-11.4292765270906
 30
0.0
 10
47.87649195851699
 20
-11.4292765270906
 30
0.0
 10
47.87649195851699
 20
-11.4292765270906
 30
0.0
 10
47.87649195851699
 20
-10.97056206322958
 30
0.0
 10
47.87649195851699
 20
-10.97056206322958
 30
0.0
 10
47.87649195851699
 20
-10.97056206322958
 30
0.0
 10
48.46939289152849
 20
-10.97056206322958
 30
0.0
 10
48.46939289152849
 20
-10.97056206322958
 30
0.0
 10
48.46939289152849
 20
-10.97056206322958
 30
0.0
 10
48.46939289152849
 20
-10.27189669882092
 30
0.0
 10
48.46939289152849
 20
-10.27189669882092
 30
0.0
  0
HATCH
  5
129
330
108
100
AcDbEntity
  8
\U+30EC\U+30A4\U+30E4\U+30FC 1
 62
     7
420
 16777215
100
AcDbHatch
 10
0.0
 20
0.0
 30
0.0
210
0.0
220
0.0
230
1.0
  2
SOLID
 70
     1
 71
     0
 91
        1
 92
        1
 93
        1
 72
     4
 94
        3
 73
     0
 74
     1
 95
       53
 96
       49
 40
0.0
 40
0.0
 40
0.0
 40
0.0
 40
1.0
 40
1.0
 40
1.0
 40
2.0
 40
2.0
 40
2.0
 40
3.0
 40
3.0
 40
3.0
 40
4.0
 40
4.0
 40
4.0
 40
5.0
 40
5.0
 40
5.0
 40
6.0
 40
6.0
 40
6.0
 40
7.0
 40
7.0
 40
7.0
 40
8.0
 40
8.0
 40
8.0
 40
9.0
 40
9.0
 40
9.0
 40
10.0
 40
10.0
 40
10.0
 40
11.0
 40
11.0
 40
11.0
 40
12.0
 40
12.0
 40
12.0
 40
13.0
 40
13.0
 40
13.0
 40
14.0
 40
14.0
 40
14.0
 40
15.0
 40
15.0
 40
15.0
 40
16.0
 40
16.0
 40
16.0
 40
16.0
 10
48.46939289152849
 20
-10.27189669882092
 10
48.46939289152849
 20
-10.27189669882092
 10
49.0479966782762
 20
-10.07432047274184
 10
49.0479966782762
 20
-10.07432047274184
 10
49.0479966782762
 20
-10.07432047274184
 10
49.0479966782762
 20
-10.97056206322958
 10
49.0479966782762
 20
-10.97056206322958
 10
49.0479966782762
 20
-10.97056206322958
 10
50.04311250919061
 20
-10.97056206322958
 10
50.04311250919061
 20
-10.97056206322958
 10
50.04311250919061
 20
-10.97056206322958
 10
50.04311250919061
 20
-11.4292765270906
 10
50.04311250919061
 20
-11.4292765270906
 10
50.04311250919061
 20
-11.4292765270906
 10
49.0479966782762
 20
-11.4292765270906
 10
49.0479966782762
 20
-11.4292765270906
 10
49.0479966782762
 20
-11.4292765270906
 10
49.0479966782762
 20
-13.65222438894806
 10
49.0479966782762
 20
-13.65222438894806
 10
49.0479966782762
 20
-14.13918863578812
 10
49.1963080389162
 20
-14.40738931931482
 10
49.57027315384007
 20
-14.40738931931482
 10
49.74666204268487
 20
-14.40738931931482
 10
49.86672362034582
 20
-14.38620198208053
 10
49.96542560599823
 20
-14.35088975335672
 10
49.96542560599823
 20
-14.35088975335672
 10
50.00073783472204
 20
-14.80254177147298
 10
50.00073783472204
 20
-14.80254177147298
 10
49.87378606609058
 20
-14.85904133743107
 10
49.67603758523725
 20
-14.89435356615489
 10
49.42902423894483
 20
-14.89435356615489
 10
48.49764267450754
 20
-14.89435356615489
 10
48.46939289152849
 20
-14.04737684110621
 10
48.46939289152849
 20
-13.63809949745853
 10
48.46939289152849
 20
-13.63809949745853
 10
48.46939289152849
 20
-11.4292765270906
 10
48.46939289152849
 20
-11.4292765270906
 10
48.46939289152849
 20
-11.4292765270906
 10
47.87649195851699
 20
-11.4292765270906
 10
47.87649195851699
 20
-11.4292765270906
 10
47.87649195851699
 20
-11.4292765270906
 10
47.87649195851699
 20
-10.97056206322958
 10
47.87649195851699
 20
-10.97056206322958
 10
47.87649195851699
 20
-10.97056206322958
 10
48.46939289152849
 20
-10.97056206322958
 10
48.46939289152849
 20
-10.97056206322958
 10
48.46939289152849
 20
-10.97056206322958
 10
48.46939289152849
 20
-10.27189669882092
 10
48.46939289152849
 20
-10.27189669882092
 97
        0
 75
     2
 76
     1
 98
        0
  0
POLYLINE
  5
12A
330
108
100
AcDbEntity
  8
\U+30EC\U+30A4\U+30E4\U+30FC 1
370
     0
100
AcDb2dPolyline
 66
     1
 10
0.0
 20
0.0
 30
0.0
  0
VERTEX
  5
12B
330
12A
100
AcDbEntity
  8
\U+30EC\U+30A4\U+30E4\U+30FC 1
370
     0
100
AcDbVertex
100
AcDb2dVertex
 10
50.6916517342889
 20
-15.13430446670254
 30
0.0
  0
VERTEX
  5
12C
330
12A
100
AcDbEntity
  8
\U+30EC\U+30A4\U+30E4\U+30FC 1
370
     0
100
AcDbVertex
100
AcDb2dVertex
 10
50.21881237893835
 20
-15.13430446670254
 30
0.0
  0
VERTEX
  5
12D
330
12A
100
AcDbEntity
  8
\U+30EC\U+30A4\U+30E4\U+30FC 1
370
     0
100
AcDbVertex
100
AcDb2dVertex
 10
52.45588513228534
 20
-9.354467771098884
 30
0.0
  0
VERTEX
  5
12E
330
12A
100
AcDbEntity
  8
\U+30EC\U+30A4\U+30E4\U+30FC 1
370
     0
100
AcDbVertex
100
AcDb2dVertex
 10
52.9428493791254
 20
-9.354467771098884
 30
0.0
  0
VERTEX
  5
12F
330
12A
100
AcDbEntity
  8
\U+30EC\U+30A4\U+30E4\U+30FC 1
370
     0
100
AcDbVertex
100
AcDb2dVertex
 10
50.6916517342889
 20
-15.13430446670254
 30
0.0
  0
SEQEND
  5
130
330
12A
100
AcDbEntity
  8
\U+30EC\U+30A4\U+30E4\U+30FC 1
370
     0
  0
HATCH
  5
131
330
108
100
AcDbEntity
  8
\U+30EC\U+30A4\U+30E4\U+30FC 1
 62
     7
420
 16777215
100
AcDbHatch
 10
0.0
 20
0.0
 30
0.0
210
0.0
220
0.0
230
1.0
  2
SOLID
 70
     1
 71
     0
 91
        1
 92
        1
 93
        4
 72
     1
 10
50.6916517342889
 20
-15.13430446670254
 11
50.21881237893835
 21
-15.13430446670254
 72
     1
 10
50.21881237893835
 20
-15.13430446670254
 11
52.45588513228534
 21
-9.354467771098884
 72
     1
 10
52.45588513228534
 20
-9.354467771098884
 11
52.9428493791254
 21
-9.354467771098884
 72
     1
 10
52.9428493791254
 20
-9.354467771098884
 11
50.6916517342889
 21
-15.13430446670254
 97
        0
 75
     2
 76
     1
 98
        0
  0
SPLINE
  5
132
330
108
100
AcDbEntity
  8
\U+30EC\U+30A4\U+30E4\U+30FC 1
370
     0
100
AcDbSpline
210
0.0
220
0.0
230
1.0
 70
    11
 71
     3
 72
    41
 73
    37
 74
     0
 42
0.0000000001
 43
0.0000000001
 40
0.0
 40
0.0
 40
0.0
 40
0.0
 40
1.0
 40
1.0
 40
1.0
 40
2.0
 40
2.0
 40
2.0
 40
3.0
 40
3.0
 40
3.0
 40
4.0
 40
4.0
 40
4.0
 40
5.0
 40
5.0
 40
5.0
 40
6.0
 40
6.0
 40
6.0
 40
7.0
 40
7.0
 40
7.0
 40
8.0
 40
8.0
 40
8.0
 40
9.0
 40
9.0
 40
9.0
 40
10.0
 40
10.0
 40
10.0
 40
11.0
 40
11.0
 40
11.0
 40
12.0
 40
12.0
 40
12.0
 40
12.0
 10
55.25709227134198
 20
-11.46458875581441
 30
0.0
 10
55.19353025963912
 20
-11.45752631006965
 30
0.0
 10
55.12996824793626
 20
-11.45046386432488
 30
0.0
 10
55.04539115377338
 20
-11.45046386432488
 30
0.0
 10
54.41011554629331
 20
-11.45046386432488
 30
0.0
 10
54.08558755158277
 20
-12.07850477128593
 30
0.0
 10
54.08558755158277
 20
-12.72773301548126
 30
0.0
 10
54.08558755158277
 20
-12.72773301548126
 30
0.0
 10
54.08558755158277
 20
-14.8166666629625
 30
0.0
 10
54.08558755158277
 20
-14.8166666629625
 30
0.0
 10
54.08558755158277
 20
-14.8166666629625
 30
0.0
 10
53.49974906431603
 20
-14.8166666629625
 30
0.0
 10
53.49974906431603
 20
-14.8166666629625
 30
0.0
 10
53.49974906431603
 20
-14.8166666629625
 30
0.0
 10
53.49974906431603
 20
-12.1208794457545
 30
0.0
 10
53.49974906431603
 20
-12.1208794457545
 30
0.0
 10
53.49974906431603
 20
-11.71160210210682
 30
0.0
 10
53.49268661857128
 20
-11.33746473240869
 30
0.0
 10
53.47167153611125
 20
-10.97056206322958
 30
0.0
 10
53.47167153611125
 20
-10.97056206322958
 30
0.0
 10
53.9867133111561
 20
-10.97056206322958
 30
0.0
 10
53.9867133111561
 20
-10.97056206322958
 30
0.0
 10
53.9867133111561
 20
-10.97056206322958
 30
0.0
 10
54.01496309413515
 20
-11.71160210210682
 30
0.0
 10
54.01496309413515
 20
-11.71160210210682
 30
0.0
 10
54.01496309413515
 20
-11.71160210210682
 30
0.0
 10
54.03615043136944
 20
-11.71160210210682
 30
0.0
 10
54.03615043136944
 20
-11.71160210210682
 30
0.0
 10
54.20547687446947
 20
-11.23170030101152
 30
0.0
 10
54.60786402714665
 20
-10.88581271429244
 30
0.0
 10
55.08053112772293
 20
-10.88581271429244
 30
0.0
 10
55.14409313942578
 20
-10.88581271429244
 30
0.0
 10
55.19353025963912
 20
-10.89993760578196
 30
0.0
 10
55.25709227134198
 20
-10.90700005152672
 30
0.0
 10
55.25709227134198
 20
-10.90700005152672
 30
0.0
 10
55.25709227134198
 20
-11.46458875581441
 30
0.0
 10
55.25709227134198
 20
-11.46458875581441
 30
0.0
  0
HATCH
  5
133
330
108
100
AcDbEntity
  8
\U+30EC\U+30A4\U+30E4\U+30FC 1
 62
     7
420
 16777215
100
AcDbHatch
 10
0.0
 20
0.0
 30
0.0
210
0.0
220
0.0
230
1.0
  2
SOLID
 70
     1
 71
     0
 91
        1
 92
        1
 93
        1
 72
     4
 94
        3
 73
     0
 74
     1
 95
       41
 96
       37
 40
0.0
 40
0.0
 40
0.0
 40
0.0
 40
1.0
 40
1.0
 40
1.0
 40
2.0
 40
2.0
 40
2.0
 40
3.0
 40
3.0
 40
3.0
 40
4.0
 40
4.0
 40
4.0
 40
5.0
 40
5.0
 40
5.0
 40
6.0
 40
6.0
 40
6.0
 40
7.0
 40
7.0
 40
7.0
 40
8.0
 40
8.0
 40
8.0
 40
9.0
 40
9.0
 40
9.0
 40
10.0
 40
10.0
 40
10.0
 40
11.0
 40
11.0
 40
11.0
 40
12.0
 40
12.0
 40
12.0
 40
12.0
 10
55.25709227134198
 20
-11.46458875581441
 10
55.19353025963912
 20
-11.45752631006965
 10
55.12996824793626
 20
-11.45046386432488
 10
55.04539115377338
 20
-11.45046386432488
 10
54.41011554629331
 20
-11.45046386432488
 10
54.08558755158277
 20
-12.07850477128593
 10
54.08558755158277
 20
-12.72773301548126
 10
54.08558755158277
 20
-12.72773301548126
 10
54.08558755158277
 20
-14.8166666629625
 10
54.08558755158277
 20
-14.8166666629625
 10
54.08558755158277
 20
-14.8166666629625
 10
53.49974906431603
 20
-14.8166666629625
 10
53.49974906431603
 20
-14.8166666629625
 10
53.49974906431603
 20
-14.8166666629625
 10
53.49974906431603
 20
-12.1208794457545
 10
53.49974906431603
 20
-12.1208794457545
 10
53.49974906431603
 20
-11.71160210210682
 10
53.49268661857128
 20
-11.33746473240869
 10
53.47167153611125
 20
-10.97056206322958
 10
53.47167153611125
 20
-10.97056206322958
 10
53.9867133111561
 20
-10.97056206322958
 10
53.9867133111561
 20
-10.97056206322958
 10
53.9867133111561
 20
-10.97056206322958
 10
54.01496309413515
 20
-11.71160210210682
 10
54.01496309413515
 20
-11.71160210210682
 10
54.01496309413515
 20
-11.71160210210682
 10
54.03615043136944
 20
-11.71160210210682
 10
54.03615043136944
 20
-11.71160210210682
 10
54.20547687446947
 20
-11.23170030101152
 10
54.60786402714665
 20
-10.88581271429244
 10
55.08053112772293
 20
-10.88581271429244
 10
55.14409313942578
 20
-10.88581271429244
 10
55.19353025963912
 20
-10.89993760578196
 10
55.25709227134198
 20
-10.90700005152672
 10
55.25709227134198
 20
-10.90700005152672
 10
55.25709227134198
 20
-11.46458875581441
 10
55.25709227134198
 20
-11.46458875581441
 97
        0
 75
     2
 76
     1
 98
        0
  0
SPLINE
  5
134
330
108
100
AcDbEntity
  8
\U+30EC\U+30A4\U+30E4\U+30FC 1
370
     0
100
AcDbSpline
210
0.0
220
0.0
230
1.0
 70
    11
 71
     3
 72
    32
 73
    28
 74
     0
 42
0.0000000001
 43
0.0000000001
 40
0.0
 40
0.0
 40
0.0
 40
0.0
 40
1.0
 40
1.0
 40
1.0
 40
2.0
 40
2.0
 40
2.0
 40
3.0
 40
3.0
 40
3.0
 40
4.0
 40
4.0
 40
4.0
 40
5.0
 40
5.0
 40
5.0
 40
6.0
 40
6.0
 40
6.0
 40
7.0
 40
7.0
 40
7.0
 40
8.0
 40
8.0
 40
8.0
 40
9.0
 40
9.0
 40
9.0
 40
9.0
 10
58.66498072535112
 20
-14.65440266560723
 30
0.0
 10
58.44621716203775
 20
-14.7601670970044
 30
0.0
 10
58.04400226413483
 20
-14.89435356615489
 30
0.0
 10
57.45833603164236
 20
-14.89435356615489
 30
0.0
 10
56.33626843209649
 20
-14.89435356615489
 30
0.0
 10
55.66585285066687
 20
-14.10387640706431
 30
0.0
 10
55.66585285066687
 20
-12.95355902453939
 30
0.0
 10
55.66585285066687
 20
-11.74691433083063
 30
0.0
 10
56.34333087784125
 20
-10.87875026854767
 30
0.0
 10
57.38064912844998
 20
-10.87875026854767
 30
0.0
 10
58.56627873969871
 20
-10.87875026854767
 30
0.0
 10
58.86961939717496
 20
-11.965677894144
 30
0.0
 10
58.86961939717496
 20
-12.63609347557362
 30
0.0
 10
58.86961939717496
 20
-12.77010768994984
 30
0.0
 10
58.86272920620446
 20
-12.8689819303765
 30
0.0
 10
58.8556667604597
 20
-12.96062147028415
 30
0.0
 10
58.8556667604597
 20
-12.96062147028415
 30
0.0
 10
56.23739419166982
 20
-12.96062147028415
 30
0.0
 10
56.23739419166982
 20
-12.96062147028415
 30
0.0
 10
56.24445663741458
 20
-14.02636175864619
 30
0.0
 10
56.85131020714134
 20
-14.42857665654911
 30
0.0
 10
57.54291312580525
 20
-14.42857665654911
 30
0.0
 10
58.02281492690055
 20
-14.42857665654911
 30
0.0
 10
58.31220294766153
 20
-14.32970241612244
 30
0.0
 10
58.55215384820919
 20
-14.23100043047003
 30
0.0
 10
58.55215384820919
 20
-14.23100043047003
 30
0.0
 10
58.66498072535112
 20
-14.65440266560723
 30
0.0
 10
58.66498072535112
 20
-14.65440266560723
 30
0.0
  0
SPLINE
  5
135
330
108
100
AcDbEntity
  8
\U+30EC\U+30A4\U+30E4\U+30FC 1
370
     0
100
AcDbSpline
210
0.0
220
0.0
230
1.0
 70
    11
 71
     3
 72
    14
 73
    10
 74
     0
 42
0.0000000001
 43
0.0000000001
 40
0.0
 40
0.0
 40
0.0
 40
0.0
 40
1.0
 40
1.0
 40
1.0
 40
2.0
 40
2.0
 40
2.0
 40
3.0
 40
3.0
 40
3.0
 40
3.0
 10
58.29101561042725
 20
-12.52309434365742
 30
0.0
 10
58.29807805617201
 20
-12.00081786809355
 30
0.0
 10
58.07931449285864
 20
-11.32333984091917
 30
0.0
 10
57.32414956249188
 20
-11.32333984091917
 30
0.0
 10
56.61842175233846
 20
-11.32333984091917
 30
0.0
 10
56.30801864911744
 20
-11.99375542234878
 30
0.0
 10
56.25151908315934
 20
-12.52309434365742
 30
0.0
 10
56.25151908315934
 20
-12.52309434365742
 30
0.0
 10
58.29101561042725
 20
-12.52309434365742
 30
0.0
 10
58.29101561042725
 20
-12.52309434365742
 30
0.0
  0
HATCH
  5
136
330
108
100
AcDbEntity
  8
\U+30EC\U+30A4\U+30E4\U+30FC 1
 62
     7
420
 16777215
100
AcDbHatch
 10
0.0
 20
0.0
 30
0.0
210
0.0
220
0.0
230
1.0
  2
SOLID
 70
     1
 71
     0
 91
        2
 92
        1
 93
        1
 72
     4
 94
        3
 73
     0
 74
     1
 95
       32
 96
       28
 40
0.0
 40
0.0
 40
0.0
 40
0.0
 40
1.0
 40
1.0
 40
1.0
 40
2.0
 40
2.0
 40
2.0
 40
3.0
 40
3.0
 40
3.0
 40
4.0
 40
4.0
 40
4.0
 40
5.0
 40
5.0
 40
5.0
 40
6.0
 40
6.0
 40
6.0
 40
7.0
 40
7.0
 40
7.0
 40
8.0
 40
8.0
 40
8.0
 40
9.0
 40
9.0
 40
9.0
 40
9.0
 10
58.66498072535112
 20
-14.65440266560723
 10
58.44621716203775
 20
-14.7601670970044
 10
58.04400226413483
 20
-14.89435356615489
 10
57.45833603164236
 20
-14.89435356615489
 10
56.33626843209649
 20
-14.89435356615489
 10
55.66585285066687
 20
-14.10387640706431
 10
55.66585285066687
 20
-12.95355902453939
 10
55.66585285066687
 20
-11.74691433083063
 10
56.34333087784125
 20
-10.87875026854767
 10
57.38064912844998
 20
-10.87875026854767
 10
58.56627873969871
 20
-10.87875026854767
 10
58.86961939717496
 20
-11.965677894144
 10
58.86961939717496
 20
-12.63609347557362
 10
58.86961939717496
 20
-12.77010768994984
 10
58.86272920620446
 20
-12.8689819303765
 10
58.8556667604597
 20
-12.96062147028415
 10
58.8556667604597
 20
-12.96062147028415
 10
56.23739419166982
 20
-12.96062147028415
 10
56.23739419166982
 20
-12.96062147028415
 10
56.24445663741458
 20
-14.02636175864619
 10
56.85131020714134
 20
-14.42857665654911
 10
57.54291312580525
 20
-14.42857665654911
 10
58.02281492690055
 20
-14.42857665654911
 10
58.31220294766153
 20
-14.32970241612244
 10
58.55215384820919
 20
-14.23100043047003
 10
58.55215384820919
 20
-14.23100043047003
 10
58.66498072535112
 20
-14.65440266560723
 10
58.66498072535112
 20
-14.65440266560723
 97
        0
 92
        1
 93
        1
 72
     4
 94
        3
 73
     0
 74
     1
 95
       14
 96
       10
 40
0.0
 40
0.0
 40
0.0
 40
0.0
 40
1.0
 40
1.0
 40
1.0
 40
2.0
 40
2.0
 40
2.0
 40
3.0
 40
3.0
 40
3.0
 40
3.0
 10
58.29101561042725
 20
-12.52309434365742
 10
58.29807805617201
 20
-12.00081786809355
 10
58.07931449285864
 20
-11.32333984091917
 10
57.32414956249188
 20
-11.32333984091917
 10
56.61842175233846
 20
-11.32333984091917
 10
56.30801864911744
 20
-11.99375542234878
 10
56.25151908315934
 20
-12.52309434365742
 10
56.25151908315934
 20
-12.52309434365742
 10
58.29101561042725
 20
-12.52309434365742
 10
58.29101561042725
 20
-12.52309434365742
 97
        0
 75
     2
 76
     1
 98
        0
  0
SPLINE
  5
137
330
108
100
AcDbEntity
  8
\U+30EC\U+30A4\U+30E4\U+30FC 1
370
     0
100
AcDbSpline
210
0.0
220
0.0
230
1.0
 70
    11
 71
     3
 72
    44
 73
    40
 74
     0
 42
0.0000000001
 43
0.0000000001
 40
0.0
 40
0.0
 40
0.0
 40
0.0
 40
1.0
 40
1.0
 40
1.0
 40
2.0
 40
2.0
 40
2.0
 40
3.0
 40
3.0
 40
3.0
 40
4.0
 40
4.0
 40
4.0
 40
5.0
 40
5.0
 40
5.0
 40
6.0
 40
6.0
 40
6.0
 40
7.0
 40
7.0
 40
7.0
 40
8.0
 40
8.0
 40
8.0
 40
9.0
 40
9.0
 40
9.0
 40
10.0
 40
10.0
 40
10.0
 40
11.0
 40
11.0
 40
11.0
 40
12.0
 40
12.0
 40
12.0
 40
13.0
 40
13.0
 40
13.0
 40
13.0
 10
62.26321070492031
 20
-13.89923773524047
 30
0.0
 10
62.26321070492031
 20
-14.2168755389805
 30
0.0
 10
62.27027315066508
 20
-14.5484659794358
 30
0.0
 10
62.31971027087841
 20
-14.8166666629625
 30
0.0
 10
62.31971027087841
 20
-14.8166666629625
 30
0.0
 10
61.78330890382501
 20
-14.8166666629625
 30
0.0
 10
61.78330890382501
 20
-14.8166666629625
 30
0.0
 10
61.78330890382501
 20
-14.8166666629625
 30
0.0
 10
61.72698159264117
 20
-14.32263997037767
 30
0.0
 10
61.72698159264117
 20
-14.32263997037767
 30
0.0
 10
61.72698159264117
 20
-14.32263997037767
 30
0.0
 10
61.70579425540689
 20
-14.32263997037767
 30
0.0
 10
61.70579425540689
 20
-14.32263997037767
 30
0.0
 10
61.50821802932781
 20
-14.62615288262819
 30
0.0
 10
61.11289332239539
 20
-14.90141601189965
 30
0.0
 10
60.56960176437149
 20
-14.90141601189965
 30
0.0
 10
59.83562417123901
 20
-14.90141601189965
 30
0.0
 10
59.44753416482562
 20
-14.36501464484625
 30
0.0
 10
59.44753416482562
 20
-13.80742594055856
 30
0.0
 10
59.44753416482562
 20
-12.88310682186603
 30
0.0
 10
60.25196396063146
 20
-12.38201768353644
 30
0.0
 10
61.67754447242784
 20
-12.3890801292812
 30
0.0
 10
61.67754447242784
 20
-12.06437987979641
 30
0.0
 10
61.67754447242784
 20
-11.33040228666393
 30
0.0
 10
60.80249021917438
 20
-11.33040228666393
 30
0.0
 10
60.47072752394482
 20
-11.33040228666393
 30
0.0
 10
60.125012192
 20
-11.42221408134584
 30
0.0
 10
59.86387395421806
 20
-11.60566541593539
 30
0.0
 10
59.86387395421806
 20
-11.60566541593539
 30
0.0
 10
59.72279729409708
 20
-11.20345051803247
 30
0.0
 10
59.72279729409708
 20
-11.20345051803247
 30
0.0
 10
60.03320039731809
 20
-10.99881184620863
 30
0.0
 10
60.46366507820006
 20
-10.87875026854767
 30
0.0
 10
60.89412975908203
 20
-10.87875026854767
 30
0.0
 10
61.98105738467835
 20
-10.87875026854767
 30
0.0
 10
62.26321070492031
 20
-11.64804009040396
 30
0.0
 10
62.26321070492031
 20
-12.41026746651549
 30
0.0
 10
62.26321070492031
 20
-12.41026746651549
 30
0.0
 10
62.26321070492031
 20
-13.89923773524047
 30
0.0
 10
62.26321070492031
 20
-13.89923773524047
 30
0.0
  0
SPLINE
  5
138
330
108
100
AcDbEntity
  8
\U+30EC\U+30A4\U+30E4\U+30FC 1
370
     0
100
AcDbSpline
210
0.0
220
0.0
230
1.0
 70
    11
 71
     3
 72
    17
 73
    13
 74
     0
 42
0.0000000001
 43
0.0000000001
 40
0.0
 40
0.0
 40
0.0
 40
0.0
 40
1.0
 40
1.0
 40
1.0
 40
2.0
 40
2.0
 40
2.0
 40
3.0
 40
3.0
 40
3.0
 40
4.0
 40
4.0
 40
4.0
 40
4.0
 10
61.6846069181726
 20
-12.81954481016317
 30
0.0
 10
60.95769177078488
 20
-12.81954481016317
 30
0.0
 10
60.04732528880761
 20
-12.92530924156034
 30
0.0
 10
60.04732528880761
 20
-13.7369737378852
 30
0.0
 10
60.04732528880761
 20
-14.23100043047003
 30
0.0
 10
60.35790064680289
 20
-14.44976399378339
 30
0.0
 10
60.71067842449247
 20
-14.44976399378339
 30
0.0
 10
61.28239202026968
 20
-14.44976399378339
 30
0.0
 10
61.6846069181726
 20
-14.01223686715666
 30
0.0
 10
61.6846069181726
 20
-13.54645995755089
 30
0.0
 10
61.6846069181726
 20
-13.54645995755089
 30
0.0
 10
61.6846069181726
 20
-12.81954481016317
 30
0.0
 10
61.6846069181726
 20
-12.81954481016317
 30
0.0
  0
HATCH
  5
139
330
108
100
AcDbEntity
  8
\U+30EC\U+30A4\U+30E4\U+30FC 1
 62
     7
420
 16777215
100
AcDbHatch
 10
0.0
 20
0.0
 30
0.0
210
0.0
220
0.0
230
1.0
  2
SOLID
 70
     1
 71
     0
 91
        2
 92
        1
 93
        1
 72
     4
 94
        3
 73
     0
 74
     1
 95
       44
 96
       40
 40
0.0
 40
0.0
 40
0.0
 40
0.0
 40
1.0
 40
1.0
 40
1.0
 40
2.0
 40
2.0
 40
2.0
 40
3.0
 40
3.0
 40
3.0
 40
4.0
 40
4.0
 40
4.0
 40
5.0
 40
5.0
 40
5.0
 40
6.0
 40
6.0
 40
6.0
 40
7.0
 40
7.0
 40
7.0
 40
8.0
 40
8.0
 40
8.0
 40
9.0
 40
9.0
 40
9.0
 40
10.0
 40
10.0
 40
10.0
 40
11.0
 40
11.0
 40
11.0
 40
12.0
 40
12.0
 40
12.0
 40
13.0
 40
13.0
 40
13.0
 40
13.0
 10
62.26321070492031
 20
-13.89923773524047
 10
62.26321070492031
 20
-14.2168755389805
 10
62.27027315066508
 20
-14.5484659794358
 10
62.31971027087841
 20
-14.8166666629625
 10
62.31971027087841
 20
-14.8166666629625
 10
61.78330890382501
 20
-14.8166666629625
 10
61.78330890382501
 20
-14.8166666629625
 10
61.78330890382501
 20
-14.8166666629625
 10
61.72698159264117
 20
-14.32263997037767
 10
61.72698159264117
 20
-14.32263997037767
 10
61.72698159264117
 20
-14.32263997037767
 10
61.70579425540689
 20
-14.32263997037767
 10
61.70579425540689
 20
-14.32263997037767
 10
61.50821802932781
 20
-14.62615288262819
 10
61.11289332239539
 20
-14.90141601189965
 10
60.56960176437149
 20
-14.90141601189965
 10
59.83562417123901
 20
-14.90141601189965
 10
59.44753416482562
 20
-14.36501464484625
 10
59.44753416482562
 20
-13.80742594055856
 10
59.44753416482562
 20
-12.88310682186603
 10
60.25196396063146
 20
-12.38201768353644
 10
61.67754447242784
 20
-12.3890801292812
 10
61.67754447242784
 20
-12.06437987979641
 10
61.67754447242784
 20
-11.33040228666393
 10
60.80249021917438
 20
-11.33040228666393
 10
60.47072752394482
 20
-11.33040228666393
 10
60.125012192
 20
-11.42221408134584
 10
59.86387395421806
 20
-11.60566541593539
 10
59.86387395421806
 20
-11.60566541593539
 10
59.72279729409708
 20
-11.20345051803247
 10
59.72279729409708
 20
-11.20345051803247
 10
60.03320039731809
 20
-10.99881184620863
 10
60.46366507820006
 20
-10.87875026854767
 10
60.89412975908203
 20
-10.87875026854767
 10
61.98105738467835
 20
-10.87875026854767
 10
62.26321070492031
 20
-11.64804009040396
 10
62.26321070492031
 20
-12.41026746651549
 10
62.26321070492031
 20
-12.41026746651549
 10
62.26321070492031
 20
-13.89923773524047
 10
62.26321070492031
 20
-13.89923773524047
 97
        0
 92
        1
 93
        1
 72
     4
 94
        3
 73
     0
 74
     1
 95
       17
 96
       13
 40
0.0
 40
0.0
 40
0.0
 40
0.0
 40
1.0
 40
1.0
 40
1.0
 40
2.0
 40
2.0
 40
2.0
 40
3.0
 40
3.0
 40
3.0
 40
4.0
 40
4.0
 40
4.0
 40
4.0
 10
61.6846069181726
 20
-12.81954481016317
 10
60.95769177078488
 20
-12.81954481016317
 10
60.04732528880761
 20
-12.92530924156034
 10
60.04732528880761
 20
-13.7369737378852
 10
60.04732528880761
 20
-14.23100043047003
 10
60.35790064680289
 20
-14.44976399378339
 10
60.71067842449247
 20
-14.44976399378339
 10
61.28239202026968
 20
-14.44976399378339
 10
61.6846069181726
 20
-14.01223686715666
 10
61.6846069181726
 20
-13.54645995755089
 10
61.6846069181726
 20
-13.54645995755089
 10
61.6846069181726
 20
-12.81954481016317
 10
61.6846069181726
 20
-12.81954481016317
 97
        0
 75
     2
 76
     1
 98
        0
  0
SPLINE
  5
13A
330
108
100
AcDbEntity
  8
\U+30EC\U+30A4\U+30E4\U+30FC 1
370
     0
100
AcDbSpline
210
0.0
220
0.0
230
1.0
 70
    11
 71
     3
 72
    41
 73
    37
 74
     0
 42
0.0000000001
 43
0.0000000001
 40
0.0
 40
0.0
 40
0.0
 40
0.0
 40
1.0
 40
1.0
 40
1.0
 40
2.0
 40
2.0
 40
2.0
 40
3.0
 40
3.0
 40
3.0
 40
4.0
 40
4.0
 40
4.0
 40
5.0
 40
5.0
 40
5.0
 40
6.0
 40
6.0
 40
6.0
 40
7.0
 40
7.0
 40
7.0
 40
8.0
 40
8.0
 40
8.0
 40
9.0
 40
9.0
 40
9.0
 40
10.0
 40
10.0
 40
10.0
 40
11.0
 40
11.0
 40
11.0
 40
12.0
 40
12.0
 40
12.0
 40
12.0
 10
65.14882268336558
 20
-11.46458875581441
 30
0.0
 10
65.08526067166271
 20
-11.45752631006965
 30
0.0
 10
65.02169865995985
 20
-11.45046386432488
 30
0.0
 10
64.93712156579697
 20
-11.45046386432488
 30
0.0
 10
64.3018459583169
 20
-11.45046386432488
 30
0.0
 10
63.97731796360637
 20
-12.07850477128593
 30
0.0
 10
63.97731796360637
 20
-12.72773301548126
 30
0.0
 10
63.97731796360637
 20
-12.72773301548126
 30
0.0
 10
63.97731796360637
 20
-14.8166666629625
 30
0.0
 10
63.97731796360637
 20
-14.8166666629625
 30
0.0
 10
63.97731796360637
 20
-14.8166666629625
 30
0.0
 10
63.39147947633963
 20
-14.8166666629625
 30
0.0
 10
63.39147947633963
 20
-14.8166666629625
 30
0.0
 10
63.39147947633963
 20
-14.8166666629625
 30
0.0
 10
63.39147947633963
 20
-12.1208794457545
 30
0.0
 10
63.39147947633963
 20
-12.1208794457545
 30
0.0
 10
63.39147947633963
 20
-11.71160210210682
 30
0.0
 10
63.38441703059487
 20
-11.33746473240869
 30
0.0
 10
63.36340194813485
 20
-10.97056206322958
 30
0.0
 10
63.36340194813485
 20
-10.97056206322958
 30
0.0
 10
63.8784437231797
 20
-10.97056206322958
 30
0.0
 10
63.8784437231797
 20
-10.97056206322958
 30
0.0
 10
63.8784437231797
 20
-10.97056206322958
 30
0.0
 10
63.90669350615875
 20
-11.71160210210682
 30
0.0
 10
63.90669350615875
 20
-11.71160210210682
 30
0.0
 10
63.90669350615875
 20
-11.71160210210682
 30
0.0
 10
63.92788084339303
 20
-11.71160210210682
 30
0.0
 10
63.92788084339303
 20
-11.71160210210682
 30
0.0
 10
64.09720728649306
 20
-11.23170030101152
 30
0.0
 10
64.49959443917024
 20
-10.88581271429244
 30
0.0
 10
64.97226153974653
 20
-10.88581271429244
 30
0.0
 10
65.03582355144938
 20
-10.88581271429244
 30
0.0
 10
65.08526067166271
 20
-10.89993760578196
 30
0.0
 10
65.14882268336558
 20
-10.90700005152672
 30
0.0
 10
65.14882268336558
 20
-10.90700005152672
 30
0.0
 10
65.14882268336558
 20
-11.46458875581441
 30
0.0
 10
65.14882268336558
 20
-11.46458875581441
 30
0.0
  0
HATCH
  5
13B
330
108
100
AcDbEntity
  8
\U+30EC\U+30A4\U+30E4\U+30FC 1
 62
     7
420
 16777215
100
AcDbHatch
 10
0.0
 20
0.0
 30
0.0
210
0.0
220
0.0
230
1.0
  2
SOLID
 70
     1
 71
     0
 91
        1
 92
        1
 93
        1
 72
     4
 94
        3
 73
     0
 74
     1
 95
       41
 96
       37
 40
0.0
 40
0.0
 40
0.0
 40
0.0
 40
1.0
 40
1.0
 40
1.0
 40
2.0
 40
2.0
 40
2.0
 40
3.0
 40
3.0
 40
3.0
 40
4.0
 40
4.0
 40
4.0
 40
5.0
 40
5.0
 40
5.0
 40
6.0
 40
6.0
 40
6.0
 40
7.0
 40
7.0
 40
7.0
 40
8.0
 40
8.0
 40
8.0
 40
9.0
 40
9.0
 40
9.0
 40
10.0
 40
10.0
 40
10.0
 40
11.0
 40
11.0
 40
11.0
 40
12.0
 40
12.0
 40
12.0
 40
12.0
 10
65.14882268336558
 20
-11.46458875581441
 10
65.08526067166271
 20
-11.45752631006965
 10
65.02169865995985
 20
-11.45046386432488
 10
64.93712156579697
 20
-11.45046386432488
 10
64.3018459583169
 20
-11.45046386432488
 10
63.97731796360637
 20
-12.07850477128593
 10
63.97731796360637
 20
-12.72773301548126
 10
63.97731796360637
 20
-12.72773301548126
 10
63.97731796360637
 20
-14.8166666629625
 10
63.97731796360637
 20
-14.8166666629625
 10
63.97731796360637
 20
-14.8166666629625
 10
63.39147947633963
 20
-14.8166666629625
 10
63.39147947633963
 20
-14.8166666629625
 10
63.39147947633963
 20
-14.8166666629625
 10
63.39147947633963
 20
-12.1208794457545
 10
63.39147947633963
 20
-12.1208794457545
 10
63.39147947633963
 20
-11.71160210210682
 10
63.38441703059487
 20
-11.33746473240869
 10
63.36340194813485
 20
-10.97056206322958
 10
63.36340194813485
 20
-10.97056206322958
 10
63.8784437231797
 20
-10.97056206322958
 10
63.8784437231797
 20
-10.97056206322958
 10
63.8784437231797
 20
-10.97056206322958
 10
63.90669350615875
 20
-11.71160210210682
 10
63.90669350615875
 20
-11.71160210210682
 10
63.90669350615875
 20
-11.71160210210682
 10
63.92788084339303
 20
-11.71160210210682
 10
63.92788084339303
 20
-11.71160210210682
 10
64.09720728649306
 20
-11.23170030101152
 10
64.49959443917024
 20
-10.88581271429244
 10
64.97226153974653
 20
-10.88581271429244
 10
65.03582355144938
 20
-10.88581271429244
 10
65.08526067166271
 20
-10.89993760578196
 10
65.14882268336558
 20
-10.90700005152672
 10
65.14882268336558
 20
-10.90700005152672
 10
65.14882268336558
 20
-11.46458875581441
 10
65.14882268336558
 20
-11.46458875581441
 97
        0
 75
     2
 76
     1
 98
        0
  0
SPLINE
  5
13C
330
108
100
AcDbEntity
  8
\U+30EC\U+30A4\U+30E4\U+30FC 1
370
     0
100
AcDbSpline
210
0.0
220
0.0
230
1.0
 70
    11
 71
     3
 72
    53
 73
    49
 74
     0
 42
0.0000000001
 43
0.0000000001
 40
0.0
 40
0.0
 40
0.0
 40
0.0
 40
1.0
 40
1.0
 40
1.0
 40
2.0
 40
2.0
 40
2.0
 40
3.0
 40
3.0
 40
3.0
 40
4.0
 40
4.0
 40
4.0
 40
5.0
 40
5.0
 40
5.0
 40
6.0
 40
6.0
 40
6.0
 40
7.0
 40
7.0
 40
7.0
 40
8.0
 40
8.0
 40
8.0
 40
9.0
 40
9.0
 40
9.0
 40
10.0
 40
10.0
 40
10.0
 40
11.0
 40
11.0
 40
11.0
 40
12.0
 40
12.0
 40
12.0
 40
13.0
 40
13.0
 40
13.0
 40
14.0
 40
14.0
 40
14.0
 40
15.0
 40
15.0
 40
15.0
 40
16.0
 40
16.0
 40
16.0
 40
16.0
 10
16.73386230050404
 20
-22.61911891795633
 30
0.0
 10
16.73386230050404
 20
-22.61911891795633
 30
0.0
 10
17.31246608725175
 20
-22.42154269187725
 30
0.0
 10
17.31246608725175
 20
-22.42154269187725
 30
0.0
 10
17.31246608725175
 20
-22.42154269187725
 30
0.0
 10
17.31246608725175
 20
-23.317784282365
 30
0.0
 10
17.31246608725175
 20
-23.317784282365
 30
0.0
 10
17.31246608725175
 20
-23.317784282365
 30
0.0
 10
18.30758191816616
 20
-23.317784282365
 30
0.0
 10
18.30758191816616
 20
-23.317784282365
 30
0.0
 10
18.30758191816616
 20
-23.317784282365
 30
0.0
 10
18.30758191816616
 20
-23.77649874622601
 30
0.0
 10
18.30758191816616
 20
-23.77649874622601
 30
0.0
 10
18.30758191816616
 20
-23.77649874622601
 30
0.0
 10
17.31246608725175
 20
-23.77649874622601
 30
0.0
 10
17.31246608725175
 20
-23.77649874622601
 30
0.0
 10
17.31246608725175
 20
-23.77649874622601
 30
0.0
 10
17.31246608725175
 20
-25.99944660808347
 30
0.0
 10
17.31246608725175
 20
-25.99944660808347
 30
0.0
 10
17.31246608725175
 20
-26.48641085492354
 30
0.0
 10
17.46077744789175
 20
-26.75461153845024
 30
0.0
 10
17.83474256281562
 20
-26.75461153845024
 30
0.0
 10
18.01113145166041
 20
-26.75461153845024
 30
0.0
 10
18.13119302932137
 20
-26.73342420121595
 30
0.0
 10
18.22989501497378
 20
-26.69811197249214
 30
0.0
 10
18.22989501497378
 20
-26.69811197249214
 30
0.0
 10
18.26520724369759
 20
-27.14976399060839
 30
0.0
 10
18.26520724369759
 20
-27.14976399060839
 30
0.0
 10
18.13825547506613
 20
-27.20626355656649
 30
0.0
 10
17.94050699421279
 20
-27.2415757852903
 30
0.0
 10
17.69349364792038
 20
-27.2415757852903
 30
0.0
 10
16.76211208348309
 20
-27.2415757852903
 30
0.0
 10
16.73386230050404
 20
-26.39459906024163
 30
0.0
 10
16.73386230050404
 20
-25.98532171659395
 30
0.0
 10
16.73386230050404
 20
-25.98532171659395
 30
0.0
 10
16.73386230050404
 20
-23.77649874622601
 30
0.0
 10
16.73386230050404
 20
-23.77649874622601
 30
0.0
 10
16.73386230050404
 20
-23.77649874622601
 30
0.0
 10
16.14096136749254
 20
-23.77649874622601
 30
0.0
 10
16.14096136749254
 20
-23.77649874622601
 30
0.0
 10
16.14096136749254
 20
-23.77649874622601
 30
0.0
 10
16.14096136749254
 20
-23.317784282365
 30
0.0
 10
16.14096136749254
 20
-23.317784282365
 30
0.0
 10
16.14096136749254
 20
-23.317784282365
 30
0.0
 10
16.73386230050404
 20
-23.317784282365
 30
0.0
 10
16.73386230050404
 20
-23.317784282365
 30
0.0
 10
16.73386230050404
 20
-23.317784282365
 30
0.0
 10
16.73386230050404
 20
-22.61911891795633
 30
0.0
 10
16.73386230050404
 20
-22.61911891795633
 30
0.0
  0
HATCH
  5
13D
330
108
100
AcDbEntity
  8
\U+30EC\U+30A4\U+30E4\U+30FC 1
 62
     7
420
 16777215
100
AcDbHatch
 10
0.0
 20
0.0
 30
0.0
210
0.0
220
0.0
230
1.0
  2
SOLID
 70
     1
 71
     0
 91
        1
 92
        1
 93
        1
 72
     4
 94
        3
 73
     0
 74
     1
 95
       53
 96
       49
 40
0.0
 40
0.0
 40
0.0
 40
0.0
 40
1.0
 40
1.0
 40
1.0
 40
2.0
 40
2.0
 40
2.0
 40
3.0
 40
3.0
 40
3.0
 40
4.0
 40
4.0
 40
4.0
 40
5.0
 40
5.0
 40
5.0
 40
6.0
 40
6.0
 40
6.0
 40
7.0
 40
7.0
 40
7.0
 40
8.0
 40
8.0
 40
8.0
 40
9.0
 40
9.0
 40
9.0
 40
10.0
 40
10.0
 40
10.0
 40
11.0
 40
11.0
 40
11.0
 40
12.0
 40
12.0
 40
12.0
 40
13.0
 40
13.0
 40
13.0
 40
14.0
 40
14.0
 40
14.0
 40
15.0
 40
15.0
 40
15.0
 40
16.0
 40
16.0
 40
16.0
 40
16.0
 10
16.73386230050404
 20
-22.61911891795633
 10
16.73386230050404
 20
-22.61911891795633
 10
17.31246608725175
 20
-22.42154269187725
 10
17.31246608725175
 20
-22.42154269187725
 10
17.31246608725175
 20
-22.42154269187725
 10
17.31246608725175
 20
-23.317784282365
 10
17.31246608725175
 20
-23.317784282365
 10
17.31246608725175
 20
-23.317784282365
 10
18.30758191816616
 20
-23.317784282365
 10
18.30758191816616
 20
-23.317784282365
 10
18.30758191816616
 20
-23.317784282365
 10
18.30758191816616
 20
-23.77649874622601
 10
18.30758191816616
 20
-23.77649874622601
 10
18.30758191816616
 20
-23.77649874622601
 10
17.31246608725175
 20
-23.77649874622601
 10
17.31246608725175
 20
-23.77649874622601
 10
17.31246608725175
 20
-23.77649874622601
 10
17.31246608725175
 20
-25.99944660808347
 10
17.31246608725175
 20
-25.99944660808347
 10
17.31246608725175
 20
-26.48641085492354
 10
17.46077744789175
 20
-26.75461153845024
 10
17.83474256281562
 20
-26.75461153845024
 10
18.01113145166041
 20
-26.75461153845024
 10
18.13119302932137
 20
-26.73342420121595
 10
18.22989501497378
 20
-26.69811197249214
 10
18.22989501497378
 20
-26.69811197249214
 10
18.26520724369759
 20
-27.14976399060839
 10
18.26520724369759
 20
-27.14976399060839
 10
18.13825547506613
 20
-27.20626355656649
 10
17.94050699421279
 20
-27.2415757852903
 10
17.69349364792038
 20
-27.2415757852903
 10
16.76211208348309
 20
-27.2415757852903
 10
16.73386230050404
 20
-26.39459906024163
 10
16.73386230050404
 20
-25.98532171659395
 10
16.73386230050404
 20
-25.98532171659395
 10
16.73386230050404
 20
-23.77649874622601
 10
16.73386230050404
 20
-23.77649874622601
 10
16.73386230050404
 20
-23.77649874622601
 10
16.14096136749254
 20
-23.77649874622601
 10
16.14096136749254
 20
-23.77649874622601
 10
16.14096136749254
 20
-23.77649874622601
 10
16.14096136749254
 20
-23.317784282365
 10
16.14096136749254
 20
-23.317784282365
 10
16.14096136749254
 20
-23.317784282365
 10
16.73386230050404
 20
-23.317784282365
 10
16.73386230050404
 20
-23.317784282365
 10
16.73386230050404
 20
-23.317784282365
 10
16.73386230050404
 20
-22.61911891795633
 10
16.73386230050404
 20
-22.61911891795633
 97
        0
 75
     2
 76
     1
 98
        0
  0
POLYLINE
  5
13E
330
108
100
AcDbEntity
  8
\U+30EC\U+30A4\U+30E4\U+30FC 1
370
     0
100
AcDb2dPolyline
 66
     1
 10
0.0
 20
0.0
 30
0.0
  0
VERTEX
  5
13F
330
13E
100
AcDbEntity
  8
\U+30EC\U+30A4\U+30E4\U+30FC 1
370
     0
100
AcDbVertex
100
AcDb2dVertex
 10
22.92917751162882
 20
-24.4539767734004
 30
0.0
  0
VERTEX
  5
140
330
13E
100
AcDbEntity
  8
\U+30EC\U+30A4\U+30E4\U+30FC 1
370
     0
100
AcDbVertex
100
AcDb2dVertex
 10
18.81504448314346
 20
-24.4539767734004
 30
0.0
  0
VERTEX
  5
141
330
13E
100
AcDbEntity
  8
\U+30EC\U+30A4\U+30E4\U+30FC 1
370
     0
100
AcDbVertex
100
AcDb2dVertex
 10
18.81504448314346
 20
-24.03057453826319
 30
0.0
  0
VERTEX
  5
142
330
13E
100
AcDbEntity
  8
\U+30EC\U+30A4\U+30E4\U+30FC 1
370
     0
100
AcDbVertex
100
AcDb2dVertex
 10
22.92917751162882
 20
-24.03057453826319
 30
0.0
  0
VERTEX
  5
143
330
13E
100
AcDbEntity
  8
\U+30EC\U+30A4\U+30E4\U+30FC 1
370
     0
100
AcDbVertex
100
AcDb2dVertex
 10
22.92917751162882
 20
-24.4539767734004
 30
0.0
  0
SEQEND
  5
144
330
13E
100
AcDbEntity
  8
\U+30EC\U+30A4\U+30E4\U+30FC 1
370
     0
  0
POLYLINE
  5
145
330
108
100
AcDbEntity
  8
\U+30EC\U+30A4\U+30E4\U+30FC 1
370
     0
100
AcDb2dPolyline
 66
     1
 10
0.0
 20
0.0
 30
0.0
  0
VERTEX
  5
146
330
145
100
AcDbEntity
  8
\U+30EC\U+30A4\U+30E4\U+30FC 1
370
     0
100
AcDbVertex
100
AcDb2dVertex
 10
22.92917751162882
 20
-25.99944660808347
 30
0.0
  0
VERTEX
  5
147
330
145
100
AcDbEntity
  8
\U+30EC\U+30A4\U+30E4\U+30FC 1
370
     0
100
AcDbVertex
100
AcDb2dVertex
 10
18.81504448314346
 20
-25.99944660808347
 30
0.0
  0
VERTEX
  5
148
330
145
100
AcDbEntity
  8
\U+30EC\U+30A4\U+30E4\U+30FC 1
370
     0
100
AcDbVertex
100
AcDb2dVertex
 10
18.81504448314346
 20
-25.57604437294627
 30
0.0
  0
VERTEX
  5
149
330
145
100
AcDbEntity
  8
\U+30EC\U+30A4\U+30E4\U+30FC 1
370
     0
100
AcDbVertex
100
AcDb2dVertex
 10
22.92917751162882
 20
-25.57604437294627
 30
0.0
  0
VERTEX
  5
14A
330
145
100
AcDbEntity
  8
\U+30EC\U+30A4\U+30E4\U+30FC 1
370
     0
100
AcDbVertex
100
AcDb2dVertex
 10
22.92917751162882
 20
-25.99944660808347
 30
0.0
  0
SEQEND
  5
14B
330
145
100
AcDbEntity
  8
\U+30EC\U+30A4\U+30E4\U+30FC 1
370
     0
  0
HATCH
  5
14C
330
108
100
AcDbEntity
  8
\U+30EC\U+30A4\U+30E4\U+30FC 1
 62
     7
420
 16777215
100
AcDbHatch
 10
0.0
 20
0.0
 30
0.0
210
0.0
220
0.0
230
1.0
  2
SOLID
 70
     1
 71
     0
 91
        2
 92
        1
 93
        4
 72
     1
 10
22.92917751162882
 20
-24.4539767734004
 11
18.81504448314346
 21
-24.4539767734004
 72
     1
 10
18.81504448314346
 20
-24.4539767734004
 11
18.81504448314346
 21
-24.03057453826319
 72
     1
 10
18.81504448314346
 20
-24.03057453826319
 11
22.92917751162882
 21
-24.03057453826319
 72
     1
 10
22.92917751162882
 20
-24.03057453826319
 11
22.92917751162882
 21
-24.4539767734004
 97
        0
 92
        1
 93
        4
 72
     1
 10
22.92917751162882
 20
-25.99944660808347
 11
18.81504448314346
 21
-25.99944660808347
 72
     1
 10
18.81504448314346
 20
-25.99944660808347
 11
18.81504448314346
 21
-25.57604437294627
 72
     1
 10
18.81504448314346
 20
-25.57604437294627
 11
22.92917751162882
 21
-25.57604437294627
 72
     1
 10
22.92917751162882
 20
-25.57604437294627
 11
22.92917751162882
 21
-25.99944660808347
 97
        0
 75
     2
 76
     1
 98
        0
  0
POLYLINE
  5
14D
330
108
100
AcDbEntity
  8
\U+30EC\U+30A4\U+30E4\U+30FC 1
370
     0
100
AcDb2dPolyline
 66
     1
 10
0.0
 20
0.0
 30
0.0
  0
VERTEX
  5
14E
330
14D
100
AcDbEntity
  8
\U+30EC\U+30A4\U+30E4\U+30FC 1
370
     0
100
AcDbVertex
100
AcDb2dVertex
 10
26.25920680767131
 20
-27.16388888209792
 30
0.0
  0
VERTEX
  5
14F
330
14D
100
AcDbEntity
  8
\U+30EC\U+30A4\U+30E4\U+30FC 1
370
     0
100
AcDbVertex
100
AcDb2dVertex
 10
25.70161810338362
 20
-27.16388888209792
 30
0.0
  0
VERTEX
  5
150
330
14D
100
AcDbEntity
  8
\U+30EC\U+30A4\U+30E4\U+30FC 1
370
     0
100
AcDbVertex
100
AcDb2dVertex
 10
25.70161810338362
 20
-25.6819810591177
 30
0.0
  0
VERTEX
  5
151
330
14D
100
AcDbEntity
  8
\U+30EC\U+30A4\U+30E4\U+30FC 1
370
     0
100
AcDbVertex
100
AcDb2dVertex
 10
23.39392089258902
 20
-25.6819810591177
 30
0.0
  0
VERTEX
  5
152
330
14D
100
AcDbEntity
  8
\U+30EC\U+30A4\U+30E4\U+30FC 1
370
     0
100
AcDbVertex
100
AcDb2dVertex
 10
23.39392089258902
 20
-25.30784368941957
 30
0.0
  0
VERTEX
  5
153
330
14D
100
AcDbEntity
  8
\U+30EC\U+30A4\U+30E4\U+30FC 1
370
     0
100
AcDbVertex
100
AcDb2dVertex
 10
25.65218098317029
 20
-21.87807887907909
 30
0.0
  0
VERTEX
  5
154
330
14D
100
AcDbEntity
  8
\U+30EC\U+30A4\U+30E4\U+30FC 1
370
     0
100
AcDbVertex
100
AcDb2dVertex
 10
26.25920680767131
 20
-21.87807887907909
 30
0.0
  0
VERTEX
  5
155
330
14D
100
AcDbEntity
  8
\U+30EC\U+30A4\U+30E4\U+30FC 1
370
     0
100
AcDbVertex
100
AcDb2dVertex
 10
26.25920680767131
 20
-25.23032904100145
 30
0.0
  0
VERTEX
  5
156
330
14D
100
AcDbEntity
  8
\U+30EC\U+30A4\U+30E4\U+30FC 1
370
     0
100
AcDbVertex
100
AcDb2dVertex
 10
26.97905950931426
 20
-25.23032904100145
 30
0.0
  0
VERTEX
  5
157
330
14D
100
AcDbEntity
  8
\U+30EC\U+30A4\U+30E4\U+30FC 1
370
     0
100
AcDbVertex
100
AcDb2dVertex
 10
26.97905950931426
 20
-25.6819810591177
 30
0.0
  0
VERTEX
  5
158
330
14D
100
AcDbEntity
  8
\U+30EC\U+30A4\U+30E4\U+30FC 1
370
     0
100
AcDbVertex
100
AcDb2dVertex
 10
26.25920680767131
 20
-25.6819810591177
 30
0.0
  0
VERTEX
  5
159
330
14D
100
AcDbEntity
  8
\U+30EC\U+30A4\U+30E4\U+30FC 1
370
     0
100
AcDbVertex
100
AcDb2dVertex
 10
26.25920680767131
 20
-27.16388888209792
 30
0.0
  0
SEQEND
  5
15A
330
14D
100
AcDbEntity
  8
\U+30EC\U+30A4\U+30E4\U+30FC 1
370
     0
  0
SPLINE
  5
15B
330
108
100
AcDbEntity
  8
\U+30EC\U+30A4\U+30E4\U+30FC 1
370
     0
100
AcDbSpline
210
0.0
220
0.0
230
1.0
 70
    11
 71
     3
 72
    26
 73
    22
 74
     0
 42
0.0000000001
 43
0.0000000001
 40
0.0
 40
0.0
 40
0.0
 40
0.0
 40
1.0
 40
1.0
 40
1.0
 40
2.0
 40
2.0
 40
2.0
 40
3.0
 40
3.0
 40
3.0
 40
4.0
 40
4.0
 40
4.0
 40
5.0
 40
5.0
 40
5.0
 40
6.0
 40
6.0
 40
6.0
 40
7.0
 40
7.0
 40
7.0
 40
7.0
 10
23.98682182560052
 20
-25.23032904100145
 30
0.0
 10
23.98682182560052
 20
-25.23032904100145
 30
0.0
 10
25.70161810338362
 20
-25.23032904100145
 30
0.0
 10
25.70161810338362
 20
-25.23032904100145
 30
0.0
 10
25.70161810338362
 20
-25.23032904100145
 30
0.0
 10
25.70161810338362
 20
-23.35309651108881
 30
0.0
 10
25.70161810338362
 20
-23.35309651108881
 30
0.0
 10
25.70161810338362
 20
-23.06370849032782
 30
0.0
 10
25.71574299487315
 20
-22.7813829153116
 30
0.0
 10
25.72986788636267
 20
-22.5062920408144
 30
0.0
 10
25.72986788636267
 20
-22.5062920408144
 30
0.0
 10
25.70161810338362
 20
-22.5062920408144
 30
0.0
 10
25.70161810338362
 20
-22.5062920408144
 30
0.0
 10
25.53935410602836
 20
-22.83082003552493
 30
0.0
 10
25.41223008262264
 20
-23.05664604458306
 30
0.0
 10
25.27821586824642
 20
-23.29659694513071
 30
0.0
 10
25.27821586824642
 20
-23.29659694513071
 30
0.0
 10
23.98682182560052
 20
-25.21620414951192
 30
0.0
 10
23.98682182560052
 20
-25.21620414951192
 30
0.0
 10
23.98682182560052
 20
-25.21620414951192
 30
0.0
 10
23.98682182560052
 20
-25.23032904100145
 30
0.0
 10
23.98682182560052
 20
-25.23032904100145
 30
0.0
  0
HATCH
  5
15C
330
108
100
AcDbEntity
  8
\U+30EC\U+30A4\U+30E4\U+30FC 1
 62
     7
420
 16777215
100
AcDbHatch
 10
0.0
 20
0.0
 30
0.0
210
0.0
220
0.0
230
1.0
  2
SOLID
 70
     1
 71
     0
 91
        2
 92
        1
 93
       11
 72
     1
 10
26.25920680767131
 20
-27.16388888209792
 11
25.70161810338362
 21
-27.16388888209792
 72
     1
 10
25.70161810338362
 20
-27.16388888209792
 11
25.70161810338362
 21
-25.6819810591177
 72
     1
 10
25.70161810338362
 20
-25.6819810591177
 11
23.39392089258902
 21
-25.6819810591177
 72
     1
 10
23.39392089258902
 20
-25.6819810591177
 11
23.39392089258902
 21
-25.30784368941957
 72
     1
 10
23.39392089258902
 20
-25.30784368941957
 11
25.65218098317029
 21
-21.87807887907909
 72
     1
 10
25.65218098317029
 20
-21.87807887907909
 11
26.25920680767131
 21
-21.87807887907909
 72
     1
 10
26.25920680767131
 20
-21.87807887907909
 11
26.25920680767131
 21
-25.23032904100145
 72
     1
 10
26.25920680767131
 20
-25.23032904100145
 11
26.97905950931426
 21
-25.23032904100145
 72
     1
 10
26.97905950931426
 20
-25.23032904100145
 11
26.97905950931426
 21
-25.6819810591177
 72
     1
 10
26.97905950931426
 20
-25.6819810591177
 11
26.25920680767131
 21
-25.6819810591177
 72
     1
 10
26.25920680767131
 20
-25.6819810591177
 11
26.25920680767131
 21
-27.16388888209792
 97
        0
 92
        1
 93
        1
 72
     4
 94
        3
 73
     0
 74
     1
 95
       26
 96
       22
 40
0.0
 40
0.0
 40
0.0
 40
0.0
 40
1.0
 40
1.0
 40
1.0
 40
2.0
 40
2.0
 40
2.0
 40
3.0
 40
3.0
 40
3.0
 40
4.0
 40
4.0
 40
4.0
 40
5.0
 40
5.0
 40
5.0
 40
6.0
 40
6.0
 40
6.0
 40
7.0
 40
7.0
 40
7.0
 40
7.0
 10
23.98682182560052
 20
-25.23032904100145
 10
23.98682182560052
 20
-25.23032904100145
 10
25.70161810338362
 20
-25.23032904100145
 10
25.70161810338362
 20
-25.23032904100145
 10
25.70161810338362
 20
-25.23032904100145
 10
25.70161810338362
 20
-23.35309651108881
 10
25.70161810338362
 20
-23.35309651108881
 10
25.70161810338362
 20
-23.06370849032782
 10
25.71574299487315
 20
-22.7813829153116
 10
25.72986788636267
 20
-22.5062920408144
 10
25.72986788636267
 20
-22.5062920408144
 10
25.70161810338362
 20
-22.5062920408144
 10
25.70161810338362
 20
-22.5062920408144
 10
25.53935410602836
 20
-22.83082003552493
 10
25.41223008262264
 20
-23.05664604458306
 10
25.27821586824642
 20
-23.29659694513071
 10
25.27821586824642
 20
-23.29659694513071
 10
23.98682182560052
 20
-25.21620414951192
 10
23.98682182560052
 20
-25.21620414951192
 10
23.98682182560052
 20
-25.21620414951192
 10
23.98682182560052
 20
-25.23032904100145
 10
23.98682182560052
 20
-25.23032904100145
 97
        0
 75
     2
 76
     1
 98
        0
  0
SPLINE
  5
15D
330
108
100
AcDbEntity
  8
\U+30EC\U+30A4\U+30E4\U+30FC 1
370
     0
100
AcDbSpline
210
0.0
220
0.0
230
1.0
 70
    11
 71
     3
 72
    17
 73
    13
 74
     0
 42
0.0000000001
 43
0.0000000001
 40
0.0
 40
0.0
 40
0.0
 40
0.0
 40
1.0
 40
1.0
 40
1.0
 40
2.0
 40
2.0
 40
2.0
 40
3.0
 40
3.0
 40
3.0
 40
4.0
 40
4.0
 40
4.0
 40
4.0
 10
27.55680202219066
 20
-26.80404865866357
 30
0.0
 10
27.55680202219066
 20
-26.53584797513687
 30
0.0
 10
27.73319091103545
 20
-26.34533419480256
 30
0.0
 10
27.98020425732787
 20
-26.34533419480256
 30
0.0
 10
28.22721760362028
 20
-26.34533419480256
 30
0.0
 10
28.39654404672031
 20
-26.53584797513687
 30
0.0
 10
28.39654404672031
 20
-26.80404865866357
 30
0.0
 10
28.39654404672031
 20
-27.05795219592649
 30
0.0
 10
28.23428004936504
 20
-27.24863823103506
 30
0.0
 10
27.9731418115831
 20
-27.24863823103506
 30
0.0
 10
27.7049411280564
 20
-27.24863823103506
 30
0.0
 10
27.55680202219066
 20
-27.03693711346646
 30
0.0
 10
27.55680202219066
 20
-26.80404865866357
 30
0.0
  0
HATCH
  5
15E
330
108
100
AcDbEntity
  8
\U+30EC\U+30A4\U+30E4\U+30FC 1
 62
     7
420
 16777215
100
AcDbHatch
 10
0.0
 20
0.0
 30
0.0
210
0.0
220
0.0
230
1.0
  2
SOLID
 70
     1
 71
     0
 91
        1
 92
        1
 93
        1
 72
     4
 94
        3
 73
     0
 74
     1
 95
       17
 96
       13
 40
0.0
 40
0.0
 40
0.0
 40
0.0
 40
1.0
 40
1.0
 40
1.0
 40
2.0
 40
2.0
 40
2.0
 40
3.0
 40
3.0
 40
3.0
 40
4.0
 40
4.0
 40
4.0
 40
4.0
 10
27.55680202219066
 20
-26.80404865866357
 10
27.55680202219066
 20
-26.53584797513687
 10
27.73319091103545
 20
-26.34533419480256
 10
27.98020425732787
 20
-26.34533419480256
 10
28.22721760362028
 20
-26.34533419480256
 10
28.39654404672031
 20
-26.53584797513687
 10
28.39654404672031
 20
-26.80404865866357
 10
28.39654404672031
 20
-27.05795219592649
 10
28.23428004936504
 20
-27.24863823103506
 10
27.9731418115831
 20
-27.24863823103506
 10
27.7049411280564
 20
-27.24863823103506
 10
27.55680202219066
 20
-27.03693711346646
 10
27.55680202219066
 20
-26.80404865866357
 97
        0
 75
     2
 76
     1
 98
        0
  0
SPLINE
  5
15F
330
108
100
AcDbEntity
  8
\U+30EC\U+30A4\U+30E4\U+30FC 1
370
     0
100
AcDbSpline
210
0.0
220
0.0
230
1.0
 70
    11
 71
     3
 72
    17
 73
    13
 74
     0
 42
0.0000000001
 43
0.0000000001
 40
0.0
 40
0.0
 40
0.0
 40
0.0
 40
1.0
 40
1.0
 40
1.0
 40
2.0
 40
2.0
 40
2.0
 40
3.0
 40
3.0
 40
3.0
 40
4.0
 40
4.0
 40
4.0
 40
4.0
 10
28.96085068720423
 20
-24.53872612233754
 30
0.0
 10
28.96085068720423
 20
-22.68974337540395
 30
0.0
 10
29.68070338884718
 20
-21.79350178491621
 30
0.0
 10
30.66858451924258
 20
-21.79350178491621
 30
0.0
 10
31.67076279590176
 20
-21.79350178491621
 30
0.0
 10
32.28467881137328
 20
-22.73918049561729
 30
0.0
 10
32.28467881137328
 20
-24.46810166488992
 30
0.0
 10
32.28467881137328
 20
-26.30295952033399
 30
0.0
 10
31.64251301292271
 20
-27.24863823103506
 30
0.0
 10
30.59106987082446
 20
-27.24863823103506
 30
0.0
 10
29.63126626863385
 20
-27.24863823103506
 30
0.0
 10
28.96085068720423
 20
-26.30295952033399
 30
0.0
 10
28.96085068720423
 20
-24.53872612233754
 30
0.0
  0
SPLINE
  5
160
330
108
100
AcDbEntity
  8
\U+30EC\U+30A4\U+30E4\U+30FC 1
370
     0
100
AcDbSpline
210
0.0
220
0.0
230
1.0
 70
    11
 71
     3
 72
    17
 73
    13
 74
     0
 42
0.0000000001
 43
0.0000000001
 40
0.0
 40
0.0
 40
0.0
 40
0.0
 40
1.0
 40
1.0
 40
1.0
 40
2.0
 40
2.0
 40
2.0
 40
3.0
 40
3.0
 40
3.0
 40
4.0
 40
4.0
 40
4.0
 40
4.0
 10
31.69195013313604
 20
-24.49635144786897
 30
0.0
 10
31.69195013313604
 20
-23.17670762224402
 30
0.0
 10
31.37431232939601
 20
-22.26634114026675
 30
0.0
 10
30.63327229051877
 20
-22.26634114026675
 30
0.0
 10
30.00523138355772
 20
-22.26634114026675
 30
0.0
 10
29.56064181118623
 20
-23.1060831647964
 30
0.0
 10
29.56064181118623
 20
-24.49635144786897
 30
0.0
 10
29.56064181118623
 20
-25.88661973094154
 30
0.0
 10
29.94873181759962
 20
-26.76873642993976
 30
0.0
 10
30.61208495328448
 20
-26.76873642993976
 30
0.0
 10
31.39549966663029
 20
-26.76873642993976
 30
0.0
 10
31.69195013313604
 20
-25.75243326179106
 30
0.0
 10
31.69195013313604
 20
-24.49635144786897
 30
0.0
  0
HATCH
  5
161
330
108
100
AcDbEntity
  8
\U+30EC\U+30A4\U+30E4\U+30FC 1
 62
     7
420
 16777215
100
AcDbHatch
 10
0.0
 20
0.0
 30
0.0
210
0.0
220
0.0
230
1.0
  2
SOLID
 70
     1
 71
     0
 91
        2
 92
        1
 93
        1
 72
     4
 94
        3
 73
     0
 74
     1
 95
       17
 96
       13
 40
0.0
 40
0.0
 40
0.0
 40
0.0
 40
1.0
 40
1.0
 40
1.0
 40
2.0
 40
2.0
 40
2.0
 40
3.0
 40
3.0
 40
3.0
 40
4.0
 40
4.0
 40
4.0
 40
4.0
 10
28.96085068720423
 20
-24.53872612233754
 10
28.96085068720423
 20
-22.68974337540395
 10
29.68070338884718
 20
-21.79350178491621
 10
30.66858451924258
 20
-21.79350178491621
 10
31.67076279590176
 20
-21.79350178491621
 10
32.28467881137328
 20
-22.73918049561729
 10
32.28467881137328
 20
-24.46810166488992
 10
32.28467881137328
 20
-26.30295952033399
 10
31.64251301292271
 20
-27.24863823103506
 10
30.59106987082446
 20
-27.24863823103506
 10
29.63126626863385
 20
-27.24863823103506
 10
28.96085068720423
 20
-26.30295952033399
 10
28.96085068720423
 20
-24.53872612233754
 97
        0
 92
        1
 93
        1
 72
     4
 94
        3
 73
     0
 74
     1
 95
       17
 96
       13
 40
0.0
 40
0.0
 40
0.0
 40
0.0
 40
1.0
 40
1.0
 40
1.0
 40
2.0
 40
2.0
 40
2.0
 40
3.0
 40
3.0
 40
3.0
 40
4.0
 40
4.0
 40
4.0
 40
4.0
 10
31.69195013313604
 20
-24.49635144786897
 10
31.69195013313604
 20
-23.17670762224402
 10
31.37431232939601
 20
-22.26634114026675
 10
30.63327229051877
 20
-22.26634114026675
 10
30.00523138355772
 20
-22.26634114026675
 10
29.56064181118623
 20
-23.1060831647964
 10
29.56064181118623
 20
-24.49635144786897
 10
29.56064181118623
 20
-25.88661973094154
 10
29.94873181759962
 20
-26.76873642993976
 10
30.61208495328448
 20
-26.76873642993976
 10
31.39549966663029
 20
-26.76873642993976
 10
31.69195013313604
 20
-25.75243326179106
 10
31.69195013313604
 20
-24.49635144786897
 97
        0
 75
     2
 76
     1
 98
        0
  0
SPLINE
  5
162
330
108
100
AcDbEntity
  8
\U+30EC\U+30A4\U+30E4\U+30FC 1
370
     0
100
AcDbSpline
210
0.0
220
0.0
230
1.0
 70
    11
 71
     3
 72
    71
 73
    67
 74
     0
 42
0.0000000001
 43
0.0000000001
 40
0.0
 40
0.0
 40
0.0
 40
0.0
 40
1.0
 40
1.0
 40
1.0
 40
2.0
 40
2.0
 40
2.0
 40
3.0
 40
3.0
 40
3.0
 40
4.0
 40
4.0
 40
4.0
 40
5.0
 40
5.0
 40
5.0
 40
6.0
 40
6.0
 40
6.0
 40
7.0
 40
7.0
 40
7.0
 40
8.0
 40
8.0
 40
8.0
 40
9.0
 40
9.0
 40
9.0
 40
10.0
 40
10.0
 40
10.0
 40
11.0
 40
11.0
 40
11.0
 40
12.0
 40
12.0
 40
12.0
 40
13.0
 40
13.0
 40
13.0
 40
14.0
 40
14.0
 40
14.0
 40
15.0
 40
15.0
 40
15.0
 40
16.0
 40
16.0
 40
16.0
 40
17.0
 40
17.0
 40
17.0
 40
18.0
 40
18.0
 40
18.0
 40
19.0
 40
19.0
 40
19.0
 40
20.0
 40
20.0
 40
20.0
 40
21.0
 40
21.0
 40
21.0
 40
22.0
 40
22.0
 40
22.0
 40
22.0
 10
38.38111978207139
 20
-27.16388888209792
 30
0.0
 10
38.38111978207139
 20
-27.16388888209792
 30
0.0
 10
37.80251599532368
 20
-27.16388888209792
 30
0.0
 10
37.80251599532368
 20
-27.16388888209792
 30
0.0
 10
37.80251599532368
 20
-27.16388888209792
 30
0.0
 10
37.80251599532368
 20
-24.94094102024046
 30
0.0
 10
37.80251599532368
 20
-24.94094102024046
 30
0.0
 10
37.80251599532368
 20
-24.19283853561846
 30
0.0
 10
37.53431531179698
 20
-23.71293673452315
 30
0.0
 10
36.95571152504927
 20
-23.71293673452315
 30
0.0
 10
36.48287216969873
 20
-23.71293673452315
 30
0.0
 10
36.05240748881676
 20
-24.15752630689465
 30
0.0
 10
36.05240748881676
 20
-24.74336479416138
 30
0.0
 10
36.05240748881676
 20
-24.74336479416138
 30
0.0
 10
36.05240748881676
 20
-27.16388888209792
 30
0.0
 10
36.05240748881676
 20
-27.16388888209792
 30
0.0
 10
36.05240748881676
 20
-27.16388888209792
 30
0.0
 10
35.47363144729479
 20
-27.16388888209792
 30
0.0
 10
35.47363144729479
 20
-27.16388888209792
 30
0.0
 10
35.47363144729479
 20
-27.16388888209792
 30
0.0
 10
35.47363144729479
 20
-24.79262965960045
 30
0.0
 10
35.47363144729479
 20
-24.79262965960045
 30
0.0
 10
35.47363144729479
 20
-24.17871364412893
 30
0.0
 10
35.21249320951285
 20
-23.71293673452315
 30
0.0
 10
34.66920165148895
 20
-23.71293673452315
 30
0.0
 10
34.16811251315936
 20
-23.71293673452315
 30
0.0
 10
33.72352294078787
 20
-24.20696342710798
 30
0.0
 10
33.72352294078787
 20
-24.80675455108998
 30
0.0
 10
33.72352294078787
 20
-24.80675455108998
 30
0.0
 10
33.72352294078787
 20
-27.16388888209792
 30
0.0
 10
33.72352294078787
 20
-27.16388888209792
 30
0.0
 10
33.72352294078787
 20
-27.16388888209792
 30
0.0
 10
33.1447468992659
 20
-27.16388888209792
 30
0.0
 10
33.1447468992659
 20
-27.16388888209792
 30
0.0
 10
33.1447468992659
 20
-27.16388888209792
 30
0.0
 10
33.1447468992659
 20
-24.30583766753465
 30
0.0
 10
33.1447468992659
 20
-24.30583766753465
 30
0.0
 10
33.1447468992659
 20
-23.91051296060223
 30
0.0
 10
33.13062200777637
 20
-23.62835964036027
 30
0.0
 10
33.11666937106111
 20
-23.31072183662024
 30
0.0
 10
33.11666937106111
 20
-23.31072183662024
 30
0.0
 10
33.63171114610596
 20
-23.31072183662024
 30
0.0
 10
33.63171114610596
 20
-23.31072183662024
 30
0.0
 10
33.63171114610596
 20
-23.31072183662024
 30
0.0
 10
33.66702337482977
 20
-23.93170029783652
 30
0.0
 10
33.66702337482977
 20
-23.93170029783652
 30
0.0
 10
33.66702337482977
 20
-23.93170029783652
 30
0.0
 10
33.68821071206406
 20
-23.93170029783652
 30
0.0
 10
33.68821071206406
 20
-23.93170029783652
 30
0.0
 10
33.89991182963266
 20
-23.55773518291265
 30
0.0
 10
34.25286186209651
 20
-23.22597248768309
 30
0.0
 10
34.85971543182327
 20
-23.22597248768309
 30
0.0
 10
35.36080457015286
 20
-23.22597248768309
 30
0.0
 10
35.74889457656625
 20
-23.53654784567836
 30
0.0
 10
35.91115857392152
 20
-23.99526230953938
 30
0.0
 10
35.91115857392152
 20
-23.99526230953938
 30
0.0
 10
35.92528346541104
 20
-23.99526230953938
 30
0.0
 10
35.92528346541104
 20
-23.99526230953938
 30
0.0
 10
36.17935925744822
 20
-23.53654784567836
 30
0.0
 10
36.56744926386161
 20
-23.22597248768309
 30
0.0
 10
37.16035019687311
 20
-23.22597248768309
 30
0.0
 10
37.63318955222365
 20
-23.22597248768309
 30
0.0
 10
38.38111978207139
 20
-23.5294853999336
 30
0.0
 10
38.38111978207139
 20
-24.84912922555855
 30
0.0
 10
38.38111978207139
 20
-24.84912922555855
 30
0.0
 10
38.38111978207139
 20
-27.16388888209792
 30
0.0
 10
38.38111978207139
 20
-27.16388888209792
 30
0.0
  0
HATCH
  5
163
330
108
100
AcDbEntity
  8
\U+30EC\U+30A4\U+30E4\U+30FC 1
 62
     7
420
 16777215
100
AcDbHatch
 10
0.0
 20
0.0
 30
0.0
210
0.0
220
0.0
230
1.0
  2
SOLID
 70
     1
 71
     0
 91
        1
 92
        1
 93
        1
 72
     4
 94
        3
 73
     0
 74
     1
 95
       71
 96
       67
 40
0.0
 40
0.0
 40
0.0
 40
0.0
 40
1.0
 40
1.0
 40
1.0
 40
2.0
 40
2.0
 40
2.0
 40
3.0
 40
3.0
 40
3.0
 40
4.0
 40
4.0
 40
4.0
 40
5.0
 40
5.0
 40
5.0
 40
6.0
 40
6.0
 40
6.0
 40
7.0
 40
7.0
 40
7.0
 40
8.0
 40
8.0
 40
8.0
 40
9.0
 40
9.0
 40
9.0
 40
10.0
 40
10.0
 40
10.0
 40
11.0
 40
11.0
 40
11.0
 40
12.0
 40
12.0
 40
12.0
 40
13.0
 40
13.0
 40
13.0
 40
14.0
 40
14.0
 40
14.0
 40
15.0
 40
15.0
 40
15.0
 40
16.0
 40
16.0
 40
16.0
 40
17.0
 40
17.0
 40
17.0
 40
18.0
 40
18.0
 40
18.0
 40
19.0
 40
19.0
 40
19.0
 40
20.0
 40
20.0
 40
20.0
 40
21.0
 40
21.0
 40
21.0
 40
22.0
 40
22.0
 40
22.0
 40
22.0
 10
38.38111978207139
 20
-27.16388888209792
 10
38.38111978207139
 20
-27.16388888209792
 10
37.80251599532368
 20
-27.16388888209792
 10
37.80251599532368
 20
-27.16388888209792
 10
37.80251599532368
 20
-27.16388888209792
 10
37.80251599532368
 20
-24.94094102024046
 10
37.80251599532368
 20
-24.94094102024046
 10
37.80251599532368
 20
-24.19283853561846
 10
37.53431531179698
 20
-23.71293673452315
 10
36.95571152504927
 20
-23.71293673452315
 10
36.48287216969873
 20
-23.71293673452315
 10
36.05240748881676
 20
-24.15752630689465
 10
36.05240748881676
 20
-24.74336479416138
 10
36.05240748881676
 20
-24.74336479416138
 10
36.05240748881676
 20
-27.16388888209792
 10
36.05240748881676
 20
-27.16388888209792
 10
36.05240748881676
 20
-27.16388888209792
 10
35.47363144729479
 20
-27.16388888209792
 10
35.47363144729479
 20
-27.16388888209792
 10
35.47363144729479
 20
-27.16388888209792
 10
35.47363144729479
 20
-24.79262965960045
 10
35.47363144729479
 20
-24.79262965960045
 10
35.47363144729479
 20
-24.17871364412893
 10
35.21249320951285
 20
-23.71293673452315
 10
34.66920165148895
 20
-23.71293673452315
 10
34.16811251315936
 20
-23.71293673452315
 10
33.72352294078787
 20
-24.20696342710798
 10
33.72352294078787
 20
-24.80675455108998
 10
33.72352294078787
 20
-24.80675455108998
 10
33.72352294078787
 20
-27.16388888209792
 10
33.72352294078787
 20
-27.16388888209792
 10
33.72352294078787
 20
-27.16388888209792
 10
33.1447468992659
 20
-27.16388888209792
 10
33.1447468992659
 20
-27.16388888209792
 10
33.1447468992659
 20
-27.16388888209792
 10
33.1447468992659
 20
-24.30583766753465
 10
33.1447468992659
 20
-24.30583766753465
 10
33.1447468992659
 20
-23.91051296060223
 10
33.13062200777637
 20
-23.62835964036027
 10
33.11666937106111
 20
-23.31072183662024
 10
33.11666937106111
 20
-23.31072183662024
 10
33.63171114610596
 20
-23.31072183662024
 10
33.63171114610596
 20
-23.31072183662024
 10
33.63171114610596
 20
-23.31072183662024
 10
33.66702337482977
 20
-23.93170029783652
 10
33.66702337482977
 20
-23.93170029783652
 10
33.66702337482977
 20
-23.93170029783652
 10
33.68821071206406
 20
-23.93170029783652
 10
33.68821071206406
 20
-23.93170029783652
 10
33.89991182963266
 20
-23.55773518291265
 10
34.25286186209651
 20
-23.22597248768309
 10
34.85971543182327
 20
-23.22597248768309
 10
35.36080457015286
 20
-23.22597248768309
 10
35.74889457656625
 20
-23.53654784567836
 10
35.91115857392152
 20
-23.99526230953938
 10
35.91115857392152
 20
-23.99526230953938
 10
35.92528346541104
 20
-23.99526230953938
 10
35.92528346541104
 20
-23.99526230953938
 10
36.17935925744822
 20
-23.53654784567836
 10
36.56744926386161
 20
-23.22597248768309
 10
37.16035019687311
 20
-23.22597248768309
 10
37.63318955222365
 20
-23.22597248768309
 10
38.38111978207139
 20
-23.5294853999336
 10
38.38111978207139
 20
-24.84912922555855
 10
38.38111978207139
 20
-24.84912922555855
 10
38.38111978207139
 20
-27.16388888209792
 10
38.38111978207139
 20
-27.16388888209792
 97
        0
 75
     2
 76
     1
 98
        0
  0
SPLINE
  5
164
330
108
100
AcDbEntity
  8
\U+30EC\U+30A4\U+30E4\U+30FC 1
370
     0
100
AcDbSpline
210
0.0
220
0.0
230
1.0
 70
    11
 71
     3
 72
    71
 73
    67
 74
     0
 42
0.0000000001
 43
0.0000000001
 40
0.0
 40
0.0
 40
0.0
 40
0.0
 40
1.0
 40
1.0
 40
1.0
 40
2.0
 40
2.0
 40
2.0
 40
3.0
 40
3.0
 40
3.0
 40
4.0
 40
4.0
 40
4.0
 40
5.0
 40
5.0
 40
5.0
 40
6.0
 40
6.0
 40
6.0
 40
7.0
 40
7.0
 40
7.0
 40
8.0
 40
8.0
 40
8.0
 40
9.0
 40
9.0
 40
9.0
 40
10.0
 40
10.0
 40
10.0
 40
11.0
 40
11.0
 40
11.0
 40
12.0
 40
12.0
 40
12.0
 40
13.0
 40
13.0
 40
13.0
 40
14.0
 40
14.0
 40
14.0
 40
15.0
 40
15.0
 40
15.0
 40
16.0
 40
16.0
 40
16.0
 40
17.0
 40
17.0
 40
17.0
 40
18.0
 40
18.0
 40
18.0
 40
19.0
 40
19.0
 40
19.0
 40
20.0
 40
20.0
 40
20.0
 40
21.0
 40
21.0
 40
21.0
 40
22.0
 40
22.0
 40
22.0
 40
22.0
 10
44.75230711771817
 20
-27.16388888209792
 30
0.0
 10
44.75230711771817
 20
-27.16388888209792
 30
0.0
 10
44.17370333097047
 20
-27.16388888209792
 30
0.0
 10
44.17370333097047
 20
-27.16388888209792
 30
0.0
 10
44.17370333097047
 20
-27.16388888209792
 30
0.0
 10
44.17370333097047
 20
-24.94094102024046
 30
0.0
 10
44.17370333097047
 20
-24.94094102024046
 30
0.0
 10
44.17370333097047
 20
-24.19283853561846
 30
0.0
 10
43.90550264744377
 20
-23.71293673452315
 30
0.0
 10
43.32689886069605
 20
-23.71293673452315
 30
0.0
 10
42.85405950534552
 20
-23.71293673452315
 30
0.0
 10
42.42359482446355
 20
-24.15752630689465
 30
0.0
 10
42.42359482446355
 20
-24.74336479416138
 30
0.0
 10
42.42359482446355
 20
-24.74336479416138
 30
0.0
 10
42.42359482446355
 20
-27.16388888209792
 30
0.0
 10
42.42359482446355
 20
-27.16388888209792
 30
0.0
 10
42.42359482446355
 20
-27.16388888209792
 30
0.0
 10
41.84481878294157
 20
-27.16388888209792
 30
0.0
 10
41.84481878294157
 20
-27.16388888209792
 30
0.0
 10
41.84481878294157
 20
-27.16388888209792
 30
0.0
 10
41.84481878294157
 20
-24.79262965960045
 30
0.0
 10
41.84481878294157
 20
-24.79262965960045
 30
0.0
 10
41.84481878294157
 20
-24.17871364412893
 30
0.0
 10
41.58368054515964
 20
-23.71293673452315
 30
0.0
 10
41.04038898713574
 20
-23.71293673452315
 30
0.0
 10
40.53929984880615
 20
-23.71293673452315
 30
0.0
 10
40.09471027643466
 20
-24.20696342710798
 30
0.0
 10
40.09471027643466
 20
-24.80675455108998
 30
0.0
 10
40.09471027643466
 20
-24.80675455108998
 30
0.0
 10
40.09471027643466
 20
-27.16388888209792
 30
0.0
 10
40.09471027643466
 20
-27.16388888209792
 30
0.0
 10
40.09471027643466
 20
-27.16388888209792
 30
0.0
 10
39.51593423491268
 20
-27.16388888209792
 30
0.0
 10
39.51593423491268
 20
-27.16388888209792
 30
0.0
 10
39.51593423491268
 20
-27.16388888209792
 30
0.0
 10
39.51593423491268
 20
-24.30583766753465
 30
0.0
 10
39.51593423491268
 20
-24.30583766753465
 30
0.0
 10
39.51593423491268
 20
-23.91051296060223
 30
0.0
 10
39.50198159819742
 20
-23.62835964036027
 30
0.0
 10
39.4878567067079
 20
-23.31072183662024
 30
0.0
 10
39.4878567067079
 20
-23.31072183662024
 30
0.0
 10
40.00289848175275
 20
-23.31072183662024
 30
0.0
 10
40.00289848175275
 20
-23.31072183662024
 30
0.0
 10
40.00289848175275
 20
-23.31072183662024
 30
0.0
 10
40.03821071047656
 20
-23.93170029783652
 30
0.0
 10
40.03821071047656
 20
-23.93170029783652
 30
0.0
 10
40.03821071047656
 20
-23.93170029783652
 30
0.0
 10
40.05939804771085
 20
-23.93170029783652
 30
0.0
 10
40.05939804771085
 20
-23.93170029783652
 30
0.0
 10
40.27109916527945
 20
-23.55773518291265
 30
0.0
 10
40.6240491977433
 20
-23.22597248768309
 30
0.0
 10
41.23090276747006
 20
-23.22597248768309
 30
0.0
 10
41.73199190579965
 20
-23.22597248768309
 30
0.0
 10
42.12008191221304
 20
-23.53654784567836
 30
0.0
 10
42.28234590956831
 20
-23.99526230953938
 30
0.0
 10
42.28234590956831
 20
-23.99526230953938
 30
0.0
 10
42.29647080105783
 20
-23.99526230953938
 30
0.0
 10
42.29647080105783
 20
-23.99526230953938
 30
0.0
 10
42.55054659309501
 20
-23.53654784567836
 30
0.0
 10
42.9386365995084
 20
-23.22597248768309
 30
0.0
 10
43.5315375325199
 20
-23.22597248768309
 30
0.0
 10
44.00437688787044
 20
-23.22597248768309
 30
0.0
 10
44.75230711771817
 20
-23.5294853999336
 30
0.0
 10
44.75230711771817
 20
-24.84912922555855
 30
0.0
 10
44.75230711771817
 20
-24.84912922555855
 30
0.0
 10
44.75230711771817
 20
-27.16388888209792
 30
0.0
 10
44.75230711771817
 20
-27.16388888209792
 30
0.0
  0
HATCH
  5
165
330
108
100
AcDbEntity
  8
\U+30EC\U+30A4\U+30E4\U+30FC 1
 62
     7
420
 16777215
100
AcDbHatch
 10
0.0
 20
0.0
 30
0.0
210
0.0
220
0.0
230
1.0
  2
SOLID
 70
     1
 71
     0
 91
        1
 92
        1
 93
        1
 72
     4
 94
        3
 73
     0
 74
     1
 95
       71
 96
       67
 40
0.0
 40
0.0
 40
0.0
 40
0.0
 40
1.0
 40
1.0
 40
1.0
 40
2.0
 40
2.0
 40
2.0
 40
3.0
 40
3.0
 40
3.0
 40
4.0
 40
4.0
 40
4.0
 40
5.0
 40
5.0
 40
5.0
 40
6.0
 40
6.0
 40
6.0
 40
7.0
 40
7.0
 40
7.0
 40
8.0
 40
8.0
 40
8.0
 40
9.0
 40
9.0
 40
9.0
 40
10.0
 40
10.0
 40
10.0
 40
11.0
 40
11.0
 40
11.0
 40
12.0
 40
12.0
 40
12.0
 40
13.0
 40
13.0
 40
13.0
 40
14.0
 40
14.0
 40
14.0
 40
15.0
 40
15.0
 40
15.0
 40
16.0
 40
16.0
 40
16.0
 40
17.0
 40
17.0
 40
17.0
 40
18.0
 40
18.0
 40
18.0
 40
19.0
 40
19.0
 40
19.0
 40
20.0
 40
20.0
 40
20.0
 40
21.0
 40
21.0
 40
21.0
 40
22.0
 40
22.0
 40
22.0
 40
22.0
 10
44.75230711771817
 20
-27.16388888209792
 10
44.75230711771817
 20
-27.16388888209792
 10
44.17370333097047
 20
-27.16388888209792
 10
44.17370333097047
 20
-27.16388888209792
 10
44.17370333097047
 20
-27.16388888209792
 10
44.17370333097047
 20
-24.94094102024046
 10
44.17370333097047
 20
-24.94094102024046
 10
44.17370333097047
 20
-24.19283853561846
 10
43.90550264744377
 20
-23.71293673452315
 10
43.32689886069605
 20
-23.71293673452315
 10
42.85405950534552
 20
-23.71293673452315
 10
42.42359482446355
 20
-24.15752630689465
 10
42.42359482446355
 20
-24.74336479416138
 10
42.42359482446355
 20
-24.74336479416138
 10
42.42359482446355
 20
-27.16388888209792
 10
42.42359482446355
 20
-27.16388888209792
 10
42.42359482446355
 20
-27.16388888209792
 10
41.84481878294157
 20
-27.16388888209792
 10
41.84481878294157
 20
-27.16388888209792
 10
41.84481878294157
 20
-27.16388888209792
 10
41.84481878294157
 20
-24.79262965960045
 10
41.84481878294157
 20
-24.79262965960045
 10
41.84481878294157
 20
-24.17871364412893
 10
41.58368054515964
 20
-23.71293673452315
 10
41.04038898713574
 20
-23.71293673452315
 10
40.53929984880615
 20
-23.71293673452315
 10
40.09471027643466
 20
-24.20696342710798
 10
40.09471027643466
 20
-24.80675455108998
 10
40.09471027643466
 20
-24.80675455108998
 10
40.09471027643466
 20
-27.16388888209792
 10
40.09471027643466
 20
-27.16388888209792
 10
40.09471027643466
 20
-27.16388888209792
 10
39.51593423491268
 20
-27.16388888209792
 10
39.51593423491268
 20
-27.16388888209792
 10
39.51593423491268
 20
-27.16388888209792
 10
39.51593423491268
 20
-24.30583766753465
 10
39.51593423491268
 20
-24.30583766753465
 10
39.51593423491268
 20
-23.91051296060223
 10
39.50198159819742
 20
-23.62835964036027
 10
39.4878567067079
 20
-23.31072183662024
 10
39.4878567067079
 20
-23.31072183662024
 10
40.00289848175275
 20
-23.31072183662024
 10
40.00289848175275
 20
-23.31072183662024
 10
40.00289848175275
 20
-23.31072183662024
 10
40.03821071047656
 20
-23.93170029783652
 10
40.03821071047656
 20
-23.93170029783652
 10
40.03821071047656
 20
-23.93170029783652
 10
40.05939804771085
 20
-23.93170029783652
 10
40.05939804771085
 20
-23.93170029783652
 10
40.27109916527945
 20
-23.55773518291265
 10
40.6240491977433
 20
-23.22597248768309
 10
41.23090276747006
 20
-23.22597248768309
 10
41.73199190579965
 20
-23.22597248768309
 10
42.12008191221304
 20
-23.53654784567836
 10
42.28234590956831
 20
-23.99526230953938
 10
42.28234590956831
 20
-23.99526230953938
 10
42.29647080105783
 20
-23.99526230953938
 10
42.29647080105783
 20
-23.99526230953938
 10
42.55054659309501
 20
-23.53654784567836
 10
42.9386365995084
 20
-23.22597248768309
 10
43.5315375325199
 20
-23.22597248768309
 10
44.00437688787044
 20
-23.22597248768309
 10
44.75230711771817
 20
-23.5294853999336
 10
44.75230711771817
 20
-24.84912922555855
 10
44.75230711771817
 20
-24.84912922555855
 10
44.75230711771817
 20
-27.16388888209792
 10
44.75230711771817
 20
-27.16388888209792
 97
        0
 75
     2
 76
     1
 98
        0
  0
ENDBLK
  5
10B
330
108
100
AcDbEntity
  8
0
100
AcDbBlockEnd
  0
ENDSEC
  0
SECTION
  2
ENTITIES
  0
INSERT
  5
3D
330
1F
100
AcDbEntity
  8
\U+30EC\U+30A4\U+30E4\U+30FC 1
100
AcDbBlockReference
  2
block 2
 10
0.0
 20
0.0
 30
0.0
  0
INSERT
  5
48
330
1F
100
AcDbEntity
  8
\U+30EC\U+30A4\U+30E4\U+30FC 1
100
AcDbBlockReference
  2
block 3
 10
0.0
 20
0.0
 30
0.0
  0
INSERT
  5
53
330
1F
100
AcDbEntity
  8
\U+30EC\U+30A4\U+30E4\U+30FC 1
100
AcDbBlockReference
  2
block 4
 10
0.0
 20
0.0
 30
0.0
  0
INSERT
  5
5E
330
1F
100
AcDbEntity
  8
\U+30EC\U+30A4\U+30E4\U+30FC 1
100
AcDbBlockReference
  2
block 5
 10
0.0
 20
0.0
 30
0.0
  0
POLYLINE
  5
68
330
1F
100
AcDbEntity
  8
\U+30EC\U+30A4\U+30E4\U+30FC 1
 62
     7
420
 16777215
370
    25
100
AcDb2dPolyline
 66
     1
 10
0.0
 20
0.0
 30
0.0
  0
VERTEX
  5
69
330
68
100
AcDbEntity
  8
\U+30EC\U+30A4\U+30E4\U+30FC 1
 62
     7
420
 16777215
370
    25
100
AcDbVertex
100
AcDb2dVertex
 10
29.99989148555558
 20
-37.05579154889578
 30
0.0
  0
VERTEX
  5
6A
330
68
100
AcDbEntity
  8
\U+30EC\U+30A4\U+30E4\U+30FC 1
 62
     7
420
 16777215
370
    25
100
AcDbVertex
100
AcDb2dVertex
 10
389.9999673504167
 20
-37.05579154889578
 30
0.0
  0
VERTEX
  5
6B
330
68
100
AcDbEntity
  8
\U+30EC\U+30A4\U+30E4\U+30FC 1
 62
     7
420
 16777215
370
    25
100
AcDbVertex
100
AcDb2dVertex
 10
389.9999673504167
 20
-72.05572236696871
 30
0.0
  0
VERTEX
  5
6C
330
68
100
AcDbEntity
  8
\U+30EC\U+30A4\U+30E4\U+30FC 1
 62
     7
420
 16777215
370
    25
100
AcDbVertex
100
AcDb2dVertex
 10
394.0000677183403
 20
-72.05572236696871
 30
0.0
  0
VERTEX
  5
6D
330
68
100
AcDbEntity
  8
\U+30EC\U+30A4\U+30E4\U+30FC 1
 62
     7
420
 16777215
370
    25
100
AcDbVertex
100
AcDb2dVertex
 10
394.0000677183403
 20
-37.05579154889578
 30
0.0
  0
VERTEX
  5
6E
330
68
100
AcDbEntity
  8
\U+30EC\U+30A4\U+30E4\U+30FC 1
 62
     7
420
 16777215
370
    25
100
AcDbVertex
100
AcDb2dVertex
 10
403.9998018738265
 20
-37.05579154889578
 30
0.0
  0
VERTEX
  5
6F
330
68
100
AcDbEntity
  8
\U+30EC\U+30A4\U+30E4\U+30FC 1
 62
     7
420
 16777215
370
    25
100
AcDbVertex
100
AcDb2dVertex
 10
403.9998018738265
 20
-107.0558254398159
 30
0.0
  0
VERTEX
  5
70
330
68
100
AcDbEntity
  8
\U+30EC\U+30A4\U+30E4\U+30FC 1
 62
     7
420
 16777215
370
    25
100
AcDbVertex
100
AcDb2dVertex
 10
15.99988470737156
 20
-107.0558254398159
 30
0.0
  0
VERTEX
  5
71
330
68
100
AcDbEntity
  8
\U+30EC\U+30A4\U+30E4\U+30FC 1
 62
     7
420
 16777215
370
    25
100
AcDbVertex
100
AcDb2dVertex
 10
15.99988470737156
 20
-37.05579154889578
 30
0.0
  0
VERTEX
  5
72
330
68
100
AcDbEntity
  8
\U+30EC\U+30A4\U+30E4\U+30FC 1
 62
     7
420
 16777215
370
    25
100
AcDbVertex
100
AcDb2dVertex
 10
25.99996337240626
 20
-37.05579154889578
 30
0.0
  0
VERTEX
  5
73
330
68
100
AcDbEntity
  8
\U+30EC\U+30A4\U+30E4\U+30FC 1
 62
     7
420
 16777215
370
    25
100
AcDbVertex
100
AcDb2dVertex
 10
25.99996337240626
 20
-72.05572236696871
 30
0.0
  0
VERTEX
  5
74
330
68
100
AcDbEntity
  8
\U+30EC\U+30A4\U+30E4\U+30FC 1
 62
     7
420
 16777215
370
    25
100
AcDbVertex
100
AcDb2dVertex
 10
29.99989148555558
 20
-72.05572236696871
 30
0.0
  0
VERTEX
  5
75
330
68
100
AcDbEntity
  8
\U+30EC\U+30A4\U+30E4\U+30FC 1
 62
     7
420
 16777215
370
    25
100
AcDbVertex
100
AcDb2dVertex
 10
29.99989148555558
 20
-37.05579154889578
 30
0.0
  0
SEQEND
  5
76
330
68
100
AcDbEntity
  8
\U+30EC\U+30A4\U+30E4\U+30FC 1
370
    25
  0
INSERT
  5
78
330
1F
100
AcDbEntity
  8
\U+30EC\U+30A4\U+30E4\U+30FC 1
100
AcDbBlockReference
  2
block 6
 10
0.0
 20
0.0
 30
0.0
  0
INSERT
  5
7D
330
1F
100
AcDbEntity
  8
\U+30EC\U+30A4\U+30E4\U+30FC 1
100
AcDbBlockReference
  2
block 7
 10
0.0
 20
0.0
 30
0.0
  0
INSERT
  5
82
330
1F
100
AcDbEntity
  8
\U+30EC\U+30A4\U+30E4\U+30FC 1
100
AcDbBlockReference
  2
block 8
 10
0.0
 20
0.0
 30
0.0
  0
INSERT
  5
87
330
1F
100
AcDbEntity
  8
\U+30EC\U+30A4\U+30E4\U+30FC 1
100
AcDbBlockReference
  2
block 9
 10
0.0
 20
0.0
 30
0.0
  0
INSERT
  5
8C
330
1F
100
AcDbEntity
  8
\U+30EC\U+30A4\U+30E4\U+30FC 1
100
AcDbBlockReference
  2
block 10
 10
0.0
 20
0.0
 30
0.0
  0
INSERT
  5
91
330
1F
100
AcDbEntity
  8
\U+30EC\U+30A4\U+30E4\U+30FC 1
100
AcDbBlockReference
  2
block 11
 10
0.0
 20
0.0
 30
0.0
  0
INSERT
  5
96
330
1F
100
AcDbEntity
  8
\U+30EC\U+30A4\U+30E4\U+30FC 1
100
AcDbBlockReference
  2
block 12
 10
0.0
 20
0.0
 30
0.0
  0
INSERT
  5
9B
330
1F
100
AcDbEntity
  8
\U+30EC\U+30A4\U+30E4\U+30FC 1
100
AcDbBlockReference
  2
block 13
 10
0.0
 20
0.0
 30
0.0
  0
INSERT
  5
A3
330
1F
100
AcDbEntity
  8
\U+30EC\U+30A4\U+30E4\U+30FC 1
100
AcDbBlockReference
  2
block 14
 10
0.0
 20
0.0
 30
0.0
  0
INSERT
  5
AE
330
1F
100
AcDbEntity
  8
\U+30EC\U+30A4\U+30E4\U+30FC 1
100
AcDbBlockReference
  2
block 15
 10
0.0
 20
0.0
 30
0.0
  0
INSERT
  5
B9
330
1F
100
AcDbEntity
  8
\U+30EC\U+30A4\U+30E4\U+30FC 1
100
AcDbBlockReference
  2
block 16
 10
0.0
 20
0.0
 30
0.0
  0
INSERT
  5
C4
330
1F
100
AcDbEntity
  8
\U+30EC\U+30A4\U+30E4\U+30FC 1
100
AcDbBlockReference
  2
block 17
 10
0.0
 20
0.0
 30
0.0
  0
POLYLINE
  5
CE
330
1F
100
AcDbEntity
  8
\U+30EC\U+30A4\U+30E4\U+30FC 1
 62
     7
420
 16777215
370
    25
100
AcDb2dPolyline
 66
     1
 10
0.0
 20
0.0
 30
0.0
  0
VERTEX
  5
CF
330
CE
100
AcDbEntity
  8
\U+30EC\U+30A4\U+30E4\U+30FC 1
 62
     7
420
 16777215
370
    25
100
AcDbVertex
100
AcDb2dVertex
 10
29.99989148555558
 20
-116.0576876879995
 30
0.0
  0
VERTEX
  5
D0
330
CE
100
AcDbEntity
  8
\U+30EC\U+30A4\U+30E4\U+30FC 1
 62
     7
420
 16777215
370
    25
100
AcDbVertex
100
AcDb2dVertex
 10
389.9999673504167
 20
-116.0576876879995
 30
0.0
  0
VERTEX
  5
D1
330
CE
100
AcDbEntity
  8
\U+30EC\U+30A4\U+30E4\U+30FC 1
 62
     7
420
 16777215
370
    25
100
AcDbVertex
100
AcDb2dVertex
 10
389.9999673504167
 20
-151.0577907608467
 30
0.0
  0
VERTEX
  5
D2
330
CE
100
AcDbEntity
  8
\U+30EC\U+30A4\U+30E4\U+30FC 1
 62
     7
420
 16777215
370
    25
100
AcDbVertex
100
AcDb2dVertex
 10
394.0000677183403
 20
-151.0577907608467
 30
0.0
  0
VERTEX
  5
D3
330
CE
100
AcDbEntity
  8
\U+30EC\U+30A4\U+30E4\U+30FC 1
 62
     7
420
 16777215
370
    25
100
AcDbVertex
100
AcDb2dVertex
 10
394.0000677183403
 20
-116.0576876879995
 30
0.0
  0
VERTEX
  5
D4
330
CE
100
AcDbEntity
  8
\U+30EC\U+30A4\U+30E4\U+30FC 1
 62
     7
420
 16777215
370
    25
100
AcDbVertex
100
AcDb2dVertex
 10
403.9998018738265
 20
-116.0576876879995
 30
0.0
  0
VERTEX
  5
D5
330
CE
100
AcDbEntity
  8
\U+30EC\U+30A4\U+30E4\U+30FC 1
 62
     7
420
 16777215
370
    25
100
AcDbVertex
100
AcDb2dVertex
 10
403.9998018738265
 20
-186.0541042286601
 30
0.0
  0
VERTEX
  5
D6
330
CE
100
AcDbEntity
  8
\U+30EC\U+30A4\U+30E4\U+30FC 1
 62
     7
420
 16777215
370
    25
100
AcDbVertex
100
AcDb2dVertex
 10
15.99988470737156
 20
-186.0541042286601
 30
0.0
  0
VERTEX
  5
D7
330
CE
100
AcDbEntity
  8
\U+30EC\U+30A4\U+30E4\U+30FC 1
 62
     7
420
 16777215
370
    25
100
AcDbVertex
100
AcDb2dVertex
 10
15.99988470737156
 20
-116.0576876879995
 30
0.0
  0
VERTEX
  5
D8
330
CE
100
AcDbEntity
  8
\U+30EC\U+30A4\U+30E4\U+30FC 1
 62
     7
420
 16777215
370
    25
100
AcDbVertex
100
AcDb2dVertex
 10
25.99996337240626
 20
-116.0576876879995
 30
0.0
  0
VERTEX
  5
D9
330
CE
100
AcDbEntity
  8
\U+30EC\U+30A4\U+30E4\U+30FC 1
 62
     7
420
 16777215
370
    25
100
AcDbVertex
100
AcDb2dVertex
 10
25.99996337240626
 20
-151.0577907608467
 30
0.0
  0
VERTEX
  5
DA
330
CE
100
AcDbEntity
  8
\U+30EC\U+30A4\U+30E4\U+30FC 1
 62
     7
420
 16777215
370
    25
100
AcDbVertex
100
AcDb2dVertex
 10
29.99989148555558
 20
-151.0577907608467
 30
0.0
  0
VERTEX
  5
DB
330
CE
100
AcDbEntity
  8
\U+30EC\U+30A4\U+30E4\U+30FC 1
 62
     7
420
 16777215
370
    25
100
AcDbVertex
100
AcDb2dVertex
 10
29.99989148555558
 20
-116.0576876879995
 30
0.0
  0
SEQEND
  5
DC
330
CE
100
AcDbEntity
  8
\U+30EC\U+30A4\U+30E4\U+30FC 1
370
    25
  0
INSERT
  5
DE
330
1F
100
AcDbEntity
  8
\U+30EC\U+30A4\U+30E4\U+30FC 1
100
AcDbBlockReference
  2
block 18
 10
0.0
 20
0.0
 30
0.0
  0
INSERT
  5
E3
330
1F
100
AcDbEntity
  8
\U+30EC\U+30A4\U+30E4\U+30FC 1
100
AcDbBlockReference
  2
block 19
 10
0.0
 20
0.0
 30
0.0
  0
INSERT
  5
E8
330
1F
100
AcDbEntity
  8
\U+30EC\U+30A4\U+30E4\U+30FC 1
100
AcDbBlockReference
  2
block 20
 10
0.0
 20
0.0
 30
0.0
  0
INSERT
  5
ED
330
1F
100
AcDbEntity
  8
\U+30EC\U+30A4\U+30E4\U+30FC 1
100
AcDbBlockReference
  2
block 21
 10
0.0
 20
0.0
 30
0.0
  0
INSERT
  5
F2
330
1F
100
AcDbEntity
  8
\U+30EC\U+30A4\U+30E4\U+30FC 1
100
AcDbBlockReference
  2
block 22
 10
0.0
 20
0.0
 30
0.0
  0
INSERT
  5
F7
330
1F
100
AcDbEntity
  8
\U+30EC\U+30A4\U+30E4\U+30FC 1
100
AcDbBlockReference
  2
block 23
 10
0.0
 20
0.0
 30
0.0
  0
INSERT
  5
FC
330
1F
100
AcDbEntity
  8
\U+30EC\U+30A4\U+30E4\U+30FC 1
100
AcDbBlockReference
  2
block 24
 10
0.0
 20
0.0
 30
0.0
  0
INSERT
  5
101
330
1F
100
AcDbEntity
  8
\U+30EC\U+30A4\U+30E4\U+30FC 1
100
AcDbBlockReference
  2
block 25
 10
0.0
 20
0.0
 30
0.0
  0
INSERT
  5
109
330
1F
100
AcDbEntity
  8
\U+30EC\U+30A4\U+30E4\U+30FC 1
100
AcDbBlockReference
  2
block 26
 10
0.0
 20
0.0
 30
0.0
  0
ENDSEC
  0
SECTION
  2
OBJECTS
  0
DICTIONARY
  5
C
330
0
100
AcDbDictionary
281
     1
  3
ACAD_GROUP
350
D
  3
ACAD_LAYOUT
350
1A
  3
ACAD_MLINESTYLE
350
17
  3
ACAD_PLOTSETTINGS
350
19
  3
ACAD_PLOTSTYLENAME
350
E
  3
ACAD_TABLESTYLE
350
166
  3
ACAD_VISUALSTYLE
350
2A
  0
DICTIONARY
  5
D
102
{ACAD_REACTORS
330
C
102
}
330
C
100
AcDbDictionary
281
     1
  0
DICTIONARY
  5
1A
102
{ACAD_REACTORS
330
C
102
}
330
C
100
AcDbDictionary
281
     1
  3
Layout1
350
1E
  3
Layout2
350
26
  3
Model
350
22
  0
DICTIONARY
  5
17
102
{ACAD_REACTORS
330
C
102
}
330
C
100
AcDbDictionary
281
     1
  3
Standard
350
18
  0
DICTIONARY
  5
19
102
{ACAD_REACTORS
330
C
102
}
330
C
100
AcDbDictionary
281
     1
  0
ACDBDICTIONARYWDFLT
  5
E
102
{ACAD_REACTORS
330
C
102
}
330
C
100
AcDbDictionary
281
     1
  3
Normal
350
F
100
AcDbDictionaryWithDefault
340
F
  0
DICTIONARY
  5
166
102
{ACAD_REACTORS
330
C
102
}
330
C
100
AcDbDictionary
281
     1
  0
DICTIONARY
  5
2A
102
{ACAD_REACTORS
330
C
102
}
330
C
100
AcDbDictionary
281
     1
  3
2dWireframe
350
2F
  3
3D Hidden
350
31
  3
3dWireframe
350
30
  3
Basic
350
32
  3
Brighten
350
36
  3
ColorChange
350
3A
  3
Conceptual
350
34
  3
Dim
350
35
  3
Facepattern
350
39
  3
Flat
350
2B
  3
FlatWithEdges
350
2C
  3
Gouraud
350
2D
  3
GouraudWithEdges
350
2E
  3
Linepattern
350
38
  3
Realistic
350
33
  3
Thicken
350
37
  0
LAYOUT
  5
1E
102
{ACAD_REACTORS
330
1A
102
}
330
1A
100
AcDbPlotSettings
  1

  2
none_device
  4

  6

 40
0.0
 41
0.0
 42
0.0
 43
0.0
 44
0.0
 45
0.0
 46
0.0
 47
0.0
 48
0.0
 49
0.0
140
0.0
141
0.0
142
1.0
143
1.0
 70
   688
 72
     0
 73
     0
 74
     5
  7

 75
    16
 76
     0
 77
     2
 78
   300
147
1.0
148
0.0
149
0.0
100
AcDbLayout
  1
Layout1
 70
     1
 71
     1
 10
0.0
 20
0.0
 11
12.0
 21
9.0
 12
0.0
 22
0.0
 32
0.0
 14
1.000000000000000E+20
 24
1.000000000000000E+20
 34
1.000000000000000E+20
 15
-1.000000000000000E+20
 25
-1.000000000000000E+20
 35
-1.000000000000000E+20
146
0.0
 13
0.0
 23
0.0
 33
0.0
 16
1.0
 26
0.0
 36
0.0
 17
0.0
 27
1.0
 37
0.0
 76
     0
330
1B
  0
LAYOUT
  5
26
102
{ACAD_REACTORS
330
1A
102
}
330
1A
100
AcDbPlotSettings
  1

  2
none_device
  4

  6

 40
0.0
 41
0.0
 42
0.0
 43
0.0
 44
0.0
 45
0.0
 46
0.0
 47
0.0
 48
0.0
 49
0.0
140
0.0
141
0.0
142
1.0
143
1.0
 70
   688
 72
     0
 73
     0
 74
     5
  7

 75
    16
 76
     0
 77
     2
 78
   300
147
1.0
148
0.0
149
0.0
100
AcDbLayout
  1
Layout2
 70
     1
 71
     2
 10
0.0
 20
0.0
 11
0.0
 21
0.0
 12
0.0
 22
0.0
 32
0.0
 14
0.0
 24
0.0
 34
0.0
 15
0.0
 25
0.0
 35
0.0
146
0.0
 13
0.0
 23
0.0
 33
0.0
 16
1.0
 26
0.0
 36
0.0
 17
0.0
 27
1.0
 37
0.0
 76
     0
330
23
  0
LAYOUT
  5
22
102
{ACAD_REACTORS
330
1A
102
}
330
1A
100
AcDbPlotSettings
  1

  2
none_device
  4

  6

 40
0.0
 41
0.0
 42
0.0
 43
0.0
 44
0.0
 45
0.0
 46
0.0
 47
0.0
 48
0.0
 49
0.0
140
0.0
141
0.0
142
1.0
143
1.0
 70
  1712
 72
     0
 73
     0
 74
     0
  7

 75
     0
 76
     0
 77
     2
 78
   300
147
1.0
148
0.0
149
0.0
100
AcDbLayout
  1
Model
 70
     1
 71
     0
 10
0.0
 20
0.0
 11
12.0
 21
9.0
 12
0.0
 22
0.0
 32
0.0
 14
1.000000000000000E+20
 24
1.000000000000000E+20
 34
1.000000000000000E+20
 15
-1.000000000000000E+20
 25
-1.000000000000000E+20
 35
-1.000000000000000E+20
146
0.0
 13
0.0
 23
0.0
 33
0.0
 16
1.0
 26
0.0
 36
0.0
 17
0.0
 27
1.0
 37
0.0
 76
     0
330
1F
331
29
  0
MLINESTYLE
  5
18
102
{ACAD_REACTORS
330
17
102
}
330
17
100
AcDbMlineStyle
  2
Standard
 70
     0
  3

 62
   256
 51
90.0
 52
90.0
 71
     2
 49
0.5
 62
   256
  6
BYLAYER
 49
-0.5
 62
   256
  6
BYLAYER
  0
ACDBPLACEHOLDER
  5
F
102
{ACAD_REACTORS
330
E
102
}
330
E
  0
VISUALSTYLE
  5
2F
102
{ACAD_REACTORS
330
2A
102
}
330
2A
100
AcDbVisualStyle
  2
2dWireframe
 70
     4
 71
     0
 72
     2
 73
     0
 90
        0
 40
-0.6
 41
-30.0
 62
     5
 63
     7
421
 16777215
 74
     1
 91
        4
 64
     7
 65
   257
 75
     1
175
     1
 42
1.0
 92
        0
 66
   257
 43
1.0
 76
     1
 77
     6
 78
     2
 67
     7
 79
     5
170
     0
171
     0
290
     0
174
     0
 93
        1
 44
0.0
173
     0
291
     0
 45
0.0
1001
ACAD
1000
AcDbSavedByObjectVersion
1070
     0
  0
VISUALSTYLE
  5
31
102
{ACAD_REACTORS
330
2A
102
}
330
2A
100
AcDbVisualStyle
  2
3D Hidden
 70
     6
 71
     1
 72
     2
 73
     2
 90
        0
 40
-0.6
 41
-30.0
 62
     5
 63
     7
421
 16777215
 74
     2
 91
        2
 64
     7
 65
   257
 75
     2
175
     1
 42
40.0
 92
        0
 66
   257
 43
1.0
 76
     1
 77
     6
 78
     2
 67
     7
 79
     3
170
     0
171
     0
290
     0
174
     0
 93
        1
 44
0.0
173
     0
291
     0
 45
0.0
1001
ACAD
1000
AcDbSavedByObjectVersion
1070
     0
  0
VISUALSTYLE
  5
30
102
{ACAD_REACTORS
330
2A
102
}
330
2A
100
AcDbVisualStyle
  2
3dWireframe
 70
     5
 71
     0
 72
     2
 73
     0
 90
        0
 40
-0.6
 41
-30.0
 62
     5
 63
     7
421
 16777215
 74
     1
 91
        4
 64
     7
 65
   257
 75
     1
175
     1
 42
1.0
 92
        0
 66
   257
 43
1.0
 76
     1
 77
     6
 78
     2
 67
     7
 79
     5
170
     0
171
     0
290
     0
174
     0
 93
        1
 44
0.0
173
     0
291
     0
 45
0.0
1001
ACAD
1000
AcDbSavedByObjectVersion
1070
     0
  0
VISUALSTYLE
  5
32
102
{ACAD_REACTORS
330
2A
102
}
330
2A
100
AcDbVisualStyle
  2
Basic
 70
     7
 71
     1
 72
     0
 73
     1
 90
        0
 40
-0.6
 41
-30.0
 62
     5
 63
     7
421
 16777215
 74
     0
 91
        4
 64
     7
 65
   257
 75
     1
175
     1
 42
1.0
 92
        8
 66
     7
 43
1.0
 76
     1
 77
     6
 78
     2
 67
     7
 79
     5
170
     0
171
     0
290
     0
174
     0
 93
        1
 44
0.0
173
     0
291
     1
 45
0.0
1001
ACAD
1000
AcDbSavedByObjectVersion
1070
     0
  0
VISUALSTYLE
  5
36
102
{ACAD_REACTORS
330
2A
102
}
330
2A
100
AcDbVisualStyle
  2
Brighten
 70
    12
 71
     2
 72
     2
 73
     0
 90
        0
 40
-0.6
 41
-30.0
 62
     5
 63
     7
421
 16777215
 74
     1
 91
        4
 64
     7
 65
   257
 75
     1
175
     1
 42
1.0
 92
        8
 66
     7
 43
1.0
 76
     1
 77
     6
 78
     2
 67
     7
 79
     5
170
     0
171
     0
290
     0
174
     0
 93
        1
 44
50.0
173
     0
291
     1
 45
0.0
1001
ACAD
1000
AcDbSavedByObjectVersion
1070
     0
  0
VISUALSTYLE
  5
3A
102
{ACAD_REACTORS
330
2A
102
}
330
2A
100
AcDbVisualStyle
  2
ColorChange
 70
    16
 71
     2
 72
     2
 73
     3
 90
        0
 40
-0.6
 41
-30.0
 62
     5
 63
     8
421
  8421504
 74
     1
 91
        4
 64
     7
 65
   257
 75
     1
175
     1
 42
1.0
 92
        8
 66
     8
424
  8421504
 43
1.0
 76
     1
 77
     6
 78
     2
 67
     7
 79
     5
170
     0
171
     0
290
     0
174
     0
 93
        1
 44
0.0
173
     0
291
     1
 45
0.0
1001
ACAD
1000
AcDbSavedByObjectVersion
1070
     0
  0
VISUALSTYLE
  5
34
102
{ACAD_REACTORS
330
2A
102
}
330
2A
100
AcDbVisualStyle
  2
Conceptual
 70
     9
 71
     3
 72
     2
 73
     0
 90
        0
 40
-0.6
 41
-30.0
 62
     5
 63
     7
421
 16777215
 74
     2
 91
        2
 64
     7
 65
   257
 75
     1
175
     1
 42
40.0
 92
        8
 66
     7
 43
1.0
 76
     1
 77
     6
 78
     2
 67
     7
 79
     3
170
     0
171
     0
290
     0
174
     0
 93
        1
 44
0.0
173
     0
291
     0
 45
0.0
1001
ACAD
1000
AcDbSavedByObjectVersion
1070
     0
  0
VISUALSTYLE
  5
35
102
{ACAD_REACTORS
330
2A
102
}
330
2A
100
AcDbVisualStyle
  2
Dim
 70
    11
 71
     2
 72
     2
 73
     0
 90
        0
 40
-0.6
 41
-30.0
 62
     5
 63
     7
421
 16777215
 74
     1
 91
        4
 64
     7
 65
   257
 75
     1
175
     1
 42
1.0
 92
        8
 66
     7
 43
1.0
 76
     1
 77
     6
 78
     2
 67
     7
 79
     5
170
     0
171
     0
290
     0
174
     0
 93
        1
 44
-50.0
173
     0
291
     1
 45
0.0
1001
ACAD
1000
AcDbSavedByObjectVersion
1070
     0
  0
VISUALSTYLE
  5
39
102
{ACAD_REACTORS
330
2A
102
}
330
2A
100
AcDbVisualStyle
  2
Facepattern
 70
    15
 71
     2
 72
     2
 73
     0
 90
        0
 40
-0.6
 41
-30.0
 62
     5
 63
     7
421
 16777215
 74
     1
 91
        4
 64
     7
 65
   257
 75
     1
175
     1
 42
1.0
 92
        8
 66
     7
 43
1.0
 76
     1
 77
     6
 78
     2
 67
     7
 79
     5
170
     0
171
     0
290
     0
174
     0
 93
        1
 44
0.0
173
     0
291
     1
 45
0.0
1001
ACAD
1000
AcDbSavedByObjectVersion
1070
     0
  0
VISUALSTYLE
  5
2B
102
{ACAD_REACTORS
330
2A
102
}
330
2A
100
AcDbVisualStyle
  2
Flat
 70
     0
 71
     2
 72
     1
 73
     1
 90
        2
 40
-0.6
 41
30.0
 62
     5
 63
     7
421
 16777215
 74
     0
 91
        4
 64
     7
 65
   257
 75
     1
175
     1
 42
1.0
 92
        8
 66
     7
 43
1.0
 76
     1
 77
     6
 78
     2
 67
     7
 79
     5
170
     0
171
     0
290
     0
174
     0
 93
       13
 44
0.0
173
     0
291
     1
 45
0.0
1001
ACAD
1000
AcDbSavedByObjectVersion
1070
     0
  0
VISUALSTYLE
  5
2C
102
{ACAD_REACTORS
330
2A
102
}
330
2A
100
AcDbVisualStyle
  2
FlatWithEdges
 70
     1
 71
     2
 72
     1
 73
     1
 90
        2
 40
-0.6
 41
30.0
 62
     5
 63
     7
421
 16777215
 74
     1
 91
        4
 64
     7
 65
   257
 75
     1
175
     1
 42
1.0
 92
        0
 66
   257
 43
1.0
 76
     1
 77
     6
 78
     2
 67
     7
 79
     5
170
     0
171
     0
290
     0
174
     0
 93
       13
 44
0.0
173
     0
291
     1
 45
0.0
1001
ACAD
1000
AcDbSavedByObjectVersion
1070
     0
  0
VISUALSTYLE
  5
2D
102
{ACAD_REACTORS
330
2A
102
}
330
2A
100
AcDbVisualStyle
  2
Gouraud
 70
     2
 71
     2
 72
     2
 73
     1
 90
        2
 40
-0.6
 41
30.0
 62
     5
 63
     7
421
 16777215
 74
     0
 91
        4
 64
     7
 65
   257
 75
     1
175
     1
 42
1.0
 92
        0
 66
     7
 43
1.0
 76
     1
 77
     6
 78
     2
 67
     7
 79
     5
170
     0
171
     0
290
     0
174
     0
 93
       13
 44
0.0
173
     0
291
     1
 45
0.0
1001
ACAD
1000
AcDbSavedByObjectVersion
1070
     0
  0
VISUALSTYLE
  5
2E
102
{ACAD_REACTORS
330
2A
102
}
330
2A
100
AcDbVisualStyle
  2
GouraudWithEdges
 70
     3
 71
     2
 72
     2
 73
     1
 90
        2
 40
-0.6
 41
30.0
 62
     5
 63
     7
421
 16777215
 74
     1
 91
        4
 64
     7
 65
   257
 75
     1
175
     1
 42
1.0
 92
        0
 66
   257
 43
1.0
 76
     1
 77
     6
 78
     2
 67
     7
 79
     5
170
     0
171
     0
290
     0
174
     0
 93
       13
 44
0.0
173
     0
291
     1
 45
0.0
1001
ACAD
1000
AcDbSavedByObjectVersion
1070
     0
  0
VISUALSTYLE
  5
38
102
{ACAD_REACTORS
330
2A
102
}
330
2A
100
AcDbVisualStyle
  2
Linepattern
 70
    14
 71
     2
 72
     2
 73
     0
 90
        0
 40
-0.6
 41
-30.0
 62
     5
 63
     7
421
 16777215
 74
     1
 91
        4
 64
     7
 65
   257
 75
     7
175
     7
 42
1.0
 92
        8
 66
     7
 43
1.0
 76
     1
 77
     6
 78
     2
 67
     7
 79
     5
170
     0
171
     0
290
     0
174
     0
 93
        1
 44
0.0
173
     0
291
     1
 45
0.0
1001
ACAD
1000
AcDbSavedByObjectVersion
1070
     0
  0
VISUALSTYLE
  5
33
102
{ACAD_REACTORS
330
2A
102
}
330
2A
100
AcDbVisualStyle
  2
Realistic
 70
     8
 71
     2
 72
     2
 73
     0
 90
        0
 40
-0.6
 41
-30.0
 62
     5
 63
     7
421
 16777215
 74
     1
 91
        0
 64
     7
 65
   257
 75
     1
175
     1
 42
1.0
 92
        8
 66
     8
424
  7895160
 43
1.0
 76
     1
 77
     6
 78
     2
 67
     7
 79
     5
170
     0
171
     0
290
     0
174
     0
 93
       13
 44
0.0
173
     0
291
     0
 45
0.0
1001
ACAD
1000
AcDbSavedByObjectVersion
1070
     0
  0
VISUALSTYLE
  5
37
102
{ACAD_REACTORS
330
2A
102
}
330
2A
100
AcDbVisualStyle
  2
Thicken
 70
    13
 71
     2
 72
     2
 73
     0
 90
        0
 40
-0.6
 41
-30.0
 62
     5
 63
     7
421
 16777215
 74
     1
 91
        4
 64
     7
 65
   257
 75
     1
175
     1
 42
1.0
 92
       12
 66
     7
 43
1.0
 76
     1
 77
     6
 78
     2
 67
     7
 79
     5
170
     0
171
     0
290
     0
174
     0
 93
        1
 44
0.0
173
     0
291
     1
 45
0.0
1001
ACAD
1000
AcDbSavedByObjectVersion
1070
     0
  0
ENDSEC
  0
EOF
