  0
SECTION
  2
HEADER
  9
$ACADVER
  1
AC1009
  9
$DWGCODEPAGE
  3
ansi_1252
  9
$INSBASE
 10
0.0
 20
0.0
 30
0.0
  9
$EXTMIN
 10
61.61524089447624
 20
128.4947737908844
 30
0.0
  9
$EXTMAX
 10
381.615240894476
 20
223.4947737908845
 30
0.0
  9
$LIMMIN
 10
0.0
 20
0.0
  9
$LIMMAX
 10
12.0
 20
9.0
  9
$ORTHOMODE
 70
     0
  9
$REGENMODE
 70
     1
  9
$FILLMODE
 70
     1
  9
$QTEXTMODE
 70
     0
  9
$MIRRTEXT
 70
     1
  9
$DRAGMODE
 70
     2
  9
$LTSCALE
 40
1.0
  9
$OSMODE
 70
    37
  9
$ATTMODE
 70
     1
  9
$TEXTSIZE
 40
0.2
  9
$TRACEWID
 40
0.05
  9
$TEXTSTYLE
  7
STANDARD
  9
$CLAYER
  8
0
  9
$CELTYPE
  6
BYLAYER
  9
$CECOLOR
 62
   256
  9
$DIMSCALE
 40
1.0
  9
$DIMASZ
 40
0.18
  9
$DIMEXO
 40
0.0625
  9
$DIMDLI
 40
0.38
  9
$DIMRND
 40
0.0
  9
$DIMDLE
 40
0.0
  9
$DIMEXE
 40
0.18
  9
$DIMTP
 40
0.0
  9
$DIMTM
 40
0.0
  9
$DIMTXT
 40
0.18
  9
$DIMCEN
 40
0.09
  9
$DIMTSZ
 40
0.0
  9
$DIMTOL
 70
     0
  9
$DIMLIM
 70
     0
  9
$DIMTIH
 70
     1
  9
$DIMTOH
 70
     1
  9
$DIMSE1
 70
     0
  9
$DIMSE2
 70
     0
  9
$DIMTAD
 70
     0
  9
$DIMZIN
 70
     0
  9
$DIMBLK
  1

  9
$DIMASO
 70
     1
  9
$DIMSHO
 70
     1
  9
$DIMPOST
  1

  9
$DIMAPOST
  1

  9
$DIMALT
 70
     0
  9
$DIMALTD
 70
     2
  9
$DIMALTF
 40
25.4
  9
$DIMLFAC
 40
1.0
  9
$DIMTOFL
 70
     0
  9
$DIMTVP
 40
0.0
  9
$DIMTIX
 70
     0
  9
$DIMSOXD
 70
     0
  9
$DIMSAH
 70
     0
  9
$DIMBLK1
  1

  9
$DIMBLK2
  1

  9
$DIMSTYLE
  2
STANDARD
  9
$DIMCLRD
 70
     0
  9
$DIMCLRE
 70
     0
  9
$DIMCLRT
 70
     0
  9
$DIMTFAC
 40
1.0
  9
$DIMGAP
 40
0.09
  9
$LUNITS
 70
     2
  9
$LUPREC
 70
     4
  9
$SKETCHINC
 40
0.1
  9
$FILLETRAD
 40
0.5
  9
$AUNITS
 70
     0
  9
$AUPREC
 70
     0
  9
$MENU
  1
.
  9
$ELEVATION
 40
0.0
  9
$PELEVATION
 40
0.0
  9
$THICKNESS
 40
0.0
  9
$LIMCHECK
 70
     0
  9
$CHAMFERA
 40
0.0
  9
$CHAMFERB
 40
0.0
  9
$SKPOLY
 70
     0
  9
$TDCREATE
 40
2457925.649472766
  9
$TDUPDATE
 40
2457925.649488912
  9
$TDINDWG
 40
0.0000000116
  9
$TDUSRTIMER
 40
0.0000000116
  9
$USRTIMER
 70
     1
  9
$ANGBASE
 50
0.0
  9
$ANGDIR
 70
     0
  9
$PDMODE
 70
     0
  9
$PDSIZE
 40
0.0
  9
$PLINEWID
 40
0.0
  9
$COORDS
 70
     1
  9
$SPLFRAME
 70
     0
  9
$SPLINETYPE
 70
     6
  9
$SPLINESEGS
 70
     8
  9
$ATTDIA
 70
     0
  9
$ATTREQ
 70
     1
  9
$HANDLING
 70
     1
  9
$HANDSEED
  5
96
  9
$SURFTAB1
 70
     6
  9
$SURFTAB2
 70
     6
  9
$SURFTYPE
 70
     6
  9
$SURFU
 70
     6
  9
$SURFV
 70
     6
  9
$UCSNAME
  2

  9
$UCSORG
 10
0.0
 20
0.0
 30
0.0
  9
$UCSXDIR
 10
1.0
 20
0.0
 30
0.0
  9
$UCSYDIR
 10
0.0
 20
1.0
 30
0.0
  9
$PUCSNAME
  2

  9
$PUCSORG
 10
0.0
 20
0.0
 30
0.0
  9
$PUCSXDIR
 10
1.0
 20
0.0
 30
0.0
  9
$PUCSYDIR
 10
0.0
 20
1.0
 30
0.0
  9
$USERI1
 70
     0
  9
$USERI2
 70
     0
  9
$USERI3
 70
     0
  9
$USERI4
 70
     0
  9
$USERI5
 70
     0
  9
$USERR1
 40
0.0
  9
$USERR2
 40
0.0
  9
$USERR3
 40
0.0
  9
$USERR4
 40
0.0
  9
$USERR5
 40
0.0
  9
$WORLDVIEW
 70
     1
  9
$SHADEDGE
 70
     3
  9
$SHADEDIF
 70
    70
  9
$TILEMODE
 70
     1
  9
$MAXACTVP
 70
    64
  9
$PLIMCHECK
 70
     0
  9
$PEXTMIN
 10
1.000000000000000E+20
 20
1.000000000000000E+20
 30
1.000000000000000E+20
  9
$PEXTMAX
 10
-1.000000000000000E+20
 20
-1.000000000000000E+20
 30
-1.000000000000000E+20
  9
$PLIMMIN
 10
0.0
 20
0.0
  9
$PLIMMAX
 10
12.0
 20
9.0
  9
$UNITMODE
 70
     0
  9
$VISRETAIN
 70
     1
  9
$PLINEGEN
 70
     0
  9
$PSLTSCALE
 70
     1
  0
ENDSEC
  0
SECTION
  2
TABLES
  0
TABLE
  2
VPORT
 70
     1
  0
VPORT
  2
*ACTIVE
 70
     0
 10
0.0
 20
0.0
 11
1.0
 21
1.0
 12
221.6152408944761
 22
175.9947737908845
 13
0.0
 23
0.0
 14
0.5
 24
0.5
 15
0.5
 25
0.5
 16
0.0
 26
0.0
 36
1.0
 17
0.0
 27
0.0
 37
0.0
 40
96.90000000000006
 41
3.368421052631574
 42
50.0
 43
0.0
 44
0.0
 50
0.0
 51
0.0
 71
     0
 72
   100
 73
     1
 74
     3
 75
     0
 76
     0
 77
     0
 78
     0
  0
ENDTAB
  0
TABLE
  2
LTYPE
 70
     1
  0
LTYPE
  2
CONTINUOUS
 70
     0
  3
Solid line
 72
    65
 73
     0
 40
0.0
  0
ENDTAB
  0
TABLE
  2
LAYER
 70
     1
  0
LAYER
  2
0
 70
     0
 62
     7
  6
CONTINUOUS
  0
ENDTAB
  0
TABLE
  2
STYLE
 70
     1
  0
STYLE
  2
STANDARD
 70
     0
 40
0.0
 41
1.0
 50
0.0
 71
     0
 42
0.2
  3
txt
  4

  0
ENDTAB
  0
TABLE
  2
VIEW
 70
     0
  0
ENDTAB
  0
TABLE
  2
UCS
 70
     0
  0
ENDTAB
  0
TABLE
  2
APPID
 70
     1
  0
APPID
  2
ACAD
 70
     0
  0
ENDTAB
  0
TABLE
  2
DIMSTYLE
 70
     1
  0
DIMSTYLE
  2
STANDARD
 70
     0
  3

  4

  5

  6

  7

 40
1.0
 41
0.18
 42
0.0625
 43
0.38
 44
0.18
 45
0.0
 46
0.0
 47
0.0
 48
0.0
140
0.18
141
0.09
142
0.0
143
25.4
144
1.0
145
0.0
146
1.0
147
0.09
 71
     0
 72
     0
 73
     1
 74
     1
 75
     0
 76
     0
 77
     0
 78
     0
170
     0
171
     2
172
     0
173
     0
174
     0
175
     0
176
     0
177
     0
178
     0
  0
ENDTAB
  0
ENDSEC
  0
SECTION
  2
BLOCKS
  0
BLOCK
  8
0
  2
$MODEL_SPACE
 70
     0
 10
0.0
 20
0.0
 30
0.0
  3
$MODEL_SPACE
  1

  0
ENDBLK
  5
21
  8
0
  0
BLOCK
 67
     1
  8
0
  2
$PAPER_SPACE
 70
     0
 10
0.0
 20
0.0
 30
0.0
  3
$PAPER_SPACE
  1

  0
ENDBLK
  5
1D
 67
     1
  8
0
  0
ENDSEC
  0
SECTION
  2
ENTITIES
  0
LINE
  5
6E
  8
0
 10
349.6079099671188
 20
183.4947737908845
 30
0.0
 11
93.60790996711873
 21
183.4947737908845
 31
0.0
  0
ARC
  5
6F
  8
0
 10
93.6079099671187
 20
176.4947737908846
 30
0.0
 40
6.999999999999957
 50
89.99999999999977
 51
180.0000000000004
  0
LINE
  5
70
  8
0
 10
86.60790996711874
 20
176.4947737908845
 30
0.0
 11
86.60790996711874
 21
175.4947737908845
 31
0.0
  0
ARC
  5
71
  8
0
 10
93.60790996711869
 20
175.4947737908844
 30
0.0
 40
6.999999999999943
 50
179.9999999999998
 51
270.0000000000003
  0
LINE
  5
72
  8
0
 10
93.60790996711873
 20
168.4947737908845
 30
0.0
 11
349.6079099671188
 21
168.4947737908845
 31
0.0
  0
ARC
  5
73
  8
0
 10
349.6079099671187
 20
175.4947737908845
 30
0.0
 40
7.000000000000039
 50
270.0000000000005
 51
359.9999999999993
  0
LINE
  5
74
  8
0
 10
356.6079099671188
 20
175.4947737908845
 30
0.0
 11
356.6079099671188
 21
176.4947737908845
 31
0.0
  0
ARC
  5
75
  8
0
 10
349.6079099671187
 20
176.4947737908844
 30
0.0
 40
7.000000000000053
 50
0.0000000000004653
 51
89.99999999999955
  0
LINE
  5
76
  8
0
 10
349.615240894418
 20
152.3154374216543
 30
0.0
 11
93.61524089434758
 21
152.3154374216543
 31
0.0
  0
ARC
  5
77
  8
0
 10
93.61524089434758
 20
145.3154374216543
 30
0.0
 40
6.999999999999922
 50
90.0
 51
180.0
  0
LINE
  5
78
  8
0
 10
86.61524089434765
 20
145.3154374216543
 30
0.0
 11
86.61524089434766
 21
144.3154374216543
 31
0.0
  0
ARC
  5
79
  8
0
 10
93.61524089434768
 20
144.3154374216543
 30
0.0
 40
7.000000000000009
 50
180.0
 51
270.0
  0
LINE
  5
7A
  8
0
 10
93.61524089434766
 20
137.3154374216543
 30
0.0
 11
349.615240894418
 21
137.3154374216543
 31
0.0
  0
ARC
  5
7B
  8
0
 10
349.615240894418
 20
144.3154374216543
 30
0.0
 40
7.000000000000014
 50
270.0
 51
0.0
  0
LINE
  5
7C
  8
0
 10
356.615240894418
 20
144.3154374216543
 30
0.0
 11
356.615240894418
 21
145.3154374216543
 31
0.0
  0
ARC
  5
7D
  8
0
 10
349.615240894418
 20
145.3154374216543
 30
0.0
 40
7.000000000000009
 50
0.0
 51
90.0
  0
LINE
  5
7E
  8
0
 10
348.887970334137
 20
200.1946258803994
 30
0.0
 11
92.88797033139006
 21
200.1946258803994
 31
0.0
  0
ARC
  5
7F
  8
0
 10
92.88797033139006
 20
207.1946258803994
 30
0.0
 40
6.999999999999989
 50
179.9999999999998
 51
270.0
  0
LINE
  5
80
  8
0
 10
85.88797033139008
 20
207.1946258803994
 30
0.0
 11
85.88797033139008
 21
208.1946258803994
 31
0.0
  0
ARC
  5
81
  8
0
 10
92.88797033139006
 20
208.1946258803994
 30
0.0
 40
6.999999999999986
 50
90.00000000000011
 51
180.0
  0
LINE
  5
82
  8
0
 10
92.88797033139005
 20
215.1946258803994
 30
0.0
 11
348.887970334137
 21
215.1946258803994
 31
0.0
  0
ARC
  5
83
  8
0
 10
348.8879703341369
 20
208.1946258803994
 30
0.0
 40
6.999999999999964
 50
359.9999999999998
 51
89.99999999999955
  0
LINE
  5
84
  8
0
 10
355.8879703341369
 20
208.1946258803994
 30
0.0
 11
355.8879703341369
 21
207.1946258803993
 31
0.0
  0
ARC
  5
85
  8
0
 10
348.887970334137
 20
207.1946258803993
 30
0.0
 40
6.999999999999943
 50
270.0
 51
0.0
  0
LINE
  5
86
  8
0
 10
356.611553201854
 20
175.8944568265089
 30
0.0
 11
356.611553201854
 21
176.0950907552589
 31
0.0
  0
CIRCLE
  5
87
  8
0
 10
73.61524089447626
 20
152.2447737908845
 30
0.0
 40
2.249999999999996
  0
CIRCLE
  5
88
  8
0
 10
73.61524089447626
 20
199.7447737908844
 30
0.0
 40
2.249999999999996
  0
CIRCLE
  5
89
  8
0
 10
369.615240894476
 20
152.2447737908845
 30
0.0
 40
2.250000000000014
  0
CIRCLE
  5
8A
  8
0
 10
369.615240894476
 20
199.7447737908846
 30
0.0
 40
2.250000000000014
  0
LINE
  5
8B
  8
0
 10
61.61524089447624
 20
223.4947737908844
 30
0.0
 11
381.615240894476
 21
223.4947737908845
 31
0.0
  0
LINE
  5
8C
  8
0
 10
381.615240894476
 20
223.4947737908845
 30
0.0
 11
381.615240894476
 21
128.4947737908845
 31
0.0
  0
LINE
  5
8D
  8
0
 10
381.615240894476
 20
128.4947737908845
 30
0.0
 11
61.61524089447633
 21
128.4947737908844
 31
0.0
  0
LINE
  5
8E
  8
0
 10
61.61524089447633
 20
128.4947737908844
 30
0.0
 11
61.61524089447624
 21
223.4947737908844
 31
0.0
  0
ENDSEC
  0
EOF
