  0
SECTION
  2
HEADER
  9
$ACADVER
  1
AC1009
  9
$DWGCODEPAGE
  3
mac-roman
  9
$INSBASE
 10
0.0
 20
0.0
 30
0.0
  9
$EXTMIN
 10
18.50982117230512
 20
14.09191736137461
 30
0.0
  9
$EXTMAX
 10
500.5358198522355
 20
722.1491162059015
 30
0.0
  9
$LIMMIN
 10
0.0
 20
0.0
  9
$LIMMAX
 10
12.0
 20
9.0
  9
$ORTHOMODE
 70
     0
  9
$REGENMODE
 70
     1
  9
$FILLMODE
 70
     1
  9
$QTEXTMODE
 70
     0
  9
$MIRRTEXT
 70
     1
  9
$DRAGMODE
 70
     2
  9
$LTSCALE
 40
1.0
  9
$OSMODE
 70
    37
  9
$ATTMODE
 70
     1
  9
$TEXTSIZE
 40
0.2
  9
$TRACEWID
 40
0.05
  9
$TEXTSTYLE
  7
STANDARD
  9
$CLAYER
  8
0
  9
$CELTYPE
  6
BYLAYER
  9
$CECOLOR
 62
   256
  9
$DIMSCALE
 40
1.0
  9
$DIMASZ
 40
0.18
  9
$DIMEXO
 40
0.0625
  9
$DIMDLI
 40
0.38
  9
$DIMRND
 40
0.0
  9
$DIMDLE
 40
0.0
  9
$DIMEXE
 40
0.18
  9
$DIMTP
 40
0.0
  9
$DIMTM
 40
0.0
  9
$DIMTXT
 40
0.18
  9
$DIMCEN
 40
0.09
  9
$DIMTSZ
 40
0.0
  9
$DIMTOL
 70
     0
  9
$DIMLIM
 70
     0
  9
$DIMTIH
 70
     1
  9
$DIMTOH
 70
     1
  9
$DIMSE1
 70
     0
  9
$DIMSE2
 70
     0
  9
$DIMTAD
 70
     0
  9
$DIMZIN
 70
     0
  9
$DIMBLK
  1

  9
$DIMASO
 70
     1
  9
$DIMSHO
 70
     1
  9
$DIMPOST
  1

  9
$DIMAPOST
  1

  9
$DIMALT
 70
     0
  9
$DIMALTD
 70
     2
  9
$DIMALTF
 40
25.4
  9
$DIMLFAC
 40
1.0
  9
$DIMTOFL
 70
     0
  9
$DIMTVP
 40
0.0
  9
$DIMTIX
 70
     0
  9
$DIMSOXD
 70
     0
  9
$DIMSAH
 70
     0
  9
$DIMBLK1
  1

  9
$DIMBLK2
  1

  9
$DIMSTYLE
  2
STANDARD
  9
$DIMCLRD
 70
     0
  9
$DIMCLRE
 70
     0
  9
$DIMCLRT
 70
     0
  9
$DIMTFAC
 40
1.0
  9
$DIMGAP
 40
0.09
  9
$LUNITS
 70
     2
  9
$LUPREC
 70
     3
  9
$SKETCHINC
 40
0.1
  9
$FILLETRAD
 40
0.5
  9
$AUNITS
 70
     0
  9
$AUPREC
 70
     0
  9
$MENU
  1
.
  9
$ELEVATION
 40
0.0
  9
$PELEVATION
 40
0.0
  9
$THICKNESS
 40
0.0
  9
$LIMCHECK
 70
     0
  9
$CHAMFERA
 40
0.0
  9
$CHAMFERB
 40
0.0
  9
$SKPOLY
 70
     0
  9
$TDCREATE
 40
2457822.633541666
  9
$TDUPDATE
 40
2457822.633553241
  9
$TDINDWG
 40
0.0000000116
  9
$TDUSRTIMER
 40
0.0000000116
  9
$USRTIMER
 70
     1
  9
$ANGBASE
 50
0.0
  9
$ANGDIR
 70
     0
  9
$PDMODE
 70
     0
  9
$PDSIZE
 40
0.0
  9
$PLINEWID
 40
0.0
  9
$COORDS
 70
     1
  9
$SPLFRAME
 70
     0
  9
$SPLINETYPE
 70
     6
  9
$SPLINESEGS
 70
     8
  9
$ATTDIA
 70
     0
  9
$ATTREQ
 70
     1
  9
$HANDLING
 70
     1
  9
$HANDSEED
  5
126
  9
$SURFTAB1
 70
     6
  9
$SURFTAB2
 70
     6
  9
$SURFTYPE
 70
     6
  9
$SURFU
 70
     6
  9
$SURFV
 70
     6
  9
$UCSNAME
  2

  9
$UCSORG
 10
0.0
 20
0.0
 30
0.0
  9
$UCSXDIR
 10
1.0
 20
0.0
 30
0.0
  9
$UCSYDIR
 10
0.0
 20
1.0
 30
0.0
  9
$PUCSNAME
  2

  9
$PUCSORG
 10
0.0
 20
0.0
 30
0.0
  9
$PUCSXDIR
 10
1.0
 20
0.0
 30
0.0
  9
$PUCSYDIR
 10
0.0
 20
1.0
 30
0.0
  9
$USERI1
 70
     0
  9
$USERI2
 70
     0
  9
$USERI3
 70
     0
  9
$USERI4
 70
     0
  9
$USERI5
 70
     0
  9
$USERR1
 40
0.0
  9
$USERR2
 40
0.0
  9
$USERR3
 40
0.0
  9
$USERR4
 40
0.0
  9
$USERR5
 40
0.0
  9
$WORLDVIEW
 70
     1
  9
$SHADEDGE
 70
     3
  9
$SHADEDIF
 70
    70
  9
$TILEMODE
 70
     1
  9
$MAXACTVP
 70
    64
  9
$PLIMCHECK
 70
     0
  9
$PEXTMIN
 10
1.000000000000000E+20
 20
1.000000000000000E+20
 30
1.000000000000000E+20
  9
$PEXTMAX
 10
-1.000000000000000E+20
 20
-1.000000000000000E+20
 30
-1.000000000000000E+20
  9
$PLIMMIN
 10
0.0
 20
0.0
  9
$PLIMMAX
 10
12.0
 20
9.0
  9
$UNITMODE
 70
     0
  9
$VISRETAIN
 70
     1
  9
$PLINEGEN
 70
     0
  9
$PSLTSCALE
 70
     1
  0
ENDSEC
  0
SECTION
  2
TABLES
  0
TABLE
  2
VPORT
 70
     1
  0
VPORT
  2
*ACTIVE
 70
     0
 10
0.0
 20
0.0
 11
1.0
 21
1.0
 12
259.5228205122703
 22
368.120516783638
 13
0.0
 23
0.0
 14
0.5
 24
0.5
 15
0.5
 25
0.5
 16
0.0
 26
0.0
 36
1.0
 17
0.0
 27
0.0
 37
0.0
 40
722.2183428214174
 41
0.6807726825834761
 42
50.0
 43
0.0
 44
0.0
 50
0.0
 51
0.0
 71
     0
 72
   100
 73
     1
 74
     3
 75
     0
 76
     0
 77
     0
 78
     0
  0
ENDTAB
  0
TABLE
  2
LTYPE
 70
     1
  0
LTYPE
  2
CONTINUOUS
 70
     0
  3
Solid line
 72
    65
 73
     0
 40
0.0
  0
ENDTAB
  0
TABLE
  2
LAYER
 70
     3
  0
LAYER
  2
0
 70
     0
 62
     7
  6
CONTINUOUS
  0
LAYER
  2
INSIDE
 70
     0
 62
    56
  6
CONTINUOUS
  0
LAYER
  2
DEFPOINTS
 70
     0
 62
   253
  6
CONTINUOUS
  0
ENDTAB
  0
TABLE
  2
STYLE
 70
     1
  0
STYLE
  2
STANDARD
 70
     0
 40
0.0
 41
1.0
 50
0.0
 71
     0
 42
0.2
  3
txt
  4

  0
ENDTAB
  0
TABLE
  2
VIEW
 70
     0
  0
ENDTAB
  0
TABLE
  2
UCS
 70
     0
  0
ENDTAB
  0
TABLE
  2
APPID
 70
     1
  0
APPID
  2
ACAD
 70
     0
  0
ENDTAB
  0
TABLE
  2
DIMSTYLE
 70
     1
  0
DIMSTYLE
  2
STANDARD
 70
     0
  3

  4

  5

  6

  7

 40
1.0
 41
0.18
 42
0.0625
 43
0.38
 44
0.18
 45
0.0
 46
0.0
 47
0.0
 48
0.0
140
0.18
141
0.09
142
0.0
143
25.4
144
1.0
145
0.0
146
1.0
147
0.09
 71
     0
 72
     0
 73
     1
 74
     1
 75
     0
 76
     0
 77
     0
 78
     0
170
     0
171
     2
172
     0
173
     0
174
     0
175
     0
176
     0
177
     0
178
     0
  0
ENDTAB
  0
ENDSEC
  0
SECTION
  2
BLOCKS
  0
BLOCK
  8
0
  2
$MODEL_SPACE
 70
     0
 10
0.0
 20
0.0
 30
0.0
  3
$MODEL_SPACE
  1

  0
ENDBLK
  5
21
  8
0
  0
BLOCK
 67
     1
  8
0
  2
$PAPER_SPACE
 70
     0
 10
0.0
 20
0.0
 30
0.0
  3
$PAPER_SPACE
  1

  0
ENDBLK
  5
1D
 67
     1
  8
0
  0
BLOCK
  8
0
  2
_D0
 70
     0
 10
0.0
 20
0.0
 30
0.0
  3
_D0
  1

  0
LINE
  5
BB
  8
0
 62
     0
 10
575.7617154468101
 20
192.2955805929899
 30
0.0
 11
763.574368428462
 21
192.2955805929899
 31
0.0
  0
LINE
  5
BC
  8
0
 62
     0
 10
575.7617154468101
 20
-33.70441940701015
 30
0.0
 11
763.574368428462
 21
-33.70441940701016
 31
0.0
  0
LINE
  5
BD
  8
0
 62
     0
 10
762.324368428462
 20
189.7955805929899
 30
0.0
 11
762.324368428462
 21
-31.20441940701016
 31
0.0
  0
LINE
  5
BE
  8
0
 62
     0
 10
762.7410350951286
 20
189.7955805929899
 30
0.0
 11
762.324368428462
 21
192.2955805929899
 31
0.0
  0
LINE
  5
BF
  8
0
 62
     0
 10
762.324368428462
 20
192.2955805929899
 30
0.0
 11
761.9077017617954
 21
189.7955805929899
 31
0.0
  0
LINE
  5
C0
  8
0
 62
     0
 10
761.9077017617954
 20
189.7955805929899
 30
0.0
 11
762.7410350951286
 21
189.7955805929899
 31
0.0
  0
LINE
  5
C1
  8
0
 62
     0
 10
762.5327017617954
 20
191.0455805929899
 30
0.0
 11
762.1160350951286
 21
191.0455805929899
 31
0.0
  0
LINE
  5
C2
  8
0
 62
     0
 10
762.324368428462
 20
192.2955805929899
 30
0.0
 11
762.324368428462
 21
189.7955805929899
 31
0.0
  0
LINE
  5
C3
  8
0
 62
     0
 10
761.9077017617954
 20
-31.20441940701016
 30
0.0
 11
762.324368428462
 21
-33.70441940701016
 31
0.0
  0
LINE
  5
C4
  8
0
 62
     0
 10
762.324368428462
 20
-33.70441940701016
 30
0.0
 11
762.7410350951286
 21
-31.20441940701016
 31
0.0
  0
LINE
  5
C5
  8
0
 62
     0
 10
762.7410350951286
 20
-31.20441940701016
 30
0.0
 11
761.9077017617954
 21
-31.20441940701016
 31
0.0
  0
LINE
  5
C6
  8
0
 62
     0
 10
762.1160350951286
 20
-32.45441940701016
 30
0.0
 11
762.5327017617954
 21
-32.45441940701016
 31
0.0
  0
LINE
  5
C7
  8
0
 62
     0
 10
762.324368428462
 20
-33.70441940701016
 30
0.0
 11
762.324368428462
 21
-31.20441940701016
 31
0.0
  0
TEXT
  5
C8
  8
0
  6
CONTINUOUS
 62
     0
 10
761.5734020801218
 20
76.05388794048542
 30
0.0
 40
2.5
  1
226
 50
90.0
  0
POINT
  5
CA
  8
DEFPOINTS
 62
     0
 10
575.1367154468101
 20
192.2955805929899
 30
0.0
  0
POINT
  5
CB
  8
DEFPOINTS
 62
     0
 10
575.1367154468101
 20
-33.70441940701015
 30
0.0
  0
POINT
  5
CC
  8
DEFPOINTS
 62
     0
 10
762.324368428462
 20
-33.70441940701016
 30
0.0
  0
ENDBLK
  5
CE
  8
0
  0
BLOCK
  8
0
  2
_D1
 70
     0
 10
0.0
 20
0.0
 30
0.0
  3
_D1
  1

  0
LINE
  5
D0
  8
0
 62
     0
 10
600.7617154468101
 20
194.2955805929899
 30
0.0
 11
712.0052391856628
 21
194.2955805929899
 31
0.0
  0
LINE
  5
D1
  8
0
 62
     0
 10
584.7617154468101
 20
-33.70441940701015
 30
0.0
 11
712.0052391856628
 21
-33.70441940701016
 31
0.0
  0
LINE
  5
D2
  8
0
 62
     0
 10
710.7552391856628
 20
191.7955805929899
 30
0.0
 11
710.7552391856628
 21
-31.20441940701016
 31
0.0
  0
LINE
  5
D3
  8
0
 62
     0
 10
711.1719058523295
 20
191.7955805929899
 30
0.0
 11
710.7552391856628
 21
194.2955805929899
 31
0.0
  0
LINE
  5
D4
  8
0
 62
     0
 10
710.7552391856628
 20
194.2955805929899
 30
0.0
 11
710.3385725189962
 21
191.7955805929899
 31
0.0
  0
LINE
  5
D5
  8
0
 62
     0
 10
710.3385725189962
 20
191.7955805929899
 30
0.0
 11
711.1719058523295
 21
191.7955805929899
 31
0.0
  0
LINE
  5
D6
  8
0
 62
     0
 10
710.9635725189962
 20
193.0455805929899
 30
0.0
 11
710.5469058523295
 21
193.0455805929899
 31
0.0
  0
LINE
  5
D7
  8
0
 62
     0
 10
710.7552391856628
 20
194.2955805929899
 30
0.0
 11
710.7552391856628
 21
191.7955805929899
 31
0.0
  0
LINE
  5
D8
  8
0
 62
     0
 10
710.3385725189962
 20
-31.20441940701016
 30
0.0
 11
710.7552391856628
 21
-33.70441940701016
 31
0.0
  0
LINE
  5
D9
  8
0
 62
     0
 10
710.7552391856628
 20
-33.70441940701016
 30
0.0
 11
711.1719058523295
 21
-31.20441940701016
 31
0.0
  0
LINE
  5
DA
  8
0
 62
     0
 10
711.1719058523295
 20
-31.20441940701016
 30
0.0
 11
710.3385725189962
 21
-31.20441940701016
 31
0.0
  0
LINE
  5
DB
  8
0
 62
     0
 10
710.5469058523295
 20
-32.45441940701016
 30
0.0
 11
710.9635725189962
 21
-32.45441940701016
 31
0.0
  0
LINE
  5
DC
  8
0
 62
     0
 10
710.7552391856628
 20
-33.70441940701016
 30
0.0
 11
710.7552391856628
 21
-31.20441940701016
 31
0.0
  0
TEXT
  5
DD
  8
0
  6
CONTINUOUS
 62
     0
 10
710.0042728373227
 20
77.05047729928492
 30
0.0
 40
2.5
  1
228
 50
90.0
  0
POINT
  5
DE
  8
DEFPOINTS
 62
     0
 10
600.1367154468101
 20
194.2955805929899
 30
0.0
  0
POINT
  5
DF
  8
DEFPOINTS
 62
     0
 10
584.1367154468101
 20
-33.70441940701015
 30
0.0
  0
POINT
  5
E0
  8
DEFPOINTS
 62
     0
 10
710.7552391856628
 20
-33.70441940701016
 30
0.0
  0
ENDBLK
  5
E2
  8
0
  0
BLOCK
  8
0
  2
_D2
 70
     0
 10
0.0
 20
0.0
 30
0.0
  3
_D2
  1

  0
LINE
  5
E4
  8
0
 62
     0
 10
904.9129491473495
 20
194.2955805929899
 30
0.0
 11
747.34562973037
 21
194.2955805929899
 31
0.0
  0
LINE
  5
E5
  8
0
 62
     0
 10
920.9129491473495
 20
-33.70441940701011
 30
0.0
 11
747.34562973037
 21
-33.7044194070101
 31
0.0
  0
LINE
  5
E6
  8
0
 62
     0
 10
748.59562973037
 20
191.7955805929899
 30
0.0
 11
748.59562973037
 21
-31.2044194070101
 31
0.0
  0
LINE
  5
E7
  8
0
 62
     0
 10
749.0122963970366
 20
191.7955805929899
 30
0.0
 11
748.59562973037
 21
194.2955805929899
 31
0.0
  0
LINE
  5
E8
  8
0
 62
     0
 10
748.59562973037
 20
194.2955805929899
 30
0.0
 11
748.1789630637033
 21
191.7955805929899
 31
0.0
  0
LINE
  5
E9
  8
0
 62
     0
 10
748.1789630637033
 20
191.7955805929899
 30
0.0
 11
749.0122963970366
 21
191.7955805929899
 31
0.0
  0
LINE
  5
EA
  8
0
 62
     0
 10
748.8039630637033
 20
193.0455805929899
 30
0.0
 11
748.3872963970367
 21
193.0455805929899
 31
0.0
  0
LINE
  5
EB
  8
0
 62
     0
 10
748.59562973037
 20
194.2955805929899
 30
0.0
 11
748.59562973037
 21
191.7955805929899
 31
0.0
  0
LINE
  5
EC
  8
0
 62
     0
 10
748.1789630637033
 20
-31.2044194070101
 30
0.0
 11
748.59562973037
 21
-33.7044194070101
 31
0.0
  0
LINE
  5
ED
  8
0
 62
     0
 10
748.59562973037
 20
-33.7044194070101
 30
0.0
 11
749.0122963970366
 21
-31.2044194070101
 31
0.0
  0
LINE
  5
EE
  8
0
 62
     0
 10
749.0122963970366
 20
-31.2044194070101
 30
0.0
 11
748.1789630637033
 21
-31.2044194070101
 31
0.0
  0
LINE
  5
EF
  8
0
 62
     0
 10
748.3872963970367
 20
-32.4544194070101
 30
0.0
 11
748.8039630637033
 21
-32.4544194070101
 31
0.0
  0
LINE
  5
F0
  8
0
 62
     0
 10
748.59562973037
 20
-33.7044194070101
 30
0.0
 11
748.59562973037
 21
-31.2044194070101
 31
0.0
  0
TEXT
  5
F1
  8
0
  6
CONTINUOUS
 62
     0
 10
747.8446633820298
 20
77.05047729928492
 30
0.0
 40
2.5
  1
228
 50
90.0
  0
POINT
  5
F2
  8
DEFPOINTS
 62
     0
 10
905.5379491473495
 20
194.2955805929899
 30
0.0
  0
POINT
  5
F3
  8
DEFPOINTS
 62
     0
 10
921.5379491473495
 20
-33.70441940701011
 30
0.0
  0
POINT
  5
F4
  8
DEFPOINTS
 62
     0
 10
748.59562973037
 20
-33.7044194070101
 30
0.0
  0
ENDBLK
  5
F6
  8
0
  0
BLOCK
  8
0
  2
_D3
 70
     0
 10
0.0
 20
0.0
 30
0.0
  3
_D3
  1

  0
LINE
  5
F8
  8
0
 62
     0
 10
921.5379491473495
 20
194.9205805929899
 30
0.0
 11
921.5379491473495
 21
221.9310163371589
 31
0.0
  0
LINE
  5
F9
  8
0
 62
     0
 10
905.5379491473495
 20
194.9205805929899
 30
0.0
 11
905.5379491473495
 21
221.9310163371589
 31
0.0
  0
LINE
  5
FA
  8
0
 62
     0
 10
919.0379491473495
 20
220.6810163371589
 30
0.0
 11
908.0379491473495
 21
220.6810163371589
 31
0.0
  0
LINE
  5
FB
  8
0
 62
     0
 10
919.0379491473495
 20
220.2643496704923
 30
0.0
 11
921.5379491473495
 21
220.6810163371589
 31
0.0
  0
LINE
  5
FC
  8
0
 62
     0
 10
921.5379491473495
 20
220.6810163371589
 30
0.0
 11
919.0379491473495
 21
221.0976830038256
 31
0.0
  0
LINE
  5
FD
  8
0
 62
     0
 10
919.0379491473495
 20
221.0976830038256
 30
0.0
 11
919.0379491473495
 21
220.2643496704923
 31
0.0
  0
LINE
  5
FE
  8
0
 62
     0
 10
920.2879491473495
 20
220.4726830038256
 30
0.0
 11
920.2879491473495
 21
220.8893496704922
 31
0.0
  0
LINE
  5
FF
  8
0
 62
     0
 10
921.5379491473492
 20
220.681016337159
 30
0.0
 11
919.0379491473495
 21
220.681016337159
 31
0.0
  0
LINE
  5
100
  8
0
 62
     0
 10
908.0379491473495
 20
221.0976830038256
 30
0.0
 11
905.5379491473495
 21
220.6810163371589
 31
0.0
  0
LINE
  5
101
  8
0
 62
     0
 10
905.5379491473495
 20
220.6810163371589
 30
0.0
 11
908.0379491473495
 21
220.2643496704923
 31
0.0
  0
LINE
  5
102
  8
0
 62
     0
 10
908.0379491473495
 20
220.2643496704923
 30
0.0
 11
908.0379491473495
 21
221.0976830038256
 31
0.0
  0
LINE
  5
103
  8
0
 62
     0
 10
906.7879491473495
 20
220.8893496704923
 30
0.0
 11
906.7879491473495
 21
220.4726830038256
 31
0.0
  0
LINE
  5
104
  8
0
 62
     0
 10
905.5379491473499
 20
220.681016337159
 30
0.0
 11
908.0379491473495
 21
220.681016337159
 31
0.0
  0
TEXT
  5
105
  8
0
  6
CONTINUOUS
 62
     0
 10
910.7713100906356
 20
221.4319826854992
 30
0.0
 40
2.5
  1
16
  0
POINT
  5
106
  8
DEFPOINTS
 62
     0
 10
921.5379491473495
 20
194.2955805929899
 30
0.0
  0
POINT
  5
107
  8
DEFPOINTS
 62
     0
 10
905.5379491473495
 20
194.2955805929899
 30
0.0
  0
POINT
  5
108
  8
DEFPOINTS
 62
     0
 10
905.5379491473495
 20
220.6810163371589
 30
0.0
  0
ENDBLK
  5
10A
  8
0
  0
BLOCK
  8
0
  2
_D4
 70
     0
 10
0.0
 20
0.0
 30
0.0
  3
_D4
  1

  0
LINE
  5
10C
  8
0
 62
     0
 10
905.5379491473495
 20
194.9205805929899
 30
0.0
 11
905.5379491473495
 21
308.0649245632638
 31
0.0
  0
LINE
  5
10D
  8
0
 62
     0
 10
930.5379491473495
 20
194.9205805929899
 30
0.0
 11
930.5379491473495
 21
308.0649245632638
 31
0.0
  0
LINE
  5
10E
  8
0
 62
     0
 10
908.0379491473495
 20
306.8149245632638
 30
0.0
 11
928.0379491473495
 21
306.8149245632638
 31
0.0
  0
LINE
  5
10F
  8
0
 62
     0
 10
908.0379491473495
 20
307.2315912299305
 30
0.0
 11
905.5379491473495
 21
306.8149245632638
 31
0.0
  0
LINE
  5
110
  8
0
 62
     0
 10
905.5379491473495
 20
306.8149245632638
 30
0.0
 11
908.0379491473495
 21
306.3982578965972
 31
0.0
  0
LINE
  5
111
  8
0
 62
     0
 10
908.0379491473495
 20
306.3982578965972
 30
0.0
 11
908.0379491473495
 21
307.2315912299305
 31
0.0
  0
LINE
  5
112
  8
0
 62
     0
 10
906.7879491473495
 20
307.0232578965972
 30
0.0
 11
906.7879491473495
 21
306.6065912299305
 31
0.0
  0
LINE
  5
113
  8
0
 62
     0
 10
905.5379491473499
 20
306.8149245632638
 30
0.0
 11
908.0379491473495
 21
306.8149245632638
 31
0.0
  0
LINE
  5
114
  8
0
 62
     0
 10
928.0379491473495
 20
306.3982578965972
 30
0.0
 11
930.5379491473495
 21
306.8149245632638
 31
0.0
  0
LINE
  5
115
  8
0
 62
     0
 10
930.5379491473495
 20
306.8149245632638
 30
0.0
 11
928.0379491473495
 21
307.2315912299305
 31
0.0
  0
LINE
  5
116
  8
0
 62
     0
 10
928.0379491473495
 20
307.2315912299305
 30
0.0
 11
928.0379491473495
 21
306.3982578965972
 31
0.0
  0
LINE
  5
117
  8
0
 62
     0
 10
929.2879491473495
 20
306.6065912299305
 30
0.0
 11
929.2879491473495
 21
307.0232578965972
 31
0.0
  0
LINE
  5
118
  8
0
 62
     0
 10
930.5379491473492
 20
306.8149245632638
 30
0.0
 11
928.0379491473495
 21
306.8149245632638
 31
0.0
  0
TEXT
  5
119
  8
0
  6
CONTINUOUS
 62
     0
 10
915.7572046530989
 20
307.5658909116039
 30
0.0
 40
2.5
  1
25
  0
POINT
  5
11A
  8
DEFPOINTS
 62
     0
 10
905.5379491473495
 20
194.2955805929899
 30
0.0
  0
POINT
  5
11B
  8
DEFPOINTS
 62
     0
 10
930.5379491473495
 20
194.2955805929899
 30
0.0
  0
POINT
  5
11C
  8
DEFPOINTS
 62
     0
 10
930.5379491473495
 20
306.8149245632638
 30
0.0
  0
ENDBLK
  5
11E
  8
0
  0
ENDSEC
  0
SECTION
  2
ENTITIES
  0
ARC
  5
6F
  8
INSIDE
 10
147.6765181918005
 20
572.1491162059015
 30
0.0
 40
3.3
 50
90.0
 51
0.0
  0
LINE
  5
70
  8
INSIDE
 10
150.9765181918005
 20
572.1491162059015
 30
0.0
 11
156.6765181918005
 21
572.1491162059015
 31
0.0
  0
LINE
  5
71
  8
INSIDE
 10
156.6765181918005
 20
572.1491162059015
 30
0.0
 11
162.3765181918005
 21
572.1491162059015
 31
0.0
  0
ARC
  5
72
  8
INSIDE
 10
165.6765181918005
 20
572.1491162059015
 30
0.0
 40
3.3
 50
180.0
 51
90.0
  0
LINE
  5
73
  8
INSIDE
 10
165.6765181918005
 20
575.4491162059014
 30
0.0
 11
165.6765181918005
 21
588.1491162059015
 31
0.0
  0
LINE
  5
74
  8
INSIDE
 10
165.6765181918005
 20
588.1491162059015
 30
0.0
 11
178.3765181918005
 21
588.1491162059015
 31
0.0
  0
ARC
  5
75
  8
INSIDE
 10
181.6765181918005
 20
588.1491162059015
 30
0.0
 40
3.3
 50
180.0
 51
90.0
  0
LINE
  5
76
  8
INSIDE
 10
181.6765181918005
 20
591.4491162059014
 30
0.0
 11
181.6765181918005
 21
597.1491162059015
 31
0.0
  0
LINE
  5
77
  8
INSIDE
 10
181.6765181918005
 20
597.1491162059015
 30
0.0
 11
181.6765181918005
 21
602.8491162059015
 31
0.0
  0
ARC
  5
78
  8
INSIDE
 10
181.6765181918005
 20
606.1491162059015
 30
0.0
 40
3.3
 50
270.0
 51
180.0
  0
LINE
  5
79
  8
INSIDE
 10
178.3765181918005
 20
606.1491162059015
 30
0.0
 11
165.6765181918005
 21
606.1491162059015
 31
0.0
  0
LINE
  5
7A
  8
INSIDE
 10
165.6765181918005
 20
606.1491162059015
 30
0.0
 11
165.6765181918005
 21
618.8491162059015
 31
0.0
  0
ARC
  5
7B
  8
INSIDE
 10
165.6765181918005
 20
622.1491162059015
 30
0.0
 40
3.3
 50
270.0
 51
180.0
  0
LINE
  5
7C
  8
INSIDE
 10
162.3765181918005
 20
622.1491162059015
 30
0.0
 11
156.6765181918005
 21
622.1491162059015
 31
0.0
  0
LINE
  5
7D
  8
INSIDE
 10
156.6765181918005
 20
622.1491162059015
 30
0.0
 11
150.9765181918004
 21
622.1491162059015
 31
0.0
  0
ARC
  5
7E
  8
INSIDE
 10
147.6765181918005
 20
622.1491162059015
 30
0.0
 40
3.3
 50
0.0
 51
270.0
  0
LINE
  5
7F
  8
INSIDE
 10
147.6765181918005
 20
618.8491162059015
 30
0.0
 11
147.6765181918005
 21
606.1491162059015
 31
0.0
  0
LINE
  5
80
  8
INSIDE
 10
147.6765181918005
 20
606.1491162059015
 30
0.0
 11
134.9765181918005
 21
606.1491162059015
 31
0.0
  0
ARC
  5
81
  8
INSIDE
 10
131.6765181918005
 20
606.1491162059015
 30
0.0
 40
3.3
 50
0.0
 51
270.0
  0
LINE
  5
82
  8
INSIDE
 10
131.6765181918005
 20
602.8491162059015
 30
0.0
 11
131.6765181918005
 21
597.1491162059015
 31
0.0
  0
LINE
  5
83
  8
INSIDE
 10
131.6765181918005
 20
597.1491162059015
 30
0.0
 11
131.6765181918005
 21
591.4491162059014
 31
0.0
  0
ARC
  5
84
  8
INSIDE
 10
131.6765181918005
 20
588.1491162059015
 30
0.0
 40
3.3
 50
90.0
 51
0.0
  0
LINE
  5
85
  8
INSIDE
 10
134.9765181918005
 20
588.1491162059015
 30
0.0
 11
147.6765181918005
 21
588.1491162059015
 31
0.0
  0
LINE
  5
86
  8
INSIDE
 10
147.6765181918005
 20
588.1491162059015
 30
0.0
 11
147.6765181918005
 21
575.4491162059014
 31
0.0
  0
CIRCLE
  5
87
  8
0
 10
156.6765181918005
 20
597.1491162059015
 30
0.0
 40
125.0
  0
LINE
  5
88
  8
0
 10
371.2513390697656
 20
342.0919173613746
 30
0.0
 11
380.2513390697656
 21
342.0919173613746
 31
0.0
  0
LINE
  5
89
  8
0
 10
380.2513390697656
 20
342.0919173613746
 30
0.0
 11
434.8194285027748
 21
439.5349342060339
 31
0.0
  0
ARC
  5
8A
  8
0
 10
439.1819585825234
 20
437.0919173613746
 30
0.0
 40
4.999999999999999
 50
90.0
 51
150.751173663453
  0
LINE
  5
8B
  8
0
 10
439.1819585825234
 20
442.0919173613746
 30
0.0
 11
495.5358198522355
 21
442.0919173613746
 31
0.0
  0
ARC
  5
8C
  8
0
 10
495.5358198522355
 20
437.0919173613746
 30
0.0
 40
5.0
 50
352.3595932389737
 51
90.0
  0
LINE
  5
8D
  8
0
 10
500.4914299645324
 20
436.427140395091
 30
0.0
 11
446.2513390697656
 21
32.09191736137461
 31
0.0
  0
LINE
  5
8E
  8
0
 10
446.2513390697656
 20
32.09191736137461
 30
0.0
 11
399.5513390697656
 21
32.09191736137461
 31
0.0
  0
ARC
  5
8F
  8
0
 10
396.2513390697656
 20
32.09191736137461
 30
0.0
 40
3.3
 50
0.0
 51
270.0
  0
LINE
  5
90
  8
0
 10
396.2513390697656
 20
28.79191736137466
 30
0.0
 11
396.2513390697656
 21
14.09191736137461
 31
0.0
  0
LINE
  5
91
  8
0
 10
396.2513390697656
 20
14.09191736137461
 30
0.0
 11
380.2513390697656
 21
14.09191736137461
 31
0.0
  0
LINE
  5
92
  8
0
 10
380.2513390697656
 20
14.09191736137461
 30
0.0
 11
380.2513390697656
 21
32.09191736137461
 31
0.0
  0
LINE
  5
93
  8
0
 10
380.2513390697656
 20
32.09191736137461
 30
0.0
 11
380.2513390697656
 21
238.7919173613747
 31
0.0
  0
ARC
  5
94
  8
0
 10
380.2513390697656
 20
242.0919173613746
 30
0.0
 40
3.3
 50
270.0
 51
180.0
  0
LINE
  5
95
  8
0
 10
376.9513390697657
 20
242.0919173613746
 30
0.0
 11
365.5513390697656
 21
242.0919173613746
 31
0.0
  0
ARC
  5
96
  8
0
 10
362.2513390697656
 20
242.0919173613746
 30
0.0
 40
3.3
 50
0.0
 51
270.0
  0
LINE
  5
97
  8
0
 10
362.2513390697656
 20
238.7919173613747
 30
0.0
 11
362.2513390697656
 21
32.09191736137461
 31
0.0
  0
LINE
  5
98
  8
0
 10
362.2513390697656
 20
32.09191736137461
 30
0.0
 11
362.2513390697656
 21
14.09191736137461
 31
0.0
  0
LINE
  5
99
  8
0
 10
362.2513390697656
 20
14.09191736137461
 30
0.0
 11
346.2513390697656
 21
14.09191736137461
 31
0.0
  0
LINE
  5
9A
  8
0
 10
346.2513390697656
 20
14.09191736137461
 30
0.0
 11
346.2513390697656
 21
28.79191736137466
 31
0.0
  0
ARC
  5
9B
  8
0
 10
346.2513390697656
 20
32.09191736137461
 30
0.0
 40
3.3
 50
270.0
 51
180.0
  0
LINE
  5
9C
  8
0
 10
342.9513390697657
 20
32.09191736137461
 30
0.0
 11
296.2513390697656
 21
32.09191736137461
 31
0.0
  0
LINE
  5
9D
  8
0
 10
296.2513390697656
 20
32.09191736137461
 30
0.0
 11
242.0112481749988
 21
436.427140395091
 31
0.0
  0
ARC
  5
9E
  8
0
 10
246.9668582872957
 20
437.0919173613746
 30
0.0
 40
5.000000000000001
 50
90.0
 51
187.6404067610263
  0
LINE
  5
9F
  8
0
 10
246.9668582872957
 20
442.0919173613746
 30
0.0
 11
303.3207195570079
 21
442.0919173613746
 31
0.0
  0
ARC
  5
A0
  8
0
 10
303.3207195570079
 20
437.0919173613746
 30
0.0
 40
5.0
 50
29.24882633654704
 51
90.0
  0
LINE
  5
A1
  8
0
 10
307.6832496367564
 20
439.5349342060339
 30
0.0
 11
362.2513390697656
 21
342.0919173613746
 31
0.0
  0
LINE
  5
A2
  8
0
 10
362.2513390697655
 20
342.0919173613746
 30
0.0
 11
371.2513390697656
 21
342.0919173613746
 31
0.0
  0
ARC
  5
A3
  8
0
 10
79.86368244201736
 20
24.26682474286679
 30
0.0
 40
5.000000000000004
 50
270.0
 51
330.7511736634531
  0
LINE
  5
A4
  8
0
 10
79.86368244201736
 20
19.26682474286679
 30
0.0
 11
23.50982117230512
 21
19.26682474286679
 31
0.0
  0
ARC
  5
A5
  8
0
 10
23.50982117230512
 20
24.26682474286679
 30
0.0
 40
5.000000000000001
 50
172.359593238973
 51
269.9999999999998
  0
LINE
  5
A6
  8
0
 10
18.55421106000824
 20
24.93160170915041
 30
0.0
 11
72.79430195477516
 21
429.2668247428667
 31
0.0
  0
LINE
  5
A7
  8
0
 10
72.79430195477516
 20
429.2668247428667
 30
0.0
 11
119.4943019547752
 21
429.2668247428667
 31
0.0
  0
ARC
  5
A8
  8
0
 10
122.7943019547751
 20
429.2668247428667
 30
0.0
 40
3.3
 50
180.0
 51
90.0
  0
LINE
  5
A9
  8
0
 10
122.7943019547751
 20
432.5668247428667
 30
0.0
 11
122.7943019547751
 21
447.2668247428667
 31
0.0
  0
LINE
  5
AA
  8
0
 10
122.7943019547751
 20
447.2668247428667
 30
0.0
 11
172.7943019547751
 21
447.2668247428667
 31
0.0
  0
LINE
  5
AB
  8
0
 10
172.7943019547751
 20
447.2668247428667
 30
0.0
 11
172.7943019547751
 21
432.5668247428667
 31
0.0
  0
ARC
  5
AC
  8
0
 10
172.7943019547751
 20
429.2668247428667
 30
0.0
 40
3.3
 50
90.0
 51
0.0
  0
LINE
  5
AD
  8
0
 10
176.0943019547751
 20
429.2668247428667
 30
0.0
 11
222.7943019547751
 21
429.2668247428667
 31
0.0
  0
LINE
  5
AE
  8
0
 10
222.7943019547751
 20
429.2668247428667
 30
0.0
 11
277.0343928495419
 21
24.93160170915041
 31
0.0
  0
ARC
  5
AF
  8
0
 10
272.078782737245
 20
24.26682474286679
 30
0.0
 40
5.000000000000001
 50
270.0
 51
7.640406761026765
  0
LINE
  5
B0
  8
0
 10
272.078782737245
 20
19.26682474286679
 30
0.0
 11
215.7249214675329
 21
19.26682474286679
 31
0.0
  0
ARC
  5
B1
  8
0
 10
215.7249214675329
 20
24.26682474286679
 30
0.0
 40
5.000000000000005
 50
209.2488263365474
 51
270.0000000000003
  0
LINE
  5
B2
  8
0
 10
211.3623913877843
 20
21.82380789820752
 30
0.0
 11
156.7943019547751
 21
119.2668247428667
 31
0.0
  0
LINE
  5
B3
  8
0
 10
156.7943019547751
 20
119.2668247428667
 30
0.0
 11
156.7943019547751
 21
215.9668247428667
 31
0.0
  0
ARC
  5
B4
  8
0
 10
156.7943019547751
 20
219.2668247428667
 30
0.0
 40
3.3
 50
270.0
 51
180.0
  0
LINE
  5
B5
  8
0
 10
153.4943019547752
 20
219.2668247428667
 30
0.0
 11
147.7943019547751
 21
219.2668247428667
 31
0.0
  0
LINE
  5
B6
  8
0
 10
147.7943019547751
 20
219.2668247428667
 30
0.0
 11
142.0943019547751
 21
219.2668247428667
 31
0.0
  0
ARC
  5
B7
  8
0
 10
138.7943019547751
 20
219.2668247428667
 30
0.0
 40
3.3
 50
0.0
 51
270.0
  0
LINE
  5
B8
  8
0
 10
138.7943019547751
 20
215.9668247428667
 30
0.0
 11
138.7943019547751
 21
119.2668247428667
 31
0.0
  0
LINE
  5
B9
  8
0
 10
138.7943019547751
 20
119.2668247428667
 30
0.0
 11
84.22621252176594
 21
21.82380789820752
 31
0.0
  0
ENDSEC
  0
EOF
