  0
SECTION
  2
HEADER
  9
$ACADVER
  1
AC1009
  9
$DWGCODEPAGE
  3
ansi_1252
  9
$INSBASE
 10
0.0
 20
0.0
 30
0.0
  9
$EXTMIN
 10
-204.324903474038
 20
-147.8687397262258
 30
0.0
  9
$EXTMAX
 10
46.78859922733093
 20
-22.77873972622582
 30
0.0
  9
$LIMMIN
 10
0.0
 20
0.0
  9
$LIMMAX
 10
12.0
 20
9.0
  9
$ORTHOMODE
 70
     0
  9
$REGENMODE
 70
     1
  9
$FILLMODE
 70
     1
  9
$QTEXTMODE
 70
     0
  9
$MIRRTEXT
 70
     1
  9
$DRAGMODE
 70
     2
  9
$LTSCALE
 40
1.0
  9
$OSMODE
 70
   511
  9
$ATTMODE
 70
     1
  9
$TEXTSIZE
 40
0.2
  9
$TRACEWID
 40
0.05
  9
$TEXTSTYLE
  7
STANDARD
  9
$CLAYER
  8
0
  9
$CELTYPE
  6
BYBLOCK
  9
$CECOLOR
 62
   256
  9
$DIMSCALE
 40
1.0
  9
$DIMASZ
 40
0.18
  9
$DIMEXO
 40
0.0625
  9
$DIMDLI
 40
0.38
  9
$DIMRND
 40
0.0
  9
$DIMDLE
 40
0.0
  9
$DIMEXE
 40
0.18
  9
$DIMTP
 40
0.0
  9
$DIMTM
 40
0.0
  9
$DIMTXT
 40
0.18
  9
$DIMCEN
 40
0.09
  9
$DIMTSZ
 40
0.0
  9
$DIMTOL
 70
     0
  9
$DIMLIM
 70
     0
  9
$DIMTIH
 70
     1
  9
$DIMTOH
 70
     1
  9
$DIMSE1
 70
     0
  9
$DIMSE2
 70
     0
  9
$DIMTAD
 70
     0
  9
$DIMZIN
 70
     0
  9
$DIMBLK
  1

  9
$DIMASO
 70
     1
  9
$DIMSHO
 70
     1
  9
$DIMPOST
  1

  9
$DIMAPOST
  1

  9
$DIMALT
 70
     0
  9
$DIMALTD
 70
     2
  9
$DIMALTF
 40
25.4
  9
$DIMLFAC
 40
1.0
  9
$DIMTOFL
 70
     0
  9
$DIMTVP
 40
0.0
  9
$DIMTIX
 70
     0
  9
$DIMSOXD
 70
     0
  9
$DIMSAH
 70
     0
  9
$DIMBLK1
  1

  9
$DIMBLK2
  1

  9
$DIMSTYLE
  2
STANDARD
  9
$DIMCLRD
 70
     0
  9
$DIMCLRE
 70
     0
  9
$DIMCLRT
 70
     0
  9
$DIMTFAC
 40
1.0
  9
$DIMGAP
 40
0.09
  9
$LUNITS
 70
     2
  9
$LUPREC
 70
     4
  9
$SKETCHINC
 40
0.1
  9
$FILLETRAD
 40
0.5
  9
$AUNITS
 70
     0
  9
$AUPREC
 70
     0
  9
$MENU
  1
.
  9
$ELEVATION
 40
0.0
  9
$PELEVATION
 40
0.0
  9
$THICKNESS
 40
0.0
  9
$LIMCHECK
 70
     0
  9
$CHAMFERA
 40
0.0
  9
$CHAMFERB
 40
0.0
  9
$SKPOLY
 70
     0
  9
$TDCREATE
 40
2447893.083333333
  9
$TDUPDATE
 40
2457914.638460799
  9
$TDINDWG
 40
0.0003522917
  9
$TDUSRTIMER
 40
2457914.554775509
  9
$USRTIMER
 70
     1
  9
$ANGBASE
 50
0.0
  9
$ANGDIR
 70
     0
  9
$PDMODE
 70
     0
  9
$PDSIZE
 40
0.0
  9
$PLINEWID
 40
0.0
  9
$COORDS
 70
     1
  9
$SPLFRAME
 70
     0
  9
$SPLINETYPE
 70
     6
  9
$SPLINESEGS
 70
     8
  9
$ATTDIA
 70
     0
  9
$ATTREQ
 70
     1
  9
$HANDLING
 70
     1
  9
$HANDSEED
  5
10129
  9
$SURFTAB1
 70
     6
  9
$SURFTAB2
 70
     6
  9
$SURFTYPE
 70
     6
  9
$SURFU
 70
     6
  9
$SURFV
 70
     6
  9
$UCSNAME
  2

  9
$UCSORG
 10
0.0
 20
0.0
 30
0.0
  9
$UCSXDIR
 10
1.0
 20
0.0
 30
0.0
  9
$UCSYDIR
 10
0.0
 20
1.0
 30
0.0
  9
$PUCSNAME
  2

  9
$PUCSORG
 10
0.0
 20
0.0
 30
0.0
  9
$PUCSXDIR
 10
1.0
 20
0.0
 30
0.0
  9
$PUCSYDIR
 10
0.0
 20
1.0
 30
0.0
  9
$USERI1
 70
     0
  9
$USERI2
 70
     0
  9
$USERI3
 70
     0
  9
$USERI4
 70
     0
  9
$USERI5
 70
     0
  9
$USERR1
 40
0.0
  9
$USERR2
 40
0.0
  9
$USERR3
 40
0.0
  9
$USERR4
 40
0.0
  9
$USERR5
 40
0.0
  9
$WORLDVIEW
 70
     1
  9
$SHADEDGE
 70
     3
  9
$SHADEDIF
 70
    70
  9
$TILEMODE
 70
     1
  9
$MAXACTVP
 70
    64
  9
$PLIMCHECK
 70
     0
  9
$PEXTMIN
 10
1.000000000000000E+20
 20
1.000000000000000E+20
 30
1.000000000000000E+20
  9
$PEXTMAX
 10
-1.000000000000000E+20
 20
-1.000000000000000E+20
 30
-1.000000000000000E+20
  9
$PLIMMIN
 10
0.0
 20
0.0
  9
$PLIMMAX
 10
0.0
 20
0.0
  9
$UNITMODE
 70
     0
  9
$VISRETAIN
 70
     1
  9
$PLINEGEN
 70
     0
  9
$PSLTSCALE
 70
     1
  0
ENDSEC
  0
SECTION
  2
TABLES
  0
TABLE
  2
VPORT
 70
     1
  0
VPORT
  2
*ACTIVE
 70
     0
 10
0.0
 20
0.0
 11
1.0
 21
1.0
 12
-114.4983996162376
 22
-97.5069845178925
 13
0.0
 23
0.0
 14
0.5
 24
0.5
 15
0.5
 25
0.5
 16
0.0
 26
0.0
 36
1.0
 17
0.0
 27
0.0
 37
0.0
 40
199.3621875
 41
3.529715762273902
 42
50.0
 43
0.0
 44
0.0
 50
0.0
 51
0.0
 71
    16
 72
   100
 73
     1
 74
     3
 75
     0
 76
     0
 77
     0
 78
     0
  0
ENDTAB
  0
TABLE
  2
LTYPE
 70
     1
  0
LTYPE
  2
CONTINUOUS
 70
     0
  3
Solid line
 72
    65
 73
     0
 40
0.0
  0
ENDTAB
  0
TABLE
  2
LAYER
 70
     1
  0
LAYER
  2
0
 70
     0
 62
     7
  6
CONTINUOUS
  0
ENDTAB
  0
TABLE
  2
STYLE
 70
     1
  0
STYLE
  2
STANDARD
 70
     0
 40
0.2
 41
1.0
 50
0.0
 71
     0
 42
0.2
  3

  4

  0
ENDTAB
  0
TABLE
  2
VIEW
 70
     0
  0
ENDTAB
  0
TABLE
  2
UCS
 70
     0
  0
ENDTAB
  0
TABLE
  2
APPID
 70
     1
  0
APPID
  2
ACAD
 70
     0
  0
ENDTAB
  0
TABLE
  2
DIMSTYLE
 70
     1
  0
DIMSTYLE
  2
STANDARD
 70
     0
  3

  4

  5

  6

  7

 40
1.0
 41
0.18
 42
0.0625
 43
0.38
 44
0.18
 45
0.0
 46
0.0
 47
0.0
 48
0.0
140
0.18
141
0.09
142
0.0
143
25.4
144
1.0
145
0.0
146
1.0
147
0.09
 71
     0
 72
     0
 73
     1
 74
     1
 75
     0
 76
     0
 77
     0
 78
     0
170
     0
171
     2
172
     0
173
     0
174
     0
175
     0
176
     0
177
     0
178
     0
  0
ENDTAB
  0
ENDSEC
  0
SECTION
  2
BLOCKS
  0
BLOCK
  8
0
  2
$MODEL_SPACE
 70
     0
 10
0.0
 20
0.0
 30
0.0
  3
$MODEL_SPACE
  1

  0
ENDBLK
  5
21
  8
0
  0
BLOCK
 67
     1
  8
0
  2
$PAPER_SPACE
 70
     0
 10
0.0
 20
0.0
 30
0.0
  3
$PAPER_SPACE
  1

  0
ENDBLK
  5
1D
 67
     1
  8
0
  0
ENDSEC
  0
SECTION
  2
ENTITIES
  0
POLYLINE
  5
100
  8
0
 66
     1
 10
0.0
 20
0.0
 30
0.0
 70
     1
  0
VERTEX
  5
100A9
  8
0
 10
-96.324903474038
 20
-121.1882952817814
 30
0.0
  0
VERTEX
  5
100AA
  8
0
 10
-92.32490347403798
 20
-121.1882952817814
 30
0.0
  0
VERTEX
  5
100AB
  8
0
 10
-92.32490347403798
 20
-106.8440730595592
 30
0.0
  0
VERTEX
  5
100AC
  8
0
 10
-96.324903474038
 20
-106.8440730595592
 30
0.0
  0
SEQEND
  5
1011F
  8
0
  0
POLYLINE
  5
101
  8
0
 66
     1
 10
0.0
 20
0.0
 30
0.0
 70
     1
  0
VERTEX
  5
100AD
  8
0
 10
-96.324903474038
 20
-92.49985083733694
 30
0.0
  0
VERTEX
  5
100AE
  8
0
 10
-92.32490347403798
 20
-92.49985083733694
 30
0.0
  0
VERTEX
  5
100AF
  8
0
 10
-92.32490347403798
 20
-78.15562861511472
 30
0.0
  0
VERTEX
  5
100B0
  8
0
 10
-96.324903474038
 20
-78.15562861511472
 30
0.0
  0
SEQEND
  5
10120
  8
0
  0
POLYLINE
  5
102
  8
0
 66
     1
 10
0.0
 20
0.0
 30
0.0
 70
     1
  0
VERTEX
  5
100B1
  8
0
 10
-96.324903474038
 20
-63.81140639289249
 30
0.0
  0
VERTEX
  5
100B2
  8
0
 10
-92.32490347403798
 20
-63.81140639289249
 30
0.0
  0
VERTEX
  5
100B3
  8
0
 10
-92.32490347403798
 20
-49.46718417067027
 30
0.0
  0
VERTEX
  5
100B4
  8
0
 10
-96.324903474038
 20
-49.46718417067027
 30
0.0
  0
SEQEND
  5
10121
  8
0
  0
CIRCLE
  5
103
  8
0
 10
-126.5319603472858
 20
-33.15382427181851
 30
0.0
 40
1.490000000000009
  0
CIRCLE
  5
104
  8
0
 10
-163.5319603472857
 20
-33.15382427181851
 30
0.0
 40
1.490000000000009
  0
CIRCLE
  5
105
  8
0
 10
-126.5319603472858
 20
-71.15382427181851
 30
0.0
 40
1.490000000000009
  0
CIRCLE
  5
106
  8
0
 10
-163.5319603472857
 20
-71.15382427181851
 30
0.0
 40
1.490000000000009
  0
POLYLINE
  5
107
  8
0
 66
     1
 10
0.0
 20
0.0
 30
0.0
 70
     1
  0
VERTEX
  5
100B5
  8
0
 10
-164.7776664015703
 20
-91.02735079496242
 30
0.0
  0
VERTEX
  5
100B6
  8
0
 10
-125.8000502148869
 20
-91.02735079496242
 30
0.0
  0
VERTEX
  5
100B7
  8
0
 10
-125.8000502148869
 20
-76.02735079496243
 30
0.0
  0
VERTEX
  5
100B8
  8
0
 10
-164.7776664015703
 20
-76.02735079496243
 30
0.0
  0
SEQEND
  5
10122
  8
0
  0
POLYLINE
  5
108
  8
0
 66
     1
 10
0.0
 20
0.0
 30
0.0
 70
     1
  0
VERTEX
  5
100B9
  8
0
 10
-202.324903474038
 20
-35.12296194844804
 30
0.0
  0
VERTEX
  5
100BA
  8
0
 10
-198.3249034740379
 20
-35.12296194844804
 30
0.0
  0
VERTEX
  5
100BB
  8
0
 10
-198.3249034740379
 20
-22.77873972622582
 30
0.0
  0
VERTEX
  5
100BC
  8
0
 10
-96.324903474038
 20
-22.77873972622583
 30
0.0
  0
VERTEX
  5
100BD
  8
0
 10
-96.324903474038
 20
-35.12296194844804
 30
0.0
  0
VERTEX
  5
100BE
  8
0
 10
-92.32490347403798
 20
-35.12296194844804
 30
0.0
  0
VERTEX
  5
100BF
  8
0
 10
-92.32490347403798
 20
-22.95031260147966
 30
0.0
 42
-0.3178372451957765
  0
VERTEX
  5
100C0
  8
0
 10
-90.32490347403805
 20
-25.77873972622584
 30
0.0
  0
VERTEX
  5
100C1
  8
0
 10
-90.32490347403805
 20
-144.8687397262258
 30
0.0
 42
-0.3178372451957757
  0
VERTEX
  5
100C2
  8
0
 10
-92.32490347403798
 20
-147.697166850972
 30
0.0
  0
VERTEX
  5
100C3
  8
0
 10
-92.32490347403798
 20
-135.5325175040036
 30
0.0
  0
VERTEX
  5
100C4
  8
0
 10
-96.324903474038
 20
-135.5325175040036
 30
0.0
  0
VERTEX
  5
100C5
  8
0
 10
-96.324903474038
 20
-147.8687397262258
 30
0.0
  0
VERTEX
  5
100C6
  8
0
 10
-102.0661110834419
 20
-147.8687397262258
 30
0.0
 42
-0.2217865408056698
  0
VERTEX
  5
100C7
  8
0
 10
-107.4299979876669
 20
-145.3663743577499
 30
0.0
  0
VERTEX
  5
100C8
  8
0
 10
-141.961016569813
 20
-104.18462138384
 30
0.0
 42
0.4665209041795753
  0
VERTEX
  5
100C9
  8
0
 10
-152.688790378263
 20
-104.18462138384
 30
0.0
  0
VERTEX
  5
100CA
  8
0
 10
-187.2198089604091
 20
-145.3663743577498
 30
0.0
 42
-0.2217865408056714
  0
VERTEX
  5
100CB
  8
0
 10
-192.5836958646341
 20
-147.8687397262258
 30
0.0
  0
VERTEX
  5
100CC
  8
0
 10
-198.3249034740379
 20
-147.8687397262258
 30
0.0
  0
VERTEX
  5
100CD
  8
0
 10
-198.3249034740379
 20
-135.5325175040036
 30
0.0
  0
VERTEX
  5
100CE
  8
0
 10
-202.324903474038
 20
-135.5325175040036
 30
0.0
  0
VERTEX
  5
100CF
  8
0
 10
-202.324903474038
 20
-147.6971668509721
 30
0.0
 42
-0.3178372451957875
  0
VERTEX
  5
100D0
  8
0
 10
-204.324903474038
 20
-144.8687397262258
 30
0.0
  0
VERTEX
  5
100D1
  8
0
 10
-204.324903474038
 20
-25.77873972622582
 30
0.0
 42
-0.3178372451957878
  0
VERTEX
  5
100D2
  8
0
 10
-202.324903474038
 20
-22.95031260147961
 30
0.0
  0
SEQEND
  5
10123
  8
0
  0
POLYLINE
  5
109
  8
0
 66
     1
 10
0.0
 20
0.0
 30
0.0
 70
     1
  0
VERTEX
  5
100D3
  8
0
 10
-198.3249034740379
 20
-106.8440730595592
 30
0.0
  0
VERTEX
  5
100D4
  8
0
 10
-202.324903474038
 20
-106.8440730595592
 30
0.0
  0
VERTEX
  5
100D5
  8
0
 10
-202.324903474038
 20
-121.1882952817814
 30
0.0
  0
VERTEX
  5
100D6
  8
0
 10
-198.3249034740379
 20
-121.1882952817814
 30
0.0
  0
SEQEND
  5
10124
  8
0
  0
POLYLINE
  5
110
  8
0
 66
     1
 10
0.0
 20
0.0
 30
0.0
 70
     1
  0
VERTEX
  5
100D7
  8
0
 10
-198.3249034740379
 20
-78.15562861511472
 30
0.0
  0
VERTEX
  5
100D8
  8
0
 10
-202.324903474038
 20
-78.15562861511472
 30
0.0
  0
VERTEX
  5
100D9
  8
0
 10
-202.324903474038
 20
-92.49985083733694
 30
0.0
  0
VERTEX
  5
100DA
  8
0
 10
-198.3249034740379
 20
-92.49985083733694
 30
0.0
  0
SEQEND
  5
10125
  8
0
  0
POLYLINE
  5
111
  8
0
 66
     1
 10
0.0
 20
0.0
 30
0.0
 70
     1
  0
VERTEX
  5
100DB
  8
0
 10
-198.3249034740379
 20
-49.46718417067027
 30
0.0
  0
VERTEX
  5
100DC
  8
0
 10
-202.324903474038
 20
-49.46718417067027
 30
0.0
  0
VERTEX
  5
100DD
  8
0
 10
-202.324903474038
 20
-63.81140639289249
 30
0.0
  0
VERTEX
  5
100DE
  8
0
 10
-198.3249034740379
 20
-63.81140639289249
 30
0.0
  0
SEQEND
  5
10126
  8
0
  0
CIRCLE
  5
10078
  8
0
 10
-61.09018235591164
 20
-46.84882422234969
 30
0.0
 40
1.449999999999996
  0
CIRCLE
  5
10079
  8
0
 10
18.90981764408836
 20
-46.84882422234969
 30
0.0
 40
1.449999999999996
  0
CIRCLE
  5
1007A
  8
0
 10
-21.09018235591164
 20
-46.84882422234969
 30
0.0
 40
1.449999999999996
  0
POLYLINE
  5
1007B
  8
0
 66
     1
 10
0.0
 20
0.0
 30
0.0
 70
     1
  0
VERTEX
  5
100DF
  8
0
 10
41.45890465368754
 20
-42.84882422234968
 30
0.0
  0
VERTEX
  5
100E0
  8
0
 10
38.45890465368755
 20
-42.84882422234968
 30
0.0
  0
VERTEX
  5
100E1
  8
0
 10
38.45890465368755
 20
-52.84882422234966
 30
0.0
  0
VERTEX
  5
100E2
  8
0
 10
-80.63926936551078
 20
-52.84882422234966
 30
0.0
  0
VERTEX
  5
100E3
  8
0
 10
-80.63926936551078
 20
-42.84882422234966
 30
0.0
  0
VERTEX
  5
100E4
  8
0
 10
-83.63926936551078
 20
-42.84882422234968
 30
0.0
  0
VERTEX
  5
100E5
  8
0
 10
-83.63926936551078
 20
-52.84882422234966
 30
0.0
  0
VERTEX
  5
100E6
  8
0
 10
-85.63926936551078
 20
-52.84882422234982
 30
0.0
 42
-0.4142135623730934
  0
VERTEX
  5
100E7
  8
0
 10
-88.63926936551078
 20
-49.84882422234985
 30
0.0
  0
VERTEX
  5
100E8
  8
0
 10
-88.63926936551078
 20
-25.84882422234986
 30
0.0
 42
-0.4142135623730882
  0
VERTEX
  5
100E9
  8
0
 10
-85.63926936551078
 20
-22.84882422234985
 30
0.0
  0
VERTEX
  5
100EA
  8
0
 10
-71.29487312409023
 20
-22.84882422234985
 30
0.0
  0
VERTEX
  5
100EB
  8
0
 10
-71.29487312409023
 20
-25.84882422234986
 30
0.0
  0
VERTEX
  5
100EC
  8
0
 10
-56.95065090186802
 20
-25.84882422234986
 30
0.0
  0
VERTEX
  5
100ED
  8
0
 10
-56.95065090186802
 20
-22.84882422234985
 30
0.0
  0
VERTEX
  5
100EE
  8
0
 10
-42.60642867964579
 20
-22.84882422234985
 30
0.0
  0
VERTEX
  5
100EF
  8
0
 10
-42.60642867964579
 20
-25.84882422234986
 30
0.0
  0
VERTEX
  5
100F0
  8
0
 10
-28.26220645742356
 20
-25.84882422234986
 30
0.0
  0
VERTEX
  5
100F1
  8
0
 10
-28.26220645742356
 20
-22.84882422234985
 30
0.0
  0
VERTEX
  5
100F2
  8
0
 10
-13.91798423520135
 20
-22.84882422234985
 30
0.0
  0
VERTEX
  5
100F3
  8
0
 10
-13.91798423520135
 20
-25.84882422234986
 30
0.0
  0
VERTEX
  5
100F4
  8
0
 10
0.4262379870208832
 20
-25.84882422234986
 30
0.0
  0
VERTEX
  5
100F5
  8
0
 10
0.4262379870208832
 20
-22.84882422234985
 30
0.0
  0
VERTEX
  5
100F6
  8
0
 10
14.77046020924311
 20
-22.84882422234985
 30
0.0
  0
VERTEX
  5
100F7
  8
0
 10
14.77046020924311
 20
-25.84882422234986
 30
0.0
  0
VERTEX
  5
100F8
  8
0
 10
29.11468243146533
 20
-25.84882422234986
 30
0.0
  0
VERTEX
  5
100F9
  8
0
 10
29.11468243146533
 20
-22.84882422234985
 30
0.0
  0
VERTEX
  5
100FA
  8
0
 10
43.45890465368754
 20
-22.84882422234985
 30
0.0
 42
-0.4142135623730937
  0
VERTEX
  5
100FB
  8
0
 10
46.45890465368754
 20
-25.84882422234986
 30
0.0
  0
VERTEX
  5
100FC
  8
0
 10
46.45890465368757
 20
-49.84882422234985
 30
0.0
 42
-0.414213562373095
  0
VERTEX
  5
100FD
  8
0
 10
43.45890465368757
 20
-52.84882422234985
 30
0.0
  0
VERTEX
  5
100FE
  8
0
 10
41.45890465368754
 20
-52.84882422234966
 30
0.0
  0
SEQEND
  5
10127
  8
0
  0
CIRCLE
  5
100A5
  8
0
 10
19.23951221773177
 20
-77.84011414483032
 30
0.0
 40
1.449999999999996
  0
CIRCLE
  5
100A6
  8
0
 10
-60.76048778226824
 20
-77.84011414483032
 30
0.0
 40
1.449999999999996
  0
CIRCLE
  5
100A7
  8
0
 10
-20.76048778226823
 20
-77.84011414483032
 30
0.0
 40
1.449999999999996
  0
POLYLINE
  5
100A8
  8
0
 66
     1
 10
0.0
 20
0.0
 30
0.0
 70
     1
  0
VERTEX
  5
100FF
  8
0
 10
-83.30957479186742
 20
-83.8401141448303
 30
0.0
  0
VERTEX
  5
10100
  8
0
 10
-85.30957479186743
 20
-83.84011414483048
 30
0.0
 42
-0.4142135623730963
  0
VERTEX
  5
10101
  8
0
 10
-88.30957479186742
 20
-80.84011414483048
 30
0.0
  0
VERTEX
  5
10102
  8
0
 10
-88.30957479186742
 20
-56.84011414483049
 30
0.0
 42
-0.4142135623730929
  0
VERTEX
  5
10103
  8
0
 10
-85.30957479186743
 20
-53.84011414483048
 30
0.0
  0
VERTEX
  5
10104
  8
0
 10
-70.9653525696452
 20
-53.84011414483048
 30
0.0
  0
VERTEX
  5
10105
  8
0
 10
-70.9653525696452
 20
-56.84011414483049
 30
0.0
  0
VERTEX
  5
10106
  8
0
 10
-56.62113034742298
 20
-56.84011414483049
 30
0.0
  0
VERTEX
  5
10107
  8
0
 10
-56.62113034742298
 20
-53.84011414483048
 30
0.0
  0
VERTEX
  5
10108
  8
0
 10
-42.27690812520076
 20
-53.84011414483048
 30
0.0
  0
VERTEX
  5
10109
  8
0
 10
-42.27690812520076
 20
-56.84011414483049
 30
0.0
  0
VERTEX
  5
1010A
  8
0
 10
-27.93268590297853
 20
-56.84011414483049
 30
0.0
  0
VERTEX
  5
1010B
  8
0
 10
-27.93268590297853
 20
-53.84011414483048
 30
0.0
  0
VERTEX
  5
1010C
  8
0
 10
-13.58846368075632
 20
-53.84011414483048
 30
0.0
  0
VERTEX
  5
1010D
  8
0
 10
-13.58846368075632
 20
-56.84011414483049
 30
0.0
  0
VERTEX
  5
1010E
  8
0
 10
0.7557585414659229
 20
-56.84011414483049
 30
0.0
  0
VERTEX
  5
1010F
  8
0
 10
0.7557585414659229
 20
-53.84011414483048
 30
0.0
  0
VERTEX
  5
10110
  8
0
 10
15.09998076368814
 20
-53.84011414483048
 30
0.0
  0
VERTEX
  5
10111
  8
0
 10
15.09998076368814
 20
-56.84011414483049
 30
0.0
  0
VERTEX
  5
10112
  8
0
 10
29.44420298591035
 20
-56.84011414483049
 30
0.0
  0
VERTEX
  5
10113
  8
0
 10
29.44420298591035
 20
-53.84011414483048
 30
0.0
  0
VERTEX
  5
10114
  8
0
 10
43.78859922733091
 20
-53.84011414483049
 30
0.0
 42
-0.4142135623730882
  0
VERTEX
  5
10115
  8
0
 10
46.78859922733091
 20
-56.84011414483049
 30
0.0
  0
VERTEX
  5
10116
  8
0
 10
46.78859922733093
 20
-80.84011414483048
 30
0.0
 42
-0.4142135623730934
  0
VERTEX
  5
10117
  8
0
 10
43.78859922733091
 20
-83.84011414483048
 30
0.0
  0
VERTEX
  5
10118
  8
0
 10
41.78859922733091
 20
-83.8401141448303
 30
0.0
  0
VERTEX
  5
10119
  8
0
 10
41.78859922733091
 20
-73.8401141448301
 30
0.0
  0
VERTEX
  5
1011A
  8
0
 10
38.78859922733091
 20
-73.84011414483007
 30
0.0
  0
VERTEX
  5
1011B
  8
0
 10
38.78859922733093
 20
-83.8401141448303
 30
0.0
  0
VERTEX
  5
1011C
  8
0
 10
-80.30957479186743
 20
-83.8401141448303
 30
0.0
  0
VERTEX
  5
1011D
  8
0
 10
-80.30957479186743
 20
-73.84011414483008
 30
0.0
  0
VERTEX
  5
1011E
  8
0
 10
-83.30957479186742
 20
-73.8401141448301
 30
0.0
  0
SEQEND
  5
10128
  8
0
  0
ENDSEC
  0
EOF
