  0
SECTION
  2
HEADER
  9
$ACADVER
  1
AC1009
  0
ENDSEC
  0
SECTION
  2
BLOCKS
  0
ENDSEC
  0
SECTION
  2
ENTITIES
  0
LINE
  8
CutLine
  6
CONTINUOUS
 62
8
 10
119.210598
 20
29.927805
 11
119.160600
 21
25.749054
  0
LINE
  8
CutLine
  6
CONTINUOUS
 62
8
 10
119.160600
 20
25.749054
 11
135.675613
 21
8.834057
  0
LINE
  8
CutLine
  6
CONTINUOUS
 62
8
 10
135.675613
 20
8.834057
 11
139.854364
 21
8.784059
  0
LINE
  8
CutLine
  6
CONTINUOUS
 62
8
 10
168.487268
 20
16.090211
 11
172.131172
 21
18.136287
  0
LINE
  8
CutLine
  6
CONTINUOUS
 62
8
 10
172.131172
 20
18.136287
 11
178.522483
 21
40.896205
  0
LINE
  8
CutLine
  6
CONTINUOUS
 62
8
 10
178.522483
 20
40.896205
 11
176.476407
 21
44.540109
  0
LINE
  8
CutLine
  6
CONTINUOUS
 62
8
 10
155.832641
 20
65.683856
 11
152.238735
 21
67.816531
  0
LINE
  8
CutLine
  6
CONTINUOUS
 62
8
 10
152.238735
 20
67.816531
 11
129.332412
 21
61.971609
  0
LINE
  8
CutLine
  6
CONTINUOUS
 62
8
 10
129.332412
 20
61.971609
 11
127.199737
 21
58.377704
  0
LINE
  8
CutLine
  6
CONTINUOUS
 62
8
 10
84.563131
 20
68.447721
 11
76.363373
 21
76.846073
  0
LINE
  8
CutLine
  6
CONTINUOUS
 62
8
 10
76.363373
 20
76.846073
 11
72.184622
 21
76.896071
  0
LINE
  8
CutLine
  6
CONTINUOUS
 62
8
 10
55.004879
 20
72.512380
 11
51.360976
 21
70.466304
  0
LINE
  8
CutLine
  6
CONTINUOUS
 62
8
 10
51.360976
 20
70.466304
 11
48.187669
 21
59.165929
  0
LINE
  8
CutLine
  6
CONTINUOUS
 62
8
 10
96.041062
 20
7.306152
 11
97.659861
 21
11.158937
  0
LINE
  8
CutLine
  6
CONTINUOUS
 62
8
 10
97.659861
 20
11.158937
 11
84.000221
 21
44.614770
  0
LINE
  8
CutLine
  6
CONTINUOUS
 62
8
 10
84.000221
 20
44.614770
 11
79.777398
 21
47.139884
  0
LINE
  8
CutLine
  6
CONTINUOUS
 62
8
 10
67.374120
 20
119.652263
 11
63.780214
 21
121.784939
  0
LINE
  8
CutLine
  6
CONTINUOUS
 62
8
 10
63.780214
 20
121.784939
 11
42.969965
 21
116.474864
  0
LINE
  8
CutLine
  6
CONTINUOUS
 62
8
 10
42.969965
 20
116.474864
 11
38.741216
 21
112.346111
  0
LINE
  8
CutLine
  6
CONTINUOUS
 62
8
 10
62.597656
 20
42.756192
 11
60.100986
 21
38.516491
  0
LINE
  8
CutLine
  6
CONTINUOUS
 62
8
 10
60.100986
 20
38.516491
 11
64.141264
 21
2.606121
  0
LINE
  8
CutLine
  6
CONTINUOUS
 62
8
 10
64.141264
 20
2.606121
 11
67.408158
 21
-0.000000
  0
LINE
  8
CutLine
  6
CONTINUOUS
 62
8
 10
127.145695
 20
87.928002
 11
119.159474
 21
89.789698
  0
LINE
  8
CutLine
  6
CONTINUOUS
 62
8
 10
119.159474
 20
89.789698
 11
87.053476
 21
85.277537
  0
LINE
  8
CutLine
  6
CONTINUOUS
 62
8
 10
87.053476
 20
85.277537
 11
84.538457
 21
81.940003
  0
LINE
  8
CutLine
  6
CONTINUOUS
 62
8
 10
15.588698
 20
29.898327
 11
17.049929
 21
24.171747
  0
LINE
  8
CutLine
  6
CONTINUOUS
 62
8
 10
17.049929
 20
24.171747
 11
32.053713
 21
8.804579
  0
LINE
  8
CutLine
  6
CONTINUOUS
 62
8
 10
32.053713
 20
8.804579
 11
36.232464
 21
8.754581
  0
LINE
  8
CutLine
  6
CONTINUOUS
 62
8
 10
41.744688
 20
71.020475
 11
37.021843
 21
72.400029
  0
LINE
  8
CutLine
  6
CONTINUOUS
 62
8
 10
37.021843
 20
72.400029
 11
3.201970
 21
59.668386
  0
LINE
  8
CutLine
  6
CONTINUOUS
 62
8
 10
3.201970
 20
59.668386
 11
1.477517
 21
55.861718
  0
LINE
  8
ValleyLine
  6
CONTINUOUS
 62
1
 10
119.210598
 20
29.927805
 11
139.854364
 21
8.784059
  0
LINE
  8
CutLine
  6
CONTINUOUS
 62
8
 10
139.854364
 20
8.784059
 11
168.487268
 21
16.090211
  0
LINE
  8
ValleyLine
  6
CONTINUOUS
 62
1
 10
127.199737
 20
58.377704
 11
119.210598
 21
29.927805
  0
LINE
  8
ValleyLine
  6
CONTINUOUS
 62
1
 10
168.487268
 20
16.090211
 11
176.476407
 21
44.540109
  0
LINE
  8
ValleyLine
  6
CONTINUOUS
 62
1
 10
155.832641
 20
65.683856
 11
127.199737
 21
58.377704
  0
LINE
  8
CutLine
  6
CONTINUOUS
 62
8
 10
176.476407
 20
44.540109
 11
155.832641
 21
65.683856
  0
LINE
  8
ValleyLine
  6
CONTINUOUS
 62
1
 10
84.570882
 20
64.209823
 11
72.184622
 21
76.896071
  0
LINE
  8
ValleyLine
  6
CONTINUOUS
 62
1
 10
55.004879
 20
72.512380
 11
50.211396
 21
55.442440
  0
LINE
  8
ValleyLine
  6
CONTINUOUS
 62
1
 10
72.184622
 20
76.896071
 11
55.004879
 21
72.512380
  0
LINE
  8
ValleyLine
  6
CONTINUOUS
 62
1
 10
50.211396
 20
55.442440
 11
62.597656
 21
42.756192
  0
LINE
  8
ValleyLine
  6
CONTINUOUS
 62
1
 10
62.597656
 20
42.756192
 11
79.777398
 21
47.139884
  0
LINE
  8
ValleyLine
  6
CONTINUOUS
 62
1
 10
79.777398
 20
47.139884
 11
84.570882
 21
64.209823
  0
LINE
  8
ValleyLine
  6
CONTINUOUS
 62
1
 10
96.041062
 20
7.306152
 11
79.777398
 21
47.139884
  0
LINE
  8
CutLine
  6
CONTINUOUS
 62
8
 10
72.184622
 20
76.896071
 11
67.374120
 21
119.652263
  0
LINE
  8
ValleyLine
  6
CONTINUOUS
 62
1
 10
67.374120
 20
119.652263
 11
38.741216
 21
112.346111
  0
LINE
  8
CutLine
  6
CONTINUOUS
 62
8
 10
38.741216
 20
112.346111
 11
55.004879
 21
72.512380
  0
LINE
  8
ValleyLine
  6
CONTINUOUS
 62
1
 10
62.597656
 20
42.756192
 11
67.408158
 21
0.000000
  0
LINE
  8
CutLine
  6
CONTINUOUS
 62
8
 10
67.408158
 20
0.000000
 11
96.041062
 21
7.306152
  0
LINE
  8
ValleyLine
  6
CONTINUOUS
 62
1
 10
84.570882
 20
64.209823
 11
127.199737
 21
58.377704
  0
LINE
  8
CutLine
  6
CONTINUOUS
 62
8
 10
84.538457
 20
81.940003
 11
84.570882
 21
64.209823
  0
LINE
  8
CutLine
  6
CONTINUOUS
 62
8
 10
127.199737
 20
58.377704
 11
127.145695
 21
87.928002
  0
LINE
  8
ValleyLine
  6
CONTINUOUS
 62
1
 10
127.145695
 20
87.928002
 11
84.538457
 21
81.940003
  0
LINE
  8
CutLine
  6
CONTINUOUS
 62
8
 10
79.777398
 20
47.139884
 11
119.210598
 21
29.927805
  0
LINE
  8
ValleyLine
  6
CONTINUOUS
 62
1
 10
15.588698
 20
29.898327
 11
36.232464
 21
8.754581
  0
LINE
  8
CutLine
  6
CONTINUOUS
 62
8
 10
36.232464
 20
8.754581
 11
62.597656
 21
42.756192
  0
LINE
  8
ValleyLine
  6
CONTINUOUS
 62
1
 10
50.211396
 20
55.442440
 11
15.588698
 21
29.898327
  0
LINE
  8
CutLine
  6
CONTINUOUS
 62
8
 10
50.211396
 20
55.442440
 11
41.744688
 21
71.020475
  0
LINE
  8
ValleyLine
  6
CONTINUOUS
 62
1
 10
41.744688
 20
71.020475
 11
1.477517
 21
55.861718
  0
LINE
  8
CutLine
  6
CONTINUOUS
 62
8
 10
1.477517
 20
55.861718
 11
15.588698
 21
29.898327
  0
ENDSEC
  0
EOF
