0
SECTION
2
HEADER
9
$INSUNITS
70
4
9
$ACADVER
1
AC1014
9
$HANDSEED
5
FFFF
0
ENDSEC
0
SECTION
2
TABLES
0
TABLE
2
VPORT
5
8
100
AcDbSymbolTable
0
ENDTAB
0
TABLE
2
LTYPE
5
5
100
AcDbSymbolTable
0
LTYPE
5
14
100
AcDbSymbolTableRecord
100
AcDbLinetypeTableRecord
2
BYBLOCK
70
0
0
LTYPE
5
15
100
AcDbSymbolTableRecord
100
AcDbLinetypeTableRecord
2
BYLAYER
70
0
0
ENDTAB
0
TABLE
2
LAYER
5
2
100
AcDbSymbolTable
70
2
0
LAYER
5
50
100
AcDbSymbolTableRecord
100
AcDbLayerTableRecord
2
0
70
0
6
CONTINUOUS
0
ENDTAB
0
TABLE
2
STYLE
5
3
100
AcDbSymbolTable
70
1
0
STYLE
5
11
100
AcDbSymbolTableRecord
100
AcDbTextStyleTableRecord
2
STANDARD
70
0
0
ENDTAB
0
TABLE
2
VIEW
5
6
100
AcDbSymbolTable
70
0
0
ENDTAB
0
TABLE
2
UCS
5
7
100
AcDbSymbolTable
70
0
0
ENDTAB
0
TABLE
2
APPID
5
9
100
AcDbSymbolTable
70
2
0
APPID
5
12
100
AcDbSymbolTableRecord
100
AcDbRegAppTableRecord
2
ACAD
70
0
0
ENDTAB
0
TABLE
2
DIMSTYLE
5
A
100
AcDbSymbolTable
70
1
0
ENDTAB
0
TABLE
2
BLOCK_RECORD
5
1
100
AcDbSymbolTable
70
1
0
BLOCK_RECORD
5
1F
100
AcDbSymbolTableRecord
100
AcDbBlockTableRecord
2
*MODEL_SPACE
0
BLOCK_RECORD
5
1B
100
AcDbSymbolTableRecord
100
AcDbBlockTableRecord
2
*PAPER_SPACE
0
ENDTAB
0
ENDSEC
0
SECTION
2
BLOCKS
0
BLOCK
5
20
100
AcDbEntity
100
AcDbBlockBegin
2
*MODEL_SPACE
0
ENDBLK
5
21
100
AcDbEntity
100
AcDbBlockEnd
0
BLOCK
5
1C
100
AcDbEntity
100
AcDbBlockBegin
2
*PAPER_SPACE
0
ENDBLK
5
1D
100
AcDbEntity
100
AcDbBlockEnd
0
ENDSEC
0
SECTION
2
ENTITIES
0
LWPOLYLINE
5
100
100
AcDbEntity
8
0
100
AcDbPolyline
90
4
70
1
43
0.0
10
55
20
1.3977021398522871
10
4.9999999999999991
20
1.3977021398522871
10
5
20
4.1977021398522876
10
55
20
4.1977021398522876
0
LWPOLYLINE
5
101
100
AcDbEntity
8
0
100
AcDbPolyline
90
4
70
1
43
0.0
10
5
20
17.097702139852288
10
55
20
17.097702139852288
10
55
20
14.197702139852289
10
5
20
14.197702139852289
0
LWPOLYLINE
5
102
100
AcDbEntity
8
0
100
AcDbPolyline
90
4
70
1
43
0.0
10
55
20
30.097702139852281
10
55
20
27.097702139852284
10
5
20
27.097702139852284
10
5
20
30.097702139852281
0
LWPOLYLINE
5
103
100
AcDbEntity
8
0
100
AcDbPolyline
90
4
70
1
43
0.0
10
55
20
43.197702139852282
10
55
20
40.097702139852281
10
5.0000000000000009
20
40.097702139852281
10
5
20
43.197702139852282
0
LWPOLYLINE
5
104
100
AcDbEntity
8
0
100
AcDbPolyline
90
4
70
1
43
0.0
10
5
20
56.397702139852285
10
55
20
56.397702139852285
10
55
20
53.197702139852282
10
5
20
53.197702139852282
0
LINE
5
105
100
AcDbEntity
8
0
100
AcDbLine
10
4.9999999999999991
20
1.3977021398522871
30
0
11
-0.14977466743577442
21
1.3977021398522882
31
0
0
LINE
5
106
100
AcDbEntity
8
0
100
AcDbLine
10
5
20
14.197702139852289
30
0
11
0.11342424010157871
21
14.197702139852289
31
0
0
LINE
5
107
100
AcDbEntity
8
0
100
AcDbLine
10
5
20
27.097702139852284
30
0
11
0.24569405062312299
21
27.097702139852288
31
0
0
LINE
5
108
100
AcDbEntity
8
0
100
AcDbLine
10
5.0000000000000009
20
40.097702139852281
30
0
11
0
21
40.097702139852281
31
0
0
LINE
5
109
100
AcDbEntity
8
0
100
AcDbLine
10
5
20
53.197702139852282
30
0
11
0
21
53.197702139852282
31
0
0
LWPOLYLINE
5
110
100
AcDbEntity
8
0
100
AcDbPolyline
90
4
70
1
43
0.0
10
-45
20
-8.6022978601477185
10
55
20
-8.6022978601477185
10
55
20
66.397702139852285
10
-45
20
66.397702139852285
0
LWPOLYLINE
5
111
100
AcDbEntity
8
0
100
AcDbPolyline
90
4
70
1
43
0.0
10
0.11342424010157837
20
14.197702139852289
10
-17.47934919739842
20
14.197702139852289
10
-17.47934919739842
20
19.197702139852289
10
0.11342424010157871
20
19.197702139852289
0
LWPOLYLINE
5
112
100
AcDbEntity
8
0
100
AcDbPolyline
90
4
70
1
43
0.0
10
-0.14977466743577361
20
1.3977021398522882
10
-17.742548104935775
20
1.3977021398522882
10
-17.742548104935775
20
6.3977021398522886
10
-0.14977466743577442
20
6.3977021398522886
0
LWPOLYLINE
5
113
100
AcDbEntity
8
0
100
AcDbPolyline
90
4
70
1
43
0.0
10
0
20
53.197702139852282
10
-17.529296875
20
53.197702139852282
10
-17.529296875
20
58.197702139852282
10
0
20
58.197702139852282
0
LWPOLYLINE
5
114
100
AcDbEntity
8
0
100
AcDbPolyline
90
4
70
1
43
0.0
10
0.245694050623122
20
27.097702139852288
10
-17.283602824376878
20
27.097702139852288
10
-17.283602824376878
20
32.097702139852288
10
0.24569405062312311
20
32.097702139852288
0
LWPOLYLINE
5
115
100
AcDbEntity
8
0
100
AcDbPolyline
90
4
70
1
43
0.0
10
0
20
40.097702139852281
10
-17.529296874999975
20
40.097702139852281
10
-17.529296874999975
20
45.097702139852274
10
2.4424906541753444e-14
20
45.097702139852274
0
ENDSEC
0
SECTION
2
OBJECTS
0
DICTIONARY
5
C
100
AcDbDictionary
3
ACAD_GROUP
350
D
3
ACAD_MLINESTYLE
350
17
0
DICTIONARY
5
D
100
AcDbDictionary
0
DICTIONARY
5
1A
330
C
100
AcDbDictionary
0
DICTIONARY
5
17
100
AcDbDictionary
0
ENDSEC
0
EOF
