  0
SECTION
  2
HEADER
  9
$ACADVER
  1
AC1018
  9
$ACADMAINTVER
 70
     0
  9
$DWGCODEPAGE
  3
ANSI_1255
  9
$INSBASE
 10
0.0
 20
0.0
 30
0.0
  9
$EXTMIN
 10
351.8146819903407
 20
0.0
 30
0.0
  9
$EXTMAX
 10
521.0360061638834
 20
476.0440278288482
 30
0.0
  9
$LIMMIN
 10
0.0
 20
0.0
  9
$LIMMAX
 10
12.0
 20
9.0
  9
$ORTHOMODE
 70
     0
  9
$REGENMODE
 70
     1
  9
$FILLMODE
 70
     1
  9
$QTEXTMODE
 70
     0
  9
$MIRRTEXT
 70
     1
  9
$LTSCALE
 40
1.0
  9
$ATTMODE
 70
     1
  9
$TEXTSIZE
 40
0.2
  9
$TRACEWID
 40
0.05
  9
$TEXTSTYLE
  7
Standard
  9
$CLAYER
  8
0
  9
$CELTYPE
  6
ByLayer
  9
$CECOLOR
 62
   256
  9
$CELTSCALE
 40
1.0
  9
$DISPSILH
 70
     0
  9
$DIMSCALE
 40
1.0
  9
$DIMASZ
 40
0.18
  9
$DIMEXO
 40
0.0625
  9
$DIMDLI
 40
0.38
  9
$DIMRND
 40
0.0
  9
$DIMDLE
 40
0.0
  9
$DIMEXE
 40
0.18
  9
$DIMTP
 40
0.0
  9
$DIMTM
 40
0.0
  9
$DIMTXT
 40
0.18
  9
$DIMCEN
 40
0.09
  9
$DIMTSZ
 40
0.0
  9
$DIMTOL
 70
     0
  9
$DIMLIM
 70
     0
  9
$DIMTIH
 70
     1
  9
$DIMTOH
 70
     1
  9
$DIMSE1
 70
     0
  9
$DIMSE2
 70
     0
  9
$DIMTAD
 70
     0
  9
$DIMZIN
 70
     0
  9
$DIMBLK
  1

  9
$DIMASO
 70
     1
  9
$DIMSHO
 70
     1
  9
$DIMPOST
  1

  9
$DIMAPOST
  1

  9
$DIMALT
 70
     0
  9
$DIMALTD
 70
     2
  9
$DIMALTF
 40
25.4
  9
$DIMLFAC
 40
1.0
  9
$DIMTOFL
 70
     0
  9
$DIMTVP
 40
0.0
  9
$DIMTIX
 70
     0
  9
$DIMSOXD
 70
     0
  9
$DIMSAH
 70
     0
  9
$DIMBLK1
  1

  9
$DIMBLK2
  1

  9
$DIMSTYLE
  2
Standard
  9
$DIMCLRD
 70
     0
  9
$DIMCLRE
 70
     0
  9
$DIMCLRT
 70
     0
  9
$DIMTFAC
 40
1.0
  9
$DIMGAP
 40
0.09
  9
$DIMJUST
 70
     0
  9
$DIMSD1
 70
     0
  9
$DIMSD2
 70
     0
  9
$DIMTOLJ
 70
     1
  9
$DIMTZIN
 70
     0
  9
$DIMALTZ
 70
     0
  9
$DIMALTTZ
 70
     0
  9
$DIMUPT
 70
     0
  9
$DIMDEC
 70
     4
  9
$DIMTDEC
 70
     4
  9
$DIMALTU
 70
     2
  9
$DIMALTTD
 70
     2
  9
$DIMTXSTY
  7
Standard
  9
$DIMAUNIT
 70
     0
  9
$DIMADEC
 70
     0
  9
$DIMALTRND
 40
0.0
  9
$DIMAZIN
 70
     0
  9
$DIMDSEP
 70
    46
  9
$DIMATFIT
 70
     3
  9
$DIMFRAC
 70
     0
  9
$DIMLDRBLK
  1

  9
$DIMLUNIT
 70
     2
  9
$DIMLWD
 70
    -2
  9
$DIMLWE
 70
    -2
  9
$DIMTMOVE
 70
     2
  9
$LUNITS
 70
     2
  9
$LUPREC
 70
     3
  9
$SKETCHINC
 40
0.1
  9
$FILLETRAD
 40
0.5
  9
$AUNITS
 70
     0
  9
$AUPREC
 70
     0
  9
$MENU
  1
.
  9
$ELEVATION
 40
0.0
  9
$PELEVATION
 40
0.0
  9
$THICKNESS
 40
0.0
  9
$LIMCHECK
 70
     0
  9
$CHAMFERA
 40
0.0
  9
$CHAMFERB
 40
0.0
  9
$CHAMFERC
 40
0.0
  9
$CHAMFERD
 40
0.0
  9
$SKPOLY
 70
     0
  9
$TDCREATE
 40
2457879.42070941
  9
$TDUCREATE
 40
2457879.29570941
  9
$TDUPDATE
 40
2457879.420726817
  9
$TDUUPDATE
 40
2457879.295726817
  9
$TDINDWG
 40
0.0000000116
  9
$TDUSRTIMER
 40
0.0000000116
  9
$USRTIMER
 70
     1
  9
$ANGBASE
 50
0.0
  9
$ANGDIR
 70
     0
  9
$PDMODE
 70
     0
  9
$PDSIZE
 40
0.0
  9
$PLINEWID
 40
0.0
  9
$SPLFRAME
 70
     0
  9
$SPLINETYPE
 70
     6
  9
$SPLINESEGS
 70
     8
  9
$HANDSEED
  5
457
  9
$SURFTAB1
 70
     6
  9
$SURFTAB2
 70
     6
  9
$SURFTYPE
 70
     6
  9
$SURFU
 70
     6
  9
$SURFV
 70
     6
  9
$UCSBASE
  2

  9
$UCSNAME
  2

  9
$UCSORG
 10
0.0
 20
0.0
 30
0.0
  9
$UCSXDIR
 10
1.0
 20
0.0
 30
0.0
  9
$UCSYDIR
 10
0.0
 20
1.0
 30
0.0
  9
$UCSORTHOREF
  2

  9
$UCSORTHOVIEW
 70
     0
  9
$UCSORGTOP
 10
0.0
 20
0.0
 30
0.0
  9
$UCSORGBOTTOM
 10
0.0
 20
0.0
 30
0.0
  9
$UCSORGLEFT
 10
0.0
 20
0.0
 30
0.0
  9
$UCSORGRIGHT
 10
0.0
 20
0.0
 30
0.0
  9
$UCSORGFRONT
 10
0.0
 20
0.0
 30
0.0
  9
$UCSORGBACK
 10
0.0
 20
0.0
 30
0.0
  9
$PUCSBASE
  2

  9
$PUCSNAME
  2

  9
$PUCSORG
 10
0.0
 20
0.0
 30
0.0
  9
$PUCSXDIR
 10
1.0
 20
0.0
 30
0.0
  9
$PUCSYDIR
 10
0.0
 20
1.0
 30
0.0
  9
$PUCSORTHOREF
  2

  9
$PUCSORTHOVIEW
 70
     0
  9
$PUCSORGTOP
 10
0.0
 20
0.0
 30
0.0
  9
$PUCSORGBOTTOM
 10
0.0
 20
0.0
 30
0.0
  9
$PUCSORGLEFT
 10
0.0
 20
0.0
 30
0.0
  9
$PUCSORGRIGHT
 10
0.0
 20
0.0
 30
0.0
  9
$PUCSORGFRONT
 10
0.0
 20
0.0
 30
0.0
  9
$PUCSORGBACK
 10
0.0
 20
0.0
 30
0.0
  9
$USERI1
 70
     0
  9
$USERI2
 70
     0
  9
$USERI3
 70
     0
  9
$USERI4
 70
     0
  9
$USERI5
 70
     0
  9
$USERR1
 40
0.0
  9
$USERR2
 40
0.0
  9
$USERR3
 40
0.0
  9
$USERR4
 40
0.0
  9
$USERR5
 40
0.0
  9
$WORLDVIEW
 70
     1
  9
$SHADEDGE
 70
     3
  9
$SHADEDIF
 70
    70
  9
$TILEMODE
 70
     1
  9
$MAXACTVP
 70
    64
  9
$PINSBASE
 10
0.0
 20
0.0
 30
0.0
  9
$PLIMCHECK
 70
     0
  9
$PEXTMIN
 10
1.000000000000000E+20
 20
1.000000000000000E+20
 30
1.000000000000000E+20
  9
$PEXTMAX
 10
-1.000000000000000E+20
 20
-1.000000000000000E+20
 30
-1.000000000000000E+20
  9
$PLIMMIN
 10
0.0
 20
0.0
  9
$PLIMMAX
 10
12.0
 20
9.0
  9
$UNITMODE
 70
     0
  9
$VISRETAIN
 70
     1
  9
$PLINEGEN
 70
     0
  9
$PSLTSCALE
 70
     1
  9
$TREEDEPTH
 70
  3020
  9
$CMLSTYLE
  2
Standard
  9
$CMLJUST
 70
     0
  9
$CMLSCALE
 40
1.0
  9
$PROXYGRAPHICS
 70
     1
  9
$MEASUREMENT
 70
     0
  9
$CELWEIGHT
370
    -1
  9
$ENDCAPS
280
     0
  9
$JOINSTYLE
280
     0
  9
$LWDISPLAY
290
     0
  9
$INSUNITS
 70
     4
  9
$HYPERLINKBASE
  1

  9
$STYLESHEET
  1

  9
$XEDIT
290
     1
  9
$CEPSNTYPE
380
     0
  9
$PSTYLEMODE
290
     1
  9
$FINGERPRINTGUID
  2
{8A48A487-4AC2-47E1-B28F-EC8CB2DEC266}
  9
$VERSIONGUID
  2
{FAEB1C32-E019-11D5-929B-00C0DF256EC4}
  9
$EXTNAMES
290
     1
  9
$PSVPSCALE
 40
0.0
  9
$OLESTARTUP
290
     0
  9
$SORTENTS
280
   127
  9
$INDEXCTL
280
     0
  9
$HIDETEXT
280
     1
  9
$XCLIPFRAME
290
     0
  9
$HALOGAP
280
     0
  9
$OBSCOLOR
 70
   257
  9
$OBSLTYPE
280
     0
  9
$INTERSECTIONDISPLAY
280
     0
  9
$INTERSECTIONCOLOR
 70
   257
  9
$DIMASSOC
280
     2
  9
$PROJECTNAME
  1

  0
ENDSEC
  0
SECTION
  2
CLASSES
  0
CLASS
  1
ACDBDICTIONARYWDFLT
  2
AcDbDictionaryWithDefault
  3
ObjectDBX Classes
 90
        0
 91
        4
280
     0
281
     0
  0
CLASS
  1
VISUALSTYLE
  2
AcDbVisualStyle
  3
ObjectDBX Classes
 90
     4095
 91
        4
280
     0
281
     0
  0
CLASS
  1
MATERIAL
  2
AcDbMaterial
  3
ObjectDBX Classes
 90
     1153
 91
        4
280
     0
281
     0
  0
CLASS
  1
SCALE
  2
AcDbScale
  3
ObjectDBX Classes
 90
     1153
 91
        4
280
     0
281
     0
  0
CLASS
  1
SUN
  2
AcDbSun
  3
SCENEOE
 90
     1153
 91
        4
280
     0
281
     0
  0
CLASS
  1
DICTIONARYVAR
  2
AcDbDictionaryVar
  3
ObjectDBX Classes
 90
        0
 91
        4
280
     0
281
     0
  0
ENDSEC
  0
SECTION
  2
TABLES
  0
TABLE
  2
VPORT
  5
8
330
0
100
AcDbSymbolTable
 70
     1
  0
VPORT
  5
29
330
8
100
AcDbSymbolTableRecord
100
AcDbViewportTableRecord
  2
*Active
 70
     0
 10
0.0
 20
0.0
 11
1.0
 21
1.0
 12
436.4253440771121
 22
238.0220139144241
 13
0.0
 23
0.0
 14
0.5
 24
0.5
 15
0.5
 25
0.5
 16
0.0
 26
0.0
 36
1.0
 17
0.0
 27
0.0
 37
0.0
 40
485.5649083854252
 41
0.3554741038246627
 42
50.0
 43
0.0
 44
0.0
 50
0.0
 51
0.0
 71
     0
 72
   100
 73
     1
 74
     3
 75
     0
 76
     0
 77
     0
 78
     0
281
     0
 65
     1
110
0.0
120
0.0
130
0.0
111
1.0
121
0.0
131
0.0
112
0.0
122
1.0
132
0.0
 79
     0
146
0.0
  0
ENDTAB
  0
TABLE
  2
LTYPE
  5
5
330
0
100
AcDbSymbolTable
 70
     1
  0
LTYPE
  5
14
330
5
100
AcDbSymbolTableRecord
100
AcDbLinetypeTableRecord
  2
ByBlock
 70
     0
  3

 72
    65
 73
     0
 40
0.0
  0
LTYPE
  5
15
330
5
100
AcDbSymbolTableRecord
100
AcDbLinetypeTableRecord
  2
ByLayer
 70
     0
  3

 72
    65
 73
     0
 40
0.0
  0
LTYPE
  5
16
330
5
100
AcDbSymbolTableRecord
100
AcDbLinetypeTableRecord
  2
Continuous
 70
     0
  3
Solid line
 72
    65
 73
     0
 40
0.0
  0
ENDTAB
  0
TABLE
  2
LAYER
  5
2
330
0
100
AcDbSymbolTable
 70
     2
  0
LAYER
  5
10
330
2
100
AcDbSymbolTableRecord
100
AcDbLayerTableRecord
  2
0
 70
     0
 62
     7
  6
Continuous
370
    -3
390
F
  0
LAYER
  5
6A
330
2
100
AcDbSymbolTableRecord
100
AcDbLayerTableRecord
  2
section$view
 70
     0
 62
    18
420
        0
  6
Continuous
370
    -3
390
F
  0
ENDTAB
  0
TABLE
  2
STYLE
  5
3
330
0
100
AcDbSymbolTable
 70
     1
  0
STYLE
  5
11
330
3
100
AcDbSymbolTableRecord
100
AcDbTextStyleTableRecord
  2
Standard
 70
     0
 40
0.0
 41
1.0
 50
0.0
 71
     0
 42
0.2
  3
txt
  4

  0
ENDTAB
  0
TABLE
  2
VIEW
  5
6
330
0
100
AcDbSymbolTable
 70
     0
  0
ENDTAB
  0
TABLE
  2
UCS
  5
7
330
0
100
AcDbSymbolTable
 70
     0
  0
ENDTAB
  0
TABLE
  2
APPID
  5
9
330
0
100
AcDbSymbolTable
 70
     1
  0
APPID
  5
12
330
9
100
AcDbSymbolTableRecord
100
AcDbRegAppTableRecord
  2
ACAD
 70
     0
  0
ENDTAB
  0
TABLE
  2
DIMSTYLE
  5
A
330
0
100
AcDbSymbolTable
 70
     1
100
AcDbDimStyleTable
  0
DIMSTYLE
105
27
330
A
100
AcDbSymbolTableRecord
100
AcDbDimStyleTableRecord
  2
Standard
 70
     0
178
     0
340
11
  0
ENDTAB
  0
TABLE
  2
BLOCK_RECORD
  5
1
330
0
100
AcDbSymbolTable
 70
     1
  0
BLOCK_RECORD
  5
1F
330
1
100
AcDbSymbolTableRecord
100
AcDbBlockTableRecord
  2
*Model_Space
340
22
  0
BLOCK_RECORD
  5
1B
330
1
100
AcDbSymbolTableRecord
100
AcDbBlockTableRecord
  2
*Paper_Space
340
1E
  0
BLOCK_RECORD
  5
23
330
1
100
AcDbSymbolTableRecord
100
AcDbBlockTableRecord
  2
*Paper_Space0
340
26
  0
ENDTAB
  0
ENDSEC
  0
SECTION
  2
BLOCKS
  0
BLOCK
  5
20
330
1F
100
AcDbEntity
  8
0
100
AcDbBlockBegin
  2
*Model_Space
 70
     0
 10
0.0
 20
0.0
 30
0.0
  3
*Model_Space
  1
*Model_Space
  0
ENDBLK
  5
21
330
1F
100
AcDbEntity
  8
0
100
AcDbBlockEnd
  0
BLOCK
  5
1C
330
1B
100
AcDbEntity
 67
     1
  8
0
100
AcDbBlockBegin
  2
*Paper_Space
 70
     0
 10
0.0
 20
0.0
 30
0.0
  3
*Paper_Space
  1
*Paper_Space
  0
ENDBLK
  5
1D
330
1B
100
AcDbEntity
 67
     1
  8
0
100
AcDbBlockEnd
  0
BLOCK
  5
24
330
23
100
AcDbEntity
  8
0
100
AcDbBlockBegin
  2
*Paper_Space0
 70
     0
 10
0.0
 20
0.0
 30
0.0
  3
*Paper_Space0
  1
*Paper_Space0
  0
ENDBLK
  5
25
330
23
100
AcDbEntity
  8
0
100
AcDbBlockEnd
  0
ENDSEC
  0
SECTION
  2
ENTITIES
  0
LINE
  5
6B
330
1F
100
AcDbEntity
  8
section$view
100
AcDbLine
 10
368.8146499279068
 20
476.0440277574185
 30
0.0
 11
418.846889864723
 21
476.0440276016192
 31
0.0
  0
LINE
  5
6C
330
1F
100
AcDbEntity
  8
section$view
100
AcDbLine
 10
418.846889864723
 20
476.0440276016192
 30
0.0
 11
468.8791271836457
 21
476.0440278288482
 31
0.0
  0
LINE
  5
6D
330
1F
100
AcDbEntity
  8
section$view
100
AcDbLine
 10
468.8791271836457
 20
476.0440278288482
 30
0.0
 11
469.4724178152757
 21
476.0336715070641
 31
0.0
  0
LINE
  5
6E
330
1F
100
AcDbEntity
  8
section$view
100
AcDbLine
 10
469.4724178152757
 20
476.0336715070641
 30
0.0
 11
470.0649856002617
 21
476.0026159571937
 31
0.0
  0
LINE
  5
6F
330
1F
100
AcDbEntity
  8
section$view
100
AcDbLine
 10
470.0649856002617
 20
476.0026159571937
 30
0.0
 11
470.6561085865636
 21
475.9508990156129
 31
0.0
  0
LINE
  5
70
330
1F
100
AcDbEntity
  8
section$view
100
AcDbLine
 10
470.6561085865636
 20
475.9508990156129
 30
0.0
 11
471.2450665824047
 21
475.8785836914028
 31
0.0
  0
LINE
  5
71
330
1F
100
AcDbEntity
  8
section$view
100
AcDbLine
 10
471.2450665824047
 20
475.8785836914028
 30
0.0
 11
471.8311420337142
 21
475.785758089582
 31
0.0
  0
LINE
  5
72
330
1F
100
AcDbEntity
  8
section$view
100
AcDbLine
 10
471.8311420337142
 20
475.785758089582
 30
0.0
 11
472.4136208983546
 21
475.672535303765
 31
0.0
  0
LINE
  5
73
330
1F
100
AcDbEntity
  8
section$view
100
AcDbLine
 10
472.4136208983546
 20
475.672535303765
 30
0.0
 11
472.9917935160723
 21
475.5390532783748
 31
0.0
  0
LINE
  5
74
330
1F
100
AcDbEntity
  8
section$view
100
AcDbLine
 10
472.9917935160723
 20
475.5390532783748
 30
0.0
 11
473.5649554731087
 21
475.385474640579
 31
0.0
  0
LINE
  5
75
330
1F
100
AcDbEntity
  8
section$view
100
AcDbLine
 10
473.5649554731087
 20
475.385474640579
 30
0.0
 11
474.1324084604184
 21
475.2119865021542
 31
0.0
  0
LINE
  5
76
330
1F
100
AcDbEntity
  8
section$view
100
AcDbLine
 10
474.1324084604184
 20
475.2119865021542
 30
0.0
 11
474.6934611244516
 21
475.0188002315184
 31
0.0
  0
LINE
  5
77
330
1F
100
AcDbEntity
  8
section$view
100
AcDbLine
 10
474.6934611244516
 20
475.0188002315184
 30
0.0
 11
475.2474299094605
 21
474.8061511962123
 31
0.0
  0
LINE
  5
78
330
1F
100
AcDbEntity
  8
section$view
100
AcDbLine
 10
475.2474299094605
 20
474.8061511962123
 30
0.0
 11
475.7936398903067
 21
474.5742984761397
 31
0.0
  0
LINE
  5
79
330
1F
100
AcDbEntity
  8
section$view
100
AcDbLine
 10
475.7936398903067
 20
474.5742984761397
 30
0.0
 11
476.3314255947521
 21
474.3235245479195
 31
0.0
  0
LINE
  5
7A
330
1F
100
AcDbEntity
  8
section$view
100
AcDbLine
 10
476.3314255947521
 20
474.3235245479195
 30
0.0
 11
476.8601318142349
 21
474.054134940731
 31
0.0
  0
LINE
  5
7B
330
1F
100
AcDbEntity
  8
section$view
100
AcDbLine
 10
476.8601318142349
 20
474.054134940731
 30
0.0
 11
477.3791144021384
 21
473.7664578640741
 31
0.0
  0
LINE
  5
7C
330
1F
100
AcDbEntity
  8
section$view
100
AcDbLine
 10
477.3791144021384
 20
473.7664578640741
 30
0.0
 11
477.887741058585
 21
473.4608438078972
 31
0.0
  0
LINE
  5
7D
330
1F
100
AcDbEntity
  8
section$view
100
AcDbLine
 10
477.887741058585
 20
473.4608438078972
 30
0.0
 11
478.3853921007948
 21
473.1376651155792
 31
0.0
  0
LINE
  5
7E
330
1F
100
AcDbEntity
  8
section$view
100
AcDbLine
 10
478.3853921007948
 20
473.1376651155792
 30
0.0
 11
478.8714612180736
 21
472.7973155302869
 31
0.0
  0
LINE
  5
7F
330
1F
100
AcDbEntity
  8
section$view
100
AcDbLine
 10
478.8714612180736
 20
472.7973155302869
 30
0.0
 11
479.3453562105084
 21
472.4402097152598
 31
0.0
  0
LINE
  5
80
330
1F
100
AcDbEntity
  8
section$view
100
AcDbLine
 10
479.3453562105084
 20
472.4402097152598
 30
0.0
 11
479.8064997104711
 21
472.0667827486075
 31
0.0
  0
LINE
  5
81
330
1F
100
AcDbEntity
  8
section$view
100
AcDbLine
 10
479.8064997104711
 20
472.0667827486075
 30
0.0
 11
480.2543298860514
 21
471.677489593234
 31
0.0
  0
LINE
  5
82
330
1F
100
AcDbEntity
  8
section$view
100
AcDbLine
 10
480.2543298860514
 20
471.677489593234
 30
0.0
 11
480.6883011255624
 21
471.2728045425364
 31
0.0
  0
LINE
  5
83
330
1F
100
AcDbEntity
  8
section$view
100
AcDbLine
 10
480.6883011255624
 20
471.2728045425364
 30
0.0
 11
481.1078847022837
 21
470.8532206425513
 31
0.0
  0
LINE
  5
84
330
1F
100
AcDbEntity
  8
section$view
100
AcDbLine
 10
481.1078847022837
 20
470.8532206425513
 30
0.0
 11
481.5125694186327
 21
470.4192490912551
 31
0.0
  0
LINE
  5
85
330
1F
100
AcDbEntity
  8
section$view
100
AcDbLine
 10
481.5125694186327
 20
470.4192490912551
 30
0.0
 11
481.90186222898
 21
469.9714186157481
 31
0.0
  0
LINE
  5
86
330
1F
100
AcDbEntity
  8
section$view
100
AcDbLine
 10
481.90186222898
 20
469.9714186157481
 30
0.0
 11
482.2752888403491
 21
469.5102748280828
 31
0.0
  0
LINE
  5
87
330
1F
100
AcDbEntity
  8
section$view
100
AcDbLine
 10
482.2752888403491
 20
469.5102748280828
 30
0.0
 11
482.6323942902687
 21
469.0363795605198
 31
0.0
  0
LINE
  5
88
330
1F
100
AcDbEntity
  8
section$view
100
AcDbLine
 10
482.6323942902687
 20
469.0363795605198
 30
0.0
 11
482.9727435010741
 21
468.5503101810224
 31
0.0
  0
LINE
  5
89
330
1F
100
AcDbEntity
  8
section$view
100
AcDbLine
 10
482.9727435010741
 20
468.5503101810224
 30
0.0
 11
483.2959218099821
 21
468.0526588898231
 31
0.0
  0
LINE
  5
8A
330
1F
100
AcDbEntity
  8
section$view
100
AcDbLine
 10
483.2959218099821
 20
468.0526588898231
 30
0.0
 11
483.6015354742929
 21
467.5440319979195
 31
0.0
  0
LINE
  5
8B
330
1F
100
AcDbEntity
  8
section$view
100
AcDbLine
 10
483.6015354742929
 20
467.5440319979195
 30
0.0
 11
483.8892121511051
 21
467.0250491883784
 31
0.0
  0
LINE
  5
8C
330
1F
100
AcDbEntity
  8
section$view
100
AcDbLine
 10
483.8892121511051
 20
467.0250491883784
 30
0.0
 11
484.1586013509575
 21
466.4963427613475
 31
0.0
  0
LINE
  5
8D
330
1F
100
AcDbEntity
  8
section$view
100
AcDbLine
 10
484.1586013509575
 20
466.4963427613475
 30
0.0
 11
484.4093748648463
 21
465.9585568636961
 31
0.0
  0
LINE
  5
8E
330
1F
100
AcDbEntity
  8
section$view
100
AcDbLine
 10
484.4093748648463
 20
465.9585568636961
 30
0.0
 11
484.641227164097
 21
465.4123467042216
 31
0.0
  0
LINE
  5
8F
330
1F
100
AcDbEntity
  8
section$view
100
AcDbLine
 10
484.641227164097
 20
465.4123467042216
 30
0.0
 11
484.8538757726037
 21
464.8583777553797
 31
0.0
  0
LINE
  5
90
330
1F
100
AcDbEntity
  8
section$view
100
AcDbLine
 10
484.8538757726037
 20
464.8583777553797
 30
0.0
 11
485.0470616109824
 21
464.2973249425083
 31
0.0
  0
LINE
  5
91
330
1F
100
AcDbEntity
  8
section$view
100
AcDbLine
 10
485.0470616109824
 20
464.2973249425083
 30
0.0
 11
485.2205493122192
 21
463.7298718215367
 31
0.0
  0
LINE
  5
92
330
1F
100
AcDbEntity
  8
section$view
100
AcDbLine
 10
485.2205493122192
 20
463.7298718215367
 30
0.0
 11
485.3741275084283
 21
463.1567097461775
 31
0.0
  0
LINE
  5
93
330
1F
100
AcDbEntity
  8
section$view
100
AcDbLine
 10
485.3741275084283
 20
463.1567097461775
 30
0.0
 11
485.5076090883715
 21
462.5785370256201
 31
0.0
  0
LINE
  5
94
330
1F
100
AcDbEntity
  8
section$view
100
AcDbLine
 10
485.5076090883715
 20
462.5785370256201
 30
0.0
 11
485.6208314254238
 21
461.9960580737485
 31
0.0
  0
LINE
  5
95
330
1F
100
AcDbEntity
  8
section$view
100
AcDbLine
 10
485.6208314254238
 20
461.9960580737485
 30
0.0
 11
485.713656575709
 21
461.4099825509228
 31
0.0
  0
LINE
  5
96
330
1F
100
AcDbEntity
  8
section$view
100
AcDbLine
 10
485.713656575709
 20
461.4099825509228
 30
0.0
 11
485.7859714461626
 21
460.8210244993672
 31
0.0
  0
LINE
  5
97
330
1F
100
AcDbEntity
  8
section$view
100
AcDbLine
 10
485.7859714461626
 20
460.8210244993672
 30
0.0
 11
485.8376879323189
 21
460.2299014732207
 31
0.0
  0
LINE
  5
98
330
1F
100
AcDbEntity
  8
section$view
100
AcDbLine
 10
485.8376879323189
 20
460.2299014732207
 30
0.0
 11
485.8687430256518
 21
459.6373336643086
 31
0.0
  0
LINE
  5
99
330
1F
100
AcDbEntity
  8
section$view
100
AcDbLine
 10
485.8687430256518
 20
459.6373336643086
 30
0.0
 11
485.8790988903415
 21
459.0440430246998
 31
0.0
  0
LINE
  5
9A
330
1F
100
AcDbEntity
  8
section$view
100
AcDbLine
 10
485.8790988903415
 20
459.0440430246998
 30
0.0
 11
485.8790991420536
 21
424.2102327215543
 31
0.0
  0
LINE
  5
9B
330
1F
100
AcDbEntity
  8
section$view
100
AcDbLine
 10
485.8790991420536
 20
424.2102327215543
 30
0.0
 11
485.8687434679044
 21
423.6169421374224
 31
0.0
  0
LINE
  5
9C
330
1F
100
AcDbEntity
  8
section$view
100
AcDbLine
 10
485.8687434679044
 20
423.6169421374224
 30
0.0
 11
485.8376885676382
 21
423.0243743772667
 31
0.0
  0
LINE
  5
9D
330
1F
100
AcDbEntity
  8
section$view
100
AcDbLine
 10
485.8376885676382
 20
423.0243743772667
 30
0.0
 11
485.785972276837
 21
422.4332513930474
 31
0.0
  0
LINE
  5
9E
330
1F
100
AcDbEntity
  8
section$view
100
AcDbLine
 10
485.785972276837
 20
422.4332513930474
 30
0.0
 11
485.7136576037844
 21
421.8442933764894
 31
0.0
  0
LINE
  5
9F
330
1F
100
AcDbEntity
  8
section$view
100
AcDbLine
 10
485.7136576037844
 20
421.8442933764894
 30
0.0
 11
485.6208326527001
 21
421.2582178816402
 31
0.0
  0
LINE
  5
A0
330
1F
100
AcDbEntity
  8
section$view
100
AcDbLine
 10
485.6208326527001
 20
421.2582178816402
 30
0.0
 11
485.5076105163977
 21
420.6757389506412
 31
0.0
  0
LINE
  5
A1
330
1F
100
AcDbEntity
  8
section$view
100
AcDbLine
 10
485.5076105163977
 20
420.6757389506412
 30
0.0
 11
485.3741291384995
 21
420.0975662437784
 31
0.0
  0
LINE
  5
A2
330
1F
100
AcDbEntity
  8
section$view
100
AcDbLine
 10
485.3741291384995
 20
420.0975662437784
 30
0.0
 11
485.2205511453733
 21
419.5244041748713
 31
0.0
  0
LINE
  5
A3
330
1F
100
AcDbEntity
  8
section$view
100
AcDbLine
 10
485.2205511453733
 20
419.5244041748713
 30
0.0
 11
485.0470636479973
 21
418.9569510530535
 31
0.0
  0
LINE
  5
A4
330
1F
100
AcDbEntity
  8
section$view
100
AcDbLine
 10
485.0470636479973
 20
418.9569510530535
 30
0.0
 11
484.8538780139942
 21
418.3958982319916
 31
0.0
  0
LINE
  5
A5
330
1F
100
AcDbEntity
  8
section$view
100
AcDbLine
 10
484.8538780139942
 20
418.3958982319916
 30
0.0
 11
484.6412296101129
 21
417.8419292675782
 31
0.0
  0
LINE
  5
A6
330
1F
100
AcDbEntity
  8
section$view
100
AcDbLine
 10
484.6412296101129
 20
417.8419292675782
 30
0.0
 11
484.4093775154703
 21
417.2957190851242
 31
0.0
  0
LINE
  5
A7
330
1F
100
AcDbEntity
  8
section$view
100
AcDbLine
 10
484.4093775154703
 20
417.2957190851242
 30
0.0
 11
484.1586042059041
 21
416.7579331570676
 31
0.0
  0
LINE
  5
A8
330
1F
100
AcDbEntity
  8
section$view
100
AcDbLine
 10
484.1586042059041
 20
416.7579331570676
 30
0.0
 11
483.8892152098186
 21
416.2292266921982
 31
0.0
  0
LINE
  5
A9
330
1F
100
AcDbEntity
  8
section$view
100
AcDbLine
 10
483.8892152098186
 20
416.2292266921982
 30
0.0
 11
483.6015387359471
 21
415.7102438373875
 31
0.0
  0
LINE
  5
AA
330
1F
100
AcDbEntity
  8
section$view
100
AcDbLine
 10
483.6015387359471
 20
415.7102438373875
 30
0.0
 11
483.2959252734798
 21
415.2016168927951
 31
0.0
  0
LINE
  5
AB
330
1F
100
AcDbEntity
  8
section$view
100
AcDbLine
 10
483.2959252734798
 20
415.2016168927951
 30
0.0
 11
482.9727471650465
 21
414.7039655415098
 31
0.0
  0
LINE
  5
AC
330
1F
100
AcDbEntity
  8
section$view
100
AcDbLine
 10
482.9727471650465
 20
414.7039655415098
 30
0.0
 11
482.6323981530759
 21
414.217896094561
 31
0.0
  0
LINE
  5
AD
330
1F
100
AcDbEntity
  8
section$view
100
AcDbLine
 10
482.6323981530759
 20
414.217896094561
 30
0.0
 11
482.2752929000807
 21
413.7440007522228
 31
0.0
  0
LINE
  5
AE
330
1F
100
AcDbEntity
  8
section$view
100
AcDbLine
 10
482.2752929000807
 20
413.7440007522228
 30
0.0
 11
481.901866483456
 21
413.2828568825103
 31
0.0
  0
LINE
  5
AF
330
1F
100
AcDbEntity
  8
section$view
100
AcDbLine
 10
481.901866483456
 20
413.2828568825103
 30
0.0
 11
481.5125738654048
 21
412.8350263177457
 31
0.0
  0
LINE
  5
B0
330
1F
100
AcDbEntity
  8
section$view
100
AcDbLine
 10
481.5125738654048
 20
412.8350263177457
 30
0.0
 11
481.1078893386367
 21
412.4010546700529
 31
0.0
  0
LINE
  5
B1
330
1F
100
AcDbEntity
  8
section$view
100
AcDbLine
 10
481.1078893386367
 20
412.4010546700529
 30
0.0
 11
480.6883059485169
 21
411.9814706666137
 31
0.0
  0
LINE
  5
B2
330
1F
100
AcDbEntity
  8
section$view
100
AcDbLine
 10
480.6883059485169
 20
411.9814706666137
 30
0.0
 11
480.2543348923653
 21
411.5767855054955
 31
0.0
  0
LINE
  5
B3
330
1F
100
AcDbEntity
  8
section$view
100
AcDbLine
 10
480.2543348923653
 20
411.5767855054955
 30
0.0
 11
479.806504896643
 21
411.1874922328359
 31
0.0
  0
LINE
  5
B4
330
1F
100
AcDbEntity
  8
section$view
100
AcDbLine
 10
479.806504896643
 20
411.1874922328359
 30
0.0
 11
479.3453615727807
 21
410.8140651421424
 31
0.0
  0
LINE
  5
B5
330
1F
100
AcDbEntity
  8
section$view
100
AcDbLine
 10
479.3453615727807
 20
410.8140651421424
 30
0.0
 11
478.8714667524355
 21
410.4569591964392
 31
0.0
  0
LINE
  5
B6
330
1F
100
AcDbEntity
  8
section$view
100
AcDbLine
 10
478.8714667524355
 20
410.4569591964392
 30
0.0
 11
478.3853978029865
 21
410.1166094739652
 31
0.0
  0
LINE
  5
B7
330
1F
100
AcDbEntity
  8
section$view
100
AcDbLine
 10
478.3853978029865
 20
410.1166094739652
 30
0.0
 11
477.8877469241019
 21
409.7934306380989
 31
0.0
  0
LINE
  5
B8
330
1F
100
AcDbEntity
  8
section$view
100
AcDbLine
 10
477.8877469241019
 20
409.7934306380989
 30
0.0
 11
477.3791204262354
 21
409.4878164321549
 31
0.0
  0
LINE
  5
B9
330
1F
100
AcDbEntity
  8
section$view
100
AcDbLine
 10
477.3791204262354
 20
409.4878164321549
 30
0.0
 11
476.8601379919315
 21
409.2001391996695
 31
0.0
  0
LINE
  5
BA
330
1F
100
AcDbEntity
  8
section$view
100
AcDbLine
 10
476.8601379919315
 20
409.2001391996695
 30
0.0
 11
476.3314319208374
 21
408.9307494307566
 31
0.0
  0
LINE
  5
BB
330
1F
100
AcDbEntity
  8
section$view
100
AcDbLine
 10
476.3314319208374
 20
408.9307494307566
 30
0.0
 11
475.793646359345
 21
408.6799753350912
 31
0.0
  0
LINE
  5
BC
330
1F
100
AcDbEntity
  8
section$view
100
AcDbLine
 10
475.793646359345
 20
408.6799753350912
 30
0.0
 11
475.2474365157974
 21
408.4481224420355
 31
0.0
  0
LINE
  5
BD
330
1F
100
AcDbEntity
  8
section$view
100
AcDbLine
 10
475.2474365157974
 20
408.4481224420355
 30
0.0
 11
474.6934678622197
 21
408.2354732283997
 31
0.0
  0
LINE
  5
BE
330
1F
100
AcDbEntity
  8
section$view
100
AcDbLine
 10
474.6934678622197
 20
408.2354732283997
 30
0.0
 11
474.1324153235444
 21
408.0422867742873
 31
0.0
  0
LINE
  5
BF
330
1F
100
AcDbEntity
  8
section$view
100
AcDbLine
 10
474.1324153235444
 20
408.0422867742873
 30
0.0
 11
473.5649624553196
 21
407.8687984474465
 31
0.0
  0
LINE
  5
C0
330
1F
100
AcDbEntity
  8
section$view
100
AcDbLine
 10
473.5649624553196
 20
407.8687984474465
 30
0.0
 11
472.9918006109031
 21
407.7152196165106
 31
0.0
  0
LINE
  5
C1
330
1F
100
AcDbEntity
  8
section$view
100
AcDbLine
 10
472.9918006109031
 20
407.7152196165106
 30
0.0
 11
472.413628099155
 21
407.5817373934785
 31
0.0
  0
LINE
  5
C2
330
1F
100
AcDbEntity
  8
section$view
100
AcDbLine
 10
472.413628099155
 20
407.5817373934785
 30
0.0
 11
471.8311493336572
 21
407.4685144057476
 31
0.0
  0
LINE
  5
C3
330
1F
100
AcDbEntity
  8
section$view
100
AcDbLine
 10
471.8311493336572
 20
407.4685144057476
 30
0.0
 11
471.2450739744939
 21
407.3756885979774
 31
0.0
  0
LINE
  5
C4
330
1F
100
AcDbEntity
  8
section$view
100
AcDbLine
 10
471.2450739744939
 20
407.3756885979774
 30
0.0
 11
470.6561160636413
 21
407.3033730640256
 31
0.0
  0
LINE
  5
C5
330
1F
100
AcDbEntity
  8
section$view
100
AcDbLine
 10
470.6561160636413
 20
407.3033730640256
 30
0.0
 11
470.064993155018
 21
407.2516559091604
 31
0.0
  0
LINE
  5
C6
330
1F
100
AcDbEntity
  8
section$view
100
AcDbLine
 10
470.064993155018
 20
407.2516559091604
 30
0.0
 11
469.4724254402568
 21
407.2206001427184
 31
0.0
  0
LINE
  5
C7
330
1F
100
AcDbEntity
  8
section$view
100
AcDbLine
 10
469.4724254402568
 20
407.2206001427184
 30
0.0
 11
468.8791348712629
 21
407.2102436013368
 31
0.0
  0
LINE
  5
C8
330
1F
100
AcDbEntity
  8
section$view
100
AcDbLine
 10
468.8791348712629
 20
407.2102436013368
 30
0.0
 11
368.8146500334077
 21
407.2102435802923
 31
0.0
  0
LINE
  5
C9
330
1F
100
AcDbEntity
  8
section$view
100
AcDbLine
 10
368.8146500334077
 20
407.2102435802923
 30
0.0
 11
368.2213600285883
 21
407.220599589064
 31
0.0
  0
LINE
  5
CA
330
1F
100
AcDbEntity
  8
section$view
100
AcDbLine
 10
368.2213600285883
 20
407.220599589064
 30
0.0
 11
367.628792858731
 21
407.2516547970603
 31
0.0
  0
LINE
  5
CB
330
1F
100
AcDbEntity
  8
section$view
100
AcDbLine
 10
367.628792858731
 20
407.2516547970603
 30
0.0
 11
367.0376704746255
 21
407.303371368348
 31
0.0
  0
LINE
  5
CC
330
1F
100
AcDbEntity
  8
section$view
100
AcDbLine
 10
367.0376704746255
 20
407.303371368348
 30
0.0
 11
366.4487130668149
 21
407.375686294341
 31
0.0
  0
LINE
  5
CD
330
1F
100
AcDbEntity
  8
section$view
100
AcDbLine
 10
366.4487130668149
 20
407.375686294341
 30
0.0
 11
365.8626381881561
 21
407.4685114705669
 31
0.0
  0
LINE
  5
CE
330
1F
100
AcDbEntity
  8
section$view
100
AcDbLine
 10
365.8626381881561
 20
407.4685114705669
 30
0.0
 11
365.280159879593
 21
407.5817338040081
 31
0.0
  0
LINE
  5
CF
330
1F
100
AcDbEntity
  8
section$view
100
AcDbLine
 10
365.280159879593
 20
407.5817338040081
 30
0.0
 11
364.7019878002094
 21
407.7152153508887
 31
0.0
  0
LINE
  5
D0
330
1F
100
AcDbEntity
  8
section$view
100
AcDbLine
 10
364.7019878002094
 20
407.7152153508887
 30
0.0
 11
364.1288263626196
 21
407.8687934847367
 31
0.0
  0
LINE
  5
D1
330
1F
100
AcDbEntity
  8
section$view
100
AcDbLine
 10
364.1288263626196
 20
407.8687934847367
 30
0.0
 11
363.561373874751
 21
408.0422810945196
 31
0.0
  0
LINE
  5
D2
330
1F
100
AcDbEntity
  8
section$view
100
AcDbLine
 10
363.561373874751
 20
408.0422810945196
 30
0.0
 11
363.0003216890657
 21
408.2354668126098
 31
0.0
  0
LINE
  5
D3
330
1F
100
AcDbEntity
  8
section$view
100
AcDbLine
 10
363.0003216890657
 20
408.2354668126098
 30
0.0
 11
362.4463533602541
 21
408.4481152723035
 31
0.0
  0
LINE
  5
D4
330
1F
100
AcDbEntity
  8
section$view
100
AcDbLine
 10
362.4463533602541
 20
408.4481152723035
 30
0.0
 11
361.9001438124308
 21
408.6799673945774
 31
0.0
  0
LINE
  5
D5
330
1F
100
AcDbEntity
  8
section$view
100
AcDbLine
 10
361.9001438124308
 20
408.6799673945774
 30
0.0
 11
361.3623585168442
 21
408.9307407037374
 31
0.0
  0
LINE
  5
D6
330
1F
100
AcDbEntity
  8
section$view
100
AcDbLine
 10
361.3623585168442
 20
408.9307407037374
 30
0.0
 11
360.8336526811034
 21
409.2001296715704
 31
0.0
  0
LINE
  5
D7
330
1F
100
AcDbEntity
  8
section$view
100
AcDbLine
 10
360.8336526811034
 20
409.2001296715704
 30
0.0
 11
360.3146704509107
 21
409.487806089583
 31
0.0
  0
LINE
  5
D8
330
1F
100
AcDbEntity
  8
section$view
100
AcDbLine
 10
360.3146704509107
 20
409.487806089583
 30
0.0
 11
359.8060441252692
 21
409.7934194688726
 31
0.0
  0
LINE
  5
D9
330
1F
100
AcDbEntity
  8
section$view
100
AcDbLine
 10
359.8060441252692
 20
409.7934194688726
 30
0.0
 11
359.3083933861257
 21
410.1165974671433
 31
0.0
  0
LINE
  5
DA
330
1F
100
AcDbEntity
  8
section$view
100
AcDbLine
 10
359.3083933861257
 20
410.1165974671433
 30
0.0
 11
358.8223245433845
 21
410.456946342347
 31
0.0
  0
LINE
  5
DB
330
1F
100
AcDbEntity
  8
section$view
100
AcDbLine
 10
358.8223245433845
 20
410.456946342347
 30
0.0
 11
358.3484297962131
 21
410.8140514323972
 31
0.0
  0
LINE
  5
DC
330
1F
100
AcDbEntity
  8
section$view
100
AcDbLine
 10
358.3484297962131
 20
410.8140514323972
 30
0.0
 11
357.8872865115403
 21
411.1874776603694
 31
0.0
  0
LINE
  5
DD
330
1F
100
AcDbEntity
  8
section$view
100
AcDbLine
 10
357.8872865115403
 20
411.1874776603694
 30
0.0
 11
357.4394565206241
 21
411.5767700645753
 31
0.0
  0
LINE
  5
DE
330
1F
100
AcDbEntity
  8
section$view
100
AcDbLine
 10
357.4394565206241
 20
411.5767700645753
 30
0.0
 11
357.0054854345479
 21
411.9814543528619
 31
0.0
  0
LINE
  5
DF
330
1F
100
AcDbEntity
  8
section$view
100
AcDbLine
 10
357.0054854345479
 20
411.9814543528619
 30
0.0
 11
356.5859019794784
 21
412.401037480464
 31
0.0
  0
LINE
  5
E0
330
1F
100
AcDbEntity
  8
section$view
100
AcDbLine
 10
356.5859019794784
 20
412.401037480464
 30
0.0
 11
356.181217352495
 21
412.8350082507005
 31
0.0
  0
LINE
  5
E1
330
1F
100
AcDbEntity
  8
section$view
100
AcDbLine
 10
356.181217352495
 20
412.8350082507005
 30
0.0
 11
355.7919245987763
 21
413.2828379377898
 31
0.0
  0
LINE
  5
E2
330
1F
100
AcDbEntity
  8
section$view
100
AcDbLine
 10
355.7919245987763
 20
413.2828379377898
 30
0.0
 11
355.4184980109009
 21
413.7439809310185
 31
0.0
  0
LINE
  5
E3
330
1F
100
AcDbEntity
  8
section$view
100
AcDbLine
 10
355.4184980109009
 20
413.7439809310185
 30
0.0
 11
355.0613925509953
 21
414.2178753994838
 31
0.0
  0
LINE
  5
E4
330
1F
100
AcDbEntity
  8
section$view
100
AcDbLine
 10
355.0613925509953
 20
414.2178753994838
 30
0.0
 11
354.7210432964349
 21
414.7039439765967
 31
0.0
  0
LINE
  5
E5
330
1F
100
AcDbEntity
  8
section$view
100
AcDbLine
 10
354.7210432964349
 20
414.7039439765967
 30
0.0
 11
354.3978649097683
 21
415.2015944635128
 31
0.0
  0
LINE
  5
E6
330
1F
100
AcDbEntity
  8
section$view
100
AcDbLine
 10
354.3978649097683
 20
415.2015944635128
 30
0.0
 11
354.0922511335168
 21
415.7102205506355
 31
0.0
  0
LINE
  5
E7
330
1F
100
AcDbEntity
  8
section$view
100
AcDbLine
 10
354.0922511335168
 20
415.7102205506355
 30
0.0
 11
353.8045743104599
 21
416.2292025563083
 31
0.0
  0
LINE
  5
E8
330
1F
100
AcDbEntity
  8
section$view
100
AcDbLine
 10
353.8045743104599
 20
416.2292025563083
 30
0.0
 11
353.5351849299937
 21
416.7579081818018
 31
0.0
  0
LINE
  5
E9
330
1F
100
AcDbEntity
  8
section$view
100
AcDbLine
 10
353.5351849299937
 20
416.7579081818018
 30
0.0
 11
353.2844112011143
 21
417.29569328167
 31
0.0
  0
LINE
  5
EA
330
1F
100
AcDbEntity
  8
section$view
100
AcDbLine
 10
353.2844112011143
 20
417.29569328167
 30
0.0
 11
353.0525586525463
 21
417.8419026485421
 31
0.0
  0
LINE
  5
EB
330
1F
100
AcDbEntity
  8
section$view
100
AcDbLine
 10
353.0525586525463
 20
417.8419026485421
 30
0.0
 11
352.8399097605032
 21
418.3958708113901
 31
0.0
  0
LINE
  5
EC
330
1F
100
AcDbEntity
  8
section$view
100
AcDbLine
 10
352.8399097605032
 20
418.3958708113901
 30
0.0
 11
352.6467236045347
 21
418.9569228463017
 31
0.0
  0
LINE
  5
ED
330
1F
100
AcDbEntity
  8
section$view
100
AcDbLine
 10
352.6467236045347
 20
418.9569228463017
 30
0.0
 11
352.4732355518784
 21
419.52437519877
 31
0.0
  0
LINE
  5
EE
330
1F
100
AcDbEntity
  8
section$view
100
AcDbLine
 10
352.4732355518784
 20
419.52437519877
 30
0.0
 11
352.3196569707015
 21
420.0975365164983
 31
0.0
  0
LINE
  5
EF
330
1F
100
AcDbEntity
  8
section$view
100
AcDbLine
 10
352.3196569707015
 20
420.0975365164983
 30
0.0
 11
352.1861749725813
 21
420.6757084917048
 31
0.0
  0
LINE
  5
F0
330
1F
100
AcDbEntity
  8
section$view
100
AcDbLine
 10
352.1861749725813
 20
420.6757084917048
 30
0.0
 11
352.0729521845396
 21
421.2581867119023
 31
0.0
  0
LINE
  5
F1
330
1F
100
AcDbEntity
  8
section$view
100
AcDbLine
 10
352.0729521845396
 20
421.2581867119023
 30
0.0
 11
351.9801265509063
 21
421.8442615181148
 31
0.0
  0
LINE
  5
F2
330
1F
100
AcDbEntity
  8
section$view
100
AcDbLine
 10
351.9801265509063
 20
421.8442615181148
 30
0.0
 11
351.9078111652562
 21
422.4332188694863
 31
0.0
  0
LINE
  5
F3
330
1F
100
AcDbEntity
  8
section$view
100
AcDbLine
 10
351.9078111652562
 20
422.4332188694863
 30
0.0
 11
351.8560941326217
 21
423.024341213229
 31
0.0
  0
LINE
  5
F4
330
1F
100
AcDbEntity
  8
section$view
100
AcDbLine
 10
351.8560941326217
 20
423.024341213229
 30
0.0
 11
351.825038462151
 21
423.6169083588487
 31
0.0
  0
LINE
  5
F5
330
1F
100
AcDbEntity
  8
section$view
100
AcDbLine
 10
351.825038462151
 20
423.6169083588487
 30
0.0
 11
351.8146819903407
 21
424.2101983555855
 31
0.0
  0
LINE
  5
F6
330
1F
100
AcDbEntity
  8
section$view
100
AcDbLine
 10
351.8146819903407
 20
424.2101983555855
 30
0.0
 11
351.8146820724445
 21
459.0440693314121
 31
0.0
  0
LINE
  5
F7
330
1F
100
AcDbEntity
  8
section$view
100
AcDbLine
 10
351.8146820724445
 20
459.0440693314121
 30
0.0
 11
351.8250384601731
 21
459.6373593951638
 31
0.0
  0
LINE
  5
F8
330
1F
100
AcDbEntity
  8
section$view
100
AcDbLine
 10
351.8250384601731
 20
459.6373593951638
 30
0.0
 11
351.8560940497806
 21
460.2299266106488
 31
0.0
  0
LINE
  5
F9
330
1F
100
AcDbEntity
  8
section$view
100
AcDbLine
 10
351.8560940497806
 20
460.2299266106488
 30
0.0
 11
351.9078110048658
 21
460.8210490269637
 31
0.0
  0
LINE
  5
FA
330
1F
100
AcDbEntity
  8
section$view
100
AcDbLine
 10
351.9078110048658
 20
460.8210490269637
 30
0.0
 11
351.98012631637
 21
461.4100064534688
 31
0.0
  0
LINE
  5
FB
330
1F
100
AcDbEntity
  8
section$view
100
AcDbLine
 10
351.98012631637
 20
461.4100064534688
 30
0.0
 11
352.072951879344
 21
461.9960813372267
 31
0.0
  0
LINE
  5
FC
330
1F
100
AcDbEntity
  8
section$view
100
AcDbLine
 10
352.072951879344
 20
461.9960813372267
 30
0.0
 11
352.1861746002901
 21
462.5785596372302
 31
0.0
  0
LINE
  5
FD
330
1F
100
AcDbEntity
  8
section$view
100
AcDbLine
 10
352.1861746002901
 20
462.5785596372302
 30
0.0
 11
352.319656534949
 21
463.1567316943491
 31
0.0
  0
LINE
  5
FE
330
1F
100
AcDbEntity
  8
section$view
100
AcDbLine
 10
352.319656534949
 20
463.1567316943491
 30
0.0
 11
352.4732350563634
 21
463.7298930959399
 31
0.0
  0
LINE
  5
FF
330
1F
100
AcDbEntity
  8
section$view
100
AcDbLine
 10
352.4732350563634
 20
463.7298930959399
 30
0.0
 11
352.6467230530137
 21
464.2973455340629
 31
0.0
  0
LINE
  5
100
330
1F
100
AcDbEntity
  8
section$view
100
AcDbLine
 10
352.6467230530137
 20
464.2973455340629
 30
0.0
 11
352.8399091567838
 21
464.8583976562614
 31
0.0
  0
LINE
  5
101
330
1F
100
AcDbEntity
  8
section$view
100
AcDbLine
 10
352.8399091567838
 20
464.8583976562614
 30
0.0
 11
353.0525580004812
 21
465.4123659078675
 31
0.0
  0
LINE
  5
102
330
1F
100
AcDbEntity
  8
section$view
100
AcDbLine
 10
353.0525580004812
 20
465.4123659078675
 30
0.0
 11
353.2844105045942
 21
465.9585753648068
 31
0.0
  0
LINE
  5
103
330
1F
100
AcDbEntity
  8
section$view
100
AcDbLine
 10
353.2844105045942
 20
465.9585753648068
 30
0.0
 11
353.5351841929407
 21
466.4963605558882
 31
0.0
  0
LINE
  5
104
330
1F
100
AcDbEntity
  8
section$view
100
AcDbLine
 10
353.5351841929407
 20
466.4963605558882
 30
0.0
 11
353.8045735368211
 21
467.0250662735772
 31
0.0
  0
LINE
  5
105
330
1F
100
AcDbEntity
  8
section$view
100
AcDbLine
 10
353.8045735368211
 20
467.0250662735772
 30
0.0
 11
354.0922503272578
 21
467.5440483722641
 31
0.0
  0
LINE
  5
106
330
1F
100
AcDbEntity
  8
section$view
100
AcDbLine
 10
354.0922503272578
 20
467.5440483722641
 30
0.0
 11
354.397864074866
 21
468.0526745530552
 31
0.0
  0
LINE
  5
107
330
1F
100
AcDbEntity
  8
section$view
100
AcDbLine
 10
354.397864074866
 20
468.0526745530552
 30
0.0
 11
354.7210424368716
 21
468.5503251341308
 31
0.0
  0
LINE
  5
108
330
1F
100
AcDbEntity
  8
section$view
100
AcDbLine
 10
354.7210424368716
 20
468.5503251341308
 30
0.0
 11
355.0613916707518
 21
469.0363938057303
 31
0.0
  0
LINE
  5
109
330
1F
100
AcDbEntity
  8
section$view
100
AcDbLine
 10
355.0613916707518
 20
469.0363938057303
 30
0.0
 11
355.4184971139496
 21
469.5102883688473
 31
0.0
  0
LINE
  5
10A
330
1F
100
AcDbEntity
  8
section$view
100
AcDbLine
 10
355.4184971139496
 20
469.5102883688473
 30
0.0
 11
355.7919236890757
 21
469.9714314567311
 31
0.0
  0
LINE
  5
10B
330
1F
100
AcDbEntity
  8
section$view
100
AcDbLine
 10
355.7919236890757
 20
469.9714314567311
 30
0.0
 11
356.1812164339821
 21
470.4192612383184
 31
0.0
  0
LINE
  5
10C
330
1F
100
AcDbEntity
  8
section$view
100
AcDbLine
 10
356.1812164339821
 20
470.4192612383184
 30
0.0
 11
356.5859010560632
 21
470.8532321027374
 31
0.0
  0
LINE
  5
10D
330
1F
100
AcDbEntity
  8
section$view
100
AcDbLine
 10
356.5859010560632
 20
470.8532321027374
 30
0.0
 11
357.005484510107
 21
471.2728153240487
 31
0.0
  0
LINE
  5
10E
330
1F
100
AcDbEntity
  8
section$view
100
AcDbLine
 10
357.005484510107
 20
471.2728153240487
 30
0.0
 11
357.4394555989942
 21
471.6774997054169
 31
0.0
  0
LINE
  5
10F
330
1F
100
AcDbEntity
  8
section$view
100
AcDbLine
 10
357.4394555989942
 20
471.6774997054169
 30
0.0
 11
357.8872855965126
 21
472.0667922019233
 31
0.0
  0
LINE
  5
110
330
1F
100
AcDbEntity
  8
section$view
100
AcDbLine
 10
357.8872855965126
 20
472.0667922019233
 30
0.0
 11
358.3484288915267
 21
472.4402185212647
 31
0.0
  0
LINE
  5
111
330
1F
100
AcDbEntity
  8
section$view
100
AcDbLine
 10
358.3484288915267
 20
472.4402185212647
 30
0.0
 11
358.8223236527211
 21
472.797323701605
 31
0.0
  0
LINE
  5
112
330
1F
100
AcDbEntity
  8
section$view
100
AcDbLine
 10
358.8223236527211
 20
472.797323701605
 30
0.0
 11
359.3083925131039
 21
473.1376726658749
 31
0.0
  0
LINE
  5
113
330
1F
100
AcDbEntity
  8
section$view
100
AcDbLine
 10
359.3083925131039
 20
473.1376726658749
 30
0.0
 11
359.8060432734383
 21
473.460850751846
 31
0.0
  0
LINE
  5
114
330
1F
100
AcDbEntity
  8
section$view
100
AcDbLine
 10
359.8060432734383
 20
473.460850751846
 30
0.0
 11
360.3146696237457
 21
473.766464217332
 31
0.0
  0
LINE
  5
115
330
1F
100
AcDbEntity
  8
section$view
100
AcDbLine
 10
360.3146696237457
 20
473.766464217332
 30
0.0
 11
360.8336518819996
 21
474.0541407199021
 31
0.0
  0
LINE
  5
116
330
1F
100
AcDbEntity
  8
section$view
100
AcDbLine
 10
360.8336518819996
 20
474.0541407199021
 30
0.0
 11
361.3623577491121
 21
474.3235297705227
 31
0.0
  0
LINE
  5
117
330
1F
100
AcDbEntity
  8
section$view
100
AcDbLine
 10
361.3623577491121
 20
474.3235297705227
 30
0.0
 11
361.9001430792914
 21
474.5743031605731
 31
0.0
  0
LINE
  5
118
330
1F
100
AcDbEntity
  8
section$view
100
AcDbLine
 10
361.9001430792914
 20
474.5743031605731
 30
0.0
 11
362.4463526648334
 21
474.8061553617173
 31
0.0
  0
LINE
  5
119
330
1F
100
AcDbEntity
  8
section$view
100
AcDbLine
 10
362.4463526648334
 20
474.8061553617173
 30
0.0
 11
363.0003210343904
 21
475.0188038981422
 31
0.0
  0
LINE
  5
11A
330
1F
100
AcDbEntity
  8
section$view
100
AcDbLine
 10
363.0003210343904
 20
475.0188038981422
 30
0.0
 11
363.5613732637444
 21
475.2119896907108
 31
0.0
  0
LINE
  5
11B
330
1F
100
AcDbEntity
  8
section$view
100
AcDbLine
 10
363.5613732637444
 20
475.2119896907108
 30
0.0
 11
364.1288257980967
 21
475.3854773726092
 31
0.0
  0
LINE
  5
11C
330
1F
100
AcDbEntity
  8
section$view
100
AcDbLine
 10
364.1288257980967
 20
475.3854773726092
 30
0.0
 11
364.7019872848736
 21
475.5390555761053
 31
0.0
  0
LINE
  5
11D
330
1F
100
AcDbEntity
  8
section$view
100
AcDbLine
 10
364.7019872848736
 20
475.5390555761053
 30
0.0
 11
365.2801594160316
 21
475.6725371900665
 31
0.0
  0
LINE
  5
11E
330
1F
100
AcDbEntity
  8
section$view
100
AcDbLine
 10
365.2801594160316
 20
475.6725371900665
 30
0.0
 11
365.8626377788367
 21
475.7857595879264
 31
0.0
  0
LINE
  5
11F
330
1F
100
AcDbEntity
  8
section$view
100
AcDbLine
 10
365.8626377788367
 20
475.7857595879264
 30
0.0
 11
366.4487127140827
 21
475.8785848258192
 31
0.0
  0
LINE
  5
120
330
1F
100
AcDbEntity
  8
section$view
100
AcDbLine
 10
366.4487127140827
 20
475.8785848258192
 30
0.0
 11
367.037670180699
 21
475.9508998106434
 31
0.0
  0
LINE
  5
121
330
1F
100
AcDbEntity
  8
section$view
100
AcDbLine
 10
367.037670180699
 20
475.9508998106434
 30
0.0
 11
367.6287926257001
 21
476.0026164378477
 31
0.0
  0
LINE
  5
122
330
1F
100
AcDbEntity
  8
section$view
100
AcDbLine
 10
367.6287926257001
 20
476.0026164378477
 30
0.0
 11
368.2213598584107
 21
476.033671698773
 31
0.0
  0
LINE
  5
123
330
1F
100
AcDbEntity
  8
section$view
100
AcDbLine
 10
368.2213598584107
 20
476.033671698773
 30
0.0
 11
368.8146499279068
 21
476.0440277574184
 31
0.0
  0
LINE
  5
124
330
1F
100
AcDbEntity
  8
section$view
100
AcDbLine
 10
368.8146500334077
 20
387.2102435802924
 30
0.0
 11
418.8468899702242
 21
387.2102434244931
 31
0.0
  0
LINE
  5
125
330
1F
100
AcDbEntity
  8
section$view
100
AcDbLine
 10
418.8468899702242
 20
387.2102434244931
 30
0.0
 11
468.8791272891466
 21
387.2102436517221
 31
0.0
  0
LINE
  5
126
330
1F
100
AcDbEntity
  8
section$view
100
AcDbLine
 10
468.8791272891466
 20
387.2102436517221
 30
0.0
 11
469.4724179207766
 21
387.199887329938
 31
0.0
  0
LINE
  5
127
330
1F
100
AcDbEntity
  8
section$view
100
AcDbLine
 10
469.4724179207766
 20
387.199887329938
 30
0.0
 11
470.0649857057626
 21
387.1688317800675
 31
0.0
  0
LINE
  5
128
330
1F
100
AcDbEntity
  8
section$view
100
AcDbLine
 10
470.0649857057626
 20
387.1688317800675
 30
0.0
 11
470.6561086920645
 21
387.1171148384868
 31
0.0
  0
LINE
  5
129
330
1F
100
AcDbEntity
  8
section$view
100
AcDbLine
 10
470.6561086920645
 20
387.1171148384868
 30
0.0
 11
471.2450666879056
 21
387.0447995142766
 31
0.0
  0
LINE
  5
12A
330
1F
100
AcDbEntity
  8
section$view
100
AcDbLine
 10
471.2450666879056
 20
387.0447995142766
 30
0.0
 11
471.8311421392151
 21
386.9519739124558
 31
0.0
  0
LINE
  5
12B
330
1F
100
AcDbEntity
  8
section$view
100
AcDbLine
 10
471.8311421392151
 20
386.9519739124558
 30
0.0
 11
472.4136210038555
 21
386.8387511266388
 31
0.0
  0
LINE
  5
12C
330
1F
100
AcDbEntity
  8
section$view
100
AcDbLine
 10
472.4136210038555
 20
386.8387511266388
 30
0.0
 11
472.9917936215733
 21
386.7052691012486
 31
0.0
  0
LINE
  5
12D
330
1F
100
AcDbEntity
  8
section$view
100
AcDbLine
 10
472.9917936215733
 20
386.7052691012486
 30
0.0
 11
473.5649555786096
 21
386.5516904634529
 31
0.0
  0
LINE
  5
12E
330
1F
100
AcDbEntity
  8
section$view
100
AcDbLine
 10
473.5649555786096
 20
386.5516904634529
 30
0.0
 11
474.1324085659194
 21
386.378202325028
 31
0.0
  0
LINE
  5
12F
330
1F
100
AcDbEntity
  8
section$view
100
AcDbLine
 10
474.1324085659194
 20
386.378202325028
 30
0.0
 11
474.6934612299526
 21
386.1850160543922
 31
0.0
  0
LINE
  5
130
330
1F
100
AcDbEntity
  8
section$view
100
AcDbLine
 10
474.6934612299526
 20
386.1850160543922
 30
0.0
 11
475.2474300149615
 21
385.9723670190861
 31
0.0
  0
LINE
  5
131
330
1F
100
AcDbEntity
  8
section$view
100
AcDbLine
 10
475.2474300149615
 20
385.9723670190861
 30
0.0
 11
475.7936399958076
 21
385.7405142990136
 31
0.0
  0
LINE
  5
132
330
1F
100
AcDbEntity
  8
section$view
100
AcDbLine
 10
475.7936399958076
 20
385.7405142990136
 30
0.0
 11
476.3314257002531
 21
385.4897403707934
 31
0.0
  0
LINE
  5
133
330
1F
100
AcDbEntity
  8
section$view
100
AcDbLine
 10
476.3314257002531
 20
385.4897403707934
 30
0.0
 11
476.8601319197358
 21
385.2203507636048
 31
0.0
  0
LINE
  5
134
330
1F
100
AcDbEntity
  8
section$view
100
AcDbLine
 10
476.8601319197358
 20
385.2203507636048
 30
0.0
 11
477.3791145076394
 21
384.932673686948
 31
0.0
  0
LINE
  5
135
330
1F
100
AcDbEntity
  8
section$view
100
AcDbLine
 10
477.3791145076394
 20
384.932673686948
 30
0.0
 11
477.8877411640859
 21
384.6270596307711
 31
0.0
  0
LINE
  5
136
330
1F
100
AcDbEntity
  8
section$view
100
AcDbLine
 10
477.8877411640859
 20
384.6270596307711
 30
0.0
 11
478.3853922062958
 21
384.3038809384531
 31
0.0
  0
LINE
  5
137
330
1F
100
AcDbEntity
  8
section$view
100
AcDbLine
 10
478.3853922062958
 20
384.3038809384531
 30
0.0
 11
478.8714613235746
 21
383.9635313531607
 31
0.0
  0
LINE
  5
138
330
1F
100
AcDbEntity
  8
section$view
100
AcDbLine
 10
478.8714613235746
 20
383.9635313531607
 30
0.0
 11
479.3453563160094
 21
383.6064255381337
 31
0.0
  0
LINE
  5
139
330
1F
100
AcDbEntity
  8
section$view
100
AcDbLine
 10
479.3453563160094
 20
383.6064255381337
 30
0.0
 11
479.806499815972
 21
383.2329985714813
 31
0.0
  0
LINE
  5
13A
330
1F
100
AcDbEntity
  8
section$view
100
AcDbLine
 10
479.806499815972
 20
383.2329985714813
 30
0.0
 11
480.2543299915523
 21
382.8437054161079
 31
0.0
  0
LINE
  5
13B
330
1F
100
AcDbEntity
  8
section$view
100
AcDbLine
 10
480.2543299915523
 20
382.8437054161079
 30
0.0
 11
480.6883012310633
 21
382.4390203654103
 31
0.0
  0
LINE
  5
13C
330
1F
100
AcDbEntity
  8
section$view
100
AcDbLine
 10
480.6883012310633
 20
382.4390203654103
 30
0.0
 11
481.1078848077846
 21
382.0194364654251
 31
0.0
  0
LINE
  5
13D
330
1F
100
AcDbEntity
  8
section$view
100
AcDbLine
 10
481.1078848077846
 20
382.0194364654251
 30
0.0
 11
481.5125695241336
 21
381.585464914129
 31
0.0
  0
LINE
  5
13E
330
1F
100
AcDbEntity
  8
section$view
100
AcDbLine
 10
481.5125695241336
 20
381.585464914129
 30
0.0
 11
481.9018623344809
 21
381.137634438622
 31
0.0
  0
LINE
  5
13F
330
1F
100
AcDbEntity
  8
section$view
100
AcDbLine
 10
481.9018623344809
 20
381.137634438622
 30
0.0
 11
482.2752889458501
 21
380.6764906509567
 31
0.0
  0
LINE
  5
140
330
1F
100
AcDbEntity
  8
section$view
100
AcDbLine
 10
482.2752889458501
 20
380.6764906509567
 30
0.0
 11
482.6323943957697
 21
380.2025953833937
 31
0.0
  0
LINE
  5
141
330
1F
100
AcDbEntity
  8
section$view
100
AcDbLine
 10
482.6323943957697
 20
380.2025953833937
 30
0.0
 11
482.9727436065751
 21
379.7165260038962
 31
0.0
  0
LINE
  5
142
330
1F
100
AcDbEntity
  8
section$view
100
AcDbLine
 10
482.9727436065751
 20
379.7165260038962
 30
0.0
 11
483.2959219154831
 21
379.218874712697
 31
0.0
  0
LINE
  5
143
330
1F
100
AcDbEntity
  8
section$view
100
AcDbLine
 10
483.2959219154831
 20
379.218874712697
 30
0.0
 11
483.6015355797938
 21
378.7102478207934
 31
0.0
  0
LINE
  5
144
330
1F
100
AcDbEntity
  8
section$view
100
AcDbLine
 10
483.6015355797938
 20
378.7102478207934
 30
0.0
 11
483.8892122566061
 21
378.1912650112523
 31
0.0
  0
LINE
  5
145
330
1F
100
AcDbEntity
  8
section$view
100
AcDbLine
 10
483.8892122566061
 20
378.1912650112523
 30
0.0
 11
484.1586014564584
 21
377.6625585842214
 31
0.0
  0
LINE
  5
146
330
1F
100
AcDbEntity
  8
section$view
100
AcDbLine
 10
484.1586014564584
 20
377.6625585842214
 30
0.0
 11
484.4093749703472
 21
377.1247726865699
 31
0.0
  0
LINE
  5
147
330
1F
100
AcDbEntity
  8
section$view
100
AcDbLine
 10
484.4093749703472
 20
377.1247726865699
 30
0.0
 11
484.641227269598
 21
376.5785625270955
 31
0.0
  0
LINE
  5
148
330
1F
100
AcDbEntity
  8
section$view
100
AcDbLine
 10
484.641227269598
 20
376.5785625270955
 30
0.0
 11
484.8538758781047
 21
376.0245935782536
 31
0.0
  0
LINE
  5
149
330
1F
100
AcDbEntity
  8
section$view
100
AcDbLine
 10
484.8538758781047
 20
376.0245935782536
 30
0.0
 11
485.0470617164834
 21
375.4635407653822
 31
0.0
  0
LINE
  5
14A
330
1F
100
AcDbEntity
  8
section$view
100
AcDbLine
 10
485.0470617164834
 20
375.4635407653822
 30
0.0
 11
485.2205494177201
 21
374.8960876444106
 31
0.0
  0
LINE
  5
14B
330
1F
100
AcDbEntity
  8
section$view
100
AcDbLine
 10
485.2205494177201
 20
374.8960876444106
 30
0.0
 11
485.3741276139293
 21
374.3229255690514
 31
0.0
  0
LINE
  5
14C
330
1F
100
AcDbEntity
  8
section$view
100
AcDbLine
 10
485.3741276139293
 20
374.3229255690514
 30
0.0
 11
485.5076091938725
 21
373.7447528484939
 31
0.0
  0
LINE
  5
14D
330
1F
100
AcDbEntity
  8
section$view
100
AcDbLine
 10
485.5076091938725
 20
373.7447528484939
 30
0.0
 11
485.6208315309248
 21
373.1622738966224
 31
0.0
  0
LINE
  5
14E
330
1F
100
AcDbEntity
  8
section$view
100
AcDbLine
 10
485.6208315309248
 20
373.1622738966224
 30
0.0
 11
485.7136566812099
 21
372.5761983737967
 31
0.0
  0
LINE
  5
14F
330
1F
100
AcDbEntity
  8
section$view
100
AcDbLine
 10
485.7136566812099
 20
372.5761983737967
 30
0.0
 11
485.7859715516636
 21
371.9872403222411
 31
0.0
  0
LINE
  5
150
330
1F
100
AcDbEntity
  8
section$view
100
AcDbLine
 10
485.7859715516636
 20
371.9872403222411
 30
0.0
 11
485.8376880378199
 21
371.3961172960946
 31
0.0
  0
LINE
  5
151
330
1F
100
AcDbEntity
  8
section$view
100
AcDbLine
 10
485.8376880378199
 20
371.3961172960946
 30
0.0
 11
485.8687431311528
 21
370.8035494871825
 31
0.0
  0
LINE
  5
152
330
1F
100
AcDbEntity
  8
section$view
100
AcDbLine
 10
485.8687431311528
 20
370.8035494871825
 30
0.0
 11
485.8790989958425
 21
370.2102588475736
 31
0.0
  0
LINE
  5
153
330
1F
100
AcDbEntity
  8
section$view
100
AcDbLine
 10
485.8790989958425
 20
370.2102588475736
 30
0.0
 11
485.8790992475546
 21
335.3764485444282
 31
0.0
  0
LINE
  5
154
330
1F
100
AcDbEntity
  8
section$view
100
AcDbLine
 10
485.8790992475546
 20
335.3764485444282
 30
0.0
 11
485.8687435734053
 21
334.7831579602963
 31
0.0
  0
LINE
  5
155
330
1F
100
AcDbEntity
  8
section$view
100
AcDbLine
 10
485.8687435734053
 20
334.7831579602963
 30
0.0
 11
485.837688673139
 21
334.1905902001406
 31
0.0
  0
LINE
  5
156
330
1F
100
AcDbEntity
  8
section$view
100
AcDbLine
 10
485.837688673139
 20
334.1905902001406
 30
0.0
 11
485.7859723823378
 21
333.5994672159213
 31
0.0
  0
LINE
  5
157
330
1F
100
AcDbEntity
  8
section$view
100
AcDbLine
 10
485.7859723823378
 20
333.5994672159213
 30
0.0
 11
485.7136577092852
 21
333.0105091993633
 31
0.0
  0
LINE
  5
158
330
1F
100
AcDbEntity
  8
section$view
100
AcDbLine
 10
485.7136577092852
 20
333.0105091993633
 30
0.0
 11
485.6208327582008
 21
332.4244337045141
 31
0.0
  0
LINE
  5
159
330
1F
100
AcDbEntity
  8
section$view
100
AcDbLine
 10
485.6208327582008
 20
332.4244337045141
 30
0.0
 11
485.5076106218984
 21
331.8419547735151
 31
0.0
  0
LINE
  5
15A
330
1F
100
AcDbEntity
  8
section$view
100
AcDbLine
 10
485.5076106218984
 20
331.8419547735151
 30
0.0
 11
485.3741292440002
 21
331.2637820666524
 31
0.0
  0
LINE
  5
15B
330
1F
100
AcDbEntity
  8
section$view
100
AcDbLine
 10
485.3741292440002
 20
331.2637820666524
 30
0.0
 11
485.2205512508741
 21
330.6906199977453
 31
0.0
  0
LINE
  5
15C
330
1F
100
AcDbEntity
  8
section$view
100
AcDbLine
 10
485.2205512508741
 20
330.6906199977453
 30
0.0
 11
485.047063753498
 21
330.1231668759275
 31
0.0
  0
LINE
  5
15D
330
1F
100
AcDbEntity
  8
section$view
100
AcDbLine
 10
485.047063753498
 20
330.1231668759275
 30
0.0
 11
484.8538781194948
 21
329.5621140548657
 31
0.0
  0
LINE
  5
15E
330
1F
100
AcDbEntity
  8
section$view
100
AcDbLine
 10
484.8538781194948
 20
329.5621140548657
 30
0.0
 11
484.6412297156135
 21
329.0081450904522
 31
0.0
  0
LINE
  5
15F
330
1F
100
AcDbEntity
  8
section$view
100
AcDbLine
 10
484.6412297156135
 20
329.0081450904522
 30
0.0
 11
484.4093776209709
 21
328.4619349079982
 31
0.0
  0
LINE
  5
160
330
1F
100
AcDbEntity
  8
section$view
100
AcDbLine
 10
484.4093776209709
 20
328.4619349079982
 30
0.0
 11
484.1586043114046
 21
327.9241489799417
 31
0.0
  0
LINE
  5
161
330
1F
100
AcDbEntity
  8
section$view
100
AcDbLine
 10
484.1586043114046
 20
327.9241489799417
 30
0.0
 11
483.8892153153192
 21
327.3954425150723
 31
0.0
  0
LINE
  5
162
330
1F
100
AcDbEntity
  8
section$view
100
AcDbLine
 10
483.8892153153192
 20
327.3954425150723
 30
0.0
 11
483.6015388414477
 21
326.8764596602615
 31
0.0
  0
LINE
  5
163
330
1F
100
AcDbEntity
  8
section$view
100
AcDbLine
 10
483.6015388414477
 20
326.8764596602615
 30
0.0
 11
483.2959253789803
 21
326.3678327156693
 31
0.0
  0
LINE
  5
164
330
1F
100
AcDbEntity
  8
section$view
100
AcDbLine
 10
483.2959253789803
 20
326.3678327156693
 30
0.0
 11
482.9727472705471
 21
325.870181364384
 31
0.0
  0
LINE
  5
165
330
1F
100
AcDbEntity
  8
section$view
100
AcDbLine
 10
482.9727472705471
 20
325.870181364384
 30
0.0
 11
482.6323982585765
 21
325.3841119174351
 31
0.0
  0
LINE
  5
166
330
1F
100
AcDbEntity
  8
section$view
100
AcDbLine
 10
482.6323982585765
 20
325.3841119174351
 30
0.0
 11
482.2752930055813
 21
324.9102165750969
 31
0.0
  0
LINE
  5
167
330
1F
100
AcDbEntity
  8
section$view
100
AcDbLine
 10
482.2752930055813
 20
324.9102165750969
 30
0.0
 11
481.9018665889566
 21
324.4490727053844
 31
0.0
  0
LINE
  5
168
330
1F
100
AcDbEntity
  8
section$view
100
AcDbLine
 10
481.9018665889566
 20
324.4490727053844
 30
0.0
 11
481.5125739709054
 21
324.0012421406199
 31
0.0
  0
LINE
  5
169
330
1F
100
AcDbEntity
  8
section$view
100
AcDbLine
 10
481.5125739709054
 20
324.0012421406199
 30
0.0
 11
481.1078894441374
 21
323.5672704929271
 31
0.0
  0
LINE
  5
16A
330
1F
100
AcDbEntity
  8
section$view
100
AcDbLine
 10
481.1078894441374
 20
323.5672704929271
 30
0.0
 11
480.6883060540174
 21
323.1476864894879
 31
0.0
  0
LINE
  5
16B
330
1F
100
AcDbEntity
  8
section$view
100
AcDbLine
 10
480.6883060540174
 20
323.1476864894879
 30
0.0
 11
480.2543349978659
 21
322.7430013283697
 31
0.0
  0
LINE
  5
16C
330
1F
100
AcDbEntity
  8
section$view
100
AcDbLine
 10
480.2543349978659
 20
322.7430013283697
 30
0.0
 11
479.8065050021436
 21
322.3537080557101
 31
0.0
  0
LINE
  5
16D
330
1F
100
AcDbEntity
  8
section$view
100
AcDbLine
 10
479.8065050021436
 20
322.3537080557101
 30
0.0
 11
479.3453616782814
 21
321.9802809650166
 31
0.0
  0
LINE
  5
16E
330
1F
100
AcDbEntity
  8
section$view
100
AcDbLine
 10
479.3453616782814
 20
321.9802809650166
 30
0.0
 11
478.8714668579362
 21
321.6231750193134
 31
0.0
  0
LINE
  5
16F
330
1F
100
AcDbEntity
  8
section$view
100
AcDbLine
 10
478.8714668579362
 20
321.6231750193134
 30
0.0
 11
478.3853979084872
 21
321.2828252968393
 31
0.0
  0
LINE
  5
170
330
1F
100
AcDbEntity
  8
section$view
100
AcDbLine
 10
478.3853979084872
 20
321.2828252968393
 30
0.0
 11
477.8877470296026
 21
320.9596464609731
 31
0.0
  0
LINE
  5
171
330
1F
100
AcDbEntity
  8
section$view
100
AcDbLine
 10
477.8877470296026
 20
320.9596464609731
 30
0.0
 11
477.3791205317362
 21
320.6540322550292
 31
0.0
  0
LINE
  5
172
330
1F
100
AcDbEntity
  8
section$view
100
AcDbLine
 10
477.3791205317362
 20
320.6540322550292
 30
0.0
 11
476.8601380974321
 21
320.3663550225436
 31
0.0
  0
LINE
  5
173
330
1F
100
AcDbEntity
  8
section$view
100
AcDbLine
 10
476.8601380974321
 20
320.3663550225436
 30
0.0
 11
476.3314320263382
 21
320.0969652536309
 31
0.0
  0
LINE
  5
174
330
1F
100
AcDbEntity
  8
section$view
100
AcDbLine
 10
476.3314320263382
 20
320.0969652536309
 30
0.0
 11
475.7936464648458
 21
319.8461911579653
 31
0.0
  0
LINE
  5
175
330
1F
100
AcDbEntity
  8
section$view
100
AcDbLine
 10
475.7936464648458
 20
319.8461911579653
 30
0.0
 11
475.2474366212982
 21
319.6143382649096
 31
0.0
  0
LINE
  5
176
330
1F
100
AcDbEntity
  8
section$view
100
AcDbLine
 10
475.2474366212982
 20
319.6143382649096
 30
0.0
 11
474.6934679677205
 21
319.4016890512738
 31
0.0
  0
LINE
  5
177
330
1F
100
AcDbEntity
  8
section$view
100
AcDbLine
 10
474.6934679677205
 20
319.4016890512738
 30
0.0
 11
474.1324154290451
 21
319.2085025971614
 31
0.0
  0
LINE
  5
178
330
1F
100
AcDbEntity
  8
section$view
100
AcDbLine
 10
474.1324154290451
 20
319.2085025971614
 30
0.0
 11
473.5649625608204
 21
319.0350142703206
 31
0.0
  0
LINE
  5
179
330
1F
100
AcDbEntity
  8
section$view
100
AcDbLine
 10
473.5649625608204
 20
319.0350142703206
 30
0.0
 11
472.9918007164039
 21
318.8814354393847
 31
0.0
  0
LINE
  5
17A
330
1F
100
AcDbEntity
  8
section$view
100
AcDbLine
 10
472.9918007164039
 20
318.8814354393847
 30
0.0
 11
472.4136282046559
 21
318.7479532163526
 31
0.0
  0
LINE
  5
17B
330
1F
100
AcDbEntity
  8
section$view
100
AcDbLine
 10
472.4136282046559
 20
318.7479532163526
 30
0.0
 11
471.8311494391581
 21
318.6347302286216
 31
0.0
  0
LINE
  5
17C
330
1F
100
AcDbEntity
  8
section$view
100
AcDbLine
 10
471.8311494391581
 20
318.6347302286216
 30
0.0
 11
471.2450740799948
 21
318.5419044208514
 31
0.0
  0
LINE
  5
17D
330
1F
100
AcDbEntity
  8
section$view
100
AcDbLine
 10
471.2450740799948
 20
318.5419044208514
 30
0.0
 11
470.6561161691422
 21
318.4695888868995
 31
0.0
  0
LINE
  5
17E
330
1F
100
AcDbEntity
  8
section$view
100
AcDbLine
 10
470.6561161691422
 20
318.4695888868995
 30
0.0
 11
470.0649932605189
 21
318.4178717320344
 31
0.0
  0
LINE
  5
17F
330
1F
100
AcDbEntity
  8
section$view
100
AcDbLine
 10
470.0649932605189
 20
318.4178717320344
 30
0.0
 11
469.4724255457577
 21
318.3868159655923
 31
0.0
  0
LINE
  5
180
330
1F
100
AcDbEntity
  8
section$view
100
AcDbLine
 10
469.4724255457577
 20
318.3868159655923
 30
0.0
 11
468.8791349767638
 21
318.3764594242107
 31
0.0
  0
LINE
  5
181
330
1F
100
AcDbEntity
  8
section$view
100
AcDbLine
 10
468.8791349767638
 20
318.3764594242107
 30
0.0
 11
368.8146501389086
 21
318.3764594031663
 31
0.0
  0
LINE
  5
182
330
1F
100
AcDbEntity
  8
section$view
100
AcDbLine
 10
368.8146501389086
 20
318.3764594031663
 30
0.0
 11
368.2213601340892
 21
318.386815411938
 31
0.0
  0
LINE
  5
183
330
1F
100
AcDbEntity
  8
section$view
100
AcDbLine
 10
368.2213601340892
 20
318.386815411938
 30
0.0
 11
367.6287929642319
 21
318.4178706199343
 31
0.0
  0
LINE
  5
184
330
1F
100
AcDbEntity
  8
section$view
100
AcDbLine
 10
367.6287929642319
 20
318.4178706199343
 30
0.0
 11
367.0376705801265
 21
318.469587191222
 31
0.0
  0
LINE
  5
185
330
1F
100
AcDbEntity
  8
section$view
100
AcDbLine
 10
367.0376705801265
 20
318.469587191222
 30
0.0
 11
366.4487131723159
 21
318.541902117215
 31
0.0
  0
LINE
  5
186
330
1F
100
AcDbEntity
  8
section$view
100
AcDbLine
 10
366.4487131723159
 20
318.541902117215
 30
0.0
 11
365.862638293657
 21
318.6347272934408
 31
0.0
  0
LINE
  5
187
330
1F
100
AcDbEntity
  8
section$view
100
AcDbLine
 10
365.862638293657
 20
318.6347272934408
 30
0.0
 11
365.280159985094
 21
318.7479496268821
 31
0.0
  0
LINE
  5
188
330
1F
100
AcDbEntity
  8
section$view
100
AcDbLine
 10
365.280159985094
 20
318.7479496268821
 30
0.0
 11
364.7019879057104
 21
318.8814311737627
 31
0.0
  0
LINE
  5
189
330
1F
100
AcDbEntity
  8
section$view
100
AcDbLine
 10
364.7019879057104
 20
318.8814311737627
 30
0.0
 11
364.1288264681205
 21
319.0350093076107
 31
0.0
  0
LINE
  5
18A
330
1F
100
AcDbEntity
  8
section$view
100
AcDbLine
 10
364.1288264681205
 20
319.0350093076107
 30
0.0
 11
363.5613739802519
 21
319.2084969173936
 31
0.0
  0
LINE
  5
18B
330
1F
100
AcDbEntity
  8
section$view
100
AcDbLine
 10
363.5613739802519
 20
319.2084969173936
 30
0.0
 11
363.0003217945667
 21
319.4016826354838
 31
0.0
  0
LINE
  5
18C
330
1F
100
AcDbEntity
  8
section$view
100
AcDbLine
 10
363.0003217945667
 20
319.4016826354838
 30
0.0
 11
362.4463534657551
 21
319.6143310951774
 31
0.0
  0
LINE
  5
18D
330
1F
100
AcDbEntity
  8
section$view
100
AcDbLine
 10
362.4463534657551
 20
319.6143310951774
 30
0.0
 11
361.9001439179317
 21
319.8461832174514
 31
0.0
  0
LINE
  5
18E
330
1F
100
AcDbEntity
  8
section$view
100
AcDbLine
 10
361.9001439179317
 20
319.8461832174514
 30
0.0
 11
361.3623586223451
 21
320.0969565266114
 31
0.0
  0
LINE
  5
18F
330
1F
100
AcDbEntity
  8
section$view
100
AcDbLine
 10
361.3623586223451
 20
320.0969565266114
 30
0.0
 11
360.8336527866044
 21
320.3663454944444
 31
0.0
  0
LINE
  5
190
330
1F
100
AcDbEntity
  8
section$view
100
AcDbLine
 10
360.8336527866044
 20
320.3663454944444
 30
0.0
 11
360.3146705564117
 21
320.654021912457
 31
0.0
  0
LINE
  5
191
330
1F
100
AcDbEntity
  8
section$view
100
AcDbLine
 10
360.3146705564117
 20
320.654021912457
 30
0.0
 11
359.8060442307702
 21
320.9596352917466
 31
0.0
  0
LINE
  5
192
330
1F
100
AcDbEntity
  8
section$view
100
AcDbLine
 10
359.8060442307702
 20
320.9596352917466
 30
0.0
 11
359.3083934916267
 21
321.2828132900172
 31
0.0
  0
LINE
  5
193
330
1F
100
AcDbEntity
  8
section$view
100
AcDbLine
 10
359.3083934916267
 20
321.2828132900172
 30
0.0
 11
358.8223246488854
 21
321.6231621652209
 31
0.0
  0
LINE
  5
194
330
1F
100
AcDbEntity
  8
section$view
100
AcDbLine
 10
358.8223246488854
 20
321.6231621652209
 30
0.0
 11
358.348429901714
 21
321.9802672552711
 31
0.0
  0
LINE
  5
195
330
1F
100
AcDbEntity
  8
section$view
100
AcDbLine
 10
358.348429901714
 20
321.9802672552711
 30
0.0
 11
357.8872866170412
 21
322.3536934832433
 31
0.0
  0
LINE
  5
196
330
1F
100
AcDbEntity
  8
section$view
100
AcDbLine
 10
357.8872866170412
 20
322.3536934832433
 30
0.0
 11
357.439456626125
 21
322.7429858874492
 31
0.0
  0
LINE
  5
197
330
1F
100
AcDbEntity
  8
section$view
100
AcDbLine
 10
357.439456626125
 20
322.7429858874492
 30
0.0
 11
357.0054855400488
 21
323.1476701757359
 31
0.0
  0
LINE
  5
198
330
1F
100
AcDbEntity
  8
section$view
100
AcDbLine
 10
357.0054855400488
 20
323.1476701757359
 30
0.0
 11
356.5859020849793
 21
323.5672533033378
 31
0.0
  0
LINE
  5
199
330
1F
100
AcDbEntity
  8
section$view
100
AcDbLine
 10
356.5859020849793
 20
323.5672533033378
 30
0.0
 11
356.181217457996
 21
324.0012240735745
 31
0.0
  0
LINE
  5
19A
330
1F
100
AcDbEntity
  8
section$view
100
AcDbLine
 10
356.181217457996
 20
324.0012240735745
 30
0.0
 11
355.7919247042773
 21
324.4490537606637
 31
0.0
  0
LINE
  5
19B
330
1F
100
AcDbEntity
  8
section$view
100
AcDbLine
 10
355.7919247042773
 20
324.4490537606637
 30
0.0
 11
355.4184981164018
 21
324.9101967538925
 31
0.0
  0
LINE
  5
19C
330
1F
100
AcDbEntity
  8
section$view
100
AcDbLine
 10
355.4184981164018
 20
324.9101967538925
 30
0.0
 11
355.0613926564963
 21
325.3840912223577
 31
0.0
  0
LINE
  5
19D
330
1F
100
AcDbEntity
  8
section$view
100
AcDbLine
 10
355.0613926564963
 20
325.3840912223577
 30
0.0
 11
354.7210434019358
 21
325.8701597994706
 31
0.0
  0
LINE
  5
19E
330
1F
100
AcDbEntity
  8
section$view
100
AcDbLine
 10
354.7210434019358
 20
325.8701597994706
 30
0.0
 11
354.3978650152692
 21
326.3678102863868
 31
0.0
  0
LINE
  5
19F
330
1F
100
AcDbEntity
  8
section$view
100
AcDbLine
 10
354.3978650152692
 20
326.3678102863868
 30
0.0
 11
354.0922512390177
 21
326.8764363735094
 31
0.0
  0
LINE
  5
1A0
330
1F
100
AcDbEntity
  8
section$view
100
AcDbLine
 10
354.0922512390177
 20
326.8764363735094
 30
0.0
 11
353.8045744159608
 21
327.3954183791822
 31
0.0
  0
LINE
  5
1A1
330
1F
100
AcDbEntity
  8
section$view
100
AcDbLine
 10
353.8045744159608
 20
327.3954183791822
 30
0.0
 11
353.5351850354946
 21
327.9241240046757
 31
0.0
  0
LINE
  5
1A2
330
1F
100
AcDbEntity
  8
section$view
100
AcDbLine
 10
353.5351850354946
 20
327.9241240046757
 30
0.0
 11
353.2844113066153
 21
328.4619091045439
 31
0.0
  0
LINE
  5
1A3
330
1F
100
AcDbEntity
  8
section$view
100
AcDbLine
 10
353.2844113066153
 20
328.4619091045439
 30
0.0
 11
353.0525587580473
 21
329.008118471416
 31
0.0
  0
LINE
  5
1A4
330
1F
100
AcDbEntity
  8
section$view
100
AcDbLine
 10
353.0525587580473
 20
329.008118471416
 30
0.0
 11
352.8399098660041
 21
329.562086634264
 31
0.0
  0
LINE
  5
1A5
330
1F
100
AcDbEntity
  8
section$view
100
AcDbLine
 10
352.8399098660041
 20
329.562086634264
 30
0.0
 11
352.6467237100357
 21
330.1231386691756
 31
0.0
  0
LINE
  5
1A6
330
1F
100
AcDbEntity
  8
section$view
100
AcDbLine
 10
352.6467237100357
 20
330.1231386691756
 30
0.0
 11
352.4732356573794
 21
330.6905910216439
 31
0.0
  0
LINE
  5
1A7
330
1F
100
AcDbEntity
  8
section$view
100
AcDbLine
 10
352.4732356573794
 20
330.6905910216439
 30
0.0
 11
352.3196570762024
 21
331.2637523393722
 31
0.0
  0
LINE
  5
1A8
330
1F
100
AcDbEntity
  8
section$view
100
AcDbLine
 10
352.3196570762024
 20
331.2637523393722
 30
0.0
 11
352.1861750780823
 21
331.8419243145787
 31
0.0
  0
LINE
  5
1A9
330
1F
100
AcDbEntity
  8
section$view
100
AcDbLine
 10
352.1861750780823
 20
331.8419243145787
 30
0.0
 11
352.0729522900405
 21
332.4244025347762
 31
0.0
  0
LINE
  5
1AA
330
1F
100
AcDbEntity
  8
section$view
100
AcDbLine
 10
352.0729522900405
 20
332.4244025347762
 30
0.0
 11
351.9801266564073
 21
333.0104773409886
 31
0.0
  0
LINE
  5
1AB
330
1F
100
AcDbEntity
  8
section$view
100
AcDbLine
 10
351.9801266564073
 20
333.0104773409886
 30
0.0
 11
351.9078112707572
 21
333.5994346923602
 31
0.0
  0
LINE
  5
1AC
330
1F
100
AcDbEntity
  8
section$view
100
AcDbLine
 10
351.9078112707572
 20
333.5994346923602
 30
0.0
 11
351.8560942381226
 21
334.1905570361029
 31
0.0
  0
LINE
  5
1AD
330
1F
100
AcDbEntity
  8
section$view
100
AcDbLine
 10
351.8560942381226
 20
334.1905570361029
 30
0.0
 11
351.8250385676519
 21
334.7831241817226
 31
0.0
  0
LINE
  5
1AE
330
1F
100
AcDbEntity
  8
section$view
100
AcDbLine
 10
351.8250385676519
 20
334.7831241817226
 30
0.0
 11
351.8146820958416
 21
335.3764141784594
 31
0.0
  0
LINE
  5
1AF
330
1F
100
AcDbEntity
  8
section$view
100
AcDbLine
 10
351.8146820958416
 20
335.3764141784594
 30
0.0
 11
351.8146821779454
 21
370.210285154286
 31
0.0
  0
LINE
  5
1B0
330
1F
100
AcDbEntity
  8
section$view
100
AcDbLine
 10
351.8146821779454
 20
370.210285154286
 30
0.0
 11
351.825038565674
 21
370.8035752180377
 31
0.0
  0
LINE
  5
1B1
330
1F
100
AcDbEntity
  8
section$view
100
AcDbLine
 10
351.825038565674
 20
370.8035752180377
 30
0.0
 11
351.8560941552815
 21
371.3961424335227
 31
0.0
  0
LINE
  5
1B2
330
1F
100
AcDbEntity
  8
section$view
100
AcDbLine
 10
351.8560941552815
 20
371.3961424335227
 30
0.0
 11
351.9078111103668
 21
371.9872648498377
 31
0.0
  0
LINE
  5
1B3
330
1F
100
AcDbEntity
  8
section$view
100
AcDbLine
 10
351.9078111103668
 20
371.9872648498377
 30
0.0
 11
351.980126421871
 21
372.5762222763427
 31
0.0
  0
LINE
  5
1B4
330
1F
100
AcDbEntity
  8
section$view
100
AcDbLine
 10
351.980126421871
 20
372.5762222763427
 30
0.0
 11
352.0729519848449
 21
373.1622971601006
 31
0.0
  0
LINE
  5
1B5
330
1F
100
AcDbEntity
  8
section$view
100
AcDbLine
 10
352.0729519848449
 20
373.1622971601006
 30
0.0
 11
352.186174705791
 21
373.7447754601042
 31
0.0
  0
LINE
  5
1B6
330
1F
100
AcDbEntity
  8
section$view
100
AcDbLine
 10
352.186174705791
 20
373.7447754601042
 30
0.0
 11
352.31965664045
 21
374.3229475172231
 31
0.0
  0
LINE
  5
1B7
330
1F
100
AcDbEntity
  8
section$view
100
AcDbLine
 10
352.31965664045
 20
374.3229475172231
 30
0.0
 11
352.4732351618643
 21
374.8961089188139
 31
0.0
  0
LINE
  5
1B8
330
1F
100
AcDbEntity
  8
section$view
100
AcDbLine
 10
352.4732351618643
 20
374.8961089188139
 30
0.0
 11
352.6467231585146
 21
375.4635613569369
 31
0.0
  0
LINE
  5
1B9
330
1F
100
AcDbEntity
  8
section$view
100
AcDbLine
 10
352.6467231585146
 20
375.4635613569369
 30
0.0
 11
352.8399092622848
 21
376.0246134791354
 31
0.0
  0
LINE
  5
1BA
330
1F
100
AcDbEntity
  8
section$view
100
AcDbLine
 10
352.8399092622848
 20
376.0246134791354
 30
0.0
 11
353.0525581059821
 21
376.5785817307415
 31
0.0
  0
LINE
  5
1BB
330
1F
100
AcDbEntity
  8
section$view
100
AcDbLine
 10
353.0525581059821
 20
376.5785817307415
 30
0.0
 11
353.2844106100951
 21
377.1247911876807
 31
0.0
  0
LINE
  5
1BC
330
1F
100
AcDbEntity
  8
section$view
100
AcDbLine
 10
353.2844106100951
 20
377.1247911876807
 30
0.0
 11
353.5351842984416
 21
377.6625763787621
 31
0.0
  0
LINE
  5
1BD
330
1F
100
AcDbEntity
  8
section$view
100
AcDbLine
 10
353.5351842984416
 20
377.6625763787621
 30
0.0
 11
353.8045736423221
 21
378.1912820964511
 31
0.0
  0
LINE
  5
1BE
330
1F
100
AcDbEntity
  8
section$view
100
AcDbLine
 10
353.8045736423221
 20
378.1912820964511
 30
0.0
 11
354.0922504327587
 21
378.7102641951381
 31
0.0
  0
LINE
  5
1BF
330
1F
100
AcDbEntity
  8
section$view
100
AcDbLine
 10
354.0922504327587
 20
378.7102641951381
 30
0.0
 11
354.397864180367
 21
379.2188903759291
 31
0.0
  0
LINE
  5
1C0
330
1F
100
AcDbEntity
  8
section$view
100
AcDbLine
 10
354.397864180367
 20
379.2188903759291
 30
0.0
 11
354.7210425423726
 21
379.7165409570047
 31
0.0
  0
LINE
  5
1C1
330
1F
100
AcDbEntity
  8
section$view
100
AcDbLine
 10
354.7210425423726
 20
379.7165409570047
 30
0.0
 11
355.0613917762528
 21
380.2026096286043
 31
0.0
  0
LINE
  5
1C2
330
1F
100
AcDbEntity
  8
section$view
100
AcDbLine
 10
355.0613917762528
 20
380.2026096286043
 30
0.0
 11
355.4184972194506
 21
380.6765041917213
 31
0.0
  0
LINE
  5
1C3
330
1F
100
AcDbEntity
  8
section$view
100
AcDbLine
 10
355.4184972194506
 20
380.6765041917213
 30
0.0
 11
355.7919237945766
 21
381.1376472796051
 31
0.0
  0
LINE
  5
1C4
330
1F
100
AcDbEntity
  8
section$view
100
AcDbLine
 10
355.7919237945766
 20
381.1376472796051
 30
0.0
 11
356.181216539483
 21
381.5854770611924
 31
0.0
  0
LINE
  5
1C5
330
1F
100
AcDbEntity
  8
section$view
100
AcDbLine
 10
356.181216539483
 20
381.5854770611924
 30
0.0
 11
356.5859011615641
 21
382.0194479256113
 31
0.0
  0
LINE
  5
1C6
330
1F
100
AcDbEntity
  8
section$view
100
AcDbLine
 10
356.5859011615641
 20
382.0194479256113
 30
0.0
 11
357.0054846156079
 21
382.4390311469227
 31
0.0
  0
LINE
  5
1C7
330
1F
100
AcDbEntity
  8
section$view
100
AcDbLine
 10
357.0054846156079
 20
382.4390311469227
 30
0.0
 11
357.4394557044952
 21
382.8437155282909
 31
0.0
  0
LINE
  5
1C8
330
1F
100
AcDbEntity
  8
section$view
100
AcDbLine
 10
357.4394557044952
 20
382.8437155282909
 30
0.0
 11
357.8872857020135
 21
383.2330080247973
 31
0.0
  0
LINE
  5
1C9
330
1F
100
AcDbEntity
  8
section$view
100
AcDbLine
 10
357.8872857020135
 20
383.2330080247973
 30
0.0
 11
358.3484289970276
 21
383.6064343441387
 31
0.0
  0
LINE
  5
1CA
330
1F
100
AcDbEntity
  8
section$view
100
AcDbLine
 10
358.3484289970276
 20
383.6064343441387
 30
0.0
 11
358.8223237582221
 21
383.963539524479
 31
0.0
  0
LINE
  5
1CB
330
1F
100
AcDbEntity
  8
section$view
100
AcDbLine
 10
358.8223237582221
 20
383.963539524479
 30
0.0
 11
359.3083926186048
 21
384.3038884887489
 31
0.0
  0
LINE
  5
1CC
330
1F
100
AcDbEntity
  8
section$view
100
AcDbLine
 10
359.3083926186048
 20
384.3038884887489
 30
0.0
 11
359.8060433789392
 21
384.62706657472
 31
0.0
  0
LINE
  5
1CD
330
1F
100
AcDbEntity
  8
section$view
100
AcDbLine
 10
359.8060433789392
 20
384.62706657472
 30
0.0
 11
360.3146697292466
 21
384.932680040206
 31
0.0
  0
LINE
  5
1CE
330
1F
100
AcDbEntity
  8
section$view
100
AcDbLine
 10
360.3146697292466
 20
384.932680040206
 30
0.0
 11
360.8336519875006
 21
385.2203565427761
 31
0.0
  0
LINE
  5
1CF
330
1F
100
AcDbEntity
  8
section$view
100
AcDbLine
 10
360.8336519875006
 20
385.2203565427761
 30
0.0
 11
361.362357854613
 21
385.4897455933967
 31
0.0
  0
LINE
  5
1D0
330
1F
100
AcDbEntity
  8
section$view
100
AcDbLine
 10
361.362357854613
 20
385.4897455933967
 30
0.0
 11
361.9001431847923
 21
385.7405189834471
 31
0.0
  0
LINE
  5
1D1
330
1F
100
AcDbEntity
  8
section$view
100
AcDbLine
 10
361.9001431847923
 20
385.7405189834471
 30
0.0
 11
362.4463527703343
 21
385.9723711845913
 31
0.0
  0
LINE
  5
1D2
330
1F
100
AcDbEntity
  8
section$view
100
AcDbLine
 10
362.4463527703343
 20
385.9723711845913
 30
0.0
 11
363.0003211398913
 21
386.1850197210162
 31
0.0
  0
LINE
  5
1D3
330
1F
100
AcDbEntity
  8
section$view
100
AcDbLine
 10
363.0003211398913
 20
386.1850197210162
 30
0.0
 11
363.5613733692453
 21
386.3782055135848
 31
0.0
  0
LINE
  5
1D4
330
1F
100
AcDbEntity
  8
section$view
100
AcDbLine
 10
363.5613733692453
 20
386.3782055135848
 30
0.0
 11
364.1288259035976
 21
386.5516931954832
 31
0.0
  0
LINE
  5
1D5
330
1F
100
AcDbEntity
  8
section$view
100
AcDbLine
 10
364.1288259035976
 20
386.5516931954832
 30
0.0
 11
364.7019873903745
 21
386.7052713989793
 31
0.0
  0
LINE
  5
1D6
330
1F
100
AcDbEntity
  8
section$view
100
AcDbLine
 10
364.7019873903745
 20
386.7052713989793
 30
0.0
 11
365.2801595215325
 21
386.8387530129405
 31
0.0
  0
LINE
  5
1D7
330
1F
100
AcDbEntity
  8
section$view
100
AcDbLine
 10
365.2801595215325
 20
386.8387530129405
 30
0.0
 11
365.8626378843376
 21
386.9519754108004
 31
0.0
  0
LINE
  5
1D8
330
1F
100
AcDbEntity
  8
section$view
100
AcDbLine
 10
365.8626378843376
 20
386.9519754108004
 30
0.0
 11
366.4487128195836
 21
387.0448006486932
 31
0.0
  0
LINE
  5
1D9
330
1F
100
AcDbEntity
  8
section$view
100
AcDbLine
 10
366.4487128195836
 20
387.0448006486932
 30
0.0
 11
367.0376702862
 21
387.1171156335174
 31
0.0
  0
LINE
  5
1DA
330
1F
100
AcDbEntity
  8
section$view
100
AcDbLine
 10
367.0376702862
 20
387.1171156335174
 30
0.0
 11
367.628792731201
 21
387.1688322607217
 31
0.0
  0
LINE
  5
1DB
330
1F
100
AcDbEntity
  8
section$view
100
AcDbLine
 10
367.628792731201
 20
387.1688322607217
 30
0.0
 11
368.2213599639116
 21
387.199887521647
 31
0.0
  0
LINE
  5
1DC
330
1F
100
AcDbEntity
  8
section$view
100
AcDbLine
 10
368.2213599639116
 20
387.199887521647
 30
0.0
 11
368.8146500334077
 21
387.2102435802924
 31
0.0
  0
LINE
  5
1DD
330
1F
100
AcDbEntity
  8
section$view
100
AcDbLine
 10
376.0195998091489
 20
289.6750390259525
 30
0.0
 11
411.0421455196562
 21
289.6750390259525
 31
0.0
  0
LINE
  5
1DE
330
1F
100
AcDbEntity
  8
section$view
100
AcDbLine
 10
411.0421455196562
 20
289.6750390259525
 30
0.0
 11
446.0646912301635
 21
289.6750390259525
 31
0.0
  0
LINE
  5
1DF
330
1F
100
AcDbEntity
  8
section$view
100
AcDbLine
 10
446.0646912301635
 20
289.6750390259525
 30
0.0
 11
446.5044248296198
 21
289.6673632485731
 31
0.0
  0
LINE
  5
1E0
330
1F
100
AcDbEntity
  8
section$view
100
AcDbLine
 10
446.5044248296198
 20
289.6673632485731
 30
0.0
 11
446.9436226749543
 21
289.6443456747906
 31
0.0
  0
LINE
  5
1E1
330
1F
100
AcDbEntity
  8
section$view
100
AcDbLine
 10
446.9436226749543
 20
289.6443456747906
 30
0.0
 11
447.3817496718754
 21
289.60601434794
 31
0.0
  0
LINE
  5
1E2
330
1F
100
AcDbEntity
  8
section$view
100
AcDbLine
 10
447.3817496718754
 20
289.60601434794
 30
0.0
 11
447.818272030754
 21
289.5524159687836
 31
0.0
  0
LINE
  5
1E3
330
1F
100
AcDbEntity
  8
section$view
100
AcDbLine
 10
447.818272030754
 20
289.5524159687836
 30
0.0
 11
448.2526579169632
 21
289.4836158386134
 31
0.0
  0
LINE
  5
1E4
330
1F
100
AcDbEntity
  8
section$view
100
AcDbLine
 10
448.2526579169632
 20
289.4836158386134
 30
0.0
 11
448.6843780988357
 21
289.3996977796913
 31
0.0
  0
LINE
  5
1E5
330
1F
100
AcDbEntity
  8
section$view
100
AcDbLine
 10
448.6843780988357
 20
289.3996977796913
 30
0.0
 11
449.1129065924504
 21
289.3007640331253
 31
0.0
  0
LINE
  5
1E6
330
1F
100
AcDbEntity
  8
section$view
100
AcDbLine
 10
449.1129065924504
 20
289.3007640331253
 30
0.0
 11
449.5377213024621
 21
289.1869351343041
 31
0.0
  0
LINE
  5
1E7
330
1F
100
AcDbEntity
  8
section$view
100
AcDbLine
 10
449.5377213024621
 20
289.1869351343041
 30
0.0
 11
449.9583046581938
 21
289.0583497660437
 31
0.0
  0
LINE
  5
1E8
330
1F
100
AcDbEntity
  8
section$view
100
AcDbLine
 10
449.9583046581938
 20
289.0583497660437
 30
0.0
 11
450.3741442442156
 21
288.9151645896237
 31
0.0
  0
LINE
  5
1E9
330
1F
100
AcDbEntity
  8
section$view
100
AcDbLine
 10
450.3741442442156
 20
288.9151645896237
 30
0.0
 11
450.7847334246436
 21
288.7575540539204
 31
0.0
  0
LINE
  5
1EA
330
1F
100
AcDbEntity
  8
section$view
100
AcDbLine
 10
450.7847334246436
 20
288.7575540539204
 30
0.0
 11
451.1895719603967
 21
288.5857101828672
 31
0.0
  0
LINE
  5
1EB
330
1F
100
AcDbEntity
  8
section$view
100
AcDbLine
 10
451.1895719603967
 20
288.5857101828672
 30
0.0
 11
451.5881666186604
 21
288.3998423415043
 31
0.0
  0
LINE
  5
1EC
330
1F
100
AcDbEntity
  8
section$view
100
AcDbLine
 10
451.5881666186604
 20
288.3998423415043
 30
0.0
 11
451.9800317738139
 21
288.2001769808988
 31
0.0
  0
LINE
  5
1ED
330
1F
100
AcDbEntity
  8
section$view
100
AcDbLine
 10
451.9800317738139
 20
288.2001769808988
 30
0.0
 11
452.36468999909
 21
287.9869573622503
 31
0.0
  0
LINE
  5
1EE
330
1F
100
AcDbEntity
  8
section$view
100
AcDbLine
 10
452.36468999909
 20
287.9869573622503
 30
0.0
 11
452.7416726482451
 21
287.7604432605143
 31
0.0
  0
LINE
  5
1EF
330
1F
100
AcDbEntity
  8
section$view
100
AcDbLine
 10
452.7416726482451
 20
287.7604432605143
 30
0.0
 11
453.1105204265314
 21
287.520910647907
 31
0.0
  0
LINE
  5
1F0
330
1F
100
AcDbEntity
  8
section$view
100
AcDbLine
 10
453.1105204265314
 20
287.520910647907
 30
0.0
 11
453.4707839502769
 21
287.2686513576763
 31
0.0
  0
LINE
  5
1F1
330
1F
100
AcDbEntity
  8
section$view
100
AcDbLine
 10
453.4707839502769
 20
287.2686513576763
 30
0.0
 11
453.8220242943888
 21
287.0039727285478
 31
0.0
  0
LINE
  5
1F2
330
1F
100
AcDbEntity
  8
section$view
100
AcDbLine
 10
453.8220242943888
 20
287.0039727285478
 30
0.0
 11
454.1638135271161
 21
286.7271972302809
 31
0.0
  0
LINE
  5
1F3
330
1F
100
AcDbEntity
  8
section$view
100
AcDbLine
 10
454.1638135271161
 20
286.7271972302809
 30
0.0
 11
454.4957352314176
 21
286.4386620707893
 31
0.0
  0
LINE
  5
1F4
330
1F
100
AcDbEntity
  8
section$view
100
AcDbLine
 10
454.4957352314176
 20
286.4386620707893
 30
0.0
 11
454.8173850123013
 21
286.1387187853056
 31
0.0
  0
LINE
  5
1F5
330
1F
100
AcDbEntity
  8
section$view
100
AcDbLine
 10
454.8173850123013
 20
286.1387187853056
 30
0.0
 11
455.1283709895166
 21
285.8277328080902
 31
0.0
  0
LINE
  5
1F6
330
1F
100
AcDbEntity
  8
section$view
100
AcDbLine
 10
455.1283709895166
 20
285.8277328080902
 30
0.0
 11
455.4283142750003
 21
285.5060830272066
 31
0.0
  0
LINE
  5
1F7
330
1F
100
AcDbEntity
  8
section$view
100
AcDbLine
 10
455.4283142750003
 20
285.5060830272066
 30
0.0
 11
455.7168494344918
 21
285.1741613229052
 31
0.0
  0
LINE
  5
1F8
330
1F
100
AcDbEntity
  8
section$view
100
AcDbLine
 10
455.7168494344918
 20
285.1741613229052
 30
0.0
 11
455.9936249327587
 21
284.8323720901778
 31
0.0
  0
LINE
  5
1F9
330
1F
100
AcDbEntity
  8
section$view
100
AcDbLine
 10
455.9936249327587
 20
284.8323720901778
 30
0.0
 11
456.2583035618872
 21
284.4811317460658
 31
0.0
  0
LINE
  5
1FA
330
1F
100
AcDbEntity
  8
section$view
100
AcDbLine
 10
456.2583035618872
 20
284.4811317460658
 30
0.0
 11
456.510562852118
 21
284.1208682223204
 31
0.0
  0
LINE
  5
1FB
330
1F
100
AcDbEntity
  8
section$view
100
AcDbLine
 10
456.510562852118
 20
284.1208682223204
 30
0.0
 11
456.7500954647253
 21
283.752020444034
 31
0.0
  0
LINE
  5
1FC
330
1F
100
AcDbEntity
  8
section$view
100
AcDbLine
 10
456.7500954647253
 20
283.752020444034
 30
0.0
 11
456.9766095664613
 21
283.375037794879
 31
0.0
  0
LINE
  5
1FD
330
1F
100
AcDbEntity
  8
section$view
100
AcDbLine
 10
456.9766095664613
 20
283.375037794879
 30
0.0
 11
457.1898291851098
 21
282.9903795696029
 31
0.0
  0
LINE
  5
1FE
330
1F
100
AcDbEntity
  8
section$view
100
AcDbLine
 10
457.1898291851098
 20
282.9903795696029
 30
0.0
 11
457.3894945457153
 21
282.5985144144493
 31
0.0
  0
LINE
  5
1FF
330
1F
100
AcDbEntity
  8
section$view
100
AcDbLine
 10
457.3894945457153
 20
282.5985144144493
 30
0.0
 11
457.5753623870782
 21
282.1999197561857
 31
0.0
  0
LINE
  5
200
330
1F
100
AcDbEntity
  8
section$view
100
AcDbLine
 10
457.5753623870782
 20
282.1999197561857
 30
0.0
 11
457.7472062581313
 21
281.7950812204326
 31
0.0
  0
LINE
  5
201
330
1F
100
AcDbEntity
  8
section$view
100
AcDbLine
 10
457.7472062581313
 20
281.7950812204326
 30
0.0
 11
457.9048167938347
 21
281.3844920400046
 31
0.0
  0
LINE
  5
202
330
1F
100
AcDbEntity
  8
section$view
100
AcDbLine
 10
457.9048167938347
 20
281.3844920400046
 30
0.0
 11
458.0480019702546
 21
280.9686524539828
 31
0.0
  0
LINE
  5
203
330
1F
100
AcDbEntity
  8
section$view
100
AcDbLine
 10
458.0480019702546
 20
280.9686524539828
 30
0.0
 11
458.1765873385151
 21
280.5480690982511
 31
0.0
  0
LINE
  5
204
330
1F
100
AcDbEntity
  8
section$view
100
AcDbLine
 10
458.1765873385151
 20
280.5480690982511
 30
0.0
 11
458.2904162373363
 21
280.1232543882393
 31
0.0
  0
LINE
  5
205
330
1F
100
AcDbEntity
  8
section$view
100
AcDbLine
 10
458.2904162373363
 20
280.1232543882393
 30
0.0
 11
458.3893499839023
 21
279.6947258946246
 31
0.0
  0
LINE
  5
206
330
1F
100
AcDbEntity
  8
section$view
100
AcDbLine
 10
458.3893499839023
 20
279.6947258946246
 30
0.0
 11
458.4732680428243
 21
279.2630057127522
 31
0.0
  0
LINE
  5
207
330
1F
100
AcDbEntity
  8
section$view
100
AcDbLine
 10
458.4732680428243
 20
279.2630057127522
 30
0.0
 11
458.5420681729946
 21
278.828619826543
 31
0.0
  0
LINE
  5
208
330
1F
100
AcDbEntity
  8
section$view
100
AcDbLine
 10
458.5420681729946
 20
278.828619826543
 30
0.0
 11
458.5956665521509
 21
278.3920974676643
 31
0.0
  0
LINE
  5
209
330
1F
100
AcDbEntity
  8
section$view
100
AcDbLine
 10
458.5956665521509
 20
278.3920974676643
 30
0.0
 11
458.6339978790015
 21
277.9539704707432
 31
0.0
  0
LINE
  5
20A
330
1F
100
AcDbEntity
  8
section$view
100
AcDbLine
 10
458.6339978790015
 20
277.9539704707432
 30
0.0
 11
458.657015452784
 21
277.5147726254088
 31
0.0
  0
LINE
  5
20B
330
1F
100
AcDbEntity
  8
section$view
100
AcDbLine
 10
458.657015452784
 20
277.5147726254088
 30
0.0
 11
458.6646912301633
 21
277.0750390259524
 31
0.0
  0
LINE
  5
20C
330
1F
100
AcDbEntity
  8
section$view
100
AcDbLine
 10
458.6646912301633
 20
277.0750390259524
 30
0.0
 11
458.6646912301634
 21
252.6913903054851
 31
0.0
  0
LINE
  5
20D
330
1F
100
AcDbEntity
  8
section$view
100
AcDbLine
 10
458.6646912301634
 20
252.6913903054851
 30
0.0
 11
458.6570154810573
 21
252.2516566975969
 31
0.0
  0
LINE
  5
20E
330
1F
100
AcDbEntity
  8
section$view
100
AcDbLine
 10
458.6570154810573
 20
252.2516566975969
 30
0.0
 11
458.6339979339468
 21
251.8124588429166
 31
0.0
  0
LINE
  5
20F
330
1F
100
AcDbEntity
  8
section$view
100
AcDbLine
 10
458.6339979339468
 20
251.8124588429166
 30
0.0
 11
458.595666632139
 21
251.3743318358371
 31
0.0
  0
LINE
  5
210
330
1F
100
AcDbEntity
  8
section$view
100
AcDbLine
 10
458.595666632139
 20
251.3743318358371
 30
0.0
 11
458.5420682763737
 21
250.9378094660896
 31
0.0
  0
LINE
  5
211
330
1F
100
AcDbEntity
  8
section$view
100
AcDbLine
 10
458.5420682763737
 20
250.9378094660896
 30
0.0
 11
458.4732681679251
 21
250.5034235684039
 31
0.0
  0
LINE
  5
212
330
1F
100
AcDbEntity
  8
section$view
100
AcDbLine
 10
458.4732681679251
 20
250.5034235684039
 30
0.0
 11
458.3893501290431
 21
250.0717033745504
 31
0.0
  0
LINE
  5
213
330
1F
100
AcDbEntity
  8
section$view
100
AcDbLine
 10
458.3893501290431
 20
250.0717033745504
 30
0.0
 11
458.2904164008283
 21
249.6431748685531
 31
0.0
  0
LINE
  5
214
330
1F
100
AcDbEntity
  8
section$view
100
AcDbLine
 10
458.2904164008283
 20
249.6431748685531
 30
0.0
 11
458.1765875186673
 21
249.2183601458601
 31
0.0
  0
LINE
  5
215
330
1F
100
AcDbEntity
  8
section$view
100
AcDbLine
 10
458.1765875186673
 20
249.2183601458601
 30
0.0
 11
458.0480021653792
 21
248.7977767772511
 31
0.0
  0
LINE
  5
216
330
1F
100
AcDbEntity
  8
section$view
100
AcDbLine
 10
458.0480021653792
 20
248.7977767772511
 30
0.0
 11
457.9048170022517
 21
248.3819371782579
 31
0.0
  0
LINE
  5
217
330
1F
100
AcDbEntity
  8
section$view
100
AcDbLine
 10
457.9048170022517
 20
248.3819371782579
 30
0.0
 11
457.7472064781742
 21
247.9713479848654
 31
0.0
  0
LINE
  5
218
330
1F
100
AcDbEntity
  8
section$view
100
AcDbLine
 10
457.7472064781742
 20
247.9713479848654
 30
0.0
 11
457.5753626170984
 21
247.5665094362546
 31
0.0
  0
LINE
  5
219
330
1F
100
AcDbEntity
  8
section$view
100
AcDbLine
 10
457.5753626170984
 20
247.5665094362546
 30
0.0
 11
457.3894947840873
 21
247.1679147653387
 31
0.0
  0
LINE
  5
21A
330
1F
100
AcDbEntity
  8
section$view
100
AcDbLine
 10
457.3894947840873
 20
247.1679147653387
 30
0.0
 11
457.1898294302362
 21
246.7760495978356
 31
0.0
  0
LINE
  5
21B
330
1F
100
AcDbEntity
  8
section$view
100
AcDbLine
 10
457.1898294302362
 20
246.7760495978356
 30
0.0
 11
456.9766098167773
 21
246.3913913606078
 31
0.0
  0
LINE
  5
21C
330
1F
100
AcDbEntity
  8
section$view
100
AcDbLine
 10
456.9766098167773
 20
246.3913913606078
 30
0.0
 11
456.7500957187034
 21
246.0144086999927
 31
0.0
  0
LINE
  5
21D
330
1F
100
AcDbEntity
  8
section$view
100
AcDbLine
 10
456.7500957187034
 20
246.0144086999927
 30
0.0
 11
456.5105631082729
 21
245.6455609108288
 31
0.0
  0
LINE
  5
21E
330
1F
100
AcDbEntity
  8
section$view
100
AcDbLine
 10
456.5105631082729
 20
245.6455609108288
 30
0.0
 11
456.2583038187798
 21
245.2852973768773
 31
0.0
  0
LINE
  5
21F
330
1F
100
AcDbEntity
  8
section$view
100
AcDbLine
 10
456.2583038187798
 20
245.2852973768773
 30
0.0
 11
455.9936251890009
 21
244.9340570233172
 31
0.0
  0
LINE
  5
220
330
1F
100
AcDbEntity
  8
section$view
100
AcDbLine
 10
455.9936251890009
 20
244.9340570233172
 30
0.0
 11
455.7168496887504
 21
244.5922677819829
 31
0.0
  0
LINE
  5
221
330
1F
100
AcDbEntity
  8
section$view
100
AcDbLine
 10
455.7168496887504
 20
244.5922677819829
 30
0.0
 11
455.4283145260013
 21
244.2603460699965
 31
0.0
  0
LINE
  5
222
330
1F
100
AcDbEntity
  8
section$view
100
AcDbLine
 10
455.4283145260013
 20
244.2603460699965
 30
0.0
 11
455.1283712360491
 21
243.9386962824271
 31
0.0
  0
LINE
  5
223
330
1F
100
AcDbEntity
  8
section$view
100
AcDbLine
 10
455.1283712360491
 20
243.9386962824271
 30
0.0
 11
454.8173852532213
 21
243.6277102995993
 31
0.0
  0
LINE
  5
224
330
1F
100
AcDbEntity
  8
section$view
100
AcDbLine
 10
454.8173852532213
 20
243.6277102995993
 30
0.0
 11
454.4957354656519
 21
243.3277670096471
 31
0.0
  0
LINE
  5
225
330
1F
100
AcDbEntity
  8
section$view
100
AcDbLine
 10
454.4957354656519
 20
243.3277670096471
 30
0.0
 11
454.1638137536655
 21
243.039231846898
 31
0.0
  0
LINE
  5
226
330
1F
100
AcDbEntity
  8
section$view
100
AcDbLine
 10
454.1638137536655
 20
243.039231846898
 30
0.0
 11
453.8220245123313
 21
242.7624563466475
 31
0.0
  0
LINE
  5
227
330
1F
100
AcDbEntity
  8
section$view
100
AcDbLine
 10
453.8220245123313
 20
242.7624563466475
 30
0.0
 11
453.4707841587711
 21
242.4977777168685
 31
0.0
  0
LINE
  5
228
330
1F
100
AcDbEntity
  8
section$view
100
AcDbLine
 10
453.4707841587711
 20
242.4977777168685
 30
0.0
 11
453.1105206248196
 21
242.2455184273755
 31
0.0
  0
LINE
  5
229
330
1F
100
AcDbEntity
  8
section$view
100
AcDbLine
 10
453.1105206248196
 20
242.2455184273755
 30
0.0
 11
452.7416728356558
 21
242.005985816945
 31
0.0
  0
LINE
  5
22A
330
1F
100
AcDbEntity
  8
section$view
100
AcDbLine
 10
452.7416728356558
 20
242.005985816945
 30
0.0
 11
452.3646901750406
 21
241.7794717188711
 31
0.0
  0
LINE
  5
22B
330
1F
100
AcDbEntity
  8
section$view
100
AcDbLine
 10
452.3646901750406
 20
241.7794717188711
 30
0.0
 11
451.9800319378128
 21
241.5662521054122
 31
0.0
  0
LINE
  5
22C
330
1F
100
AcDbEntity
  8
section$view
100
AcDbLine
 10
451.9800319378128
 20
241.5662521054122
 30
0.0
 11
451.5881667703097
 21
241.3665867515611
 31
0.0
  0
LINE
  5
22D
330
1F
100
AcDbEntity
  8
section$view
100
AcDbLine
 10
451.5881667703097
 20
241.3665867515611
 30
0.0
 11
451.1895720993938
 21
241.18071891855
 31
0.0
  0
LINE
  5
22E
330
1F
100
AcDbEntity
  8
section$view
100
AcDbLine
 10
451.1895720993938
 20
241.18071891855
 30
0.0
 11
450.7847335507831
 21
241.0088750574742
 31
0.0
  0
LINE
  5
22F
330
1F
100
AcDbEntity
  8
section$view
100
AcDbLine
 10
450.7847335507831
 20
241.0088750574742
 30
0.0
 11
450.3741443573905
 21
240.8512645333967
 31
0.0
  0
LINE
  5
230
330
1F
100
AcDbEntity
  8
section$view
100
AcDbLine
 10
450.3741443573905
 20
240.8512645333967
 30
0.0
 11
449.9583047583973
 21
240.7080793702692
 31
0.0
  0
LINE
  5
231
330
1F
100
AcDbEntity
  8
section$view
100
AcDbLine
 10
449.9583047583973
 20
240.7080793702692
 30
0.0
 11
449.5377213897883
 21
240.579494016981
 31
0.0
  0
LINE
  5
232
330
1F
100
AcDbEntity
  8
section$view
100
AcDbLine
 10
449.5377213897883
 20
240.579494016981
 30
0.0
 11
449.1129066670953
 21
240.46566513482
 31
0.0
  0
LINE
  5
233
330
1F
100
AcDbEntity
  8
section$view
100
AcDbLine
 10
449.1129066670953
 20
240.46566513482
 30
0.0
 11
448.684378161098
 21
240.3667314066052
 31
0.0
  0
LINE
  5
234
330
1F
100
AcDbEntity
  8
section$view
100
AcDbLine
 10
448.684378161098
 20
240.3667314066052
 30
0.0
 11
448.2526579672445
 21
240.2828133677232
 31
0.0
  0
LINE
  5
235
330
1F
100
AcDbEntity
  8
section$view
100
AcDbLine
 10
448.2526579672445
 20
240.2828133677232
 30
0.0
 11
447.8182720695588
 21
240.2140132592747
 31
0.0
  0
LINE
  5
236
330
1F
100
AcDbEntity
  8
section$view
100
AcDbLine
 10
447.8182720695588
 20
240.2140132592747
 30
0.0
 11
447.3817496998113
 21
240.1604149035093
 31
0.0
  0
LINE
  5
237
330
1F
100
AcDbEntity
  8
section$view
100
AcDbLine
 10
447.3817496998113
 20
240.1604149035093
 30
0.0
 11
446.9436226927318
 21
240.1220836017015
 31
0.0
  0
LINE
  5
238
330
1F
100
AcDbEntity
  8
section$view
100
AcDbLine
 10
446.9436226927318
 20
240.1220836017015
 30
0.0
 11
446.5044248380515
 21
240.099066054591
 31
0.0
  0
LINE
  5
239
330
1F
100
AcDbEntity
  8
section$view
100
AcDbLine
 10
446.5044248380515
 20
240.099066054591
 30
0.0
 11
446.0646912301633
 21
240.091390305485
 31
0.0
  0
LINE
  5
23A
330
1F
100
AcDbEntity
  8
section$view
100
AcDbLine
 10
446.0646912301633
 20
240.091390305485
 30
0.0
 11
376.0195998091493
 21
240.0913903054851
 31
0.0
  0
LINE
  5
23B
330
1F
100
AcDbEntity
  8
section$view
100
AcDbLine
 10
376.0195998091493
 20
240.0913903054851
 30
0.0
 11
375.5894218076225
 21
240.0987357793831
 31
0.0
  0
LINE
  5
23C
330
1F
100
AcDbEntity
  8
section$view
100
AcDbLine
 10
375.5894218076225
 20
240.0987357793831
 30
0.0
 11
375.159745372984
 21
240.1207637275594
 31
0.0
  0
LINE
  5
23D
330
1F
100
AcDbEntity
  8
section$view
100
AcDbLine
 10
375.159745372984
 20
240.1207637275594
 30
0.0
 11
374.7310714888714
 21
240.1574484664048
 31
0.0
  0
LINE
  5
23E
330
1F
100
AcDbEntity
  8
section$view
100
AcDbLine
 10
374.7310714888714
 20
240.1574484664048
 30
0.0
 11
374.3038999699921
 21
240.2087472231432
 31
0.0
  0
LINE
  5
23F
330
1F
100
AcDbEntity
  8
section$view
100
AcDbLine
 10
374.3038999699921
 20
240.2087472231432
 30
0.0
 11
373.8787288793633
 21
240.2746001857029
 31
0.0
  0
LINE
  5
240
330
1F
100
AcDbEntity
  8
section$view
100
AcDbLine
 10
373.8787288793633
 20
240.2746001857029
 30
0.0
 11
373.4560539475909
 21
240.3549305724547
 31
0.0
  0
LINE
  5
241
330
1F
100
AcDbEntity
  8
section$view
100
AcDbLine
 10
373.4560539475909
 20
240.3549305724547
 30
0.0
 11
373.036367994871
 21
240.4496447217357
 31
0.0
  0
LINE
  5
242
330
1F
100
AcDbEntity
  8
section$view
100
AcDbLine
 10
373.036367994871
 20
240.4496447217357
 30
0.0
 11
372.6201603563826
 21
240.5586322010549
 31
0.0
  0
LINE
  5
243
330
1F
100
AcDbEntity
  8
section$view
100
AcDbLine
 10
372.6201603563826
 20
240.5586322010549
 30
0.0
 11
372.207916311745
 21
240.6817659358526
 31
0.0
  0
LINE
  5
244
330
1F
100
AcDbEntity
  8
section$view
100
AcDbLine
 10
372.207916311745
 20
240.6817659358526
 30
0.0
 11
371.8001165192028
 21
240.8189023576633
 31
0.0
  0
LINE
  5
245
330
1F
100
AcDbEntity
  8
section$view
100
AcDbLine
 10
371.8001165192028
 20
240.8189023576633
 30
0.0
 11
371.3972364552005
 21
240.9698815715105
 31
0.0
  0
LINE
  5
246
330
1F
100
AcDbEntity
  8
section$view
100
AcDbLine
 10
371.3972364552005
 20
240.9698815715105
 30
0.0
 11
370.9997458599973
 21
241.1345275423373
 31
0.0
  0
LINE
  5
247
330
1F
100
AcDbEntity
  8
section$view
100
AcDbLine
 10
370.9997458599973
 20
241.1345275423373
 30
0.0
 11
370.6081081899714
 21
241.3126483002548
 31
0.0
  0
LINE
  5
248
330
1F
100
AcDbEntity
  8
section$view
100
AcDbLine
 10
370.6081081899714
 20
241.3126483002548
 30
0.0
 11
370.2227800772501
 21
241.5040361643713
 31
0.0
  0
LINE
  5
249
330
1F
100
AcDbEntity
  8
section$view
100
AcDbLine
 10
370.2227800772501
 20
241.5040361643713
 30
0.0
 11
369.8442107972971
 21
241.7084679849384
 31
0.0
  0
LINE
  5
24A
330
1F
100
AcDbEntity
  8
section$view
100
AcDbLine
 10
369.8442107972971
 20
241.7084679849384
 30
0.0
 11
369.4728417450776
 21
241.9257054035336
 31
0.0
  0
LINE
  5
24B
330
1F
100
AcDbEntity
  8
section$view
100
AcDbLine
 10
369.4728417450776
 20
241.9257054035336
 30
0.0
 11
369.1091059204106
 21
242.1554951309765
 31
0.0
  0
LINE
  5
24C
330
1F
100
AcDbEntity
  8
section$view
100
AcDbLine
 10
369.1091059204106
 20
242.1554951309765
 30
0.0
 11
368.7534274231112
 21
242.3975692426515
 31
0.0
  0
LINE
  5
24D
330
1F
100
AcDbEntity
  8
section$view
100
AcDbLine
 10
368.7534274231112
 20
242.3975692426515
 30
0.0
 11
368.4062209585085
 21
242.6516454908971
 31
0.0
  0
LINE
  5
24E
330
1F
100
AcDbEntity
  8
section$view
100
AcDbLine
 10
368.4062209585085
 20
242.6516454908971
 30
0.0
 11
368.067891353918
 21
242.9174276340935
 31
0.0
  0
LINE
  5
24F
330
1F
100
AcDbEntity
  8
section$view
100
AcDbLine
 10
368.067891353918
 20
242.9174276340935
 30
0.0
 11
367.7388330866305
 21
243.1946057820673
 31
0.0
  0
LINE
  5
250
330
1F
100
AcDbEntity
  8
section$view
100
AcDbLine
 10
367.7388330866305
 20
243.1946057820673
 30
0.0
 11
367.4194298239694
 21
243.4828567574098
 31
0.0
  0
LINE
  5
251
330
1F
100
AcDbEntity
  8
section$view
100
AcDbLine
 10
367.4194298239694
 20
243.4828567574098
 30
0.0
 11
367.1100539759516
 21
243.7818444722875
 31
0.0
  0
LINE
  5
252
330
1F
100
AcDbEntity
  8
section$view
100
AcDbLine
 10
367.1100539759516
 20
243.7818444722875
 30
0.0
 11
366.8110662610741
 21
244.0912203203052
 31
0.0
  0
LINE
  5
253
330
1F
100
AcDbEntity
  8
section$view
100
AcDbLine
 10
366.8110662610741
 20
244.0912203203052
 30
0.0
 11
366.5228152857315
 21
244.4106235829663
 31
0.0
  0
LINE
  5
254
330
1F
100
AcDbEntity
  8
section$view
100
AcDbLine
 10
366.5228152857315
 20
244.4106235829663
 30
0.0
 11
366.2456371377577
 21
244.7396818502537
 31
0.0
  0
LINE
  5
255
330
1F
100
AcDbEntity
  8
section$view
100
AcDbLine
 10
366.2456371377577
 20
244.7396818502537
 30
0.0
 11
365.9798549945613
 21
245.0780114548443
 31
0.0
  0
LINE
  5
256
330
1F
100
AcDbEntity
  8
section$view
100
AcDbLine
 10
365.9798549945613
 20
245.0780114548443
 30
0.0
 11
365.7257787463157
 21
245.4252179194469
 31
0.0
  0
LINE
  5
257
330
1F
100
AcDbEntity
  8
section$view
100
AcDbLine
 10
365.7257787463157
 20
245.4252179194469
 30
0.0
 11
365.4837046346406
 21
245.7808964167463
 31
0.0
  0
LINE
  5
258
330
1F
100
AcDbEntity
  8
section$view
100
AcDbLine
 10
365.4837046346406
 20
245.7808964167463
 30
0.0
 11
365.2539149071977
 21
246.1446322414133
 31
0.0
  0
LINE
  5
259
330
1F
100
AcDbEntity
  8
section$view
100
AcDbLine
 10
365.2539149071977
 20
246.1446322414133
 30
0.0
 11
365.0366774886024
 21
246.5160012936329
 31
0.0
  0
LINE
  5
25A
330
1F
100
AcDbEntity
  8
section$view
100
AcDbLine
 10
365.0366774886024
 20
246.5160012936329
 30
0.0
 11
364.8322456680354
 21
246.8945705735859
 31
0.0
  0
LINE
  5
25B
330
1F
100
AcDbEntity
  8
section$view
100
AcDbLine
 10
364.8322456680354
 20
246.8945705735859
 30
0.0
 11
364.6408578039189
 21
247.2798986863071
 31
0.0
  0
LINE
  5
25C
330
1F
100
AcDbEntity
  8
section$view
100
AcDbLine
 10
364.6408578039189
 20
247.2798986863071
 30
0.0
 11
364.4627370460013
 21
247.6715363563331
 31
0.0
  0
LINE
  5
25D
330
1F
100
AcDbEntity
  8
section$view
100
AcDbLine
 10
364.4627370460013
 20
247.6715363563331
 30
0.0
 11
364.2980910751746
 21
248.0690269515362
 31
0.0
  0
LINE
  5
25E
330
1F
100
AcDbEntity
  8
section$view
100
AcDbLine
 10
364.2980910751746
 20
248.0690269515362
 30
0.0
 11
364.1471118613273
 21
248.4719070155385
 31
0.0
  0
LINE
  5
25F
330
1F
100
AcDbEntity
  8
section$view
100
AcDbLine
 10
364.1471118613273
 20
248.4719070155385
 30
0.0
 11
364.0099754395166
 21
248.8797068080806
 31
0.0
  0
LINE
  5
260
330
1F
100
AcDbEntity
  8
section$view
100
AcDbLine
 10
364.0099754395166
 20
248.8797068080806
 30
0.0
 11
363.8868417047189
 21
249.2919508527183
 31
0.0
  0
LINE
  5
261
330
1F
100
AcDbEntity
  8
section$view
100
AcDbLine
 10
363.8868417047189
 20
249.2919508527183
 30
0.0
 11
363.7778542253997
 21
249.7081584912066
 31
0.0
  0
LINE
  5
262
330
1F
100
AcDbEntity
  8
section$view
100
AcDbLine
 10
363.7778542253997
 20
249.7081584912066
 30
0.0
 11
363.6831400761186
 21
250.1278444439265
 31
0.0
  0
LINE
  5
263
330
1F
100
AcDbEntity
  8
section$view
100
AcDbLine
 10
363.6831400761186
 20
250.1278444439265
 30
0.0
 11
363.6028096893668
 21
250.5505193756989
 31
0.0
  0
LINE
  5
264
330
1F
100
AcDbEntity
  8
section$view
100
AcDbLine
 10
363.6028096893668
 20
250.5505193756989
 30
0.0
 11
363.5369567268071
 21
250.9756904663278
 31
0.0
  0
LINE
  5
265
330
1F
100
AcDbEntity
  8
section$view
100
AcDbLine
 10
363.5369567268071
 20
250.9756904663278
 30
0.0
 11
363.4856579700687
 21
251.402861985207
 31
0.0
  0
LINE
  5
266
330
1F
100
AcDbEntity
  8
section$view
100
AcDbLine
 10
363.4856579700687
 20
251.402861985207
 30
0.0
 11
363.4489732312233
 21
251.8315358693197
 31
0.0
  0
LINE
  5
267
330
1F
100
AcDbEntity
  8
section$view
100
AcDbLine
 10
363.4489732312233
 20
251.8315358693197
 30
0.0
 11
363.426945283047
 21
252.2612123039581
 31
0.0
  0
LINE
  5
268
330
1F
100
AcDbEntity
  8
section$view
100
AcDbLine
 10
363.426945283047
 20
252.2612123039581
 30
0.0
 11
363.4195998091489
 21
252.691390305485
 31
0.0
  0
LINE
  5
269
330
1F
100
AcDbEntity
  8
section$view
100
AcDbLine
 10
363.4195998091489
 20
252.691390305485
 30
0.0
 11
363.419599809149
 21
277.0750390259524
 31
0.0
  0
LINE
  5
26A
330
1F
100
AcDbEntity
  8
section$view
100
AcDbLine
 10
363.419599809149
 20
277.0750390259524
 30
0.0
 11
363.4269453107345
 21
277.5052170192374
 31
0.0
  0
LINE
  5
26B
330
1F
100
AcDbEntity
  8
section$view
100
AcDbLine
 10
363.4269453107345
 20
277.5052170192374
 30
0.0
 11
363.4489732850656
 21
277.9348934447567
 31
0.0
  0
LINE
  5
26C
330
1F
100
AcDbEntity
  8
section$view
100
AcDbLine
 10
363.4489732850656
 20
277.9348934447567
 30
0.0
 11
363.485658048507
 21
278.3635673189681
 31
0.0
  0
LINE
  5
26D
330
1F
100
AcDbEntity
  8
section$view
100
AcDbLine
 10
363.485658048507
 20
278.3635673189681
 30
0.0
 11
363.5369568282614
 21
278.7907388272594
 31
0.0
  0
LINE
  5
26E
330
1F
100
AcDbEntity
  8
section$view
100
AcDbLine
 10
363.5369568282614
 20
278.7907388272594
 30
0.0
 11
363.60280981224
 21
279.21590990671
 31
0.0
  0
LINE
  5
26F
330
1F
100
AcDbEntity
  8
section$view
100
AcDbLine
 10
363.60280981224
 20
279.21590990671
 30
0.0
 11
363.6831402188018
 21
279.6385848268104
 31
0.0
  0
LINE
  5
270
330
1F
100
AcDbEntity
  8
section$view
100
AcDbLine
 10
363.6831402188018
 20
279.6385848268104
 30
0.0
 11
363.7778543862765
 21
280.058270767461
 31
0.0
  0
LINE
  5
271
330
1F
100
AcDbEntity
  8
section$view
100
AcDbLine
 10
363.7778543862765
 20
280.058270767461
 30
0.0
 11
363.8868418821704
 21
280.4744783935791
 31
0.0
  0
LINE
  5
272
330
1F
100
AcDbEntity
  8
section$view
100
AcDbLine
 10
363.8868418821704
 20
280.4744783935791
 30
0.0
 11
364.0099756319258
 21
280.8867224256418
 31
0.0
  0
LINE
  5
273
330
1F
100
AcDbEntity
  8
section$view
100
AcDbLine
 10
364.0099756319258
 20
280.8867224256418
 30
0.0
 11
364.1471120670842
 21
281.2945222054998
 31
0.0
  0
LINE
  5
274
330
1F
100
AcDbEntity
  8
section$view
100
AcDbLine
 10
364.1471120670842
 20
281.2945222054998
 30
0.0
 11
364.2980912926803
 21
281.6974022568037
 31
0.0
  0
LINE
  5
275
330
1F
100
AcDbEntity
  8
section$view
100
AcDbLine
 10
364.2980912926803
 20
281.6974022568037
 30
0.0
 11
364.462737273673
 21
282.0948928393879
 31
0.0
  0
LINE
  5
276
330
1F
100
AcDbEntity
  8
section$view
100
AcDbLine
 10
364.462737273673
 20
282.0948928393879
 30
0.0
 11
364.6408580401941
 21
282.4865304969671
 31
0.0
  0
LINE
  5
277
330
1F
100
AcDbEntity
  8
section$view
100
AcDbLine
 10
364.6408580401941
 20
282.4865304969671
 30
0.0
 11
364.8322459113766
 21
282.8718585975053
 31
0.0
  0
LINE
  5
278
330
1F
100
AcDbEntity
  8
section$view
100
AcDbLine
 10
364.8322459113766
 20
282.8718585975053
 30
0.0
 11
365.0366777375015
 21
283.2504278656286
 31
0.0
  0
LINE
  5
279
330
1F
100
AcDbEntity
  8
section$view
100
AcDbLine
 10
365.0366777375015
 20
283.2504278656286
 30
0.0
 11
365.2539151601801
 21
283.6217969064601
 31
0.0
  0
LINE
  5
27A
330
1F
100
AcDbEntity
  8
section$view
100
AcDbLine
 10
365.2539151601801
 20
283.6217969064601
 30
0.0
 11
365.4837048902696
 21
283.9855327202667
 31
0.0
  0
LINE
  5
27B
330
1F
100
AcDbEntity
  8
section$view
100
AcDbLine
 10
365.4837048902696
 20
283.9855327202667
 30
0.0
 11
365.7257790031967
 21
284.3412112073175
 31
0.0
  0
LINE
  5
27C
330
1F
100
AcDbEntity
  8
section$view
100
AcDbLine
 10
365.7257790031967
 20
284.3412112073175
 30
0.0
 11
365.9798552513457
 21
284.688417662365
 31
0.0
  0
LINE
  5
27D
330
1F
100
AcDbEntity
  8
section$view
100
AcDbLine
 10
365.9798552513457
 20
284.688417662365
 30
0.0
 11
366.245637393147
 21
285.0267472581732
 31
0.0
  0
LINE
  5
27E
330
1F
100
AcDbEntity
  8
section$view
100
AcDbLine
 10
366.245637393147
 20
285.0267472581732
 30
0.0
 11
366.5228155384808
 21
285.3558055175278
 31
0.0
  0
LINE
  5
27F
330
1F
100
AcDbEntity
  8
section$view
100
AcDbLine
 10
366.5228155384808
 20
285.3558055175278
 30
0.0
 11
366.811066509996
 21
285.6752087731792
 31
0.0
  0
LINE
  5
280
330
1F
100
AcDbEntity
  8
section$view
100
AcDbLine
 10
366.811066509996
 20
285.6752087731792
 30
0.0
 11
367.11005421992
 21
285.9845846151815
 31
0.0
  0
LINE
  5
281
330
1F
100
AcDbEntity
  8
section$view
100
AcDbLine
 10
367.11005421992
 20
285.9845846151815
 30
0.0
 11
367.4194300619222
 21
286.2835723251054
 31
0.0
  0
LINE
  5
282
330
1F
100
AcDbEntity
  8
section$view
100
AcDbLine
 10
367.4194300619222
 20
286.2835723251054
 30
0.0
 11
367.7388333175736
 21
286.5718232966206
 31
0.0
  0
LINE
  5
283
330
1F
100
AcDbEntity
  8
section$view
100
AcDbLine
 10
367.7388333175736
 20
286.5718232966206
 30
0.0
 11
368.0678915769282
 21
286.8490014419544
 31
0.0
  0
LINE
  5
284
330
1F
100
AcDbEntity
  8
section$view
100
AcDbLine
 10
368.0678915769282
 20
286.8490014419544
 30
0.0
 11
368.4062211727363
 21
287.1147835837556
 31
0.0
  0
LINE
  5
285
330
1F
100
AcDbEntity
  8
section$view
100
AcDbLine
 10
368.4062211727363
 20
287.1147835837556
 30
0.0
 11
368.7534276277839
 21
287.3688598319047
 31
0.0
  0
LINE
  5
286
330
1F
100
AcDbEntity
  8
section$view
100
AcDbLine
 10
368.7534276277839
 20
287.3688598319047
 30
0.0
 11
369.1091061148346
 21
287.6109339448317
 31
0.0
  0
LINE
  5
287
330
1F
100
AcDbEntity
  8
section$view
100
AcDbLine
 10
369.1091061148346
 20
287.6109339448317
 30
0.0
 11
369.4728419286412
 21
287.8407236749213
 31
0.0
  0
LINE
  5
288
330
1F
100
AcDbEntity
  8
section$view
100
AcDbLine
 10
369.4728419286412
 20
287.8407236749213
 30
0.0
 11
369.8442109694728
 21
288.0579610976
 31
0.0
  0
LINE
  5
289
330
1F
100
AcDbEntity
  8
section$view
100
AcDbLine
 10
369.8442109694728
 20
288.0579610976
 30
0.0
 11
370.2227802375961
 21
288.2623929237248
 31
0.0
  0
LINE
  5
28A
330
1F
100
AcDbEntity
  8
section$view
100
AcDbLine
 10
370.2227802375961
 20
288.2623929237248
 30
0.0
 11
370.6081083381343
 21
288.4537807949073
 31
0.0
  0
LINE
  5
28B
330
1F
100
AcDbEntity
  8
section$view
100
AcDbLine
 10
370.6081083381343
 20
288.4537807949073
 30
0.0
 11
370.9997459957135
 21
288.6319015614284
 31
0.0
  0
LINE
  5
28C
330
1F
100
AcDbEntity
  8
section$view
100
AcDbLine
 10
370.9997459957135
 20
288.6319015614284
 30
0.0
 11
371.3972365782977
 21
288.7965475424211
 31
0.0
  0
LINE
  5
28D
330
1F
100
AcDbEntity
  8
section$view
100
AcDbLine
 10
371.3972365782977
 20
288.7965475424211
 30
0.0
 11
371.8001166296015
 21
288.9475267680172
 31
0.0
  0
LINE
  5
28E
330
1F
100
AcDbEntity
  8
section$view
100
AcDbLine
 10
371.8001166296015
 20
288.9475267680172
 30
0.0
 11
372.2079164094595
 21
289.0846632031755
 31
0.0
  0
LINE
  5
28F
330
1F
100
AcDbEntity
  8
section$view
100
AcDbLine
 10
372.2079164094595
 20
289.0846632031755
 30
0.0
 11
372.6201604415222
 21
289.2077969529309
 31
0.0
  0
LINE
  5
290
330
1F
100
AcDbEntity
  8
section$view
100
AcDbLine
 10
372.6201604415222
 20
289.2077969529309
 30
0.0
 11
373.0363680676404
 21
289.3167844488249
 31
0.0
  0
LINE
  5
291
330
1F
100
AcDbEntity
  8
section$view
100
AcDbLine
 10
373.0363680676404
 20
289.3167844488249
 30
0.0
 11
373.4560540082909
 21
289.4114986162996
 31
0.0
  0
LINE
  5
292
330
1F
100
AcDbEntity
  8
section$view
100
AcDbLine
 10
373.4560540082909
 20
289.4114986162996
 30
0.0
 11
373.8787289283912
 21
289.4918290228613
 31
0.0
  0
LINE
  5
293
330
1F
100
AcDbEntity
  8
section$view
100
AcDbLine
 10
373.8787289283912
 20
289.4918290228613
 30
0.0
 11
374.303900007842
 21
289.5576820068401
 31
0.0
  0
LINE
  5
294
330
1F
100
AcDbEntity
  8
section$view
100
AcDbLine
 10
374.303900007842
 20
289.5576820068401
 30
0.0
 11
374.7310715161333
 21
289.6089807865944
 31
0.0
  0
LINE
  5
295
330
1F
100
AcDbEntity
  8
section$view
100
AcDbLine
 10
374.7310715161333
 20
289.6089807865944
 30
0.0
 11
375.1597453903447
 21
289.6456655500359
 31
0.0
  0
LINE
  5
296
330
1F
100
AcDbEntity
  8
section$view
100
AcDbLine
 10
375.1597453903447
 20
289.6456655500359
 30
0.0
 11
375.5894218158639
 21
289.667693524367
 31
0.0
  0
LINE
  5
297
330
1F
100
AcDbEntity
  8
section$view
100
AcDbLine
 10
375.5894218158639
 20
289.667693524367
 30
0.0
 11
376.0195998091489
 21
289.6750390259524
 31
0.0
  0
LINE
  5
298
330
1F
100
AcDbEntity
  8
section$view
100
AcDbLine
 10
351.8146820958417
 20
231.3899699282712
 30
0.0
 11
470.2696089434711
 21
231.3899699282712
 31
0.0
  0
LINE
  5
299
330
1F
100
AcDbEntity
  8
section$view
100
AcDbLine
 10
470.2696089434711
 20
231.3899699282712
 30
0.0
 11
470.2696089434711
 21
298.3764594031663
 31
0.0
  0
LINE
  5
29A
330
1F
100
AcDbEntity
  8
section$view
100
AcDbLine
 10
470.2696089434711
 20
298.3764594031663
 30
0.0
 11
351.8146820958417
 21
298.3764594031663
 31
0.0
  0
LINE
  5
29B
330
1F
100
AcDbEntity
  8
section$view
100
AcDbLine
 10
351.8146820958417
 20
298.3764594031663
 30
0.0
 11
351.8146820958417
 21
231.3899699282712
 31
0.0
  0
LINE
  5
29C
330
1F
100
AcDbEntity
  8
section$view
100
AcDbLine
 10
386.3931359719951
 20
83.2643844252587
 30
0.0
 11
436.4253441298625
 21
83.26438442525871
 31
0.0
  0
LINE
  5
29D
330
1F
100
AcDbEntity
  8
section$view
100
AcDbLine
 10
436.4253441298625
 20
83.26438442525871
 30
0.0
 11
486.4575522877298
 21
83.2643844252587
 31
0.0
  0
LINE
  5
29E
330
1F
100
AcDbEntity
  8
section$view
100
AcDbLine
 10
486.4575522877298
 20
83.2643844252587
 30
0.0
 11
487.0857431440959
 21
83.25341902900254
 31
0.0
  0
LINE
  5
29F
330
1F
100
AcDbEntity
  8
section$view
100
AcDbLine
 10
487.0857431440959
 20
83.25341902900254
 30
0.0
 11
487.7131686374309
 21
83.22053678074188
 31
0.0
  0
LINE
  5
2A0
330
1F
100
AcDbEntity
  8
section$view
100
AcDbLine
 10
487.7131686374309
 20
83.22053678074188
 30
0.0
 11
488.3390643473182
 21
83.16577774238392
 31
0.0
  0
LINE
  5
2A1
330
1F
100
AcDbEntity
  8
section$view
100
AcDbLine
 10
488.3390643473182
 20
83.16577774238392
 30
0.0
 11
488.9626677171448
 21
83.08920862930339
 31
0.0
  0
LINE
  5
2A2
330
1F
100
AcDbEntity
  8
section$view
100
AcDbLine
 10
488.9626677171448
 20
83.08920862930339
 30
0.0
 11
489.5832189831581
 21
82.99092272906017
 31
0.0
  0
LINE
  5
2A3
330
1F
100
AcDbEntity
  8
section$view
100
AcDbLine
 10
489.5832189831581
 20
82.99092272906017
 30
0.0
 11
490.1999621001187
 21
82.87103978774299
 31
0.0
  0
LINE
  5
2A4
330
1F
100
AcDbEntity
  8
section$view
100
AcDbLine
 10
490.1999621001187
 20
82.87103978774299
 30
0.0
 11
490.8121456624254
 21
82.72970586407732
 31
0.0
  0
LINE
  5
2A5
330
1F
100
AcDbEntity
  8
section$view
100
AcDbLine
 10
490.8121456624254
 20
82.72970586407732
 30
0.0
 11
491.419023819585
 21
82.56709315147563
 31
0.0
  0
LINE
  5
2A6
330
1F
100
AcDbEntity
  8
section$view
100
AcDbLine
 10
491.419023819585
 20
82.56709315147563
 30
0.0
 11
492.0198571849161
 21
82.38339976824643
 31
0.0
  0
LINE
  5
2A7
330
1F
100
AcDbEntity
  8
section$view
100
AcDbLine
 10
492.0198571849161
 20
82.38339976824643
 30
0.0
 11
492.6139137363759
 21
82.1788495162179
 31
0.0
  0
LINE
  5
2A8
330
1F
100
AcDbEntity
  8
section$view
100
AcDbLine
 10
492.6139137363759
 20
82.1788495162179
 30
0.0
 11
493.2004697084158
 21
81.95369160807024
 31
0.0
  0
LINE
  5
2A9
330
1F
100
AcDbEntity
  8
section$view
100
AcDbLine
 10
493.2004697084158
 20
81.95369160807024
 30
0.0
 11
493.7788104737774
 21
81.70820036370866
 31
0.0
  0
LINE
  5
2AA
330
1F
100
AcDbEntity
  8
section$view
100
AcDbLine
 10
493.7788104737774
 20
81.70820036370866
 30
0.0
 11
494.348231414154
 21
81.44267487604726
 31
0.0
  0
LINE
  5
2AB
330
1F
100
AcDbEntity
  8
section$view
100
AcDbLine
 10
494.348231414154
 20
81.44267487604726
 30
0.0
 11
494.908038778659
 21
81.15743864661088
 31
0.0
  0
LINE
  5
2AC
330
1F
100
AcDbEntity
  8
section$view
100
AcDbLine
 10
494.908038778659
 20
81.15743864661088
 30
0.0
 11
495.4575505290535
 21
80.85283919139876
 31
0.0
  0
LINE
  5
2AD
330
1F
100
AcDbEntity
  8
section$view
100
AcDbLine
 10
495.4575505290535
 20
80.85283919139876
 30
0.0
 11
495.9960971707036
 21
80.52924761749016
 31
0.0
  0
LINE
  5
2AE
330
1F
100
AcDbEntity
  8
section$view
100
AcDbLine
 10
495.9960971707036
 20
80.52924761749016
 30
0.0
 11
496.5230225682556
 21
80.18705817090836
 31
0.0
  0
LINE
  5
2AF
330
1F
100
AcDbEntity
  8
section$view
100
AcDbLine
 10
496.5230225682556
 20
80.18705817090836
 30
0.0
 11
497.0376847450348
 21
79.82668775629297
 31
0.0
  0
LINE
  5
2B0
330
1F
100
AcDbEntity
  8
section$view
100
AcDbLine
 10
497.0376847450348
 20
79.82668775629297
 30
0.0
 11
497.5394566651947
 21
79.44857542896658
 31
0.0
  0
LINE
  5
2B1
330
1F
100
AcDbEntity
  8
section$view
100
AcDbLine
 10
497.5394566651947
 20
79.44857542896658
 30
0.0
 11
498.0277269976624
 21
79.05318186001386
 31
0.0
  0
LINE
  5
2B2
330
1F
100
AcDbEntity
  8
section$view
100
AcDbLine
 10
498.0277269976624
 20
79.05318186001386
 30
0.0
 11
498.5019008609502
 21
78.64098877502595
 31
0.0
  0
LINE
  5
2B3
330
1F
100
AcDbEntity
  8
section$view
100
AcDbLine
 10
498.5019008609502
 20
78.64098877502595
 30
0.0
 11
498.9614005479268
 21
78.21249836719205
 31
0.0
  0
LINE
  5
2B4
330
1F
100
AcDbEntity
  8
section$view
100
AcDbLine
 10
498.9614005479268
 20
78.21249836719205
 30
0.0
 11
499.4056662296631
 21
77.76823268545577
 31
0.0
  0
LINE
  5
2B5
330
1F
100
AcDbEntity
  8
section$view
100
AcDbLine
 10
499.4056662296631
 20
77.76823268545577
 30
0.0
 11
499.8341566374969
 21
77.3087329984792
 31
0.0
  0
LINE
  5
2B6
330
1F
100
AcDbEntity
  8
section$view
100
AcDbLine
 10
499.8341566374969
 20
77.3087329984792
 30
0.0
 11
500.2463497224849
 21
76.83455913519137
 31
0.0
  0
LINE
  5
2B7
330
1F
100
AcDbEntity
  8
section$view
100
AcDbLine
 10
500.2463497224849
 20
76.83455913519137
 30
0.0
 11
500.6417432914375
 21
76.34628880272372
 31
0.0
  0
LINE
  5
2B8
330
1F
100
AcDbEntity
  8
section$view
100
AcDbLine
 10
500.6417432914375
 20
76.34628880272372
 30
0.0
 11
501.0198556187639
 21
75.84451688256378
 31
0.0
  0
LINE
  5
2B9
330
1F
100
AcDbEntity
  8
section$view
100
AcDbLine
 10
501.0198556187639
 20
75.84451688256378
 30
0.0
 11
501.3802260333793
 21
75.32985470578454
 31
0.0
  0
LINE
  5
2BA
330
1F
100
AcDbEntity
  8
section$view
100
AcDbLine
 10
501.3802260333793
 20
75.32985470578454
 30
0.0
 11
501.7224154799611
 21
74.80292930823262
 31
0.0
  0
LINE
  5
2BB
330
1F
100
AcDbEntity
  8
section$view
100
AcDbLine
 10
501.7224154799611
 20
74.80292930823262
 30
0.0
 11
502.0460070538697
 21
74.26438266658258
 31
0.0
  0
LINE
  5
2BC
330
1F
100
AcDbEntity
  8
section$view
100
AcDbLine
 10
502.0460070538697
 20
74.26438266658258
 30
0.0
 11
502.3506065090818
 21
73.71487091618803
 31
0.0
  0
LINE
  5
2BD
330
1F
100
AcDbEntity
  8
section$view
100
AcDbLine
 10
502.3506065090818
 20
73.71487091618803
 30
0.0
 11
502.6358427385182
 21
73.15506355168297
 31
0.0
  0
LINE
  5
2BE
330
1F
100
AcDbEntity
  8
section$view
100
AcDbLine
 10
502.6358427385182
 20
73.15506355168297
 30
0.0
 11
502.9013682261796
 21
72.58564261130635
 31
0.0
  0
LINE
  5
2BF
330
1F
100
AcDbEntity
  8
section$view
100
AcDbLine
 10
502.9013682261796
 20
72.58564261130635
 30
0.0
 11
503.1468594705412
 21
72.00730184594478
 31
0.0
  0
LINE
  5
2C0
330
1F
100
AcDbEntity
  8
section$view
100
AcDbLine
 10
503.1468594705412
 20
72.00730184594478
 30
0.0
 11
503.3720173786888
 21
71.42074587390478
 31
0.0
  0
LINE
  5
2C1
330
1F
100
AcDbEntity
  8
section$view
100
AcDbLine
 10
503.3720173786888
 20
71.42074587390478
 30
0.0
 11
503.5765676307174
 21
70.82668932244503
 31
0.0
  0
LINE
  5
2C2
330
1F
100
AcDbEntity
  8
section$view
100
AcDbLine
 10
503.5765676307174
 20
70.82668932244503
 30
0.0
 11
503.7602610139465
 21
70.22585595711399
 31
0.0
  0
LINE
  5
2C3
330
1F
100
AcDbEntity
  8
section$view
100
AcDbLine
 10
503.7602610139465
 20
70.22585595711399
 30
0.0
 11
503.9228737265482
 21
69.61897779995435
 31
0.0
  0
LINE
  5
2C4
330
1F
100
AcDbEntity
  8
section$view
100
AcDbLine
 10
503.9228737265482
 20
69.61897779995435
 30
0.0
 11
504.0642076502139
 21
69.00679423764768
 31
0.0
  0
LINE
  5
2C5
330
1F
100
AcDbEntity
  8
section$view
100
AcDbLine
 10
504.0642076502139
 20
69.00679423764768
 30
0.0
 11
504.1840905915311
 21
68.39005112068703
 31
0.0
  0
LINE
  5
2C6
330
1F
100
AcDbEntity
  8
section$view
100
AcDbLine
 10
504.1840905915311
 20
68.39005112068703
 30
0.0
 11
504.2823764917742
 21
67.76949985467384
 31
0.0
  0
LINE
  5
2C7
330
1F
100
AcDbEntity
  8
section$view
100
AcDbLine
 10
504.2823764917742
 20
67.76949985467384
 30
0.0
 11
504.3589456048548
 21
67.1458964848471
 31
0.0
  0
LINE
  5
2C8
330
1F
100
AcDbEntity
  8
section$view
100
AcDbLine
 10
504.3589456048548
 20
67.1458964848471
 30
0.0
 11
504.4137046432127
 21
66.52000077495981
 31
0.0
  0
LINE
  5
2C9
330
1F
100
AcDbEntity
  8
section$view
100
AcDbLine
 10
504.4137046432127
 20
66.52000077495981
 30
0.0
 11
504.4465868914734
 21
65.89257528162494
 31
0.0
  0
LINE
  5
2CA
330
1F
100
AcDbEntity
  8
section$view
100
AcDbLine
 10
504.4465868914734
 20
65.89257528162494
 30
0.0
 11
504.4575522877295
 21
65.2643844252587
 31
0.0
  0
LINE
  5
2CB
330
1F
100
AcDbEntity
  8
section$view
100
AcDbLine
 10
504.4575522877295
 20
65.2643844252587
 30
0.0
 11
504.4575522877298
 21
30.43060053887693
 31
0.0
  0
LINE
  5
2CC
330
1F
100
AcDbEntity
  8
section$view
100
AcDbLine
 10
504.4575522877298
 20
30.43060053887693
 30
0.0
 11
504.446586931864
 21
29.80240967046518
 31
0.0
  0
LINE
  5
2CD
330
1F
100
AcDbEntity
  8
section$view
100
AcDbLine
 10
504.446586931864
 20
29.80240967046518
 30
0.0
 11
504.4137047217061
 21
29.17498416377909
 31
0.0
  0
LINE
  5
2CE
330
1F
100
AcDbEntity
  8
section$view
100
AcDbLine
 10
504.4137047217061
 20
29.17498416377909
 30
0.0
 11
504.3589457191235
 21
28.54908843937982
 31
0.0
  0
LINE
  5
2CF
330
1F
100
AcDbEntity
  8
section$view
100
AcDbLine
 10
504.3589457191235
 20
28.54908843937982
 30
0.0
 11
504.2823766394587
 21
27.92548505402624
 31
0.0
  0
LINE
  5
2D0
330
1F
100
AcDbEntity
  8
section$view
100
AcDbLine
 10
504.2823766394587
 20
27.92548505402624
 30
0.0
 11
504.1840907702464
 21
27.30493377161815
 31
0.0
  0
LINE
  5
2D1
330
1F
100
AcDbEntity
  8
section$view
100
AcDbLine
 10
504.1840907702464
 20
27.30493377161815
 30
0.0
 11
504.0642078575578
 21
26.68819063754164
 31
0.0
  0
LINE
  5
2D2
330
1F
100
AcDbEntity
  8
section$view
100
AcDbLine
 10
504.0642078575578
 20
26.68819063754164
 30
0.0
 11
503.9228739601081
 21
26.07600705754558
 31
0.0
  0
LINE
  5
2D3
330
1F
100
AcDbEntity
  8
section$view
100
AcDbLine
 10
503.9228739601081
 20
26.07600705754558
 30
0.0
 11
503.7602612713067
 21
25.46912888226991
 31
0.0
  0
LINE
  5
2D4
330
1F
100
AcDbEntity
  8
section$view
100
AcDbLine
 10
503.7602612713067
 20
25.46912888226991
 30
0.0
 11
503.5765679094664
 21
24.86829549854278
 31
0.0
  0
LINE
  5
2D5
330
1F
100
AcDbEntity
  8
section$view
100
AcDbLine
 10
503.5765679094664
 20
24.86829549854278
 30
0.0
 11
503.3720176764271
 21
24.27423892855243
 31
0.0
  0
LINE
  5
2D6
330
1F
100
AcDbEntity
  8
section$view
100
AcDbLine
 10
503.3720176764271
 20
24.27423892855243
 30
0.0
 11
503.1468597848877
 21
23.68768293799167
 31
0.0
  0
LINE
  5
2D7
330
1F
100
AcDbEntity
  8
section$view
100
AcDbLine
 10
503.1468597848877
 20
23.68768293799167
 30
0.0
 11
502.9013685547795
 21
23.10934215426199
 31
0.0
  0
LINE
  5
2D8
330
1F
100
AcDbEntity
  8
section$view
100
AcDbLine
 10
502.9013685547795
 20
23.10934215426199
 30
0.0
 11
502.6358430790493
 21
22.53992119581082
 31
0.0
  0
LINE
  5
2D9
330
1F
100
AcDbEntity
  8
section$view
100
AcDbLine
 10
502.6358430790493
 20
22.53992119581082
 30
0.0
 11
502.3506068592621
 21
21.98011381366349
 31
0.0
  0
LINE
  5
2DA
330
1F
100
AcDbEntity
  8
section$view
100
AcDbLine
 10
502.3506068592621
 20
21.98011381366349
 30
0.0
 11
502.0460074114636
 21
21.43060204619531
 31
0.0
  0
LINE
  5
2DB
330
1F
100
AcDbEntity
  8
section$view
100
AcDbLine
 10
502.0460074114636
 20
21.43060204619531
 30
0.0
 11
501.7224158427866
 21
20.8920553881736
 31
0.0
  0
LINE
  5
2DC
330
1F
100
AcDbEntity
  8
section$view
100
AcDbLine
 10
501.7224158427866
 20
20.8920553881736
 30
0.0
 11
501.3802263993144
 21
20.36512997508239
 31
0.0
  0
LINE
  5
2DD
330
1F
100
AcDbEntity
  8
section$view
100
AcDbLine
 10
501.3802263993144
 20
20.36512997508239
 30
0.0
 11
501.019855985753
 21
19.85046778372319
 31
0.0
  0
LINE
  5
2DE
330
1F
100
AcDbEntity
  8
section$view
100
AcDbLine
 10
501.019855985753
 20
19.85046778372319
 30
0.0
 11
500.6417436574973
 21
19.34869585006585
 31
0.0
  0
LINE
  5
2DF
330
1F
100
AcDbEntity
  8
section$view
100
AcDbLine
 10
500.6417436574973
 20
19.34869585006585
 30
0.0
 11
500.2463500857109
 21
18.86042550530264
 31
0.0
  0
LINE
  5
2E0
330
1F
100
AcDbEntity
  8
section$view
100
AcDbLine
 10
500.2463500857109
 20
18.86042550530264
 30
0.0
 11
499.8341569960692
 21
18.38625163103625
 31
0.0
  0
LINE
  5
2E1
330
1F
100
AcDbEntity
  8
section$view
100
AcDbLine
 10
499.8341569960692
 20
18.38625163103625
 30
0.0
 11
499.4056665818518
 21
17.92675193450859
 31
0.0
  0
LINE
  5
2E2
330
1F
100
AcDbEntity
  8
section$view
100
AcDbLine
 10
499.4056665818518
 20
17.92675193450859
 30
0.0
 11
498.9614008920979
 21
17.48248624475463
 31
0.0
  0
LINE
  5
2E3
330
1F
100
AcDbEntity
  8
section$view
100
AcDbLine
 10
498.9614008920979
 20
17.48248624475463
 30
0.0
 11
498.5019011955703
 21
17.05399583053727
 31
0.0
  0
LINE
  5
2E4
330
1F
100
AcDbEntity
  8
section$view
100
AcDbLine
 10
498.5019011955703
 20
17.05399583053727
 30
0.0
 11
498.0277273213038
 21
16.64180274089561
 31
0.0
  0
LINE
  5
2E5
330
1F
100
AcDbEntity
  8
section$view
100
AcDbLine
 10
498.0277273213038
 20
16.64180274089561
 30
0.0
 11
497.5394569765407
 21
16.24640916910921
 31
0.0
  0
LINE
  5
2E6
330
1F
100
AcDbEntity
  8
section$view
100
AcDbLine
 10
497.5394569765407
 20
16.24640916910921
 30
0.0
 11
497.0376850428833
 21
15.86829684085354
 31
0.0
  0
LINE
  5
2E7
330
1F
100
AcDbEntity
  8
section$view
100
AcDbLine
 10
497.0376850428833
 20
15.86829684085354
 30
0.0
 11
496.523022851524
 21
15.50792642729204
 31
0.0
  0
LINE
  5
2E8
330
1F
100
AcDbEntity
  8
section$view
100
AcDbLine
 10
496.523022851524
 20
15.50792642729204
 30
0.0
 11
495.9960974384329
 21
15.16573698381984
 31
0.0
  0
LINE
  5
2E9
330
1F
100
AcDbEntity
  8
section$view
100
AcDbLine
 10
495.9960974384329
 20
15.16573698381984
 30
0.0
 11
495.4575507804112
 21
14.84214541514292
 31
0.0
  0
LINE
  5
2EA
330
1F
100
AcDbEntity
  8
section$view
100
AcDbLine
 10
495.4575507804112
 20
14.84214541514292
 30
0.0
 11
494.9080390129429
 21
14.53754596734442
 31
0.0
  0
LINE
  5
2EB
330
1F
100
AcDbEntity
  8
section$view
100
AcDbLine
 10
494.9080390129429
 20
14.53754596734442
 30
0.0
 11
494.3482316307957
 21
14.25230974755719
 31
0.0
  0
LINE
  5
2EC
330
1F
100
AcDbEntity
  8
section$view
100
AcDbLine
 10
494.3482316307957
 20
14.25230974755719
 30
0.0
 11
493.7788106723444
 21
13.98678427182706
 31
0.0
  0
LINE
  5
2ED
330
1F
100
AcDbEntity
  8
section$view
100
AcDbLine
 10
493.7788106723444
 20
13.98678427182706
 30
0.0
 11
493.2004698886147
 21
13.74129304171878
 31
0.0
  0
LINE
  5
2EE
330
1F
100
AcDbEntity
  8
section$view
100
AcDbLine
 10
493.2004698886147
 20
13.74129304171878
 30
0.0
 11
492.613913898054
 21
13.51613515017942
 31
0.0
  0
LINE
  5
2EF
330
1F
100
AcDbEntity
  8
section$view
100
AcDbLine
 10
492.613913898054
 20
13.51613515017942
 30
0.0
 11
492.0198573280636
 21
13.31158491714013
 31
0.0
  0
LINE
  5
2F0
330
1F
100
AcDbEntity
  8
section$view
100
AcDbLine
 10
492.0198573280636
 20
13.31158491714013
 30
0.0
 11
491.4190239443366
 21
13.12789155529986
 31
0.0
  0
LINE
  5
2F1
330
1F
100
AcDbEntity
  8
section$view
100
AcDbLine
 10
491.4190239443366
 20
13.12789155529986
 30
0.0
 11
490.8121457690609
 21
12.96527886649844
 31
0.0
  0
LINE
  5
2F2
330
1F
100
AcDbEntity
  8
section$view
100
AcDbLine
 10
490.8121457690609
 20
12.96527886649844
 30
0.0
 11
490.1999621890648
 21
12.82394496904869
 31
0.0
  0
LINE
  5
2F3
330
1F
100
AcDbEntity
  8
section$view
100
AcDbLine
 10
490.1999621890648
 20
12.82394496904869
 30
0.0
 11
489.5832190549883
 21
12.70406205636009
 31
0.0
  0
LINE
  5
2F4
330
1F
100
AcDbEntity
  8
section$view
100
AcDbLine
 10
489.5832190549883
 20
12.70406205636009
 30
0.0
 11
488.9626677725802
 21
12.60577618714786
 31
0.0
  0
LINE
  5
2F5
330
1F
100
AcDbEntity
  8
section$view
100
AcDbLine
 10
488.9626677725802
 20
12.60577618714786
 30
0.0
 11
488.3390643872266
 21
12.52920710748303
 31
0.0
  0
LINE
  5
2F6
330
1F
100
AcDbEntity
  8
section$view
100
AcDbLine
 10
488.3390643872266
 20
12.52920710748303
 30
0.0
 11
487.7131686628273
 21
12.47444810490047
 31
0.0
  0
LINE
  5
2F7
330
1F
100
AcDbEntity
  8
section$view
100
AcDbLine
 10
487.7131686628273
 20
12.47444810490047
 30
0.0
 11
487.0857431561412
 21
12.44156589474255
 31
0.0
  0
LINE
  5
2F8
330
1F
100
AcDbEntity
  8
section$view
100
AcDbLine
 10
487.0857431561412
 20
12.44156589474255
 30
0.0
 11
486.4575522877295
 21
12.4306005388768
 31
0.0
  0
LINE
  5
2F9
330
1F
100
AcDbEntity
  8
section$view
100
AcDbLine
 10
486.4575522877295
 20
12.4306005388768
 30
0.0
 11
386.3931359719955
 21
12.43060053887694
 31
0.0
  0
LINE
  5
2FA
330
1F
100
AcDbEntity
  8
section$view
100
AcDbLine
 10
386.3931359719955
 20
12.43060053887694
 30
0.0
 11
385.7785959698143
 21
12.44109407301707
 31
0.0
  0
LINE
  5
2FB
330
1F
100
AcDbEntity
  8
section$view
100
AcDbLine
 10
385.7785959698143
 20
12.44109407301707
 30
0.0
 11
385.1647724917594
 21
12.47256257041174
 31
0.0
  0
LINE
  5
2FC
330
1F
100
AcDbEntity
  8
section$view
100
AcDbLine
 10
385.1647724917594
 20
12.47256257041174
 30
0.0
 11
384.5523812287412
 21
12.52496934019081
 31
0.0
  0
LINE
  5
2FD
330
1F
100
AcDbEntity
  8
section$view
100
AcDbLine
 10
384.5523812287412
 20
12.52496934019081
 30
0.0
 11
383.942136201771
 21
12.59825327838852
 31
0.0
  0
LINE
  5
2FE
330
1F
100
AcDbEntity
  8
section$view
100
AcDbLine
 10
383.942136201771
 20
12.59825327838852
 30
0.0
 11
383.3347489294441
 21
12.69232893918811
 31
0.0
  0
LINE
  5
2FF
330
1F
100
AcDbEntity
  8
section$view
100
AcDbLine
 10
383.3347489294441
 20
12.69232893918811
 30
0.0
 11
382.7309275983407
 21
12.80708663454776
 31
0.0
  0
LINE
  5
300
330
1F
100
AcDbEntity
  8
section$view
100
AcDbLine
 10
382.7309275983407
 20
12.80708663454776
 30
0.0
 11
382.1313762373122
 21
12.94239256209206
 31
0.0
  0
LINE
  5
301
330
1F
100
AcDbEntity
  8
section$view
100
AcDbLine
 10
382.1313762373122
 20
12.94239256209206
 30
0.0
 11
381.5367938966146
 21
13.09808896111953
 31
0.0
  0
LINE
  5
302
330
1F
100
AcDbEntity
  8
section$view
100
AcDbLine
 10
381.5367938966146
 20
13.09808896111953
 30
0.0
 11
380.9478738328464
 21
13.27399429654475
 31
0.0
  0
LINE
  5
303
330
1F
100
AcDbEntity
  8
section$view
100
AcDbLine
 10
380.9478738328464
 20
13.27399429654475
 30
0.0
 11
380.3653027006434
 21
13.46990347055997
 31
0.0
  0
LINE
  5
304
330
1F
100
AcDbEntity
  8
section$view
100
AcDbLine
 10
380.3653027006434
 20
13.46990347055997
 30
0.0
 11
379.7897597520686
 21
13.68558806177035
 31
0.0
  0
LINE
  5
305
330
1F
100
AcDbEntity
  8
section$view
100
AcDbLine
 10
379.7897597520686
 20
13.68558806177035
 30
0.0
 11
379.2219160446356
 21
13.92079659152282
 31
0.0
  0
LINE
  5
306
330
1F
100
AcDbEntity
  8
section$view
100
AcDbLine
 10
379.2219160446356
 20
13.92079659152282
 30
0.0
 11
378.6624336588843
 21
14.17525481711936
 31
0.0
  0
LINE
  5
307
330
1F
100
AcDbEntity
  8
section$view
100
AcDbLine
 10
378.6624336588843
 20
14.17525481711936
 30
0.0
 11
378.1119649264253
 21
14.44866605157148
 31
0.0
  0
LINE
  5
308
330
1F
100
AcDbEntity
  8
section$view
100
AcDbLine
 10
378.1119649264253
 20
14.44866605157148
 30
0.0
 11
377.5711516693496
 21
14.74071150952439
 31
0.0
  0
LINE
  5
309
330
1F
100
AcDbEntity
  8
section$view
100
AcDbLine
 10
377.5711516693496
 20
14.74071150952439
 30
0.0
 11
377.0406244518931
 21
15.05105067894619
 31
0.0
  0
LINE
  5
30A
330
1F
100
AcDbEntity
  8
section$view
100
AcDbLine
 10
377.0406244518931
 20
15.05105067894619
 30
0.0
 11
376.5210018452258
 21
15.37932171815025
 31
0.0
  0
LINE
  5
30B
330
1F
100
AcDbEntity
  8
section$view
100
AcDbLine
 10
376.5210018452258
 20
15.37932171815025
 30
0.0
 11
376.0128897062267
 21
15.725141877686
 31
0.0
  0
LINE
  5
30C
330
1F
100
AcDbEntity
  8
section$view
100
AcDbLine
 10
376.0128897062267
 20
15.725141877686
 30
0.0
 11
375.51688047108
 21
16.08810794660834
 31
0.0
  0
LINE
  5
30D
330
1F
100
AcDbEntity
  8
section$view
100
AcDbLine
 10
375.51688047108
 20
16.08810794660834
 30
0.0
 11
375.0335524645222
 21
16.46779672260314
 31
0.0
  0
LINE
  5
30E
330
1F
100
AcDbEntity
  8
section$view
100
AcDbLine
 10
375.0335524645222
 20
16.46779672260314
 30
0.0
 11
374.56346922554
 21
16.86376550542287
 31
0.0
  0
LINE
  5
30F
330
1F
100
AcDbEntity
  8
section$view
100
AcDbLine
 10
374.56346922554
 20
16.86376550542287
 30
0.0
 11
374.10717885031
 21
17.27555261305503
 31
0.0
  0
LINE
  5
310
330
1F
100
AcDbEntity
  8
section$view
100
AcDbLine
 10
374.10717885031
 20
17.27555261305503
 30
0.0
 11
373.6652133531417
 21
17.7026779200231
 31
0.0
  0
LINE
  5
311
330
1F
100
AcDbEntity
  8
section$view
100
AcDbLine
 10
373.6652133531417
 20
17.7026779200231
 30
0.0
 11
373.2380880461737
 21
18.14464341719125
 31
0.0
  0
LINE
  5
312
330
1F
100
AcDbEntity
  8
section$view
100
AcDbLine
 10
373.2380880461737
 20
18.14464341719125
 30
0.0
 11
372.8263009385415
 21
18.60093379242136
 31
0.0
  0
LINE
  5
313
330
1F
100
AcDbEntity
  8
section$view
100
AcDbLine
 10
372.8263009385415
 20
18.60093379242136
 30
0.0
 11
372.4303321557218
 21
19.07101703140344
 31
0.0
  0
LINE
  5
314
330
1F
100
AcDbEntity
  8
section$view
100
AcDbLine
 10
372.4303321557218
 20
19.07101703140344
 30
0.0
 11
372.0506433797269
 21
19.55434503796135
 31
0.0
  0
LINE
  5
315
330
1F
100
AcDbEntity
  8
section$view
100
AcDbLine
 10
372.0506433797269
 20
19.55434503796135
 30
0.0
 11
371.6876773108046
 21
20.05035427310795
 31
0.0
  0
LINE
  5
316
330
1F
100
AcDbEntity
  8
section$view
100
AcDbLine
 10
371.6876773108046
 20
20.05035427310795
 30
0.0
 11
371.3418571512688
 21
20.55846641210715
 31
0.0
  0
LINE
  5
317
330
1F
100
AcDbEntity
  8
section$view
100
AcDbLine
 10
371.3418571512688
 20
20.55846641210715
 30
0.0
 11
371.0135861120647
 21
21.07808901877431
 31
0.0
  0
LINE
  5
318
330
1F
100
AcDbEntity
  8
section$view
100
AcDbLine
 10
371.0135861120647
 20
21.07808901877431
 30
0.0
 11
370.7032469426429
 21
21.6086162362309
 31
0.0
  0
LINE
  5
319
330
1F
100
AcDbEntity
  8
section$view
100
AcDbLine
 10
370.7032469426429
 20
21.6086162362309
 30
0.0
 11
370.41120148469
 21
22.14942949330653
 31
0.0
  0
LINE
  5
31A
330
1F
100
AcDbEntity
  8
section$view
100
AcDbLine
 10
370.41120148469
 20
22.14942949330653
 30
0.0
 11
370.1377902502378
 21
22.69989822576553
 31
0.0
  0
LINE
  5
31B
330
1F
100
AcDbEntity
  8
section$view
100
AcDbLine
 10
370.1377902502378
 20
22.69989822576553
 30
0.0
 11
369.8833320246412
 21
23.25938061151681
 31
0.0
  0
LINE
  5
31C
330
1F
100
AcDbEntity
  8
section$view
100
AcDbLine
 10
369.8833320246412
 20
23.25938061151681
 30
0.0
 11
369.6481234948887
 21
23.82722431894988
 31
0.0
  0
LINE
  5
31D
330
1F
100
AcDbEntity
  8
section$view
100
AcDbLine
 10
369.6481234948887
 20
23.82722431894988
 30
0.0
 11
369.4324389036784
 21
24.4027672675246
 31
0.0
  0
LINE
  5
31E
330
1F
100
AcDbEntity
  8
section$view
100
AcDbLine
 10
369.4324389036784
 20
24.4027672675246
 30
0.0
 11
369.2365297296631
 21
24.98533839972764
 31
0.0
  0
LINE
  5
31F
330
1F
100
AcDbEntity
  8
section$view
100
AcDbLine
 10
369.2365297296631
 20
24.98533839972764
 30
0.0
 11
369.0606243942379
 21
25.57425846349573
 31
0.0
  0
LINE
  5
320
330
1F
100
AcDbEntity
  8
section$view
100
AcDbLine
 10
369.0606243942379
 20
25.57425846349573
 30
0.0
 11
368.9049279952104
 21
26.16884080419337
 31
0.0
  0
LINE
  5
321
330
1F
100
AcDbEntity
  8
section$view
100
AcDbLine
 10
368.9049279952104
 20
26.16884080419337
 30
0.0
 11
368.7696220676661
 21
26.7683921652218
 31
0.0
  0
LINE
  5
322
330
1F
100
AcDbEntity
  8
section$view
100
AcDbLine
 10
368.7696220676661
 20
26.7683921652218
 30
0.0
 11
368.6548643723064
 21
27.37221349632514
 31
0.0
  0
LINE
  5
323
330
1F
100
AcDbEntity
  8
section$view
100
AcDbLine
 10
368.6548643723064
 20
27.37221349632514
 30
0.0
 11
368.5607887115068
 21
27.97960076865211
 31
0.0
  0
LINE
  5
324
330
1F
100
AcDbEntity
  8
section$view
100
AcDbLine
 10
368.5607887115068
 20
27.97960076865211
 30
0.0
 11
368.487504773309
 21
28.5898457956224
 31
0.0
  0
LINE
  5
325
330
1F
100
AcDbEntity
  8
section$view
100
AcDbLine
 10
368.487504773309
 20
28.5898457956224
 30
0.0
 11
368.43509800353
 21
29.20223705864058
 31
0.0
  0
LINE
  5
326
330
1F
100
AcDbEntity
  8
section$view
100
AcDbLine
 10
368.43509800353
 20
29.20223705864058
 30
0.0
 11
368.4036295061352
 21
29.81606053669546
 31
0.0
  0
LINE
  5
327
330
1F
100
AcDbEntity
  8
section$view
100
AcDbLine
 10
368.4036295061352
 20
29.81606053669546
 30
0.0
 11
368.3931359719952
 21
30.4306005388767
 31
0.0
  0
LINE
  5
328
330
1F
100
AcDbEntity
  8
section$view
100
AcDbLine
 10
368.3931359719952
 20
30.4306005388767
 30
0.0
 11
368.3931359719951
 21
65.2643844252587
 31
0.0
  0
LINE
  5
329
330
1F
100
AcDbEntity
  8
section$view
100
AcDbLine
 10
368.3931359719951
 20
65.2643844252587
 30
0.0
 11
368.4036295456886
 21
65.87892441566571
 31
0.0
  0
LINE
  5
32A
330
1F
100
AcDbEntity
  8
section$view
100
AcDbLine
 10
368.4036295456886
 20
65.87892441566571
 30
0.0
 11
368.4350980804473
 21
66.49274788069329
 31
0.0
  0
LINE
  5
32B
330
1F
100
AcDbEntity
  8
section$view
100
AcDbLine
 10
368.4350980804473
 20
66.49274788069329
 30
0.0
 11
368.4875048853637
 21
67.10513912956674
 31
0.0
  0
LINE
  5
32C
330
1F
100
AcDbEntity
  8
section$view
100
AcDbLine
 10
368.4875048853637
 20
67.10513912956674
 30
0.0
 11
368.5607888564414
 21
67.71538414141149
 31
0.0
  0
LINE
  5
32D
330
1F
100
AcDbEntity
  8
section$view
100
AcDbLine
 10
368.5607888564414
 20
67.71538414141149
 30
0.0
 11
368.6548645478396
 21
68.32277139776959
 31
0.0
  0
LINE
  5
32E
330
1F
100
AcDbEntity
  8
section$view
100
AcDbLine
 10
368.6548645478396
 20
68.32277139776959
 30
0.0
 11
368.7696222714992
 21
68.92659271219858
 31
0.0
  0
LINE
  5
32F
330
1F
100
AcDbEntity
  8
section$view
100
AcDbLine
 10
368.7696222714992
 20
68.92659271219858
 30
0.0
 11
368.9049282250344
 21
69.52614405598511
 31
0.0
  0
LINE
  5
330
330
1F
100
AcDbEntity
  8
section$view
100
AcDbLine
 10
368.9049282250344
 20
69.52614405598511
 30
0.0
 11
369.0606246477401
 21
70.1207263790111
 31
0.0
  0
LINE
  5
331
330
1F
100
AcDbEntity
  8
section$view
100
AcDbLine
 10
369.0606246477401
 20
70.1207263790111
 30
0.0
 11
369.2365300045336
 21
70.70964642481502
 31
0.0
  0
LINE
  5
332
330
1F
100
AcDbEntity
  8
section$view
100
AcDbLine
 10
369.2365300045336
 20
70.70964642481502
 30
0.0
 11
369.4324391976169
 21
71.29221753889789
 31
0.0
  0
LINE
  5
333
330
1F
100
AcDbEntity
  8
section$view
100
AcDbLine
 10
369.4324391976169
 20
71.29221753889789
 30
0.0
 11
369.6481238056113
 21
71.86776046933194
 31
0.0
  0
LINE
  5
334
330
1F
100
AcDbEntity
  8
section$view
100
AcDbLine
 10
369.6481238056113
 20
71.86776046933194
 30
0.0
 11
369.8833323498866
 21
72.43560415873789
 31
0.0
  0
LINE
  5
335
330
1F
100
AcDbEntity
  8
section$view
100
AcDbLine
 10
369.8833323498866
 20
72.43560415873789
 30
0.0
 11
370.1377905877738
 21
72.99508652670819
 31
0.0
  0
LINE
  5
336
330
1F
100
AcDbEntity
  8
section$view
100
AcDbLine
 10
370.1377905877738
 20
72.99508652670819
 30
0.0
 11
370.4112018323203
 21
73.54555524176274
 31
0.0
  0
LINE
  5
337
330
1F
100
AcDbEntity
  8
section$view
100
AcDbLine
 10
370.4112018323203
 20
73.54555524176274
 30
0.0
 11
370.703247298213
 21
74.08636848193886
 31
0.0
  0
LINE
  5
338
330
1F
100
AcDbEntity
  8
section$view
100
AcDbLine
 10
370.703247298213
 20
74.08636848193886
 30
0.0
 11
371.0135864734682
 21
74.6168956831268
 31
0.0
  0
LINE
  5
339
330
1F
100
AcDbEntity
  8
section$view
100
AcDbLine
 10
371.0135864734682
 20
74.6168956831268
 30
0.0
 11
371.3418575164532
 21
75.13651827427907
 31
0.0
  0
LINE
  5
33A
330
1F
100
AcDbEntity
  8
section$view
100
AcDbLine
 10
371.3418575164532
 20
75.13651827427907
 30
0.0
 11
371.6876776777776
 21
75.64463039863737
 31
0.0
  0
LINE
  5
33B
330
1F
100
AcDbEntity
  8
section$view
100
AcDbLine
 10
371.6876776777776
 20
75.64463039863737
 30
0.0
 11
372.050643746562
 21
76.14063962013381
 31
0.0
  0
LINE
  5
33C
330
1F
100
AcDbEntity
  8
section$view
100
AcDbLine
 10
372.050643746562
 20
76.14063962013381
 30
0.0
 11
372.4303325205637
 21
76.6239676141455
 31
0.0
  0
LINE
  5
33D
330
1F
100
AcDbEntity
  8
section$view
100
AcDbLine
 10
372.4303325205637
 20
76.6239676141455
 30
0.0
 11
372.8263012996121
 21
77.09405084179491
 31
0.0
  0
LINE
  5
33E
330
1F
100
AcDbEntity
  8
section$view
100
AcDbLine
 10
372.8263012996121
 20
77.09405084179491
 30
0.0
 11
373.2380884017766
 21
77.5503412070112
 31
0.0
  0
LINE
  5
33F
330
1F
100
AcDbEntity
  8
section$view
100
AcDbLine
 10
373.2380884017766
 20
77.5503412070112
 30
0.0
 11
373.665213701668
 21
77.99230669558585
 31
0.0
  0
LINE
  5
340
330
1F
100
AcDbEntity
  8
section$view
100
AcDbLine
 10
373.665213701668
 20
77.99230669558585
 30
0.0
 11
374.1071791902426
 21
78.41943199547721
 31
0.0
  0
LINE
  5
341
330
1F
100
AcDbEntity
  8
section$view
100
AcDbLine
 10
374.1071791902426
 20
78.41943199547721
 30
0.0
 11
374.5634695554589
 21
78.83121909764176
 31
0.0
  0
LINE
  5
342
330
1F
100
AcDbEntity
  8
section$view
100
AcDbLine
 10
374.5634695554589
 20
78.83121909764176
 30
0.0
 11
375.0335527831083
 21
79.2271878766901
 31
0.0
  0
LINE
  5
343
330
1F
100
AcDbEntity
  8
section$view
100
AcDbLine
 10
375.0335527831083
 20
79.2271878766901
 30
0.0
 11
375.5168807771199
 21
79.6068766506918
 31
0.0
  0
LINE
  5
344
330
1F
100
AcDbEntity
  8
section$view
100
AcDbLine
 10
375.5168807771199
 20
79.6068766506918
 30
0.0
 11
376.0128899986165
 21
79.96984271947623
 31
0.0
  0
LINE
  5
345
330
1F
100
AcDbEntity
  8
section$view
100
AcDbLine
 10
376.0128899986165
 20
79.96984271947623
 30
0.0
 11
376.5210021229747
 21
80.31566288080062
 31
0.0
  0
LINE
  5
346
330
1F
100
AcDbEntity
  8
section$view
100
AcDbLine
 10
376.5210021229747
 20
80.31566288080062
 30
0.0
 11
377.0406247141271
 21
80.64393392378567
 31
0.0
  0
LINE
  5
347
330
1F
100
AcDbEntity
  8
section$view
100
AcDbLine
 10
377.0406247141271
 20
80.64393392378567
 30
0.0
 11
377.5711519153149
 21
80.95427309904085
 31
0.0
  0
LINE
  5
348
330
1F
100
AcDbEntity
  8
section$view
100
AcDbLine
 10
377.5711519153149
 20
80.95427309904085
 30
0.0
 11
378.111965155491
 21
81.24631856493352
 31
0.0
  0
LINE
  5
349
330
1F
100
AcDbEntity
  8
section$view
100
AcDbLine
 10
378.111965155491
 20
81.24631856493352
 30
0.0
 11
378.6624338705457
 21
81.51972980948
 31
0.0
  0
LINE
  5
34A
330
1F
100
AcDbEntity
  8
section$view
100
AcDbLine
 10
378.6624338705457
 20
81.51972980948
 30
0.0
 11
379.2219162385159
 21
81.7741880473673
 31
0.0
  0
LINE
  5
34B
330
1F
100
AcDbEntity
  8
section$view
100
AcDbLine
 10
379.2219162385159
 20
81.7741880473673
 30
0.0
 11
379.7897599279219
 21
82.00939659164258
 31
0.0
  0
LINE
  5
34C
330
1F
100
AcDbEntity
  8
section$view
100
AcDbLine
 10
379.7897599279219
 20
82.00939659164258
 30
0.0
 11
380.365302858356
 21
82.22508119963699
 31
0.0
  0
LINE
  5
34D
330
1F
100
AcDbEntity
  8
section$view
100
AcDbLine
 10
380.365302858356
 20
82.22508119963699
 30
0.0
 11
380.9478739724387
 21
82.4209903927203
 31
0.0
  0
LINE
  5
34E
330
1F
100
AcDbEntity
  8
section$view
100
AcDbLine
 10
380.9478739724387
 20
82.4209903927203
 30
0.0
 11
381.5367940182427
 21
82.5968957495138
 31
0.0
  0
LINE
  5
34F
330
1F
100
AcDbEntity
  8
section$view
100
AcDbLine
 10
381.5367940182427
 20
82.5968957495138
 30
0.0
 11
382.1313763412687
 21
82.75259217221945
 31
0.0
  0
LINE
  5
350
330
1F
100
AcDbEntity
  8
section$view
100
AcDbLine
 10
382.1313763412687
 20
82.75259217221945
 30
0.0
 11
382.7309276850552
 21
82.88789812575469
 31
0.0
  0
LINE
  5
351
330
1F
100
AcDbEntity
  8
section$view
100
AcDbLine
 10
382.7309276850552
 20
82.88789812575469
 30
0.0
 11
383.3347489994841
 21
83.00265584941434
 31
0.0
  0
LINE
  5
352
330
1F
100
AcDbEntity
  8
section$view
100
AcDbLine
 10
383.3347489994841
 20
83.00265584941434
 30
0.0
 11
383.9421362558423
 21
83.09673154081251
 31
0.0
  0
LINE
  5
353
330
1F
100
AcDbEntity
  8
section$view
100
AcDbLine
 10
383.9421362558423
 20
83.09673154081251
 30
0.0
 11
384.5523812676871
 21
83.17001551189014
 31
0.0
  0
LINE
  5
354
330
1F
100
AcDbEntity
  8
section$view
100
AcDbLine
 10
384.5523812676871
 20
83.17001551189014
 30
0.0
 11
385.1647725165605
 21
83.22242231680654
 31
0.0
  0
LINE
  5
355
330
1F
100
AcDbEntity
  8
section$view
100
AcDbLine
 10
385.1647725165605
 20
83.22242231680654
 30
0.0
 11
385.7785959815881
 21
83.25389085156527
 31
0.0
  0
LINE
  5
356
330
1F
100
AcDbEntity
  8
section$view
100
AcDbLine
 10
385.7785959815881
 20
83.25389085156527
 30
0.0
 11
386.3931359719951
 21
83.26438442525875
 31
0.0
  0
LINE
  5
357
330
1F
100
AcDbEntity
  8
section$view
100
AcDbLine
 10
351.8146820958417
 20
0.0
 30
0.0
 11
521.0360061638834
 21
0.0
 31
0.0
  0
LINE
  5
358
330
1F
100
AcDbEntity
  8
section$view
100
AcDbLine
 10
521.0360061638834
 20
0.0
 30
0.0
 11
521.0360061638834
 21
95.69498496413561
 31
0.0
  0
LINE
  5
359
330
1F
100
AcDbEntity
  8
section$view
100
AcDbLine
 10
521.0360061638834
 20
95.69498496413561
 30
0.0
 11
351.8146820958417
 21
95.69498496413561
 31
0.0
  0
LINE
  5
35A
330
1F
100
AcDbEntity
  8
section$view
100
AcDbLine
 10
351.8146820958417
 20
95.69498496413561
 30
0.0
 11
351.8146820958417
 21
0.0
 31
0.0
  0
LINE
  5
35B
330
1F
100
AcDbEntity
  8
section$view
100
AcDbLine
 10
386.3931359719951
 20
198.9593693893943
 30
0.0
 11
436.4253441298625
 21
198.9593693893943
 31
0.0
  0
LINE
  5
35C
330
1F
100
AcDbEntity
  8
section$view
100
AcDbLine
 10
436.4253441298625
 20
198.9593693893943
 30
0.0
 11
486.4575522877298
 21
198.9593693893943
 31
0.0
  0
LINE
  5
35D
330
1F
100
AcDbEntity
  8
section$view
100
AcDbLine
 10
486.4575522877298
 20
198.9593693893943
 30
0.0
 11
487.0857431440959
 21
198.9484039931382
 31
0.0
  0
LINE
  5
35E
330
1F
100
AcDbEntity
  8
section$view
100
AcDbLine
 10
487.0857431440959
 20
198.9484039931382
 30
0.0
 11
487.7131686374309
 21
198.9155217448775
 31
0.0
  0
LINE
  5
35F
330
1F
100
AcDbEntity
  8
section$view
100
AcDbLine
 10
487.7131686374309
 20
198.9155217448775
 30
0.0
 11
488.3390643473182
 21
198.8607627065196
 31
0.0
  0
LINE
  5
360
330
1F
100
AcDbEntity
  8
section$view
100
AcDbLine
 10
488.3390643473182
 20
198.8607627065196
 30
0.0
 11
488.9626677171448
 21
198.784193593439
 31
0.0
  0
LINE
  5
361
330
1F
100
AcDbEntity
  8
section$view
100
AcDbLine
 10
488.9626677171448
 20
198.784193593439
 30
0.0
 11
489.5832189831581
 21
198.6859076931958
 31
0.0
  0
LINE
  5
362
330
1F
100
AcDbEntity
  8
section$view
100
AcDbLine
 10
489.5832189831581
 20
198.6859076931958
 30
0.0
 11
490.1999621001187
 21
198.5660247518786
 31
0.0
  0
LINE
  5
363
330
1F
100
AcDbEntity
  8
section$view
100
AcDbLine
 10
490.1999621001187
 20
198.5660247518786
 30
0.0
 11
490.8121456624254
 21
198.424690828213
 31
0.0
  0
LINE
  5
364
330
1F
100
AcDbEntity
  8
section$view
100
AcDbLine
 10
490.8121456624254
 20
198.424690828213
 30
0.0
 11
491.419023819585
 21
198.2620781156112
 31
0.0
  0
LINE
  5
365
330
1F
100
AcDbEntity
  8
section$view
100
AcDbLine
 10
491.419023819585
 20
198.2620781156112
 30
0.0
 11
492.0198571849161
 21
198.078384732382
 31
0.0
  0
LINE
  5
366
330
1F
100
AcDbEntity
  8
section$view
100
AcDbLine
 10
492.0198571849161
 20
198.078384732382
 30
0.0
 11
492.6139137363759
 21
197.8738344803535
 31
0.0
  0
LINE
  5
367
330
1F
100
AcDbEntity
  8
section$view
100
AcDbLine
 10
492.6139137363759
 20
197.8738344803535
 30
0.0
 11
493.2004697084158
 21
197.6486765722059
 31
0.0
  0
LINE
  5
368
330
1F
100
AcDbEntity
  8
section$view
100
AcDbLine
 10
493.2004697084158
 20
197.6486765722059
 30
0.0
 11
493.7788104737774
 21
197.4031853278443
 31
0.0
  0
LINE
  5
369
330
1F
100
AcDbEntity
  8
section$view
100
AcDbLine
 10
493.7788104737774
 20
197.4031853278443
 30
0.0
 11
494.348231414154
 21
197.1376598401829
 31
0.0
  0
LINE
  5
36A
330
1F
100
AcDbEntity
  8
section$view
100
AcDbLine
 10
494.348231414154
 20
197.1376598401829
 30
0.0
 11
494.908038778659
 21
196.8524236107465
 31
0.0
  0
LINE
  5
36B
330
1F
100
AcDbEntity
  8
section$view
100
AcDbLine
 10
494.908038778659
 20
196.8524236107465
 30
0.0
 11
495.4575505290535
 21
196.5478241555344
 31
0.0
  0
LINE
  5
36C
330
1F
100
AcDbEntity
  8
section$view
100
AcDbLine
 10
495.4575505290535
 20
196.5478241555344
 30
0.0
 11
495.9960971707036
 21
196.2242325816258
 31
0.0
  0
LINE
  5
36D
330
1F
100
AcDbEntity
  8
section$view
100
AcDbLine
 10
495.9960971707036
 20
196.2242325816258
 30
0.0
 11
496.5230225682556
 21
195.8820431350439
 31
0.0
  0
LINE
  5
36E
330
1F
100
AcDbEntity
  8
section$view
100
AcDbLine
 10
496.5230225682556
 20
195.8820431350439
 30
0.0
 11
497.0376847450348
 21
195.5216727204286
 31
0.0
  0
LINE
  5
36F
330
1F
100
AcDbEntity
  8
section$view
100
AcDbLine
 10
497.0376847450348
 20
195.5216727204286
 30
0.0
 11
497.5394566651947
 21
195.1435603931022
 31
0.0
  0
LINE
  5
370
330
1F
100
AcDbEntity
  8
section$view
100
AcDbLine
 10
497.5394566651947
 20
195.1435603931022
 30
0.0
 11
498.0277269976624
 21
194.7481668241495
 31
0.0
  0
LINE
  5
371
330
1F
100
AcDbEntity
  8
section$view
100
AcDbLine
 10
498.0277269976624
 20
194.7481668241495
 30
0.0
 11
498.5019008609502
 21
194.3359737391615
 31
0.0
  0
LINE
  5
372
330
1F
100
AcDbEntity
  8
section$view
100
AcDbLine
 10
498.5019008609502
 20
194.3359737391615
 30
0.0
 11
498.9614005479268
 21
193.9074833313277
 31
0.0
  0
LINE
  5
373
330
1F
100
AcDbEntity
  8
section$view
100
AcDbLine
 10
498.9614005479268
 20
193.9074833313277
 30
0.0
 11
499.4056662296631
 21
193.4632176495914
 31
0.0
  0
LINE
  5
374
330
1F
100
AcDbEntity
  8
section$view
100
AcDbLine
 10
499.4056662296631
 20
193.4632176495914
 30
0.0
 11
499.8341566374969
 21
193.0037179626148
 31
0.0
  0
LINE
  5
375
330
1F
100
AcDbEntity
  8
section$view
100
AcDbLine
 10
499.8341566374969
 20
193.0037179626148
 30
0.0
 11
500.2463497224849
 21
192.529544099327
 31
0.0
  0
LINE
  5
376
330
1F
100
AcDbEntity
  8
section$view
100
AcDbLine
 10
500.2463497224849
 20
192.529544099327
 30
0.0
 11
500.6417432914375
 21
192.0412737668593
 31
0.0
  0
LINE
  5
377
330
1F
100
AcDbEntity
  8
section$view
100
AcDbLine
 10
500.6417432914375
 20
192.0412737668593
 30
0.0
 11
501.0198556187639
 21
191.5395018466994
 31
0.0
  0
LINE
  5
378
330
1F
100
AcDbEntity
  8
section$view
100
AcDbLine
 10
501.0198556187639
 20
191.5395018466994
 30
0.0
 11
501.3802260333793
 21
191.0248396699201
 31
0.0
  0
LINE
  5
379
330
1F
100
AcDbEntity
  8
section$view
100
AcDbLine
 10
501.3802260333793
 20
191.0248396699201
 30
0.0
 11
501.7224154799611
 21
190.4979142723682
 31
0.0
  0
LINE
  5
37A
330
1F
100
AcDbEntity
  8
section$view
100
AcDbLine
 10
501.7224154799611
 20
190.4979142723682
 30
0.0
 11
502.0460070538697
 21
189.9593676307182
 31
0.0
  0
LINE
  5
37B
330
1F
100
AcDbEntity
  8
section$view
100
AcDbLine
 10
502.0460070538697
 20
189.9593676307182
 30
0.0
 11
502.3506065090818
 21
189.4098558803236
 31
0.0
  0
LINE
  5
37C
330
1F
100
AcDbEntity
  8
section$view
100
AcDbLine
 10
502.3506065090818
 20
189.4098558803236
 30
0.0
 11
502.6358427385182
 21
188.8500485158186
 31
0.0
  0
LINE
  5
37D
330
1F
100
AcDbEntity
  8
section$view
100
AcDbLine
 10
502.6358427385182
 20
188.8500485158186
 30
0.0
 11
502.9013682261796
 21
188.280627575442
 31
0.0
  0
LINE
  5
37E
330
1F
100
AcDbEntity
  8
section$view
100
AcDbLine
 10
502.9013682261796
 20
188.280627575442
 30
0.0
 11
503.1468594705412
 21
187.7022868100804
 31
0.0
  0
LINE
  5
37F
330
1F
100
AcDbEntity
  8
section$view
100
AcDbLine
 10
503.1468594705412
 20
187.7022868100804
 30
0.0
 11
503.3720173786888
 21
187.1157308380404
 31
0.0
  0
LINE
  5
380
330
1F
100
AcDbEntity
  8
section$view
100
AcDbLine
 10
503.3720173786888
 20
187.1157308380404
 30
0.0
 11
503.5765676307174
 21
186.5216742865806
 31
0.0
  0
LINE
  5
381
330
1F
100
AcDbEntity
  8
section$view
100
AcDbLine
 10
503.5765676307174
 20
186.5216742865806
 30
0.0
 11
503.7602610139465
 21
185.9208409212496
 31
0.0
  0
LINE
  5
382
330
1F
100
AcDbEntity
  8
section$view
100
AcDbLine
 10
503.7602610139465
 20
185.9208409212496
 30
0.0
 11
503.9228737265482
 21
185.31396276409
 31
0.0
  0
LINE
  5
383
330
1F
100
AcDbEntity
  8
section$view
100
AcDbLine
 10
503.9228737265482
 20
185.31396276409
 30
0.0
 11
504.0642076502139
 21
184.7017792017833
 31
0.0
  0
LINE
  5
384
330
1F
100
AcDbEntity
  8
section$view
100
AcDbLine
 10
504.0642076502139
 20
184.7017792017833
 30
0.0
 11
504.1840905915311
 21
184.0850360848226
 31
0.0
  0
LINE
  5
385
330
1F
100
AcDbEntity
  8
section$view
100
AcDbLine
 10
504.1840905915311
 20
184.0850360848226
 30
0.0
 11
504.2823764917742
 21
183.4644848188095
 31
0.0
  0
LINE
  5
386
330
1F
100
AcDbEntity
  8
section$view
100
AcDbLine
 10
504.2823764917742
 20
183.4644848188095
 30
0.0
 11
504.3589456048548
 21
182.8408814489827
 31
0.0
  0
LINE
  5
387
330
1F
100
AcDbEntity
  8
section$view
100
AcDbLine
 10
504.3589456048548
 20
182.8408814489827
 30
0.0
 11
504.4137046432127
 21
182.2149857390954
 31
0.0
  0
LINE
  5
388
330
1F
100
AcDbEntity
  8
section$view
100
AcDbLine
 10
504.4137046432127
 20
182.2149857390954
 30
0.0
 11
504.4465868914734
 21
181.5875602457606
 31
0.0
  0
LINE
  5
389
330
1F
100
AcDbEntity
  8
section$view
100
AcDbLine
 10
504.4465868914734
 20
181.5875602457606
 30
0.0
 11
504.4575522877295
 21
180.9593693893943
 31
0.0
  0
LINE
  5
38A
330
1F
100
AcDbEntity
  8
section$view
100
AcDbLine
 10
504.4575522877295
 20
180.9593693893943
 30
0.0
 11
504.4575522877298
 21
146.1255855030126
 31
0.0
  0
LINE
  5
38B
330
1F
100
AcDbEntity
  8
section$view
100
AcDbLine
 10
504.4575522877298
 20
146.1255855030126
 30
0.0
 11
504.446586931864
 21
145.4973946346008
 31
0.0
  0
LINE
  5
38C
330
1F
100
AcDbEntity
  8
section$view
100
AcDbLine
 10
504.446586931864
 20
145.4973946346008
 30
0.0
 11
504.4137047217062
 21
144.8699691279147
 31
0.0
  0
LINE
  5
38D
330
1F
100
AcDbEntity
  8
section$view
100
AcDbLine
 10
504.4137047217062
 20
144.8699691279147
 30
0.0
 11
504.3589457191237
 21
144.2440734035154
 31
0.0
  0
LINE
  5
38E
330
1F
100
AcDbEntity
  8
section$view
100
AcDbLine
 10
504.3589457191237
 20
144.2440734035154
 30
0.0
 11
504.2823766394588
 21
143.6204700181618
 31
0.0
  0
LINE
  5
38F
330
1F
100
AcDbEntity
  8
section$view
100
AcDbLine
 10
504.2823766394588
 20
143.6204700181618
 30
0.0
 11
504.1840907702466
 21
142.9999187357537
 31
0.0
  0
LINE
  5
390
330
1F
100
AcDbEntity
  8
section$view
100
AcDbLine
 10
504.1840907702466
 20
142.9999187357537
 30
0.0
 11
504.064207857558
 21
142.3831756016772
 31
0.0
  0
LINE
  5
391
330
1F
100
AcDbEntity
  8
section$view
100
AcDbLine
 10
504.064207857558
 20
142.3831756016772
 30
0.0
 11
503.9228739601083
 21
141.7709920216811
 31
0.0
  0
LINE
  5
392
330
1F
100
AcDbEntity
  8
section$view
100
AcDbLine
 10
503.9228739601083
 20
141.7709920216811
 30
0.0
 11
503.7602612713069
 21
141.1641138464054
 31
0.0
  0
LINE
  5
393
330
1F
100
AcDbEntity
  8
section$view
100
AcDbLine
 10
503.7602612713069
 20
141.1641138464054
 30
0.0
 11
503.5765679094666
 21
140.5632804626783
 31
0.0
  0
LINE
  5
394
330
1F
100
AcDbEntity
  8
section$view
100
AcDbLine
 10
503.5765679094666
 20
140.5632804626783
 30
0.0
 11
503.3720176764274
 21
139.9692238926879
 31
0.0
  0
LINE
  5
395
330
1F
100
AcDbEntity
  8
section$view
100
AcDbLine
 10
503.3720176764274
 20
139.9692238926879
 30
0.0
 11
503.146859784888
 21
139.3826679021271
 31
0.0
  0
LINE
  5
396
330
1F
100
AcDbEntity
  8
section$view
100
AcDbLine
 10
503.146859784888
 20
139.3826679021271
 30
0.0
 11
502.9013685547798
 21
138.8043271183975
 31
0.0
  0
LINE
  5
397
330
1F
100
AcDbEntity
  8
section$view
100
AcDbLine
 10
502.9013685547798
 20
138.8043271183975
 30
0.0
 11
502.6358430790497
 21
138.2349061599463
 31
0.0
  0
LINE
  5
398
330
1F
100
AcDbEntity
  8
section$view
100
AcDbLine
 10
502.6358430790497
 20
138.2349061599463
 30
0.0
 11
502.3506068592624
 21
137.6750987777989
 31
0.0
  0
LINE
  5
399
330
1F
100
AcDbEntity
  8
section$view
100
AcDbLine
 10
502.3506068592624
 20
137.6750987777989
 30
0.0
 11
502.0460074114639
 21
137.1255870103307
 31
0.0
  0
LINE
  5
39A
330
1F
100
AcDbEntity
  8
section$view
100
AcDbLine
 10
502.0460074114639
 20
137.1255870103307
 30
0.0
 11
501.722415842787
 21
136.587040352309
 31
0.0
  0
LINE
  5
39B
330
1F
100
AcDbEntity
  8
section$view
100
AcDbLine
 10
501.722415842787
 20
136.587040352309
 30
0.0
 11
501.3802263993147
 21
136.0601149392178
 31
0.0
  0
LINE
  5
39C
330
1F
100
AcDbEntity
  8
section$view
100
AcDbLine
 10
501.3802263993147
 20
136.0601149392178
 30
0.0
 11
501.0198559857533
 21
135.5454527478585
 31
0.0
  0
LINE
  5
39D
330
1F
100
AcDbEntity
  8
section$view
100
AcDbLine
 10
501.0198559857533
 20
135.5454527478585
 30
0.0
 11
500.6417436574976
 21
135.0436808142012
 31
0.0
  0
LINE
  5
39E
330
1F
100
AcDbEntity
  8
section$view
100
AcDbLine
 10
500.6417436574976
 20
135.0436808142012
 30
0.0
 11
500.2463500857112
 21
134.555410469438
 31
0.0
  0
LINE
  5
39F
330
1F
100
AcDbEntity
  8
section$view
100
AcDbLine
 10
500.2463500857112
 20
134.555410469438
 30
0.0
 11
499.8341569960695
 21
134.0812365951716
 31
0.0
  0
LINE
  5
3A0
330
1F
100
AcDbEntity
  8
section$view
100
AcDbLine
 10
499.8341569960695
 20
134.0812365951716
 30
0.0
 11
499.4056665818521
 21
133.6217368986439
 31
0.0
  0
LINE
  5
3A1
330
1F
100
AcDbEntity
  8
section$view
100
AcDbLine
 10
499.4056665818521
 20
133.6217368986439
 30
0.0
 11
498.9614008920982
 21
133.17747120889
 31
0.0
  0
LINE
  5
3A2
330
1F
100
AcDbEntity
  8
section$view
100
AcDbLine
 10
498.9614008920982
 20
133.17747120889
 30
0.0
 11
498.5019011955705
 21
132.7489807946726
 31
0.0
  0
LINE
  5
3A3
330
1F
100
AcDbEntity
  8
section$view
100
AcDbLine
 10
498.5019011955705
 20
132.7489807946726
 30
0.0
 11
498.0277273213042
 21
132.3367877050309
 31
0.0
  0
LINE
  5
3A4
330
1F
100
AcDbEntity
  8
section$view
100
AcDbLine
 10
498.0277273213042
 20
132.3367877050309
 30
0.0
 11
497.5394569765409
 21
131.9413941332445
 31
0.0
  0
LINE
  5
3A5
330
1F
100
AcDbEntity
  8
section$view
100
AcDbLine
 10
497.5394569765409
 20
131.9413941332445
 30
0.0
 11
497.0376850428835
 21
131.5632818049889
 31
0.0
  0
LINE
  5
3A6
330
1F
100
AcDbEntity
  8
section$view
100
AcDbLine
 10
497.0376850428835
 20
131.5632818049889
 30
0.0
 11
496.5230228515243
 21
131.2029113914274
 31
0.0
  0
LINE
  5
3A7
330
1F
100
AcDbEntity
  8
section$view
100
AcDbLine
 10
496.5230228515243
 20
131.2029113914274
 30
0.0
 11
495.9960974384331
 21
130.8607219479552
 31
0.0
  0
LINE
  5
3A8
330
1F
100
AcDbEntity
  8
section$view
100
AcDbLine
 10
495.9960974384331
 20
130.8607219479552
 30
0.0
 11
495.4575507804114
 21
130.5371303792783
 31
0.0
  0
LINE
  5
3A9
330
1F
100
AcDbEntity
  8
section$view
100
AcDbLine
 10
495.4575507804114
 20
130.5371303792783
 30
0.0
 11
494.9080390129432
 21
130.2325309314798
 31
0.0
  0
LINE
  5
3AA
330
1F
100
AcDbEntity
  8
section$view
100
AcDbLine
 10
494.9080390129432
 20
130.2325309314798
 30
0.0
 11
494.3482316307958
 21
129.9472947116925
 31
0.0
  0
LINE
  5
3AB
330
1F
100
AcDbEntity
  8
section$view
100
AcDbLine
 10
494.3482316307958
 20
129.9472947116925
 30
0.0
 11
493.7788106723447
 21
129.6817692359624
 31
0.0
  0
LINE
  5
3AC
330
1F
100
AcDbEntity
  8
section$view
100
AcDbLine
 10
493.7788106723447
 20
129.6817692359624
 30
0.0
 11
493.200469888615
 21
129.4362780058541
 31
0.0
  0
LINE
  5
3AD
330
1F
100
AcDbEntity
  8
section$view
100
AcDbLine
 10
493.200469888615
 20
129.4362780058541
 30
0.0
 11
492.6139138980542
 21
129.2111201143148
 31
0.0
  0
LINE
  5
3AE
330
1F
100
AcDbEntity
  8
section$view
100
AcDbLine
 10
492.6139138980542
 20
129.2111201143148
 30
0.0
 11
492.0198573280638
 21
129.0065698812755
 31
0.0
  0
LINE
  5
3AF
330
1F
100
AcDbEntity
  8
section$view
100
AcDbLine
 10
492.0198573280638
 20
129.0065698812755
 30
0.0
 11
491.4190239443366
 21
128.8228765194353
 31
0.0
  0
LINE
  5
3B0
330
1F
100
AcDbEntity
  8
section$view
100
AcDbLine
 10
491.4190239443366
 20
128.8228765194353
 30
0.0
 11
490.812145769061
 21
128.6602638306339
 31
0.0
  0
LINE
  5
3B1
330
1F
100
AcDbEntity
  8
section$view
100
AcDbLine
 10
490.812145769061
 20
128.6602638306339
 30
0.0
 11
490.1999621890649
 21
128.5189299331842
 31
0.0
  0
LINE
  5
3B2
330
1F
100
AcDbEntity
  8
section$view
100
AcDbLine
 10
490.1999621890649
 20
128.5189299331842
 30
0.0
 11
489.5832190549884
 21
128.3990470204956
 31
0.0
  0
LINE
  5
3B3
330
1F
100
AcDbEntity
  8
section$view
100
AcDbLine
 10
489.5832190549884
 20
128.3990470204956
 30
0.0
 11
488.9626677725803
 21
128.3007611512834
 31
0.0
  0
LINE
  5
3B4
330
1F
100
AcDbEntity
  8
section$view
100
AcDbLine
 10
488.9626677725803
 20
128.3007611512834
 30
0.0
 11
488.3390643872266
 21
128.2241920716186
 31
0.0
  0
LINE
  5
3B5
330
1F
100
AcDbEntity
  8
section$view
100
AcDbLine
 10
488.3390643872266
 20
128.2241920716186
 30
0.0
 11
487.7131686628273
 21
128.169433069036
 31
0.0
  0
LINE
  5
3B6
330
1F
100
AcDbEntity
  8
section$view
100
AcDbLine
 10
487.7131686628273
 20
128.169433069036
 30
0.0
 11
487.0857431561412
 21
128.1365508588782
 31
0.0
  0
LINE
  5
3B7
330
1F
100
AcDbEntity
  8
section$view
100
AcDbLine
 10
487.0857431561412
 20
128.1365508588782
 30
0.0
 11
486.4575522877295
 21
128.1255855030124
 31
0.0
  0
LINE
  5
3B8
330
1F
100
AcDbEntity
  8
section$view
100
AcDbLine
 10
486.4575522877295
 20
128.1255855030124
 30
0.0
 11
386.3931359719955
 21
128.1255855030125
 31
0.0
  0
LINE
  5
3B9
330
1F
100
AcDbEntity
  8
section$view
100
AcDbLine
 10
386.3931359719955
 20
128.1255855030125
 30
0.0
 11
385.7785959698143
 21
128.1360790371527
 31
0.0
  0
LINE
  5
3BA
330
1F
100
AcDbEntity
  8
section$view
100
AcDbLine
 10
385.7785959698143
 20
128.1360790371527
 30
0.0
 11
385.1647724917594
 21
128.1675475345473
 31
0.0
  0
LINE
  5
3BB
330
1F
100
AcDbEntity
  8
section$view
100
AcDbLine
 10
385.1647724917594
 20
128.1675475345473
 30
0.0
 11
384.5523812287412
 21
128.2199543043264
 31
0.0
  0
LINE
  5
3BC
330
1F
100
AcDbEntity
  8
section$view
100
AcDbLine
 10
384.5523812287412
 20
128.2199543043264
 30
0.0
 11
383.942136201771
 21
128.2932382425241
 31
0.0
  0
LINE
  5
3BD
330
1F
100
AcDbEntity
  8
section$view
100
AcDbLine
 10
383.942136201771
 20
128.2932382425241
 30
0.0
 11
383.3347489294441
 21
128.3873139033237
 31
0.0
  0
LINE
  5
3BE
330
1F
100
AcDbEntity
  8
section$view
100
AcDbLine
 10
383.3347489294441
 20
128.3873139033237
 30
0.0
 11
382.7309275983407
 21
128.5020715986834
 31
0.0
  0
LINE
  5
3BF
330
1F
100
AcDbEntity
  8
section$view
100
AcDbLine
 10
382.7309275983407
 20
128.5020715986834
 30
0.0
 11
382.1313762373122
 21
128.6373775262277
 31
0.0
  0
LINE
  5
3C0
330
1F
100
AcDbEntity
  8
section$view
100
AcDbLine
 10
382.1313762373122
 20
128.6373775262277
 30
0.0
 11
381.5367938966146
 21
128.7930739252552
 31
0.0
  0
LINE
  5
3C1
330
1F
100
AcDbEntity
  8
section$view
100
AcDbLine
 10
381.5367938966146
 20
128.7930739252552
 30
0.0
 11
380.9478738328464
 21
128.9689792606804
 31
0.0
  0
LINE
  5
3C2
330
1F
100
AcDbEntity
  8
section$view
100
AcDbLine
 10
380.9478738328464
 20
128.9689792606804
 30
0.0
 11
380.3653027006434
 21
129.1648884346956
 31
0.0
  0
LINE
  5
3C3
330
1F
100
AcDbEntity
  8
section$view
100
AcDbLine
 10
380.3653027006434
 20
129.1648884346956
 30
0.0
 11
379.7897597520687
 21
129.380573025906
 31
0.0
  0
LINE
  5
3C4
330
1F
100
AcDbEntity
  8
section$view
100
AcDbLine
 10
379.7897597520687
 20
129.380573025906
 30
0.0
 11
379.2219160446356
 21
129.6157815556585
 31
0.0
  0
LINE
  5
3C5
330
1F
100
AcDbEntity
  8
section$view
100
AcDbLine
 10
379.2219160446356
 20
129.6157815556585
 30
0.0
 11
378.6624336588843
 21
129.870239781255
 31
0.0
  0
LINE
  5
3C6
330
1F
100
AcDbEntity
  8
section$view
100
AcDbLine
 10
378.6624336588843
 20
129.870239781255
 30
0.0
 11
378.1119649264253
 21
130.1436510157071
 31
0.0
  0
LINE
  5
3C7
330
1F
100
AcDbEntity
  8
section$view
100
AcDbLine
 10
378.1119649264253
 20
130.1436510157071
 30
0.0
 11
377.5711516693497
 21
130.43569647366
 31
0.0
  0
LINE
  5
3C8
330
1F
100
AcDbEntity
  8
section$view
100
AcDbLine
 10
377.5711516693497
 20
130.43569647366
 30
0.0
 11
377.0406244518931
 21
130.7460356430819
 31
0.0
  0
LINE
  5
3C9
330
1F
100
AcDbEntity
  8
section$view
100
AcDbLine
 10
377.0406244518931
 20
130.7460356430819
 30
0.0
 11
376.5210018452259
 21
131.0743066822859
 31
0.0
  0
LINE
  5
3CA
330
1F
100
AcDbEntity
  8
section$view
100
AcDbLine
 10
376.5210018452259
 20
131.0743066822859
 30
0.0
 11
376.0128897062268
 21
131.4201268418217
 31
0.0
  0
LINE
  5
3CB
330
1F
100
AcDbEntity
  8
section$view
100
AcDbLine
 10
376.0128897062268
 20
131.4201268418217
 30
0.0
 11
375.5168804710801
 21
131.783092910744
 31
0.0
  0
LINE
  5
3CC
330
1F
100
AcDbEntity
  8
section$view
100
AcDbLine
 10
375.5168804710801
 20
131.783092910744
 30
0.0
 11
375.0335524645222
 21
132.1627816867388
 31
0.0
  0
LINE
  5
3CD
330
1F
100
AcDbEntity
  8
section$view
100
AcDbLine
 10
375.0335524645222
 20
132.1627816867388
 30
0.0
 11
374.5634692255401
 21
132.5587504695585
 31
0.0
  0
LINE
  5
3CE
330
1F
100
AcDbEntity
  8
section$view
100
AcDbLine
 10
374.5634692255401
 20
132.5587504695585
 30
0.0
 11
374.10717885031
 21
132.9705375771907
 31
0.0
  0
LINE
  5
3CF
330
1F
100
AcDbEntity
  8
section$view
100
AcDbLine
 10
374.10717885031
 20
132.9705375771907
 30
0.0
 11
373.6652133531418
 21
133.3976628841588
 31
0.0
  0
LINE
  5
3D0
330
1F
100
AcDbEntity
  8
section$view
100
AcDbLine
 10
373.6652133531418
 20
133.3976628841588
 30
0.0
 11
373.2380880461737
 21
133.8396283813269
 31
0.0
  0
LINE
  5
3D1
330
1F
100
AcDbEntity
  8
section$view
100
AcDbLine
 10
373.2380880461737
 20
133.8396283813269
 30
0.0
 11
372.8263009385415
 21
134.295918756557
 31
0.0
  0
LINE
  5
3D2
330
1F
100
AcDbEntity
  8
section$view
100
AcDbLine
 10
372.8263009385415
 20
134.295918756557
 30
0.0
 11
372.4303321557218
 21
134.7660019955391
 31
0.0
  0
LINE
  5
3D3
330
1F
100
AcDbEntity
  8
section$view
100
AcDbLine
 10
372.4303321557218
 20
134.7660019955391
 30
0.0
 11
372.050643379727
 21
135.249330002097
 31
0.0
  0
LINE
  5
3D4
330
1F
100
AcDbEntity
  8
section$view
100
AcDbLine
 10
372.050643379727
 20
135.249330002097
 30
0.0
 11
371.6876773108046
 21
135.7453392372436
 31
0.0
  0
LINE
  5
3D5
330
1F
100
AcDbEntity
  8
section$view
100
AcDbLine
 10
371.6876773108046
 20
135.7453392372436
 30
0.0
 11
371.3418571512688
 21
136.2534513762428
 31
0.0
  0
LINE
  5
3D6
330
1F
100
AcDbEntity
  8
section$view
100
AcDbLine
 10
371.3418571512688
 20
136.2534513762428
 30
0.0
 11
371.0135861120648
 21
136.77307398291
 31
0.0
  0
LINE
  5
3D7
330
1F
100
AcDbEntity
  8
section$view
100
AcDbLine
 10
371.0135861120648
 20
136.77307398291
 30
0.0
 11
370.7032469426429
 21
137.3036012003665
 31
0.0
  0
LINE
  5
3D8
330
1F
100
AcDbEntity
  8
section$view
100
AcDbLine
 10
370.7032469426429
 20
137.3036012003665
 30
0.0
 11
370.41120148469
 21
137.8444144574422
 31
0.0
  0
LINE
  5
3D9
330
1F
100
AcDbEntity
  8
section$view
100
AcDbLine
 10
370.41120148469
 20
137.8444144574422
 30
0.0
 11
370.1377902502379
 21
138.3948831899012
 31
0.0
  0
LINE
  5
3DA
330
1F
100
AcDbEntity
  8
section$view
100
AcDbLine
 10
370.1377902502379
 20
138.3948831899012
 30
0.0
 11
369.8833320246413
 21
138.9543655756524
 31
0.0
  0
LINE
  5
3DB
330
1F
100
AcDbEntity
  8
section$view
100
AcDbLine
 10
369.8833320246413
 20
138.9543655756524
 30
0.0
 11
369.6481234948888
 21
139.5222092830855
 31
0.0
  0
LINE
  5
3DC
330
1F
100
AcDbEntity
  8
section$view
100
AcDbLine
 10
369.6481234948888
 20
139.5222092830855
 30
0.0
 11
369.4324389036784
 21
140.0977522316602
 31
0.0
  0
LINE
  5
3DD
330
1F
100
AcDbEntity
  8
section$view
100
AcDbLine
 10
369.4324389036784
 20
140.0977522316602
 30
0.0
 11
369.2365297296632
 21
140.6803233638632
 31
0.0
  0
LINE
  5
3DE
330
1F
100
AcDbEntity
  8
section$view
100
AcDbLine
 10
369.2365297296632
 20
140.6803233638632
 30
0.0
 11
369.0606243942379
 21
141.2692434276314
 31
0.0
  0
LINE
  5
3DF
330
1F
100
AcDbEntity
  8
section$view
100
AcDbLine
 10
369.0606243942379
 20
141.2692434276314
 30
0.0
 11
368.9049279952105
 21
141.863825768329
 31
0.0
  0
LINE
  5
3E0
330
1F
100
AcDbEntity
  8
section$view
100
AcDbLine
 10
368.9049279952105
 20
141.863825768329
 30
0.0
 11
368.7696220676661
 21
142.4633771293574
 31
0.0
  0
LINE
  5
3E1
330
1F
100
AcDbEntity
  8
section$view
100
AcDbLine
 10
368.7696220676661
 20
142.4633771293574
 30
0.0
 11
368.6548643723065
 21
143.0671984604608
 31
0.0
  0
LINE
  5
3E2
330
1F
100
AcDbEntity
  8
section$view
100
AcDbLine
 10
368.6548643723065
 20
143.0671984604608
 30
0.0
 11
368.5607887115068
 21
143.6745857327877
 31
0.0
  0
LINE
  5
3E3
330
1F
100
AcDbEntity
  8
section$view
100
AcDbLine
 10
368.5607887115068
 20
143.6745857327877
 30
0.0
 11
368.4875047733091
 21
144.284830759758
 31
0.0
  0
LINE
  5
3E4
330
1F
100
AcDbEntity
  8
section$view
100
AcDbLine
 10
368.4875047733091
 20
144.284830759758
 30
0.0
 11
368.43509800353
 21
144.8972220227762
 31
0.0
  0
LINE
  5
3E5
330
1F
100
AcDbEntity
  8
section$view
100
AcDbLine
 10
368.43509800353
 20
144.8972220227762
 30
0.0
 11
368.4036295061353
 21
145.5110455008311
 31
0.0
  0
LINE
  5
3E6
330
1F
100
AcDbEntity
  8
section$view
100
AcDbLine
 10
368.4036295061353
 20
145.5110455008311
 30
0.0
 11
368.3931359719952
 21
146.1255855030123
 31
0.0
  0
LINE
  5
3E7
330
1F
100
AcDbEntity
  8
section$view
100
AcDbLine
 10
368.3931359719952
 20
146.1255855030123
 30
0.0
 11
368.3931359719951
 21
180.9593693893943
 31
0.0
  0
LINE
  5
3E8
330
1F
100
AcDbEntity
  8
section$view
100
AcDbLine
 10
368.3931359719951
 20
180.9593693893943
 30
0.0
 11
368.4036295456885
 21
181.5739093798013
 31
0.0
  0
LINE
  5
3E9
330
1F
100
AcDbEntity
  8
section$view
100
AcDbLine
 10
368.4036295456885
 20
181.5739093798013
 30
0.0
 11
368.4350980804472
 21
182.1877328448289
 31
0.0
  0
LINE
  5
3EA
330
1F
100
AcDbEntity
  8
section$view
100
AcDbLine
 10
368.4350980804472
 20
182.1877328448289
 30
0.0
 11
368.4875048853636
 21
182.8001240937024
 31
0.0
  0
LINE
  5
3EB
330
1F
100
AcDbEntity
  8
section$view
100
AcDbLine
 10
368.4875048853636
 20
182.8001240937024
 30
0.0
 11
368.5607888564413
 21
183.4103691055471
 31
0.0
  0
LINE
  5
3EC
330
1F
100
AcDbEntity
  8
section$view
100
AcDbLine
 10
368.5607888564413
 20
183.4103691055471
 30
0.0
 11
368.6548645478395
 21
184.0177563619052
 31
0.0
  0
LINE
  5
3ED
330
1F
100
AcDbEntity
  8
section$view
100
AcDbLine
 10
368.6548645478395
 20
184.0177563619052
 30
0.0
 11
368.7696222714991
 21
184.6215776763342
 31
0.0
  0
LINE
  5
3EE
330
1F
100
AcDbEntity
  8
section$view
100
AcDbLine
 10
368.7696222714991
 20
184.6215776763342
 30
0.0
 11
368.9049282250343
 21
185.2211290201207
 31
0.0
  0
LINE
  5
3EF
330
1F
100
AcDbEntity
  8
section$view
100
AcDbLine
 10
368.9049282250343
 20
185.2211290201207
 30
0.0
 11
369.0606246477399
 21
185.8157113431467
 31
0.0
  0
LINE
  5
3F0
330
1F
100
AcDbEntity
  8
section$view
100
AcDbLine
 10
369.0606246477399
 20
185.8157113431467
 30
0.0
 11
369.2365300045334
 21
186.4046313889506
 31
0.0
  0
LINE
  5
3F1
330
1F
100
AcDbEntity
  8
section$view
100
AcDbLine
 10
369.2365300045334
 20
186.4046313889506
 30
0.0
 11
369.4324391976168
 21
186.9872025030335
 31
0.0
  0
LINE
  5
3F2
330
1F
100
AcDbEntity
  8
section$view
100
AcDbLine
 10
369.4324391976168
 20
186.9872025030335
 30
0.0
 11
369.6481238056112
 21
187.5627454334675
 31
0.0
  0
LINE
  5
3F3
330
1F
100
AcDbEntity
  8
section$view
100
AcDbLine
 10
369.6481238056112
 20
187.5627454334675
 30
0.0
 11
369.8833323498865
 21
188.1305891228735
 31
0.0
  0
LINE
  5
3F4
330
1F
100
AcDbEntity
  8
section$view
100
AcDbLine
 10
369.8833323498865
 20
188.1305891228735
 30
0.0
 11
370.1377905877738
 21
188.6900714908438
 31
0.0
  0
LINE
  5
3F5
330
1F
100
AcDbEntity
  8
section$view
100
AcDbLine
 10
370.1377905877738
 20
188.6900714908438
 30
0.0
 11
370.4112018323203
 21
189.2405402058984
 31
0.0
  0
LINE
  5
3F6
330
1F
100
AcDbEntity
  8
section$view
100
AcDbLine
 10
370.4112018323203
 20
189.2405402058984
 30
0.0
 11
370.7032472982129
 21
189.7813534460745
 31
0.0
  0
LINE
  5
3F7
330
1F
100
AcDbEntity
  8
section$view
100
AcDbLine
 10
370.7032472982129
 20
189.7813534460745
 30
0.0
 11
371.0135864734681
 21
190.3118806472624
 31
0.0
  0
LINE
  5
3F8
330
1F
100
AcDbEntity
  8
section$view
100
AcDbLine
 10
371.0135864734681
 20
190.3118806472624
 30
0.0
 11
371.3418575164531
 21
190.8315032384147
 31
0.0
  0
LINE
  5
3F9
330
1F
100
AcDbEntity
  8
section$view
100
AcDbLine
 10
371.3418575164531
 20
190.8315032384147
 30
0.0
 11
371.6876776777776
 21
191.339615362773
 31
0.0
  0
LINE
  5
3FA
330
1F
100
AcDbEntity
  8
section$view
100
AcDbLine
 10
371.6876776777776
 20
191.339615362773
 30
0.0
 11
372.0506437465619
 21
191.8356245842694
 31
0.0
  0
LINE
  5
3FB
330
1F
100
AcDbEntity
  8
section$view
100
AcDbLine
 10
372.0506437465619
 20
191.8356245842694
 30
0.0
 11
372.4303325205637
 21
192.3189525782811
 31
0.0
  0
LINE
  5
3FC
330
1F
100
AcDbEntity
  8
section$view
100
AcDbLine
 10
372.4303325205637
 20
192.3189525782811
 30
0.0
 11
372.826301299612
 21
192.7890358059305
 31
0.0
  0
LINE
  5
3FD
330
1F
100
AcDbEntity
  8
section$view
100
AcDbLine
 10
372.826301299612
 20
192.7890358059305
 30
0.0
 11
373.2380884017765
 21
193.2453261711468
 31
0.0
  0
LINE
  5
3FE
330
1F
100
AcDbEntity
  8
section$view
100
AcDbLine
 10
373.2380884017765
 20
193.2453261711468
 30
0.0
 11
373.6652137016679
 21
193.6872916597215
 31
0.0
  0
LINE
  5
3FF
330
1F
100
AcDbEntity
  8
section$view
100
AcDbLine
 10
373.6652137016679
 20
193.6872916597215
 30
0.0
 11
374.1071791902425
 21
194.1144169596128
 31
0.0
  0
LINE
  5
400
330
1F
100
AcDbEntity
  8
section$view
100
AcDbLine
 10
374.1071791902425
 20
194.1144169596128
 30
0.0
 11
374.5634695554589
 21
194.5262040617774
 31
0.0
  0
LINE
  5
401
330
1F
100
AcDbEntity
  8
section$view
100
AcDbLine
 10
374.5634695554589
 20
194.5262040617774
 30
0.0
 11
375.0335527831082
 21
194.9221728408257
 31
0.0
  0
LINE
  5
402
330
1F
100
AcDbEntity
  8
section$view
100
AcDbLine
 10
375.0335527831082
 20
194.9221728408257
 30
0.0
 11
375.5168807771199
 21
195.3018616148274
 31
0.0
  0
LINE
  5
403
330
1F
100
AcDbEntity
  8
section$view
100
AcDbLine
 10
375.5168807771199
 20
195.3018616148274
 30
0.0
 11
376.0128899986165
 21
195.6648276836118
 31
0.0
  0
LINE
  5
404
330
1F
100
AcDbEntity
  8
section$view
100
AcDbLine
 10
376.0128899986165
 20
195.6648276836118
 30
0.0
 11
376.5210021229747
 21
196.0106478449362
 31
0.0
  0
LINE
  5
405
330
1F
100
AcDbEntity
  8
section$view
100
AcDbLine
 10
376.5210021229747
 20
196.0106478449362
 30
0.0
 11
377.040624714127
 21
196.3389188879213
 31
0.0
  0
LINE
  5
406
330
1F
100
AcDbEntity
  8
section$view
100
AcDbLine
 10
377.040624714127
 20
196.3389188879213
 30
0.0
 11
377.5711519153149
 21
196.6492580631765
 31
0.0
  0
LINE
  5
407
330
1F
100
AcDbEntity
  8
section$view
100
AcDbLine
 10
377.5711519153149
 20
196.6492580631765
 30
0.0
 11
378.111965155491
 21
196.9413035290691
 31
0.0
  0
LINE
  5
408
330
1F
100
AcDbEntity
  8
section$view
100
AcDbLine
 10
378.111965155491
 20
196.9413035290691
 30
0.0
 11
378.6624338705456
 21
197.2147147736156
 31
0.0
  0
LINE
  5
409
330
1F
100
AcDbEntity
  8
section$view
100
AcDbLine
 10
378.6624338705456
 20
197.2147147736156
 30
0.0
 11
379.2219162385159
 21
197.4691730115029
 31
0.0
  0
LINE
  5
40A
330
1F
100
AcDbEntity
  8
section$view
100
AcDbLine
 10
379.2219162385159
 20
197.4691730115029
 30
0.0
 11
379.7897599279219
 21
197.7043815557782
 31
0.0
  0
LINE
  5
40B
330
1F
100
AcDbEntity
  8
section$view
100
AcDbLine
 10
379.7897599279219
 20
197.7043815557782
 30
0.0
 11
380.3653028583559
 21
197.9200661637726
 31
0.0
  0
LINE
  5
40C
330
1F
100
AcDbEntity
  8
section$view
100
AcDbLine
 10
380.3653028583559
 20
197.9200661637726
 30
0.0
 11
380.9478739724387
 21
198.1159753568559
 31
0.0
  0
LINE
  5
40D
330
1F
100
AcDbEntity
  8
section$view
100
AcDbLine
 10
380.9478739724387
 20
198.1159753568559
 30
0.0
 11
381.5367940182426
 21
198.2918807136494
 31
0.0
  0
LINE
  5
40E
330
1F
100
AcDbEntity
  8
section$view
100
AcDbLine
 10
381.5367940182426
 20
198.2918807136494
 30
0.0
 11
382.1313763412687
 21
198.4475771363551
 31
0.0
  0
LINE
  5
40F
330
1F
100
AcDbEntity
  8
section$view
100
AcDbLine
 10
382.1313763412687
 20
198.4475771363551
 30
0.0
 11
382.7309276850552
 21
198.5828830898903
 31
0.0
  0
LINE
  5
410
330
1F
100
AcDbEntity
  8
section$view
100
AcDbLine
 10
382.7309276850552
 20
198.5828830898903
 30
0.0
 11
383.3347489994841
 21
198.6976408135499
 31
0.0
  0
LINE
  5
411
330
1F
100
AcDbEntity
  8
section$view
100
AcDbLine
 10
383.3347489994841
 20
198.6976408135499
 30
0.0
 11
383.9421362558423
 21
198.7917165049481
 31
0.0
  0
LINE
  5
412
330
1F
100
AcDbEntity
  8
section$view
100
AcDbLine
 10
383.9421362558423
 20
198.7917165049481
 30
0.0
 11
384.5523812676871
 21
198.8650004760257
 31
0.0
  0
LINE
  5
413
330
1F
100
AcDbEntity
  8
section$view
100
AcDbLine
 10
384.5523812676871
 20
198.8650004760257
 30
0.0
 11
385.1647725165605
 21
198.9174072809421
 31
0.0
  0
LINE
  5
414
330
1F
100
AcDbEntity
  8
section$view
100
AcDbLine
 10
385.1647725165605
 20
198.9174072809421
 30
0.0
 11
385.7785959815881
 21
198.9488758157008
 31
0.0
  0
LINE
  5
415
330
1F
100
AcDbEntity
  8
section$view
100
AcDbLine
 10
385.7785959815881
 20
198.9488758157008
 30
0.0
 11
386.3931359719951
 21
198.9593693893943
 31
0.0
  0
LINE
  5
416
330
1F
100
AcDbEntity
  8
section$view
100
AcDbLine
 10
351.8146820958417
 20
115.6949849641356
 30
0.0
 11
521.0360061638834
 21
115.6949849641356
 31
0.0
  0
LINE
  5
417
330
1F
100
AcDbEntity
  8
section$view
100
AcDbLine
 10
521.0360061638834
 20
115.6949849641356
 30
0.0
 11
521.0360061638834
 21
211.3899699282712
 31
0.0
  0
LINE
  5
418
330
1F
100
AcDbEntity
  8
section$view
100
AcDbLine
 10
521.0360061638834
 20
211.3899699282712
 30
0.0
 11
351.8146820958417
 21
211.3899699282712
 31
0.0
  0
LINE
  5
419
330
1F
100
AcDbEntity
  8
section$view
100
AcDbLine
 10
351.8146820958417
 20
211.3899699282712
 30
0.0
 11
351.8146820958417
 21
115.6949849641356
 31
0.0
  0
ENDSEC
  0
SECTION
  2
OBJECTS
  0
DICTIONARY
  5
C
330
0
100
AcDbDictionary
281
     1
  3
ACAD_DETAILVIEWSTYLE
350
455
  3
ACAD_GROUP
350
D
  3
ACAD_LAYOUT
350
1A
  3
ACAD_MATERIAL
350
43
  3
ACAD_MLEADERSTYLE
350
454
  3
ACAD_MLINESTYLE
350
17
  3
ACAD_PLOTSETTINGS
350
19
  3
ACAD_PLOTSTYLENAME
350
E
  3
ACAD_SCALELIST
350
47
  3
ACAD_SECTIONVIEWSTYLE
350
456
  3
ACAD_TABLESTYLE
350
453
  3
ACAD_VISUALSTYLE
350
2A
  3
AcDbVariableDictionary
350
41A
  0
DICTIONARY
  5
455
102
{ACAD_REACTORS
330
C
102
}
330
C
100
AcDbDictionary
281
     1
  0
DICTIONARY
  5
D
102
{ACAD_REACTORS
330
C
102
}
330
C
100
AcDbDictionary
281
     1
  0
DICTIONARY
  5
1A
102
{ACAD_REACTORS
330
C
102
}
330
C
100
AcDbDictionary
281
     1
  3
Layout1
350
1E
  3
Layout2
350
26
  3
Model
350
22
  0
DICTIONARY
  5
43
102
{ACAD_REACTORS
330
C
102
}
330
C
100
AcDbDictionary
281
     1
  3
ByBlock
350
45
  3
ByLayer
350
44
  3
Global
350
46
  0
DICTIONARY
  5
454
102
{ACAD_REACTORS
330
C
102
}
330
C
100
AcDbDictionary
281
     1
  0
DICTIONARY
  5
17
102
{ACAD_REACTORS
330
C
102
}
330
C
100
AcDbDictionary
281
     1
  3
Standard
350
18
  0
DICTIONARY
  5
19
102
{ACAD_REACTORS
330
C
102
}
330
C
100
AcDbDictionary
281
     1
  0
ACDBDICTIONARYWDFLT
  5
E
102
{ACAD_REACTORS
330
C
102
}
330
C
100
AcDbDictionary
281
     1
  3
Normal
350
F
100
AcDbDictionaryWithDefault
340
F
  0
DICTIONARY
  5
47
102
{ACAD_REACTORS
330
C
102
}
330
C
100
AcDbDictionary
281
     1
  3
A0
350
48
  3
A1
350
49
  3
A2
350
4A
  3
A3
350
4B
  3
A4
350
4C
  3
A5
350
4D
  3
A6
350
4E
  3
A7
350
4F
  3
A8
350
50
  3
A9
350
51
  3
B0
350
52
  3
B1
350
53
  3
B2
350
54
  3
B3
350
55
  3
B4
350
56
  3
B5
350
57
  3
B6
350
58
  3
B7
350
59
  3
B8
350
5A
  3
B9
350
5B
  3
C0
350
5C
  3
C1
350
5D
  3
C2
350
5E
  3
C3
350
5F
  3
C4
350
60
  3
C5
350
61
  3
C6
350
62
  3
C7
350
63
  3
C8
350
64
  3
C9
350
65
  3
D0
350
66
  3
D1
350
67
  3
D2
350
68
  0
DICTIONARY
  5
456
102
{ACAD_REACTORS
330
C
102
}
330
C
100
AcDbDictionary
281
     1
  0
DICTIONARY
  5
453
102
{ACAD_REACTORS
330
C
102
}
330
C
100
AcDbDictionary
281
     1
  0
DICTIONARY
  5
2A
102
{ACAD_REACTORS
330
C
102
}
330
C
100
AcDbDictionary
281
     1
  3
2dWireframe
350
2F
  3
Basic
350
32
  3
Brighten
350
36
  3
ColorChange
350
3A
  3
Conceptual
350
34
  3
Dim
350
35
  3
EdgeColorOff
350
3D
  3
Facepattern
350
39
  3
Flat
350
2B
  3
FlatWithEdges
350
2C
  3
Gouraud
350
2D
  3
GouraudWithEdges
350
2E
  3
Hidden
350
31
  3
JitterOff
350
3B
  3
Linepattern
350
38
  3
OverhangOff
350
3C
  3
Realistic
350
33
  3
Shaded
350
42
  3
Shaded with edges
350
41
  3
Shades of Gray
350
3E
  3
Sketchy
350
3F
  3
Thicken
350
37
  3
Wireframe
350
30
  3
X-Ray
350
40
  0
DICTIONARY
  5
41A
102
{ACAD_REACTORS
330
C
102
}
330
C
100
AcDbDictionary
281
     1
  3
CANNOSCALE
350
41B
  3
MSLTSCALE
350
41C
  0
LAYOUT
  5
1E
102
{ACAD_REACTORS
330
1A
102
}
330
1A
100
AcDbPlotSettings
  1

  2
none_device
  4

  6

 40
0.0
 41
0.0
 42
0.0
 43
0.0
 44
0.0
 45
0.0
 46
0.0
 47
0.0
 48
0.0
 49
0.0
140
0.0
141
0.0
142
1.0
143
1.0
 70
   688
 72
     0
 73
     0
 74
     5
  7

 75
    16
 76
     0
 77
     2
 78
   300
147
1.0
148
0.0
149
0.0
100
AcDbLayout
  1
Layout1
 70
     1
 71
     1
 10
0.0
 20
0.0
 11
12.0
 21
9.0
 12
0.0
 22
0.0
 32
0.0
 14
1.000000000000000E+20
 24
1.000000000000000E+20
 34
1.000000000000000E+20
 15
-1.000000000000000E+20
 25
-1.000000000000000E+20
 35
-1.000000000000000E+20
146
0.0
 13
0.0
 23
0.0
 33
0.0
 16
1.0
 26
0.0
 36
0.0
 17
0.0
 27
1.0
 37
0.0
 76
     0
330
1B
  0
LAYOUT
  5
26
102
{ACAD_REACTORS
330
1A
102
}
330
1A
100
AcDbPlotSettings
  1

  2
none_device
  4

  6

 40
0.0
 41
0.0
 42
0.0
 43
0.0
 44
0.0
 45
0.0
 46
0.0
 47
0.0
 48
0.0
 49
0.0
140
0.0
141
0.0
142
1.0
143
1.0
 70
   688
 72
     0
 73
     0
 74
     5
  7

 75
    16
 76
     0
 77
     2
 78
   300
147
1.0
148
0.0
149
0.0
100
AcDbLayout
  1
Layout2
 70
     1
 71
     2
 10
0.0
 20
0.0
 11
0.0
 21
0.0
 12
0.0
 22
0.0
 32
0.0
 14
0.0
 24
0.0
 34
0.0
 15
0.0
 25
0.0
 35
0.0
146
0.0
 13
0.0
 23
0.0
 33
0.0
 16
1.0
 26
0.0
 36
0.0
 17
0.0
 27
1.0
 37
0.0
 76
     0
330
23
  0
LAYOUT
  5
22
102
{ACAD_REACTORS
330
1A
102
}
330
1A
100
AcDbPlotSettings
  1

  2
none_device
  4
Letter_(8.50_x_11.00_Inches)
  6

 40
6.35
 41
6.35
 42
6.35000508
 43
6.35000508
 44
215.9
 45
279.4
 46
0.0
 47
0.0
 48
0.0
 49
0.0
140
0.0
141
0.0
142
1.0
143
1.0
 70
  1712
 72
     0
 73
     0
 74
     0
  7

 75
     0
 76
     0
 77
     2
 78
   300
147
1.0
148
0.0
149
0.0
100
AcDbLayout
  1
Model
 70
     1
 71
     0
 10
0.0
 20
0.0
 11
12.0
 21
9.0
 12
0.0
 22
0.0
 32
0.0
 14
351.8146819903407
 24
0.0
 34
0.0
 15
521.0360061638834
 25
476.0440278288482
 35
0.0
146
0.0
 13
0.0
 23
0.0
 33
0.0
 16
1.0
 26
0.0
 36
0.0
 17
0.0
 27
1.0
 37
0.0
 76
     0
330
1F
331
29
  0
MATERIAL
  5
45
102
{ACAD_REACTORS
330
43
102
}
102
{ACAD_XDICTIONARY
360
44F
102
}
330
43
100
AcDbMaterial
  1
ByBlock
  0
MATERIAL
  5
44
102
{ACAD_REACTORS
330
43
102
}
102
{ACAD_XDICTIONARY
360
44D
102
}
330
43
100
AcDbMaterial
  1
ByLayer
  0
MATERIAL
  5
46
102
{ACAD_REACTORS
330
43
102
}
102
{ACAD_XDICTIONARY
360
451
102
}
330
43
100
AcDbMaterial
  1
Global
  0
MLINESTYLE
  5
18
102
{ACAD_REACTORS
330
17
102
}
330
17
100
AcDbMlineStyle
  2
Standard
 70
     0
  3

 62
   256
 51
90.0
 52
90.0
 71
     2
 49
0.5
 62
   256
  6
BYLAYER
 49
-0.5
 62
   256
  6
BYLAYER
  0
ACDBPLACEHOLDER
  5
F
102
{ACAD_REACTORS
330
E
102
}
330
E
  0
SCALE
  5
48
102
{ACAD_REACTORS
330
47
102
}
330
47
100
AcDbScale
 70
     0
300
1:1
140
1.0
141
1.0
290
     1
  0
SCALE
  5
49
102
{ACAD_REACTORS
330
47
102
}
330
47
100
AcDbScale
 70
     0
300
1:2
140
1.0
141
2.0
290
     0
  0
SCALE
  5
4A
102
{ACAD_REACTORS
330
47
102
}
330
47
100
AcDbScale
 70
     0
300
1:4
140
1.0
141
4.0
290
     0
  0
SCALE
  5
4B
102
{ACAD_REACTORS
330
47
102
}
330
47
100
AcDbScale
 70
     0
300
1:5
140
1.0
141
5.0
290
     0
  0
SCALE
  5
4C
102
{ACAD_REACTORS
330
47
102
}
330
47
100
AcDbScale
 70
     0
300
1:8
140
1.0
141
8.0
290
     0
  0
SCALE
  5
4D
102
{ACAD_REACTORS
330
47
102
}
330
47
100
AcDbScale
 70
     0
300
1:10
140
1.0
141
10.0
290
     0
  0
SCALE
  5
4E
102
{ACAD_REACTORS
330
47
102
}
330
47
100
AcDbScale
 70
     0
300
1:16
140
1.0
141
16.0
290
     0
  0
SCALE
  5
4F
102
{ACAD_REACTORS
330
47
102
}
330
47
100
AcDbScale
 70
     0
300
1:20
140
1.0
141
20.0
290
     0
  0
SCALE
  5
50
102
{ACAD_REACTORS
330
47
102
}
330
47
100
AcDbScale
 70
     0
300
1:30
140
1.0
141
30.0
290
     0
  0
SCALE
  5
51
102
{ACAD_REACTORS
330
47
102
}
330
47
100
AcDbScale
 70
     0
300
1:40
140
1.0
141
40.0
290
     0
  0
SCALE
  5
52
102
{ACAD_REACTORS
330
47
102
}
330
47
100
AcDbScale
 70
     0
300
1:50
140
1.0
141
50.0
290
     0
  0
SCALE
  5
53
102
{ACAD_REACTORS
330
47
102
}
330
47
100
AcDbScale
 70
     0
300
1:100
140
1.0
141
100.0
290
     0
  0
SCALE
  5
54
102
{ACAD_REACTORS
330
47
102
}
330
47
100
AcDbScale
 70
     0
300
2:1
140
2.0
141
1.0
290
     0
  0
SCALE
  5
55
102
{ACAD_REACTORS
330
47
102
}
330
47
100
AcDbScale
 70
     0
300
4:1
140
4.0
141
1.0
290
     0
  0
SCALE
  5
56
102
{ACAD_REACTORS
330
47
102
}
330
47
100
AcDbScale
 70
     0
300
8:1
140
8.0
141
1.0
290
     0
  0
SCALE
  5
57
102
{ACAD_REACTORS
330
47
102
}
330
47
100
AcDbScale
 70
     0
300
10:1
140
10.0
141
1.0
290
     0
  0
SCALE
  5
58
102
{ACAD_REACTORS
330
47
102
}
330
47
100
AcDbScale
 70
     0
300
100:1
140
100.0
141
1.0
290
     0
  0
SCALE
  5
59
102
{ACAD_REACTORS
330
47
102
}
330
47
100
AcDbScale
 70
     0
300
1/128" = 1'-0"
140
0.0078125
141
12.0
290
     0
  0
SCALE
  5
5A
102
{ACAD_REACTORS
330
47
102
}
330
47
100
AcDbScale
 70
     0
300
1/64" = 1'-0"
140
0.015625
141
12.0
290
     0
  0
SCALE
  5
5B
102
{ACAD_REACTORS
330
47
102
}
330
47
100
AcDbScale
 70
     0
300
1/32" = 1'-0"
140
0.03125
141
12.0
290
     0
  0
SCALE
  5
5C
102
{ACAD_REACTORS
330
47
102
}
330
47
100
AcDbScale
 70
     0
300
1/16" = 1'-0"
140
0.0625
141
12.0
290
     0
  0
SCALE
  5
5D
102
{ACAD_REACTORS
330
47
102
}
330
47
100
AcDbScale
 70
     0
300
3/32" = 1'-0"
140
0.09375
141
12.0
290
     0
  0
SCALE
  5
5E
102
{ACAD_REACTORS
330
47
102
}
330
47
100
AcDbScale
 70
     0
300
1/8" = 1'-0"
140
0.125
141
12.0
290
     0
  0
SCALE
  5
5F
102
{ACAD_REACTORS
330
47
102
}
330
47
100
AcDbScale
 70
     0
300
3/16" = 1'-0"
140
0.1875
141
12.0
290
     0
  0
SCALE
  5
60
102
{ACAD_REACTORS
330
47
102
}
330
47
100
AcDbScale
 70
     0
300
1/4" = 1'-0"
140
0.25
141
12.0
290
     0
  0
SCALE
  5
61
102
{ACAD_REACTORS
330
47
102
}
330
47
100
AcDbScale
 70
     0
300
3/8" = 1'-0"
140
0.375
141
12.0
290
     0
  0
SCALE
  5
62
102
{ACAD_REACTORS
330
47
102
}
330
47
100
AcDbScale
 70
     0
300
1/2" = 1'-0"
140
0.5
141
12.0
290
     0
  0
SCALE
  5
63
102
{ACAD_REACTORS
330
47
102
}
330
47
100
AcDbScale
 70
     0
300
3/4" = 1'-0"
140
0.75
141
12.0
290
     0
  0
SCALE
  5
64
102
{ACAD_REACTORS
330
47
102
}
330
47
100
AcDbScale
 70
     0
300
1" = 1'-0"
140
1.0
141
12.0
290
     0
  0
SCALE
  5
65
102
{ACAD_REACTORS
330
47
102
}
330
47
100
AcDbScale
 70
     0
300
1-1/2" = 1'-0"
140
1.5
141
12.0
290
     0
  0
SCALE
  5
66
102
{ACAD_REACTORS
330
47
102
}
330
47
100
AcDbScale
 70
     0
300
3" = 1'-0"
140
3.0
141
12.0
290
     0
  0
SCALE
  5
67
102
{ACAD_REACTORS
330
47
102
}
330
47
100
AcDbScale
 70
     0
300
6" = 1'-0"
140
6.0
141
12.0
290
     0
  0
SCALE
  5
68
102
{ACAD_REACTORS
330
47
102
}
330
47
100
AcDbScale
 70
     0
300
1'-0" = 1'-0"
140
12.0
141
12.0
290
     0
  0
VISUALSTYLE
  5
2F
102
{ACAD_REACTORS
330
2A
102
}
102
{ACAD_XDICTIONARY
360
425
102
}
330
2A
100
AcDbVisualStyle
  2
2dWireframe
 70
     4
 71
     0
 72
     2
 73
     0
 90
        0
 40
0.6
 41
30.0
 62
     5
 63
     7
421
 16777215
 74
     1
 91
        4
 64
     7
 65
   257
 75
     1
175
     1
 42
1.0
 92
        0
 66
   257
 43
1.0
 76
     1
 77
     6
 78
     2
 67
     7
 79
     5
170
     0
171
     0
290
     0
174
     0
 93
        1
 44
0.0
173
     0
291
     0
 45
0.0
1001
ACAD
1000
AcDbSavedByObjectVersion
1070
     0
  0
VISUALSTYLE
  5
32
102
{ACAD_REACTORS
330
2A
102
}
102
{ACAD_XDICTIONARY
360
42B
102
}
330
2A
100
AcDbVisualStyle
  2
Basic
 70
     7
 71
     1
 72
     0
 73
     1
 90
        0
 40
0.6
 41
30.0
 62
     5
 63
     7
421
 16777215
 74
     0
 91
        4
 64
     7
 65
   257
 75
     1
175
     1
 42
1.0
 92
        8
 66
     7
 43
1.0
 76
     1
 77
     6
 78
     2
 67
     7
 79
     5
170
     0
171
     0
290
     0
174
     0
 93
        1
 44
0.0
173
     0
291
     1
 45
0.0
1001
ACAD
1000
AcDbSavedByObjectVersion
1070
     0
  0
VISUALSTYLE
  5
36
102
{ACAD_REACTORS
330
2A
102
}
102
{ACAD_XDICTIONARY
360
433
102
}
330
2A
100
AcDbVisualStyle
  2
Brighten
 70
    12
 71
     2
 72
     2
 73
     0
 90
        0
 40
0.6
 41
30.0
 62
     5
 63
     7
421
 16777215
 74
     1
 91
        4
 64
     7
 65
   257
 75
     1
175
     1
 42
1.0
 92
        8
 66
     7
 43
1.0
 76
     1
 77
     6
 78
     2
 67
     7
 79
     5
170
     0
171
     0
290
     0
174
     0
 93
        1
 44
50.0
173
     0
291
     1
 45
0.0
1001
ACAD
1000
AcDbSavedByObjectVersion
1070
     0
  0
VISUALSTYLE
  5
3A
102
{ACAD_REACTORS
330
2A
102
}
102
{ACAD_XDICTIONARY
360
43B
102
}
330
2A
100
AcDbVisualStyle
  2
ColorChange
 70
    16
 71
     2
 72
     2
 73
     3
 90
        0
 40
0.6
 41
30.0
 62
     5
 63
     8
421
  8421504
 74
     1
 91
        4
 64
     7
 65
   257
 75
     1
175
     1
 42
1.0
 92
        8
 66
     8
424
  8421504
 43
1.0
 76
     1
 77
     6
 78
     2
 67
     7
 79
     5
170
     0
171
     0
290
     0
174
     0
 93
        1
 44
0.0
173
     0
291
     1
 45
0.0
1001
ACAD
1000
AcDbSavedByObjectVersion
1070
     0
  0
VISUALSTYLE
  5
34
102
{ACAD_REACTORS
330
2A
102
}
102
{ACAD_XDICTIONARY
360
42F
102
}
330
2A
100
AcDbVisualStyle
  2
Conceptual
 70
     9
 71
     3
 72
     2
 73
     0
 90
        0
 40
0.6
 41
30.0
 62
     5
 63
     7
421
 16777215
 74
     2
 91
        2
 64
     7
 65
   257
 75
     1
175
     1
 42
179.0
 92
        8
 66
     7
 43
1.0
 76
     1
 77
     6
 78
     2
 67
     7
 79
     3
170
     0
171
     0
290
     0
174
     0
 93
        1
 44
0.0
173
     0
291
     0
 45
0.0
1001
ACAD
1000
AcDbSavedByObjectVersion
1070
     0
  0
VISUALSTYLE
  5
35
102
{ACAD_REACTORS
330
2A
102
}
102
{ACAD_XDICTIONARY
360
431
102
}
330
2A
100
AcDbVisualStyle
  2
Dim
 70
    11
 71
     2
 72
     2
 73
     0
 90
        0
 40
0.6
 41
30.0
 62
     5
 63
     7
421
 16777215
 74
     1
 91
        4
 64
     7
 65
   257
 75
     1
175
     1
 42
1.0
 92
        8
 66
     7
 43
1.0
 76
     1
 77
     6
 78
     2
 67
     7
 79
     5
170
     0
171
     0
290
     0
174
     0
 93
        1
 44
-50.0
173
     0
291
     1
 45
0.0
1001
ACAD
1000
AcDbSavedByObjectVersion
1070
     0
  0
VISUALSTYLE
  5
3D
102
{ACAD_REACTORS
330
2A
102
}
102
{ACAD_XDICTIONARY
360
441
102
}
330
2A
100
AcDbVisualStyle
  2
EdgeColorOff
 70
    22
 71
     2
 72
     2
 73
     0
 90
        0
 40
0.6
 41
30.0
 62
     5
 63
     7
421
 16777215
 74
     1
 91
        4
 64
     7
 65
   257
 75
     1
175
     1
 42
1.0
 92
        8
 66
     7
 43
1.0
 76
     1
 77
     6
 78
     2
 67
     7
 79
     5
170
     0
171
     0
290
     0
174
     0
 93
        1
 44
0.0
173
     0
291
     1
 45
0.0
1001
ACAD
1000
AcDbSavedByObjectVersion
1070
     0
  0
VISUALSTYLE
  5
39
102
{ACAD_REACTORS
330
2A
102
}
102
{ACAD_XDICTIONARY
360
439
102
}
330
2A
100
AcDbVisualStyle
  2
Facepattern
 70
    15
 71
     2
 72
     2
 73
     0
 90
        0
 40
0.6
 41
30.0
 62
     5
 63
     7
421
 16777215
 74
     1
 91
        4
 64
     7
 65
   257
 75
     1
175
     1
 42
1.0
 92
        8
 66
     7
 43
1.0
 76
     1
 77
     6
 78
     2
 67
     7
 79
     5
170
     0
171
     0
290
     0
174
     0
 93
        1
 44
0.0
173
     0
291
     1
 45
0.0
1001
ACAD
1000
AcDbSavedByObjectVersion
1070
     0
  0
VISUALSTYLE
  5
2B
102
{ACAD_REACTORS
330
2A
102
}
102
{ACAD_XDICTIONARY
360
41D
102
}
330
2A
100
AcDbVisualStyle
  2
Flat
 70
     0
 71
     2
 72
     1
 73
     1
 90
        2
 40
0.6
 41
30.0
 62
     5
 63
     7
421
 16777215
 74
     0
 91
        0
 64
     7
 65
   257
 75
     1
175
     1
 42
1.0
 92
        8
 66
     7
 43
1.0
 76
     1
 77
     6
 78
     2
 67
     7
 79
     5
170
     0
171
     0
290
     0
174
     0
 93
       13
 44
0.0
173
     0
291
     1
 45
0.0
1001
ACAD
1000
AcDbSavedByObjectVersion
1070
     0
  0
VISUALSTYLE
  5
2C
102
{ACAD_REACTORS
330
2A
102
}
102
{ACAD_XDICTIONARY
360
41F
102
}
330
2A
100
AcDbVisualStyle
  2
FlatWithEdges
 70
     1
 71
     2
 72
     1
 73
     1
 90
        2
 40
0.6
 41
30.0
 62
     5
 63
     7
421
 16777215
 74
     1
 91
        0
 64
     7
 65
   257
 75
     1
175
     1
 42
1.0
 92
        0
 66
   257
 43
1.0
 76
     1
 77
     6
 78
     2
 67
     7
 79
     5
170
     0
171
     0
290
     0
174
     0
 93
       13
 44
0.0
173
     0
291
     1
 45
0.0
1001
ACAD
1000
AcDbSavedByObjectVersion
1070
     0
  0
VISUALSTYLE
  5
2D
102
{ACAD_REACTORS
330
2A
102
}
102
{ACAD_XDICTIONARY
360
421
102
}
330
2A
100
AcDbVisualStyle
  2
Gouraud
 70
     2
 71
     2
 72
     2
 73
     1
 90
        2
 40
0.6
 41
30.0
 62
     5
 63
     7
421
 16777215
 74
     0
 91
        0
 64
     7
 65
   257
 75
     1
175
     1
 42
1.0
 92
        0
 66
     7
 43
1.0
 76
     1
 77
     6
 78
     2
 67
     7
 79
     5
170
     0
171
     0
290
     0
174
     0
 93
       13
 44
0.0
173
     0
291
     1
 45
0.0
1001
ACAD
1000
AcDbSavedByObjectVersion
1070
     0
  0
VISUALSTYLE
  5
2E
102
{ACAD_REACTORS
330
2A
102
}
102
{ACAD_XDICTIONARY
360
423
102
}
330
2A
100
AcDbVisualStyle
  2
GouraudWithEdges
 70
     3
 71
     2
 72
     2
 73
     1
 90
        2
 40
0.6
 41
30.0
 62
     5
 63
     7
421
 16777215
 74
     1
 91
        0
 64
     7
 65
   257
 75
     1
175
     1
 42
1.0
 92
        0
 66
   257
 43
1.0
 76
     1
 77
     6
 78
     2
 67
     7
 79
     5
170
     0
171
     0
290
     0
174
     0
 93
       13
 44
0.0
173
     0
291
     1
 45
0.0
1001
ACAD
1000
AcDbSavedByObjectVersion
1070
     0
  0
VISUALSTYLE
  5
31
102
{ACAD_REACTORS
330
2A
102
}
102
{ACAD_XDICTIONARY
360
429
102
}
330
2A
100
AcDbVisualStyle
  2
Hidden
 70
     6
 71
     1
 72
     2
 73
     2
 90
        0
 40
0.6
 41
30.0
 62
     5
 63
     7
421
 16777215
 74
     2
 91
        2
 64
     7
 65
   257
 75
     2
175
     1
 42
40.0
 92
        0
 66
   257
 43
1.0
 76
     1
 77
     6
 78
     2
 67
     7
 79
     3
170
     0
171
     0
290
     0
174
     0
 93
        1
 44
0.0
173
     0
291
     0
 45
0.0
1001
ACAD
1000
AcDbSavedByObjectVersion
1070
     0
  0
VISUALSTYLE
  5
3B
102
{ACAD_REACTORS
330
2A
102
}
102
{ACAD_XDICTIONARY
360
43D
102
}
330
2A
100
AcDbVisualStyle
  2
JitterOff
 70
    20
 71
     2
 72
     2
 73
     0
 90
        0
 40
0.6
 41
30.0
 62
     5
 63
     7
421
 16777215
 74
     1
 91
        4
 64
     7
 65
   257
 75
     1
175
     1
 42
1.0
 92
       10
 66
     7
 43
1.0
 76
     1
 77
     6
 78
     2
 67
     7
 79
     5
170
     0
171
     0
290
     0
174
     0
 93
        1
 44
0.0
173
     0
291
     1
 45
0.0
1001
ACAD
1000
AcDbSavedByObjectVersion
1070
     0
  0
VISUALSTYLE
  5
38
102
{ACAD_REACTORS
330
2A
102
}
102
{ACAD_XDICTIONARY
360
437
102
}
330
2A
100
AcDbVisualStyle
  2
Linepattern
 70
    14
 71
     2
 72
     2
 73
     0
 90
        0
 40
0.6
 41
30.0
 62
     5
 63
     7
421
 16777215
 74
     1
 91
        4
 64
     7
 65
   257
 75
     7
175
     7
 42
1.0
 92
        8
 66
     7
 43
1.0
 76
     1
 77
     6
 78
     2
 67
     7
 79
     5
170
     0
171
     0
290
     0
174
     0
 93
        1
 44
0.0
173
     0
291
     1
 45
0.0
1001
ACAD
1000
AcDbSavedByObjectVersion
1070
     0
  0
VISUALSTYLE
  5
3C
102
{ACAD_REACTORS
330
2A
102
}
102
{ACAD_XDICTIONARY
360
43F
102
}
330
2A
100
AcDbVisualStyle
  2
OverhangOff
 70
    21
 71
     2
 72
     2
 73
     0
 90
        0
 40
0.6
 41
30.0
 62
     5
 63
     7
421
 16777215
 74
     1
 91
        4
 64
     7
 65
   257
 75
     1
175
     1
 42
1.0
 92
        9
 66
     7
 43
1.0
 76
     1
 77
     6
 78
     2
 67
     7
 79
     5
170
     0
171
     0
290
     0
174
     0
 93
        1
 44
0.0
173
     0
291
     1
 45
0.0
1001
ACAD
1000
AcDbSavedByObjectVersion
1070
     0
  0
VISUALSTYLE
  5
33
102
{ACAD_REACTORS
330
2A
102
}
102
{ACAD_XDICTIONARY
360
42D
102
}
330
2A
100
AcDbVisualStyle
  2
Realistic
 70
     8
 71
     2
 72
     3
 73
     0
 90
        2
 40
0.6
 41
30.0
 62
     5
 63
     7
421
 16777215
 74
     0
 91
        0
 64
     7
 65
   257
 75
     1
175
     1
 42
1.0
 92
        8
 66
   257
 43
1.0
 76
     1
 77
     6
 78
     2
 67
     7
 79
     3
170
     0
171
     0
290
     0
174
     0
 93
       13
 44
0.0
173
     0
291
     0
 45
0.0
1001
ACAD
1000
AcDbSavedByObjectVersion
1070
     0
  0
VISUALSTYLE
  5
42
102
{ACAD_REACTORS
330
2A
102
}
102
{ACAD_XDICTIONARY
360
44B
102
}
330
2A
100
AcDbVisualStyle
  2
Shaded
 70
    27
 71
     2
 72
     2
 73
     1
 90
        2
 40
0.6
 41
30.0
 62
     5
 63
     7
421
 16777215
 74
     0
 91
        4
 64
     7
 65
   257
 75
     1
175
     1
 42
1.0
 92
        8
 66
   257
 43
1.0
 76
     1
 77
     6
 78
     2
 67
     8
425
  7895160
 79
     3
170
     0
171
     0
290
     0
174
     0
 93
        5
 44
0.0
173
     0
291
     0
 45
0.0
1001
ACAD
1000
AcDbSavedByObjectVersion
1070
     0
  0
VISUALSTYLE
  5
41
102
{ACAD_REACTORS
330
2A
102
}
102
{ACAD_XDICTIONARY
360
449
102
}
330
2A
100
AcDbVisualStyle
  2
Shaded with edges
 70
    26
 71
     2
 72
     2
 73
     1
 90
        2
 40
0.6
 41
30.0
 62
     5
 63
     7
421
 16777215
 74
     1
 91
       10
 64
     7
 65
   257
 75
     2
175
     1
 42
1.0
 92
        8
 66
   257
 43
1.0
 76
     1
 77
     6
 78
     2
 67
     7
 79
     3
170
     0
171
     0
290
     0
174
     0
 93
        5
 44
0.0
173
     0
291
     0
 45
0.0
1001
ACAD
1000
AcDbSavedByObjectVersion
1070
     0
  0
VISUALSTYLE
  5
3E
102
{ACAD_REACTORS
330
2A
102
}
102
{ACAD_XDICTIONARY
360
443
102
}
330
2A
100
AcDbVisualStyle
  2
Shades of Gray
 70
    23
 71
     2
 72
     2
 73
     3
 90
        0
 40
0.6
 41
30.0
 62
     5
 63
     7
421
 16777215
 74
     2
 91
        2
 64
     7
 65
     7
 75
     1
175
     1
 42
40.0
 92
        8
 66
     7
 43
1.0
 76
     1
 77
     6
 78
     2
 67
     7
 79
     3
170
     0
171
     0
290
     0
174
     0
 93
        1
 44
0.0
173
     0
291
     0
 45
0.0
1001
ACAD
1000
AcDbSavedByObjectVersion
1070
     0
  0
VISUALSTYLE
  5
3F
102
{ACAD_REACTORS
330
2A
102
}
102
{ACAD_XDICTIONARY
360
445
102
}
330
2A
100
AcDbVisualStyle
  2
Sketchy
 70
    24
 71
     1
 72
     2
 73
     2
 90
        0
 40
0.6
 41
30.0
 62
     5
 63
     7
421
 16777215
 74
     2
 91
        2
 64
     7
 65
     7
 75
     1
175
     1
 42
40.0
 92
       11
 66
     7
 43
1.0
 76
     1
 77
     6
 78
     2
 67
     7
 79
     6
170
     0
171
     0
290
     0
174
     0
 93
        1
 44
0.0
173
     0
291
     0
 45
0.0
1001
ACAD
1000
AcDbSavedByObjectVersion
1070
     0
  0
VISUALSTYLE
  5
37
102
{ACAD_REACTORS
330
2A
102
}
102
{ACAD_XDICTIONARY
360
435
102
}
330
2A
100
AcDbVisualStyle
  2
Thicken
 70
    13
 71
     2
 72
     2
 73
     0
 90
        0
 40
0.6
 41
30.0
 62
     5
 63
     7
421
 16777215
 74
     1
 91
        4
 64
     7
 65
   257
 75
     1
175
     1
 42
1.0
 92
       12
 66
     7
 43
1.0
 76
     1
 77
     6
 78
     2
 67
     7
 79
     5
170
     0
171
     0
290
     0
174
     0
 93
        1
 44
0.0
173
     0
291
     1
 45
0.0
1001
ACAD
1000
AcDbSavedByObjectVersion
1070
     0
  0
VISUALSTYLE
  5
30
102
{ACAD_REACTORS
330
2A
102
}
102
{ACAD_XDICTIONARY
360
427
102
}
330
2A
100
AcDbVisualStyle
  2
Wireframe
 70
     5
 71
     0
 72
     2
 73
     0
 90
        0
 40
0.6
 41
30.0
 62
     5
 63
     7
421
 16777215
 74
     1
 91
        4
 64
     7
 65
   257
 75
     1
175
     1
 42
1.0
 92
        0
 66
   257
 43
1.0
 76
     1
 77
     6
 78
     2
 67
     7
 79
     3
170
     0
171
     0
290
     0
174
     0
 93
        1
 44
0.0
173
     0
291
     0
 45
0.0
1001
ACAD
1000
AcDbSavedByObjectVersion
1070
     0
  0
VISUALSTYLE
  5
40
102
{ACAD_REACTORS
330
2A
102
}
102
{ACAD_XDICTIONARY
360
447
102
}
330
2A
100
AcDbVisualStyle
  2
X-Ray
 70
    25
 71
     2
 72
     2
 73
     1
 90
        1
 40
0.5
 41
30.0
 62
     5
 63
     7
421
 16777215
 74
     1
 91
        0
 64
     7
 65
   257
 75
     1
175
     1
 42
1.0
 92
        8
 66
     7
 43
1.0
 76
     1
 77
     6
 78
     2
 67
     7
 79
     3
170
     0
171
     0
290
     0
174
     0
 93
       13
 44
0.0
173
     0
291
     0
 45
0.0
1001
ACAD
1000
AcDbSavedByObjectVersion
1070
     0
  0
DICTIONARYVAR
  5
41B
102
{ACAD_REACTORS
330
41A
102
}
330
41A
100
DictionaryVariables
280
     0
  1
1:1
  0
DICTIONARYVAR
  5
41C
102
{ACAD_REACTORS
330
41A
102
}
330
41A
100
DictionaryVariables
280
     0
  1
1
  0
DICTIONARY
  5
44F
330
45
100
AcDbDictionary
280
     1
281
     1
  3
ACAD_XREC_ROUNDTRIP
360
450
  0
DICTIONARY
  5
44D
330
44
100
AcDbDictionary
280
     1
281
     1
  3
ACAD_XREC_ROUNDTRIP
360
44E
  0
DICTIONARY
  5
451
330
46
100
AcDbDictionary
280
     1
281
     1
  3
ACAD_XREC_ROUNDTRIP
360
452
  0
DICTIONARY
  5
425
330
2F
100
AcDbDictionary
280
     1
281
     1
  3
ACAD_XREC_ROUNDTRIP
360
426
  0
DICTIONARY
  5
42B
330
32
100
AcDbDictionary
280
     1
281
     1
  3
ACAD_XREC_ROUNDTRIP
360
42C
  0
DICTIONARY
  5
433
330
36
100
AcDbDictionary
280
     1
281
     1
  3
ACAD_XREC_ROUNDTRIP
360
434
  0
DICTIONARY
  5
43B
330
3A
100
AcDbDictionary
280
     1
281
     1
  3
ACAD_XREC_ROUNDTRIP
360
43C
  0
DICTIONARY
  5
42F
330
34
100
AcDbDictionary
280
     1
281
     1
  3
ACAD_XREC_ROUNDTRIP
360
430
  0
DICTIONARY
  5
431
330
35
100
AcDbDictionary
280
     1
281
     1
  3
ACAD_XREC_ROUNDTRIP
360
432
  0
DICTIONARY
  5
441
330
3D
100
AcDbDictionary
280
     1
281
     1
  3
ACAD_XREC_ROUNDTRIP
360
442
  0
DICTIONARY
  5
439
330
39
100
AcDbDictionary
280
     1
281
     1
  3
ACAD_XREC_ROUNDTRIP
360
43A
  0
DICTIONARY
  5
41D
330
2B
100
AcDbDictionary
280
     1
281
     1
  3
ACAD_XREC_ROUNDTRIP
360
41E
  0
DICTIONARY
  5
41F
330
2C
100
AcDbDictionary
280
     1
281
     1
  3
ACAD_XREC_ROUNDTRIP
360
420
  0
DICTIONARY
  5
421
330
2D
100
AcDbDictionary
280
     1
281
     1
  3
ACAD_XREC_ROUNDTRIP
360
422
  0
DICTIONARY
  5
423
330
2E
100
AcDbDictionary
280
     1
281
     1
  3
ACAD_XREC_ROUNDTRIP
360
424
  0
DICTIONARY
  5
429
330
31
100
AcDbDictionary
280
     1
281
     1
  3
ACAD_XREC_ROUNDTRIP
360
42A
  0
DICTIONARY
  5
43D
330
3B
100
AcDbDictionary
280
     1
281
     1
  3
ACAD_XREC_ROUNDTRIP
360
43E
  0
DICTIONARY
  5
437
330
38
100
AcDbDictionary
280
     1
281
     1
  3
ACAD_XREC_ROUNDTRIP
360
438
  0
DICTIONARY
  5
43F
330
3C
100
AcDbDictionary
280
     1
281
     1
  3
ACAD_XREC_ROUNDTRIP
360
440
  0
DICTIONARY
  5
42D
330
33
100
AcDbDictionary
280
     1
281
     1
  3
ACAD_XREC_ROUNDTRIP
360
42E
  0
DICTIONARY
  5
44B
330
42
100
AcDbDictionary
280
     1
281
     1
  3
ACAD_XREC_ROUNDTRIP
360
44C
  0
DICTIONARY
  5
449
330
41
100
AcDbDictionary
280
     1
281
     1
  3
ACAD_XREC_ROUNDTRIP
360
44A
  0
DICTIONARY
  5
443
330
3E
100
AcDbDictionary
280
     1
281
     1
  3
ACAD_XREC_ROUNDTRIP
360
444
  0
DICTIONARY
  5
445
330
3F
100
AcDbDictionary
280
     1
281
     1
  3
ACAD_XREC_ROUNDTRIP
360
446
  0
DICTIONARY
  5
435
330
37
100
AcDbDictionary
280
     1
281
     1
  3
ACAD_XREC_ROUNDTRIP
360
436
  0
DICTIONARY
  5
427
330
30
100
AcDbDictionary
280
     1
281
     1
  3
ACAD_XREC_ROUNDTRIP
360
428
  0
DICTIONARY
  5
447
330
40
100
AcDbDictionary
280
     1
281
     1
  3
ACAD_XREC_ROUNDTRIP
360
448
  0
XRECORD
  5
450
102
{ACAD_REACTORS
330
44F
102
}
330
44F
100
AcDbXrecord
280
     1
102
MATERIAL
148
0.0
149
0.0
149
0.0
 93
        0
 94
      127
282
     0
 72
     1
 77
     1
171
     1
175
     1
179
     1
273
     0
  0
XRECORD
  5
44E
102
{ACAD_REACTORS
330
44D
102
}
330
44D
100
AcDbXrecord
280
     1
102
MATERIAL
148
0.0
149
0.0
149
0.0
 93
        0
 94
      127
282
     0
 72
     1
 77
     1
171
     1
175
     1
179
     1
273
     0
  0
XRECORD
  5
452
102
{ACAD_REACTORS
330
451
102
}
330
451
100
AcDbXrecord
280
     1
102
MATERIAL
148
0.0
149
0.0
149
0.0
 93
        0
 94
      127
282
     0
 72
     1
 77
     1
171
     1
175
     1
179
     1
273
     0
  0
XRECORD
  5
426
102
{ACAD_REACTORS
330
425
102
}
330
425
100
AcDbXrecord
280
     1
102
RTVSPropertyOp0
 70
     1
102
RTVSPropertyOp1
 70
     1
102
RTVSPropertyOp2
 70
     1
102
RTVSPropertyOp3
 70
     1
102
RTVSPropertyOp4
 70
     1
102
RTVSPropertyOp5
 70
     1
102
RTVSPropertyOp6
 70
     1
102
RTVSPropertyOp7
 70
     1
102
RTVSPropertyOp8
 70
     1
102
RTVSPropertyOp9
 70
     1
102
RTVSPropertyOp10
 70
     1
102
RTVSPropertyOp11
 70
     1
102
RTVSPropertyOp12
 70
     1
102
RTVSPropertyOp13
 70
     1
102
RTVSPropertyOp14
 70
     1
102
RTVSPropertyOp15
 70
     1
102
RTVSPropertyOp16
 70
     1
102
RTVSPropertyOp17
 70
     1
102
RTVSPropertyOp18
 70
     1
102
RTVSPropertyOp19
 70
     1
102
RTVSPropertyOp20
 70
     1
102
RTVSPropertyOp21
 70
     1
102
RTVSPropertyOp22
 70
     1
102
RTVSPropertyOp23
 70
     1
102
RTVSPropertyOp24
 70
     1
102
RTVSPropertyOp25
 70
     1
102
RTVSPropertyOp26
 70
     1
102
RTVSPropertyOp27
 70
     1
102
RTVSPropertyOp28
 70
     1
102
RTVSPropertyOp29
 70
     1
102
RTVSPropertyOp30
 70
     1
102
RTVSPropertyOp31
 70
     1
102
RTVSPropertyOp32
 70
     1
102
RTVSPropertyOp33
 70
     1
102
RTVSPropertyOp34
 70
     1
102
RTVSPropertyOp35
 70
     1
102
RTVSPropertyOp36
 70
     1
102
RTVSPropertyOp37
 70
     1
102
RTVSPropertyOp38
 70
     1
102
RTVSPropertyOp39
 70
     1
102
RTVSPropertyOp40
 70
     1
102
RTVSPropertyOp41
 70
     1
102
RTVSPropertyOp42
 70
     1
102
RTVSPropertyOp43
 70
     1
102
RTVSPropertyOp44
 70
     1
102
RTVSPropertyOp45
 70
     1
102
RTVSPropertyOp46
 70
     1
102
RTVSPropertyOp47
 70
     1
102
RTVSPropertyOp48
 70
     1
102
RTVSPropertyOp49
 70
     1
102
RTVSPropertyOp50
 70
     1
102
RTVSPropertyOp51
 70
     0
102
RTVSPropertyOp52
 70
     0
102
RTVSPropertyOp53
 70
     1
102
RTVSPropertyOp54
 70
     1
102
RTVSPropertyOp55
 70
     1
102
RTVSPropertyOp56
 70
     1
102
RTVSPropertyOp57
 70
     1
102
RTVSPost2010Prop28
280
     1
102
RTVSPost2010PropOp28
 70
     1
102
RTVSPost2010Prop29
280
     1
102
RTVSPost2010PropOp29
 70
     1
102
RTVSPost2010Prop30
280
     0
102
RTVSPost2010PropOp30
 70
     1
102
RTVSPost2010Prop31
280
     0
102
RTVSPost2010PropOp31
 70
     1
102
RTVSPost2010Prop32
280
     0
102
RTVSPost2010PropOp32
 70
     1
102
RTVSPost2010Prop33
280
     0
102
RTVSPost2010PropOp33
 70
     1
102
RTVSPost2010Prop34
280
     0
102
RTVSPost2010PropOp34
 70
     1
102
RTVSPost2010Prop35
280
     0
102
RTVSPost2010PropOp35
 70
     1
102
RTVSPost2010Prop36
280
     0
102
RTVSPost2010PropOp36
 70
     1
102
RTVSPost2010Prop37
 90
       50
102
RTVSPost2010PropOp37
 70
     1
102
RTVSPost2010Prop38
140
0.0
102
RTVSPost2010PropOp38
 70
     1
102
RTVSPost2010Prop39
140
1.0
102
RTVSPost2010PropOp39
 70
     1
102
RTVSPost2010Prop40
 90
        0
102
RTVSPost2010PropOp40
 70
     1
102
RTVSPost2010Prop41ColorIndex
 90
       18
102
RTVSPost2010Prop41ColorRGB
 90
        0
102
RTVSPost2010PropOp41
 70
     1
102
RTVSPost2010Prop42
 90
       50
102
RTVSPost2010PropOp42
 70
     1
102
RTVSPost2010Prop43
 90
        3
102
RTVSPost2010PropOp43
 70
     1
102
RTVSPost2010Prop44ColorIndex
 90
        5
102
RTVSPost2010Prop44ColorRGB
 90
      255
102
RTVSPost2010PropOp44
 70
     1
102
RTVSPost2010Prop45
280
     0
102
RTVSPost2010PropOp45
 70
     1
102
RTVSPost2010Prop46
 90
       50
102
RTVSPost2010PropOp46
 70
     1
102
RTVSPost2010Prop47
 90
       50
102
RTVSPost2010PropOp47
 70
     1
102
RTVSPost2010Prop48
 90
       50
102
RTVSPost2010PropOp48
 70
     1
102
RTVSPost2010Prop49
280
     0
102
RTVSPost2010PropOp49
 70
     1
102
RTVSPost2010Prop50
 90
       50
102
RTVSPost2010PropOp50
 70
     1
102
RTVSPost2010Prop51ColorIndex
 90
      256
102
RTVSPost2010Prop51ColorRGB
 90
-16777216
102
RTVSPost2010PropOp51
 70
     0
102
RTVSPost2010Prop52
140
1.0
102
RTVSPost2010PropOp52
 70
     0
102
RTVSPost2010Prop53
 90
        2
102
RTVSPost2010PropOp53
 70
     1
102
RTVSPost2010Prop54
  1
strokes_ogs.tif
102
RTVSPost2010PropOp54
 70
     1
102
RTVSPost2010Prop55
280
     0
102
RTVSPost2010PropOp55
 70
     1
102
RTVSPost2010Prop56
140
1.0
102
RTVSPost2010PropOp56
 70
     1
102
RTVSPost2010Prop57
140
1.0
102
RTVSPost2010PropOp57
 70
     1
  0
XRECORD
  5
42C
102
{ACAD_REACTORS
330
42B
102
}
330
42B
100
AcDbXrecord
280
     1
102
RTVSPropertyOp0
 70
     1
102
RTVSPropertyOp1
 70
     1
102
RTVSPropertyOp2
 70
     1
102
RTVSPropertyOp3
 70
     1
102
RTVSPropertyOp4
 70
     1
102
RTVSPropertyOp5
 70
     1
102
RTVSPropertyOp6
 70
     1
102
RTVSPropertyOp7
 70
     1
102
RTVSPropertyOp8
 70
     1
102
RTVSPropertyOp9
 70
     1
102
RTVSPropertyOp10
 70
     1
102
RTVSPropertyOp11
 70
     1
102
RTVSPropertyOp12
 70
     1
102
RTVSPropertyOp13
 70
     1
102
RTVSPropertyOp14
 70
     1
102
RTVSPropertyOp15
 70
     1
102
RTVSPropertyOp16
 70
     1
102
RTVSPropertyOp17
 70
     1
102
RTVSPropertyOp18
 70
     1
102
RTVSPropertyOp19
 70
     1
102
RTVSPropertyOp20
 70
     1
102
RTVSPropertyOp21
 70
     1
102
RTVSPropertyOp22
 70
     1
102
RTVSPropertyOp23
 70
     1
102
RTVSPropertyOp24
 70
     1
102
RTVSPropertyOp25
 70
     1
102
RTVSPropertyOp26
 70
     1
102
RTVSPropertyOp27
 70
     1
102
RTVSPropertyOp28
 70
     1
102
RTVSPropertyOp29
 70
     1
102
RTVSPropertyOp30
 70
     1
102
RTVSPropertyOp31
 70
     1
102
RTVSPropertyOp32
 70
     1
102
RTVSPropertyOp33
 70
     1
102
RTVSPropertyOp34
 70
     1
102
RTVSPropertyOp35
 70
     1
102
RTVSPropertyOp36
 70
     1
102
RTVSPropertyOp37
 70
     1
102
RTVSPropertyOp38
 70
     1
102
RTVSPropertyOp39
 70
     1
102
RTVSPropertyOp40
 70
     1
102
RTVSPropertyOp41
 70
     1
102
RTVSPropertyOp42
 70
     1
102
RTVSPropertyOp43
 70
     1
102
RTVSPropertyOp44
 70
     1
102
RTVSPropertyOp45
 70
     1
102
RTVSPropertyOp46
 70
     1
102
RTVSPropertyOp47
 70
     1
102
RTVSPropertyOp48
 70
     1
102
RTVSPropertyOp49
 70
     1
102
RTVSPropertyOp50
 70
     1
102
RTVSPropertyOp51
 70
     0
102
RTVSPropertyOp52
 70
     0
102
RTVSPropertyOp53
 70
     1
102
RTVSPropertyOp54
 70
     1
102
RTVSPropertyOp55
 70
     1
102
RTVSPropertyOp56
 70
     1
102
RTVSPropertyOp57
 70
     1
102
RTVSPost2010Prop28
280
     0
102
RTVSPost2010PropOp28
 70
     1
102
RTVSPost2010Prop29
280
     1
102
RTVSPost2010PropOp29
 70
     1
102
RTVSPost2010Prop30
280
     1
102
RTVSPost2010PropOp30
 70
     1
102
RTVSPost2010Prop31
280
     0
102
RTVSPost2010PropOp31
 70
     1
102
RTVSPost2010Prop32
280
     0
102
RTVSPost2010PropOp32
 70
     1
102
RTVSPost2010Prop33
280
     0
102
RTVSPost2010PropOp33
 70
     1
102
RTVSPost2010Prop34
280
     0
102
RTVSPost2010PropOp34
 70
     1
102
RTVSPost2010Prop35
280
     0
102
RTVSPost2010PropOp35
 70
     1
102
RTVSPost2010Prop36
280
     0
102
RTVSPost2010PropOp36
 70
     1
102
RTVSPost2010Prop37
 90
       50
102
RTVSPost2010PropOp37
 70
     1
102
RTVSPost2010Prop38
140
0.0
102
RTVSPost2010PropOp38
 70
     1
102
RTVSPost2010Prop39
140
1.0
102
RTVSPost2010PropOp39
 70
     1
102
RTVSPost2010Prop40
 90
        0
102
RTVSPost2010PropOp40
 70
     1
102
RTVSPost2010Prop41ColorIndex
 90
       18
102
RTVSPost2010Prop41ColorRGB
 90
        0
102
RTVSPost2010PropOp41
 70
     1
102
RTVSPost2010Prop42
 90
       50
102
RTVSPost2010PropOp42
 70
     1
102
RTVSPost2010Prop43
 90
        3
102
RTVSPost2010PropOp43
 70
     1
102
RTVSPost2010Prop44ColorIndex
 90
        5
102
RTVSPost2010Prop44ColorRGB
 90
      255
102
RTVSPost2010PropOp44
 70
     1
102
RTVSPost2010Prop45
280
     0
102
RTVSPost2010PropOp45
 70
     1
102
RTVSPost2010Prop46
 90
       50
102
RTVSPost2010PropOp46
 70
     1
102
RTVSPost2010Prop47
 90
       50
102
RTVSPost2010PropOp47
 70
     1
102
RTVSPost2010Prop48
 90
       50
102
RTVSPost2010PropOp48
 70
     1
102
RTVSPost2010Prop49
280
     0
102
RTVSPost2010PropOp49
 70
     1
102
RTVSPost2010Prop50
 90
       50
102
RTVSPost2010PropOp50
 70
     1
102
RTVSPost2010Prop51ColorIndex
 90
      256
102
RTVSPost2010Prop51ColorRGB
 90
-16777216
102
RTVSPost2010PropOp51
 70
     0
102
RTVSPost2010Prop52
140
1.0
102
RTVSPost2010PropOp52
 70
     0
102
RTVSPost2010Prop53
 90
        2
102
RTVSPost2010PropOp53
 70
     1
102
RTVSPost2010Prop54
  1
strokes_ogs.tif
102
RTVSPost2010PropOp54
 70
     1
102
RTVSPost2010Prop55
280
     0
102
RTVSPost2010PropOp55
 70
     1
102
RTVSPost2010Prop56
140
1.0
102
RTVSPost2010PropOp56
 70
     1
102
RTVSPost2010Prop57
140
1.0
102
RTVSPost2010PropOp57
 70
     1
  0
XRECORD
  5
434
102
{ACAD_REACTORS
330
433
102
}
330
433
100
AcDbXrecord
280
     1
102
RTVSPropertyOp0
 70
     1
102
RTVSPropertyOp1
 70
     1
102
RTVSPropertyOp2
 70
     1
102
RTVSPropertyOp3
 70
     1
102
RTVSPropertyOp4
 70
     1
102
RTVSPropertyOp5
 70
     1
102
RTVSPropertyOp6
 70
     1
102
RTVSPropertyOp7
 70
     1
102
RTVSPropertyOp8
 70
     1
102
RTVSPropertyOp9
 70
     1
102
RTVSPropertyOp10
 70
     1
102
RTVSPropertyOp11
 70
     1
102
RTVSPropertyOp12
 70
     1
102
RTVSPropertyOp13
 70
     1
102
RTVSPropertyOp14
 70
     1
102
RTVSPropertyOp15
 70
     1
102
RTVSPropertyOp16
 70
     1
102
RTVSPropertyOp17
 70
     1
102
RTVSPropertyOp18
 70
     1
102
RTVSPropertyOp19
 70
     1
102
RTVSPropertyOp20
 70
     1
102
RTVSPropertyOp21
 70
     1
102
RTVSPropertyOp22
 70
     1
102
RTVSPropertyOp23
 70
     1
102
RTVSPropertyOp24
 70
     1
102
RTVSPropertyOp25
 70
     1
102
RTVSPropertyOp26
 70
     1
102
RTVSPropertyOp27
 70
     1
102
RTVSPropertyOp28
 70
     1
102
RTVSPropertyOp29
 70
     1
102
RTVSPropertyOp30
 70
     1
102
RTVSPropertyOp31
 70
     1
102
RTVSPropertyOp32
 70
     1
102
RTVSPropertyOp33
 70
     1
102
RTVSPropertyOp34
 70
     1
102
RTVSPropertyOp35
 70
     1
102
RTVSPropertyOp36
 70
     1
102
RTVSPropertyOp37
 70
     1
102
RTVSPropertyOp38
 70
     1
102
RTVSPropertyOp39
 70
     1
102
RTVSPropertyOp40
 70
     1
102
RTVSPropertyOp41
 70
     1
102
RTVSPropertyOp42
 70
     1
102
RTVSPropertyOp43
 70
     1
102
RTVSPropertyOp44
 70
     1
102
RTVSPropertyOp45
 70
     1
102
RTVSPropertyOp46
 70
     1
102
RTVSPropertyOp47
 70
     1
102
RTVSPropertyOp48
 70
     1
102
RTVSPropertyOp49
 70
     1
102
RTVSPropertyOp50
 70
     1
102
RTVSPropertyOp51
 70
     0
102
RTVSPropertyOp52
 70
     0
102
RTVSPropertyOp53
 70
     1
102
RTVSPropertyOp54
 70
     1
102
RTVSPropertyOp55
 70
     1
102
RTVSPropertyOp56
 70
     1
102
RTVSPropertyOp57
 70
     1
102
RTVSPost2010Prop28
280
     0
102
RTVSPost2010PropOp28
 70
     1
102
RTVSPost2010Prop29
280
     1
102
RTVSPost2010PropOp29
 70
     1
102
RTVSPost2010Prop30
280
     1
102
RTVSPost2010PropOp30
 70
     1
102
RTVSPost2010Prop31
280
     0
102
RTVSPost2010PropOp31
 70
     1
102
RTVSPost2010Prop32
280
     0
102
RTVSPost2010PropOp32
 70
     1
102
RTVSPost2010Prop33
280
     0
102
RTVSPost2010PropOp33
 70
     1
102
RTVSPost2010Prop34
280
     0
102
RTVSPost2010PropOp34
 70
     1
102
RTVSPost2010Prop35
280
     0
102
RTVSPost2010PropOp35
 70
     1
102
RTVSPost2010Prop36
280
     0
102
RTVSPost2010PropOp36
 70
     1
102
RTVSPost2010Prop37
 90
       50
102
RTVSPost2010PropOp37
 70
     1
102
RTVSPost2010Prop38
140
0.0
102
RTVSPost2010PropOp38
 70
     1
102
RTVSPost2010Prop39
140
1.0
102
RTVSPost2010PropOp39
 70
     1
102
RTVSPost2010Prop40
 90
        0
102
RTVSPost2010PropOp40
 70
     1
102
RTVSPost2010Prop41ColorIndex
 90
       18
102
RTVSPost2010Prop41ColorRGB
 90
        0
102
RTVSPost2010PropOp41
 70
     1
102
RTVSPost2010Prop42
 90
       50
102
RTVSPost2010PropOp42
 70
     1
102
RTVSPost2010Prop43
 90
        3
102
RTVSPost2010PropOp43
 70
     1
102
RTVSPost2010Prop44ColorIndex
 90
        5
102
RTVSPost2010Prop44ColorRGB
 90
      255
102
RTVSPost2010PropOp44
 70
     1
102
RTVSPost2010Prop45
280
     0
102
RTVSPost2010PropOp45
 70
     1
102
RTVSPost2010Prop46
 90
       50
102
RTVSPost2010PropOp46
 70
     1
102
RTVSPost2010Prop47
 90
       50
102
RTVSPost2010PropOp47
 70
     1
102
RTVSPost2010Prop48
 90
       50
102
RTVSPost2010PropOp48
 70
     1
102
RTVSPost2010Prop49
280
     0
102
RTVSPost2010PropOp49
 70
     1
102
RTVSPost2010Prop50
 90
       50
102
RTVSPost2010PropOp50
 70
     1
102
RTVSPost2010Prop51ColorIndex
 90
      256
102
RTVSPost2010Prop51ColorRGB
 90
-16777216
102
RTVSPost2010PropOp51
 70
     0
102
RTVSPost2010Prop52
140
1.0
102
RTVSPost2010PropOp52
 70
     0
102
RTVSPost2010Prop53
 90
        2
102
RTVSPost2010PropOp53
 70
     1
102
RTVSPost2010Prop54
  1
strokes_ogs.tif
102
RTVSPost2010PropOp54
 70
     1
102
RTVSPost2010Prop55
280
     0
102
RTVSPost2010PropOp55
 70
     1
102
RTVSPost2010Prop56
140
1.0
102
RTVSPost2010PropOp56
 70
     1
102
RTVSPost2010Prop57
140
1.0
102
RTVSPost2010PropOp57
 70
     1
  0
XRECORD
  5
43C
102
{ACAD_REACTORS
330
43B
102
}
330
43B
100
AcDbXrecord
280
     1
102
RTVSPropertyOp0
 70
     1
102
RTVSPropertyOp1
 70
     1
102
RTVSPropertyOp2
 70
     1
102
RTVSPropertyOp3
 70
     1
102
RTVSPropertyOp4
 70
     1
102
RTVSPropertyOp5
 70
     1
102
RTVSPropertyOp6
 70
     1
102
RTVSPropertyOp7
 70
     1
102
RTVSPropertyOp8
 70
     1
102
RTVSPropertyOp9
 70
     1
102
RTVSPropertyOp10
 70
     1
102
RTVSPropertyOp11
 70
     1
102
RTVSPropertyOp12
 70
     1
102
RTVSPropertyOp13
 70
     1
102
RTVSPropertyOp14
 70
     1
102
RTVSPropertyOp15
 70
     1
102
RTVSPropertyOp16
 70
     1
102
RTVSPropertyOp17
 70
     1
102
RTVSPropertyOp18
 70
     1
102
RTVSPropertyOp19
 70
     1
102
RTVSPropertyOp20
 70
     1
102
RTVSPropertyOp21
 70
     1
102
RTVSPropertyOp22
 70
     1
102
RTVSPropertyOp23
 70
     1
102
RTVSPropertyOp24
 70
     1
102
RTVSPropertyOp25
 70
     1
102
RTVSPropertyOp26
 70
     1
102
RTVSPropertyOp27
 70
     1
102
RTVSPropertyOp28
 70
     1
102
RTVSPropertyOp29
 70
     1
102
RTVSPropertyOp30
 70
     1
102
RTVSPropertyOp31
 70
     1
102
RTVSPropertyOp32
 70
     1
102
RTVSPropertyOp33
 70
     1
102
RTVSPropertyOp34
 70
     1
102
RTVSPropertyOp35
 70
     1
102
RTVSPropertyOp36
 70
     1
102
RTVSPropertyOp37
 70
     1
102
RTVSPropertyOp38
 70
     1
102
RTVSPropertyOp39
 70
     1
102
RTVSPropertyOp40
 70
     1
102
RTVSPropertyOp41
 70
     1
102
RTVSPropertyOp42
 70
     1
102
RTVSPropertyOp43
 70
     1
102
RTVSPropertyOp44
 70
     1
102
RTVSPropertyOp45
 70
     1
102
RTVSPropertyOp46
 70
     1
102
RTVSPropertyOp47
 70
     1
102
RTVSPropertyOp48
 70
     1
102
RTVSPropertyOp49
 70
     1
102
RTVSPropertyOp50
 70
     1
102
RTVSPropertyOp51
 70
     0
102
RTVSPropertyOp52
 70
     0
102
RTVSPropertyOp53
 70
     1
102
RTVSPropertyOp54
 70
     1
102
RTVSPropertyOp55
 70
     1
102
RTVSPropertyOp56
 70
     1
102
RTVSPropertyOp57
 70
     1
102
RTVSPost2010Prop28
280
     0
102
RTVSPost2010PropOp28
 70
     1
102
RTVSPost2010Prop29
280
     1
102
RTVSPost2010PropOp29
 70
     1
102
RTVSPost2010Prop30
280
     1
102
RTVSPost2010PropOp30
 70
     1
102
RTVSPost2010Prop31
280
     0
102
RTVSPost2010PropOp31
 70
     1
102
RTVSPost2010Prop32
280
     0
102
RTVSPost2010PropOp32
 70
     1
102
RTVSPost2010Prop33
280
     0
102
RTVSPost2010PropOp33
 70
     1
102
RTVSPost2010Prop34
280
     0
102
RTVSPost2010PropOp34
 70
     1
102
RTVSPost2010Prop35
280
     0
102
RTVSPost2010PropOp35
 70
     1
102
RTVSPost2010Prop36
280
     0
102
RTVSPost2010PropOp36
 70
     1
102
RTVSPost2010Prop37
 90
       50
102
RTVSPost2010PropOp37
 70
     1
102
RTVSPost2010Prop38
140
0.0
102
RTVSPost2010PropOp38
 70
     1
102
RTVSPost2010Prop39
140
1.0
102
RTVSPost2010PropOp39
 70
     1
102
RTVSPost2010Prop40
 90
        0
102
RTVSPost2010PropOp40
 70
     1
102
RTVSPost2010Prop41ColorIndex
 90
       18
102
RTVSPost2010Prop41ColorRGB
 90
        0
102
RTVSPost2010PropOp41
 70
     1
102
RTVSPost2010Prop42
 90
       50
102
RTVSPost2010PropOp42
 70
     1
102
RTVSPost2010Prop43
 90
        3
102
RTVSPost2010PropOp43
 70
     1
102
RTVSPost2010Prop44ColorIndex
 90
        5
102
RTVSPost2010Prop44ColorRGB
 90
      255
102
RTVSPost2010PropOp44
 70
     1
102
RTVSPost2010Prop45
280
     0
102
RTVSPost2010PropOp45
 70
     1
102
RTVSPost2010Prop46
 90
       50
102
RTVSPost2010PropOp46
 70
     1
102
RTVSPost2010Prop47
 90
       50
102
RTVSPost2010PropOp47
 70
     1
102
RTVSPost2010Prop48
 90
       50
102
RTVSPost2010PropOp48
 70
     1
102
RTVSPost2010Prop49
280
     0
102
RTVSPost2010PropOp49
 70
     1
102
RTVSPost2010Prop50
 90
       50
102
RTVSPost2010PropOp50
 70
     1
102
RTVSPost2010Prop51ColorIndex
 90
      256
102
RTVSPost2010Prop51ColorRGB
 90
-16777216
102
RTVSPost2010PropOp51
 70
     0
102
RTVSPost2010Prop52
140
1.0
102
RTVSPost2010PropOp52
 70
     0
102
RTVSPost2010Prop53
 90
        2
102
RTVSPost2010PropOp53
 70
     1
102
RTVSPost2010Prop54
  1
strokes_ogs.tif
102
RTVSPost2010PropOp54
 70
     1
102
RTVSPost2010Prop55
280
     0
102
RTVSPost2010PropOp55
 70
     1
102
RTVSPost2010Prop56
140
1.0
102
RTVSPost2010PropOp56
 70
     1
102
RTVSPost2010Prop57
140
1.0
102
RTVSPost2010PropOp57
 70
     1
  0
XRECORD
  5
430
102
{ACAD_REACTORS
330
42F
102
}
330
42F
100
AcDbXrecord
280
     1
102
RTVSPropertyOp0
 70
     1
102
RTVSPropertyOp1
 70
     1
102
RTVSPropertyOp2
 70
     1
102
RTVSPropertyOp3
 70
     1
102
RTVSPropertyOp4
 70
     1
102
RTVSPropertyOp5
 70
     1
102
RTVSPropertyOp6
 70
     1
102
RTVSPropertyOp7
 70
     1
102
RTVSPropertyOp8
 70
     1
102
RTVSPropertyOp9
 70
     1
102
RTVSPropertyOp10
 70
     1
102
RTVSPropertyOp11
 70
     1
102
RTVSPropertyOp12
 70
     1
102
RTVSPropertyOp13
 70
     1
102
RTVSPropertyOp14
 70
     1
102
RTVSPropertyOp15
 70
     1
102
RTVSPropertyOp16
 70
     1
102
RTVSPropertyOp17
 70
     1
102
RTVSPropertyOp18
 70
     1
102
RTVSPropertyOp19
 70
     1
102
RTVSPropertyOp20
 70
     1
102
RTVSPropertyOp21
 70
     1
102
RTVSPropertyOp22
 70
     1
102
RTVSPropertyOp23
 70
     1
102
RTVSPropertyOp24
 70
     1
102
RTVSPropertyOp25
 70
     1
102
RTVSPropertyOp26
 70
     1
102
RTVSPropertyOp27
 70
     1
102
RTVSPropertyOp28
 70
     1
102
RTVSPropertyOp29
 70
     1
102
RTVSPropertyOp30
 70
     1
102
RTVSPropertyOp31
 70
     1
102
RTVSPropertyOp32
 70
     1
102
RTVSPropertyOp33
 70
     1
102
RTVSPropertyOp34
 70
     1
102
RTVSPropertyOp35
 70
     1
102
RTVSPropertyOp36
 70
     1
102
RTVSPropertyOp37
 70
     1
102
RTVSPropertyOp38
 70
     1
102
RTVSPropertyOp39
 70
     1
102
RTVSPropertyOp40
 70
     1
102
RTVSPropertyOp41
 70
     1
102
RTVSPropertyOp42
 70
     1
102
RTVSPropertyOp43
 70
     1
102
RTVSPropertyOp44
 70
     1
102
RTVSPropertyOp45
 70
     1
102
RTVSPropertyOp46
 70
     1
102
RTVSPropertyOp47
 70
     1
102
RTVSPropertyOp48
 70
     1
102
RTVSPropertyOp49
 70
     1
102
RTVSPropertyOp50
 70
     1
102
RTVSPropertyOp51
 70
     0
102
RTVSPropertyOp52
 70
     0
102
RTVSPropertyOp53
 70
     1
102
RTVSPropertyOp54
 70
     1
102
RTVSPropertyOp55
 70
     1
102
RTVSPropertyOp56
 70
     1
102
RTVSPropertyOp57
 70
     1
102
RTVSPost2010Prop28
280
     0
102
RTVSPost2010PropOp28
 70
     1
102
RTVSPost2010Prop29
280
     1
102
RTVSPost2010PropOp29
 70
     1
102
RTVSPost2010Prop30
280
     1
102
RTVSPost2010PropOp30
 70
     1
102
RTVSPost2010Prop31
280
     0
102
RTVSPost2010PropOp31
 70
     1
102
RTVSPost2010Prop32
280
     0
102
RTVSPost2010PropOp32
 70
     1
102
RTVSPost2010Prop33
280
     0
102
RTVSPost2010PropOp33
 70
     1
102
RTVSPost2010Prop34
280
     0
102
RTVSPost2010PropOp34
 70
     1
102
RTVSPost2010Prop35
280
     0
102
RTVSPost2010PropOp35
 70
     1
102
RTVSPost2010Prop36
280
     0
102
RTVSPost2010PropOp36
 70
     1
102
RTVSPost2010Prop37
 90
       50
102
RTVSPost2010PropOp37
 70
     1
102
RTVSPost2010Prop38
140
0.0
102
RTVSPost2010PropOp38
 70
     1
102
RTVSPost2010Prop39
140
1.0
102
RTVSPost2010PropOp39
 70
     1
102
RTVSPost2010Prop40
 90
        0
102
RTVSPost2010PropOp40
 70
     1
102
RTVSPost2010Prop41ColorIndex
 90
       18
102
RTVSPost2010Prop41ColorRGB
 90
        0
102
RTVSPost2010PropOp41
 70
     1
102
RTVSPost2010Prop42
 90
       50
102
RTVSPost2010PropOp42
 70
     1
102
RTVSPost2010Prop43
 90
        3
102
RTVSPost2010PropOp43
 70
     1
102
RTVSPost2010Prop44ColorIndex
 90
        5
102
RTVSPost2010Prop44ColorRGB
 90
      255
102
RTVSPost2010PropOp44
 70
     1
102
RTVSPost2010Prop45
280
     0
102
RTVSPost2010PropOp45
 70
     1
102
RTVSPost2010Prop46
 90
       50
102
RTVSPost2010PropOp46
 70
     1
102
RTVSPost2010Prop47
 90
       50
102
RTVSPost2010PropOp47
 70
     1
102
RTVSPost2010Prop48
 90
       50
102
RTVSPost2010PropOp48
 70
     1
102
RTVSPost2010Prop49
280
     0
102
RTVSPost2010PropOp49
 70
     1
102
RTVSPost2010Prop50
 90
       50
102
RTVSPost2010PropOp50
 70
     1
102
RTVSPost2010Prop51ColorIndex
 90
      256
102
RTVSPost2010Prop51ColorRGB
 90
-16777216
102
RTVSPost2010PropOp51
 70
     0
102
RTVSPost2010Prop52
140
1.0
102
RTVSPost2010PropOp52
 70
     0
102
RTVSPost2010Prop53
 90
        2
102
RTVSPost2010PropOp53
 70
     1
102
RTVSPost2010Prop54
  1
strokes_ogs.tif
102
RTVSPost2010PropOp54
 70
     1
102
RTVSPost2010Prop55
280
     0
102
RTVSPost2010PropOp55
 70
     1
102
RTVSPost2010Prop56
140
1.0
102
RTVSPost2010PropOp56
 70
     1
102
RTVSPost2010Prop57
140
1.0
102
RTVSPost2010PropOp57
 70
     1
  0
XRECORD
  5
432
102
{ACAD_REACTORS
330
431
102
}
330
431
100
AcDbXrecord
280
     1
102
RTVSPropertyOp0
 70
     1
102
RTVSPropertyOp1
 70
     1
102
RTVSPropertyOp2
 70
     1
102
RTVSPropertyOp3
 70
     1
102
RTVSPropertyOp4
 70
     1
102
RTVSPropertyOp5
 70
     1
102
RTVSPropertyOp6
 70
     1
102
RTVSPropertyOp7
 70
     1
102
RTVSPropertyOp8
 70
     1
102
RTVSPropertyOp9
 70
     1
102
RTVSPropertyOp10
 70
     1
102
RTVSPropertyOp11
 70
     1
102
RTVSPropertyOp12
 70
     1
102
RTVSPropertyOp13
 70
     1
102
RTVSPropertyOp14
 70
     1
102
RTVSPropertyOp15
 70
     1
102
RTVSPropertyOp16
 70
     1
102
RTVSPropertyOp17
 70
     1
102
RTVSPropertyOp18
 70
     1
102
RTVSPropertyOp19
 70
     1
102
RTVSPropertyOp20
 70
     1
102
RTVSPropertyOp21
 70
     1
102
RTVSPropertyOp22
 70
     1
102
RTVSPropertyOp23
 70
     1
102
RTVSPropertyOp24
 70
     1
102
RTVSPropertyOp25
 70
     1
102
RTVSPropertyOp26
 70
     1
102
RTVSPropertyOp27
 70
     1
102
RTVSPropertyOp28
 70
     1
102
RTVSPropertyOp29
 70
     1
102
RTVSPropertyOp30
 70
     1
102
RTVSPropertyOp31
 70
     1
102
RTVSPropertyOp32
 70
     1
102
RTVSPropertyOp33
 70
     1
102
RTVSPropertyOp34
 70
     1
102
RTVSPropertyOp35
 70
     1
102
RTVSPropertyOp36
 70
     1
102
RTVSPropertyOp37
 70
     1
102
RTVSPropertyOp38
 70
     1
102
RTVSPropertyOp39
 70
     1
102
RTVSPropertyOp40
 70
     1
102
RTVSPropertyOp41
 70
     1
102
RTVSPropertyOp42
 70
     1
102
RTVSPropertyOp43
 70
     1
102
RTVSPropertyOp44
 70
     1
102
RTVSPropertyOp45
 70
     1
102
RTVSPropertyOp46
 70
     1
102
RTVSPropertyOp47
 70
     1
102
RTVSPropertyOp48
 70
     1
102
RTVSPropertyOp49
 70
     1
102
RTVSPropertyOp50
 70
     1
102
RTVSPropertyOp51
 70
     0
102
RTVSPropertyOp52
 70
     0
102
RTVSPropertyOp53
 70
     1
102
RTVSPropertyOp54
 70
     1
102
RTVSPropertyOp55
 70
     1
102
RTVSPropertyOp56
 70
     1
102
RTVSPropertyOp57
 70
     1
102
RTVSPost2010Prop28
280
     0
102
RTVSPost2010PropOp28
 70
     1
102
RTVSPost2010Prop29
280
     1
102
RTVSPost2010PropOp29
 70
     1
102
RTVSPost2010Prop30
280
     1
102
RTVSPost2010PropOp30
 70
     1
102
RTVSPost2010Prop31
280
     0
102
RTVSPost2010PropOp31
 70
     1
102
RTVSPost2010Prop32
280
     0
102
RTVSPost2010PropOp32
 70
     1
102
RTVSPost2010Prop33
280
     0
102
RTVSPost2010PropOp33
 70
     1
102
RTVSPost2010Prop34
280
     0
102
RTVSPost2010PropOp34
 70
     1
102
RTVSPost2010Prop35
280
     0
102
RTVSPost2010PropOp35
 70
     1
102
RTVSPost2010Prop36
280
     0
102
RTVSPost2010PropOp36
 70
     1
102
RTVSPost2010Prop37
 90
       50
102
RTVSPost2010PropOp37
 70
     1
102
RTVSPost2010Prop38
140
0.0
102
RTVSPost2010PropOp38
 70
     1
102
RTVSPost2010Prop39
140
1.0
102
RTVSPost2010PropOp39
 70
     1
102
RTVSPost2010Prop40
 90
        0
102
RTVSPost2010PropOp40
 70
     1
102
RTVSPost2010Prop41ColorIndex
 90
       18
102
RTVSPost2010Prop41ColorRGB
 90
        0
102
RTVSPost2010PropOp41
 70
     1
102
RTVSPost2010Prop42
 90
       50
102
RTVSPost2010PropOp42
 70
     1
102
RTVSPost2010Prop43
 90
        3
102
RTVSPost2010PropOp43
 70
     1
102
RTVSPost2010Prop44ColorIndex
 90
        5
102
RTVSPost2010Prop44ColorRGB
 90
      255
102
RTVSPost2010PropOp44
 70
     1
102
RTVSPost2010Prop45
280
     0
102
RTVSPost2010PropOp45
 70
     1
102
RTVSPost2010Prop46
 90
       50
102
RTVSPost2010PropOp46
 70
     1
102
RTVSPost2010Prop47
 90
       50
102
RTVSPost2010PropOp47
 70
     1
102
RTVSPost2010Prop48
 90
       50
102
RTVSPost2010PropOp48
 70
     1
102
RTVSPost2010Prop49
280
     0
102
RTVSPost2010PropOp49
 70
     1
102
RTVSPost2010Prop50
 90
       50
102
RTVSPost2010PropOp50
 70
     1
102
RTVSPost2010Prop51ColorIndex
 90
      256
102
RTVSPost2010Prop51ColorRGB
 90
-16777216
102
RTVSPost2010PropOp51
 70
     0
102
RTVSPost2010Prop52
140
1.0
102
RTVSPost2010PropOp52
 70
     0
102
RTVSPost2010Prop53
 90
        2
102
RTVSPost2010PropOp53
 70
     1
102
RTVSPost2010Prop54
  1
strokes_ogs.tif
102
RTVSPost2010PropOp54
 70
     1
102
RTVSPost2010Prop55
280
     0
102
RTVSPost2010PropOp55
 70
     1
102
RTVSPost2010Prop56
140
1.0
102
RTVSPost2010PropOp56
 70
     1
102
RTVSPost2010Prop57
140
1.0
102
RTVSPost2010PropOp57
 70
     1
  0
XRECORD
  5
442
102
{ACAD_REACTORS
330
441
102
}
330
441
100
AcDbXrecord
280
     1
102
RTVSPropertyOp0
 70
     0
102
RTVSPropertyOp1
 70
     0
102
RTVSPropertyOp2
 70
     0
102
RTVSPropertyOp3
 70
     0
102
RTVSPropertyOp4
 70
     0
102
RTVSPropertyOp5
 70
     0
102
RTVSPropertyOp6
 70
     0
102
RTVSPropertyOp7
 70
     0
102
RTVSPropertyOp8
 70
     0
102
RTVSPropertyOp9
 70
     0
102
RTVSPropertyOp10
 70
     0
102
RTVSPropertyOp11
 70
     0
102
RTVSPropertyOp12
 70
     0
102
RTVSPropertyOp13
 70
     0
102
RTVSPropertyOp14
 70
     2
102
RTVSPropertyOp15
 70
     0
102
RTVSPropertyOp16
 70
     0
102
RTVSPropertyOp17
 70
     0
102
RTVSPropertyOp18
 70
     0
102
RTVSPropertyOp19
 70
     0
102
RTVSPropertyOp20
 70
     0
102
RTVSPropertyOp21
 70
     0
102
RTVSPropertyOp22
 70
     0
102
RTVSPropertyOp23
 70
     0
102
RTVSPropertyOp24
 70
     0
102
RTVSPropertyOp25
 70
     0
102
RTVSPropertyOp26
 70
     0
102
RTVSPropertyOp27
 70
     0
102
RTVSPropertyOp28
 70
     0
102
RTVSPropertyOp29
 70
     0
102
RTVSPropertyOp30
 70
     0
102
RTVSPropertyOp31
 70
     0
102
RTVSPropertyOp32
 70
     0
102
RTVSPropertyOp33
 70
     0
102
RTVSPropertyOp34
 70
     0
102
RTVSPropertyOp35
 70
     0
102
RTVSPropertyOp36
 70
     0
102
RTVSPropertyOp37
 70
     0
102
RTVSPropertyOp38
 70
     0
102
RTVSPropertyOp39
 70
     0
102
RTVSPropertyOp40
 70
     0
102
RTVSPropertyOp41
 70
     0
102
RTVSPropertyOp42
 70
     0
102
RTVSPropertyOp43
 70
     0
102
RTVSPropertyOp44
 70
     0
102
RTVSPropertyOp45
 70
     0
102
RTVSPropertyOp46
 70
     0
102
RTVSPropertyOp47
 70
     0
102
RTVSPropertyOp48
 70
     0
102
RTVSPropertyOp49
 70
     0
102
RTVSPropertyOp50
 70
     0
102
RTVSPropertyOp51
 70
     0
102
RTVSPropertyOp52
 70
     0
102
RTVSPropertyOp53
 70
     0
102
RTVSPropertyOp54
 70
     0
102
RTVSPropertyOp55
 70
     0
102
RTVSPropertyOp56
 70
     0
102
RTVSPropertyOp57
 70
     0
102
RTVSPost2010Prop28
280
     0
102
RTVSPost2010PropOp28
 70
     0
102
RTVSPost2010Prop29
280
     1
102
RTVSPost2010PropOp29
 70
     0
102
RTVSPost2010Prop30
280
     1
102
RTVSPost2010PropOp30
 70
     0
102
RTVSPost2010Prop31
280
     0
102
RTVSPost2010PropOp31
 70
     0
102
RTVSPost2010Prop32
280
     0
102
RTVSPost2010PropOp32
 70
     0
102
RTVSPost2010Prop33
280
     0
102
RTVSPost2010PropOp33
 70
     0
102
RTVSPost2010Prop34
280
     0
102
RTVSPost2010PropOp34
 70
     0
102
RTVSPost2010Prop35
280
     0
102
RTVSPost2010PropOp35
 70
     0
102
RTVSPost2010Prop36
280
     0
102
RTVSPost2010PropOp36
 70
     0
102
RTVSPost2010Prop37
 90
       50
102
RTVSPost2010PropOp37
 70
     0
102
RTVSPost2010Prop38
140
0.0
102
RTVSPost2010PropOp38
 70
     0
102
RTVSPost2010Prop39
140
1.0
102
RTVSPost2010PropOp39
 70
     0
102
RTVSPost2010Prop40
 90
        0
102
RTVSPost2010PropOp40
 70
     0
102
RTVSPost2010Prop41ColorIndex
 90
       18
102
RTVSPost2010Prop41ColorRGB
 90
        0
102
RTVSPost2010PropOp41
 70
     0
102
RTVSPost2010Prop42
 90
       50
102
RTVSPost2010PropOp42
 70
     0
102
RTVSPost2010Prop43
 90
        3
102
RTVSPost2010PropOp43
 70
     0
102
RTVSPost2010Prop44ColorIndex
 90
        5
102
RTVSPost2010Prop44ColorRGB
 90
      255
102
RTVSPost2010PropOp44
 70
     0
102
RTVSPost2010Prop45
280
     0
102
RTVSPost2010PropOp45
 70
     0
102
RTVSPost2010Prop46
 90
       50
102
RTVSPost2010PropOp46
 70
     0
102
RTVSPost2010Prop47
 90
       50
102
RTVSPost2010PropOp47
 70
     0
102
RTVSPost2010Prop48
 90
       50
102
RTVSPost2010PropOp48
 70
     0
102
RTVSPost2010Prop49
280
     0
102
RTVSPost2010PropOp49
 70
     0
102
RTVSPost2010Prop50
 90
       50
102
RTVSPost2010PropOp50
 70
     0
102
RTVSPost2010Prop51ColorIndex
 90
      256
102
RTVSPost2010Prop51ColorRGB
 90
-16777216
102
RTVSPost2010PropOp51
 70
     0
102
RTVSPost2010Prop52
140
1.0
102
RTVSPost2010PropOp52
 70
     0
102
RTVSPost2010Prop53
 90
        2
102
RTVSPost2010PropOp53
 70
     0
102
RTVSPost2010Prop54
  1
strokes_ogs.tif
102
RTVSPost2010PropOp54
 70
     0
102
RTVSPost2010Prop55
280
     0
102
RTVSPost2010PropOp55
 70
     0
102
RTVSPost2010Prop56
140
1.0
102
RTVSPost2010PropOp56
 70
     0
102
RTVSPost2010Prop57
140
1.0
102
RTVSPost2010PropOp57
 70
     0
  0
XRECORD
  5
43A
102
{ACAD_REACTORS
330
439
102
}
330
439
100
AcDbXrecord
280
     1
102
RTVSPropertyOp0
 70
     1
102
RTVSPropertyOp1
 70
     1
102
RTVSPropertyOp2
 70
     1
102
RTVSPropertyOp3
 70
     1
102
RTVSPropertyOp4
 70
     1
102
RTVSPropertyOp5
 70
     1
102
RTVSPropertyOp6
 70
     1
102
RTVSPropertyOp7
 70
     1
102
RTVSPropertyOp8
 70
     1
102
RTVSPropertyOp9
 70
     1
102
RTVSPropertyOp10
 70
     1
102
RTVSPropertyOp11
 70
     1
102
RTVSPropertyOp12
 70
     1
102
RTVSPropertyOp13
 70
     1
102
RTVSPropertyOp14
 70
     1
102
RTVSPropertyOp15
 70
     1
102
RTVSPropertyOp16
 70
     1
102
RTVSPropertyOp17
 70
     1
102
RTVSPropertyOp18
 70
     1
102
RTVSPropertyOp19
 70
     1
102
RTVSPropertyOp20
 70
     1
102
RTVSPropertyOp21
 70
     1
102
RTVSPropertyOp22
 70
     1
102
RTVSPropertyOp23
 70
     1
102
RTVSPropertyOp24
 70
     1
102
RTVSPropertyOp25
 70
     1
102
RTVSPropertyOp26
 70
     1
102
RTVSPropertyOp27
 70
     1
102
RTVSPropertyOp28
 70
     1
102
RTVSPropertyOp29
 70
     1
102
RTVSPropertyOp30
 70
     1
102
RTVSPropertyOp31
 70
     1
102
RTVSPropertyOp32
 70
     1
102
RTVSPropertyOp33
 70
     1
102
RTVSPropertyOp34
 70
     1
102
RTVSPropertyOp35
 70
     1
102
RTVSPropertyOp36
 70
     1
102
RTVSPropertyOp37
 70
     1
102
RTVSPropertyOp38
 70
     1
102
RTVSPropertyOp39
 70
     1
102
RTVSPropertyOp40
 70
     1
102
RTVSPropertyOp41
 70
     1
102
RTVSPropertyOp42
 70
     1
102
RTVSPropertyOp43
 70
     1
102
RTVSPropertyOp44
 70
     1
102
RTVSPropertyOp45
 70
     1
102
RTVSPropertyOp46
 70
     1
102
RTVSPropertyOp47
 70
     1
102
RTVSPropertyOp48
 70
     1
102
RTVSPropertyOp49
 70
     1
102
RTVSPropertyOp50
 70
     1
102
RTVSPropertyOp51
 70
     0
102
RTVSPropertyOp52
 70
     0
102
RTVSPropertyOp53
 70
     1
102
RTVSPropertyOp54
 70
     1
102
RTVSPropertyOp55
 70
     1
102
RTVSPropertyOp56
 70
     1
102
RTVSPropertyOp57
 70
     1
102
RTVSPost2010Prop28
280
     0
102
RTVSPost2010PropOp28
 70
     1
102
RTVSPost2010Prop29
280
     1
102
RTVSPost2010PropOp29
 70
     1
102
RTVSPost2010Prop30
280
     1
102
RTVSPost2010PropOp30
 70
     1
102
RTVSPost2010Prop31
280
     0
102
RTVSPost2010PropOp31
 70
     1
102
RTVSPost2010Prop32
280
     0
102
RTVSPost2010PropOp32
 70
     1
102
RTVSPost2010Prop33
280
     0
102
RTVSPost2010PropOp33
 70
     1
102
RTVSPost2010Prop34
280
     0
102
RTVSPost2010PropOp34
 70
     1
102
RTVSPost2010Prop35
280
     0
102
RTVSPost2010PropOp35
 70
     1
102
RTVSPost2010Prop36
280
     0
102
RTVSPost2010PropOp36
 70
     1
102
RTVSPost2010Prop37
 90
       50
102
RTVSPost2010PropOp37
 70
     1
102
RTVSPost2010Prop38
140
0.0
102
RTVSPost2010PropOp38
 70
     1
102
RTVSPost2010Prop39
140
1.0
102
RTVSPost2010PropOp39
 70
     1
102
RTVSPost2010Prop40
 90
        0
102
RTVSPost2010PropOp40
 70
     1
102
RTVSPost2010Prop41ColorIndex
 90
       18
102
RTVSPost2010Prop41ColorRGB
 90
        0
102
RTVSPost2010PropOp41
 70
     1
102
RTVSPost2010Prop42
 90
       50
102
RTVSPost2010PropOp42
 70
     1
102
RTVSPost2010Prop43
 90
        3
102
RTVSPost2010PropOp43
 70
     1
102
RTVSPost2010Prop44ColorIndex
 90
        5
102
RTVSPost2010Prop44ColorRGB
 90
      255
102
RTVSPost2010PropOp44
 70
     1
102
RTVSPost2010Prop45
280
     0
102
RTVSPost2010PropOp45
 70
     1
102
RTVSPost2010Prop46
 90
       50
102
RTVSPost2010PropOp46
 70
     1
102
RTVSPost2010Prop47
 90
       50
102
RTVSPost2010PropOp47
 70
     1
102
RTVSPost2010Prop48
 90
       50
102
RTVSPost2010PropOp48
 70
     1
102
RTVSPost2010Prop49
280
     0
102
RTVSPost2010PropOp49
 70
     1
102
RTVSPost2010Prop50
 90
       50
102
RTVSPost2010PropOp50
 70
     1
102
RTVSPost2010Prop51ColorIndex
 90
      256
102
RTVSPost2010Prop51ColorRGB
 90
-16777216
102
RTVSPost2010PropOp51
 70
     0
102
RTVSPost2010Prop52
140
1.0
102
RTVSPost2010PropOp52
 70
     0
102
RTVSPost2010Prop53
 90
        2
102
RTVSPost2010PropOp53
 70
     1
102
RTVSPost2010Prop54
  1
strokes_ogs.tif
102
RTVSPost2010PropOp54
 70
     1
102
RTVSPost2010Prop55
280
     0
102
RTVSPost2010PropOp55
 70
     1
102
RTVSPost2010Prop56
140
1.0
102
RTVSPost2010PropOp56
 70
     1
102
RTVSPost2010Prop57
140
1.0
102
RTVSPost2010PropOp57
 70
     1
  0
XRECORD
  5
41E
102
{ACAD_REACTORS
330
41D
102
}
330
41D
100
AcDbXrecord
280
     1
102
RTVSPropertyOp0
 70
     1
102
RTVSPropertyOp1
 70
     1
102
RTVSPropertyOp2
 70
     1
102
RTVSPropertyOp3
 70
     1
102
RTVSPropertyOp4
 70
     1
102
RTVSPropertyOp5
 70
     1
102
RTVSPropertyOp6
 70
     1
102
RTVSPropertyOp7
 70
     1
102
RTVSPropertyOp8
 70
     1
102
RTVSPropertyOp9
 70
     1
102
RTVSPropertyOp10
 70
     1
102
RTVSPropertyOp11
 70
     1
102
RTVSPropertyOp12
 70
     1
102
RTVSPropertyOp13
 70
     1
102
RTVSPropertyOp14
 70
     1
102
RTVSPropertyOp15
 70
     1
102
RTVSPropertyOp16
 70
     1
102
RTVSPropertyOp17
 70
     1
102
RTVSPropertyOp18
 70
     1
102
RTVSPropertyOp19
 70
     1
102
RTVSPropertyOp20
 70
     1
102
RTVSPropertyOp21
 70
     1
102
RTVSPropertyOp22
 70
     1
102
RTVSPropertyOp23
 70
     1
102
RTVSPropertyOp24
 70
     1
102
RTVSPropertyOp25
 70
     1
102
RTVSPropertyOp26
 70
     1
102
RTVSPropertyOp27
 70
     1
102
RTVSPropertyOp28
 70
     1
102
RTVSPropertyOp29
 70
     1
102
RTVSPropertyOp30
 70
     1
102
RTVSPropertyOp31
 70
     1
102
RTVSPropertyOp32
 70
     1
102
RTVSPropertyOp33
 70
     1
102
RTVSPropertyOp34
 70
     1
102
RTVSPropertyOp35
 70
     1
102
RTVSPropertyOp36
 70
     1
102
RTVSPropertyOp37
 70
     1
102
RTVSPropertyOp38
 70
     1
102
RTVSPropertyOp39
 70
     1
102
RTVSPropertyOp40
 70
     1
102
RTVSPropertyOp41
 70
     1
102
RTVSPropertyOp42
 70
     1
102
RTVSPropertyOp43
 70
     1
102
RTVSPropertyOp44
 70
     1
102
RTVSPropertyOp45
 70
     1
102
RTVSPropertyOp46
 70
     1
102
RTVSPropertyOp47
 70
     1
102
RTVSPropertyOp48
 70
     1
102
RTVSPropertyOp49
 70
     1
102
RTVSPropertyOp50
 70
     1
102
RTVSPropertyOp51
 70
     0
102
RTVSPropertyOp52
 70
     0
102
RTVSPropertyOp53
 70
     1
102
RTVSPropertyOp54
 70
     1
102
RTVSPropertyOp55
 70
     1
102
RTVSPropertyOp56
 70
     1
102
RTVSPropertyOp57
 70
     1
102
RTVSPost2010Prop28
280
     0
102
RTVSPost2010PropOp28
 70
     1
102
RTVSPost2010Prop29
280
     1
102
RTVSPost2010PropOp29
 70
     1
102
RTVSPost2010Prop30
280
     1
102
RTVSPost2010PropOp30
 70
     1
102
RTVSPost2010Prop31
280
     0
102
RTVSPost2010PropOp31
 70
     1
102
RTVSPost2010Prop32
280
     0
102
RTVSPost2010PropOp32
 70
     1
102
RTVSPost2010Prop33
280
     0
102
RTVSPost2010PropOp33
 70
     1
102
RTVSPost2010Prop34
280
     0
102
RTVSPost2010PropOp34
 70
     1
102
RTVSPost2010Prop35
280
     0
102
RTVSPost2010PropOp35
 70
     1
102
RTVSPost2010Prop36
280
     0
102
RTVSPost2010PropOp36
 70
     1
102
RTVSPost2010Prop37
 90
       50
102
RTVSPost2010PropOp37
 70
     1
102
RTVSPost2010Prop38
140
0.0
102
RTVSPost2010PropOp38
 70
     1
102
RTVSPost2010Prop39
140
1.0
102
RTVSPost2010PropOp39
 70
     1
102
RTVSPost2010Prop40
 90
        0
102
RTVSPost2010PropOp40
 70
     1
102
RTVSPost2010Prop41ColorIndex
 90
       18
102
RTVSPost2010Prop41ColorRGB
 90
        0
102
RTVSPost2010PropOp41
 70
     1
102
RTVSPost2010Prop42
 90
       50
102
RTVSPost2010PropOp42
 70
     1
102
RTVSPost2010Prop43
 90
        3
102
RTVSPost2010PropOp43
 70
     1
102
RTVSPost2010Prop44ColorIndex
 90
        5
102
RTVSPost2010Prop44ColorRGB
 90
      255
102
RTVSPost2010PropOp44
 70
     1
102
RTVSPost2010Prop45
280
     0
102
RTVSPost2010PropOp45
 70
     1
102
RTVSPost2010Prop46
 90
       50
102
RTVSPost2010PropOp46
 70
     1
102
RTVSPost2010Prop47
 90
       50
102
RTVSPost2010PropOp47
 70
     1
102
RTVSPost2010Prop48
 90
       50
102
RTVSPost2010PropOp48
 70
     1
102
RTVSPost2010Prop49
280
     0
102
RTVSPost2010PropOp49
 70
     1
102
RTVSPost2010Prop50
 90
       50
102
RTVSPost2010PropOp50
 70
     1
102
RTVSPost2010Prop51ColorIndex
 90
      256
102
RTVSPost2010Prop51ColorRGB
 90
-16777216
102
RTVSPost2010PropOp51
 70
     0
102
RTVSPost2010Prop52
140
1.0
102
RTVSPost2010PropOp52
 70
     0
102
RTVSPost2010Prop53
 90
        2
102
RTVSPost2010PropOp53
 70
     1
102
RTVSPost2010Prop54
  1
strokes_ogs.tif
102
RTVSPost2010PropOp54
 70
     1
102
RTVSPost2010Prop55
280
     0
102
RTVSPost2010PropOp55
 70
     1
102
RTVSPost2010Prop56
140
1.0
102
RTVSPost2010PropOp56
 70
     1
102
RTVSPost2010Prop57
140
1.0
102
RTVSPost2010PropOp57
 70
     1
  0
XRECORD
  5
420
102
{ACAD_REACTORS
330
41F
102
}
330
41F
100
AcDbXrecord
280
     1
102
RTVSPropertyOp0
 70
     1
102
RTVSPropertyOp1
 70
     1
102
RTVSPropertyOp2
 70
     1
102
RTVSPropertyOp3
 70
     1
102
RTVSPropertyOp4
 70
     1
102
RTVSPropertyOp5
 70
     1
102
RTVSPropertyOp6
 70
     1
102
RTVSPropertyOp7
 70
     1
102
RTVSPropertyOp8
 70
     1
102
RTVSPropertyOp9
 70
     1
102
RTVSPropertyOp10
 70
     1
102
RTVSPropertyOp11
 70
     1
102
RTVSPropertyOp12
 70
     1
102
RTVSPropertyOp13
 70
     1
102
RTVSPropertyOp14
 70
     1
102
RTVSPropertyOp15
 70
     1
102
RTVSPropertyOp16
 70
     1
102
RTVSPropertyOp17
 70
     1
102
RTVSPropertyOp18
 70
     1
102
RTVSPropertyOp19
 70
     1
102
RTVSPropertyOp20
 70
     1
102
RTVSPropertyOp21
 70
     1
102
RTVSPropertyOp22
 70
     1
102
RTVSPropertyOp23
 70
     1
102
RTVSPropertyOp24
 70
     1
102
RTVSPropertyOp25
 70
     1
102
RTVSPropertyOp26
 70
     1
102
RTVSPropertyOp27
 70
     1
102
RTVSPropertyOp28
 70
     1
102
RTVSPropertyOp29
 70
     1
102
RTVSPropertyOp30
 70
     1
102
RTVSPropertyOp31
 70
     1
102
RTVSPropertyOp32
 70
     1
102
RTVSPropertyOp33
 70
     1
102
RTVSPropertyOp34
 70
     1
102
RTVSPropertyOp35
 70
     1
102
RTVSPropertyOp36
 70
     1
102
RTVSPropertyOp37
 70
     1
102
RTVSPropertyOp38
 70
     1
102
RTVSPropertyOp39
 70
     1
102
RTVSPropertyOp40
 70
     1
102
RTVSPropertyOp41
 70
     1
102
RTVSPropertyOp42
 70
     1
102
RTVSPropertyOp43
 70
     1
102
RTVSPropertyOp44
 70
     1
102
RTVSPropertyOp45
 70
     1
102
RTVSPropertyOp46
 70
     1
102
RTVSPropertyOp47
 70
     1
102
RTVSPropertyOp48
 70
     1
102
RTVSPropertyOp49
 70
     1
102
RTVSPropertyOp50
 70
     1
102
RTVSPropertyOp51
 70
     0
102
RTVSPropertyOp52
 70
     0
102
RTVSPropertyOp53
 70
     1
102
RTVSPropertyOp54
 70
     1
102
RTVSPropertyOp55
 70
     1
102
RTVSPropertyOp56
 70
     1
102
RTVSPropertyOp57
 70
     1
102
RTVSPost2010Prop28
280
     0
102
RTVSPost2010PropOp28
 70
     1
102
RTVSPost2010Prop29
280
     1
102
RTVSPost2010PropOp29
 70
     1
102
RTVSPost2010Prop30
280
     1
102
RTVSPost2010PropOp30
 70
     1
102
RTVSPost2010Prop31
280
     0
102
RTVSPost2010PropOp31
 70
     1
102
RTVSPost2010Prop32
280
     0
102
RTVSPost2010PropOp32
 70
     1
102
RTVSPost2010Prop33
280
     0
102
RTVSPost2010PropOp33
 70
     1
102
RTVSPost2010Prop34
280
     0
102
RTVSPost2010PropOp34
 70
     1
102
RTVSPost2010Prop35
280
     0
102
RTVSPost2010PropOp35
 70
     1
102
RTVSPost2010Prop36
280
     0
102
RTVSPost2010PropOp36
 70
     1
102
RTVSPost2010Prop37
 90
       50
102
RTVSPost2010PropOp37
 70
     1
102
RTVSPost2010Prop38
140
0.0
102
RTVSPost2010PropOp38
 70
     1
102
RTVSPost2010Prop39
140
1.0
102
RTVSPost2010PropOp39
 70
     1
102
RTVSPost2010Prop40
 90
        0
102
RTVSPost2010PropOp40
 70
     1
102
RTVSPost2010Prop41ColorIndex
 90
       18
102
RTVSPost2010Prop41ColorRGB
 90
        0
102
RTVSPost2010PropOp41
 70
     1
102
RTVSPost2010Prop42
 90
       50
102
RTVSPost2010PropOp42
 70
     1
102
RTVSPost2010Prop43
 90
        3
102
RTVSPost2010PropOp43
 70
     1
102
RTVSPost2010Prop44ColorIndex
 90
        5
102
RTVSPost2010Prop44ColorRGB
 90
      255
102
RTVSPost2010PropOp44
 70
     1
102
RTVSPost2010Prop45
280
     0
102
RTVSPost2010PropOp45
 70
     1
102
RTVSPost2010Prop46
 90
       50
102
RTVSPost2010PropOp46
 70
     1
102
RTVSPost2010Prop47
 90
       50
102
RTVSPost2010PropOp47
 70
     1
102
RTVSPost2010Prop48
 90
       50
102
RTVSPost2010PropOp48
 70
     1
102
RTVSPost2010Prop49
280
     0
102
RTVSPost2010PropOp49
 70
     1
102
RTVSPost2010Prop50
 90
       50
102
RTVSPost2010PropOp50
 70
     1
102
RTVSPost2010Prop51ColorIndex
 90
      256
102
RTVSPost2010Prop51ColorRGB
 90
-16777216
102
RTVSPost2010PropOp51
 70
     0
102
RTVSPost2010Prop52
140
1.0
102
RTVSPost2010PropOp52
 70
     0
102
RTVSPost2010Prop53
 90
        2
102
RTVSPost2010PropOp53
 70
     1
102
RTVSPost2010Prop54
  1
strokes_ogs.tif
102
RTVSPost2010PropOp54
 70
     1
102
RTVSPost2010Prop55
280
     0
102
RTVSPost2010PropOp55
 70
     1
102
RTVSPost2010Prop56
140
1.0
102
RTVSPost2010PropOp56
 70
     1
102
RTVSPost2010Prop57
140
1.0
102
RTVSPost2010PropOp57
 70
     1
  0
XRECORD
  5
422
102
{ACAD_REACTORS
330
421
102
}
330
421
100
AcDbXrecord
280
     1
102
RTVSPropertyOp0
 70
     1
102
RTVSPropertyOp1
 70
     1
102
RTVSPropertyOp2
 70
     1
102
RTVSPropertyOp3
 70
     1
102
RTVSPropertyOp4
 70
     1
102
RTVSPropertyOp5
 70
     1
102
RTVSPropertyOp6
 70
     1
102
RTVSPropertyOp7
 70
     1
102
RTVSPropertyOp8
 70
     1
102
RTVSPropertyOp9
 70
     1
102
RTVSPropertyOp10
 70
     1
102
RTVSPropertyOp11
 70
     1
102
RTVSPropertyOp12
 70
     1
102
RTVSPropertyOp13
 70
     1
102
RTVSPropertyOp14
 70
     1
102
RTVSPropertyOp15
 70
     1
102
RTVSPropertyOp16
 70
     1
102
RTVSPropertyOp17
 70
     1
102
RTVSPropertyOp18
 70
     1
102
RTVSPropertyOp19
 70
     1
102
RTVSPropertyOp20
 70
     1
102
RTVSPropertyOp21
 70
     1
102
RTVSPropertyOp22
 70
     1
102
RTVSPropertyOp23
 70
     1
102
RTVSPropertyOp24
 70
     1
102
RTVSPropertyOp25
 70
     1
102
RTVSPropertyOp26
 70
     1
102
RTVSPropertyOp27
 70
     1
102
RTVSPropertyOp28
 70
     1
102
RTVSPropertyOp29
 70
     1
102
RTVSPropertyOp30
 70
     1
102
RTVSPropertyOp31
 70
     1
102
RTVSPropertyOp32
 70
     1
102
RTVSPropertyOp33
 70
     1
102
RTVSPropertyOp34
 70
     1
102
RTVSPropertyOp35
 70
     1
102
RTVSPropertyOp36
 70
     1
102
RTVSPropertyOp37
 70
     1
102
RTVSPropertyOp38
 70
     1
102
RTVSPropertyOp39
 70
     1
102
RTVSPropertyOp40
 70
     1
102
RTVSPropertyOp41
 70
     1
102
RTVSPropertyOp42
 70
     1
102
RTVSPropertyOp43
 70
     1
102
RTVSPropertyOp44
 70
     1
102
RTVSPropertyOp45
 70
     1
102
RTVSPropertyOp46
 70
     1
102
RTVSPropertyOp47
 70
     1
102
RTVSPropertyOp48
 70
     1
102
RTVSPropertyOp49
 70
     1
102
RTVSPropertyOp50
 70
     1
102
RTVSPropertyOp51
 70
     0
102
RTVSPropertyOp52
 70
     0
102
RTVSPropertyOp53
 70
     1
102
RTVSPropertyOp54
 70
     1
102
RTVSPropertyOp55
 70
     1
102
RTVSPropertyOp56
 70
     1
102
RTVSPropertyOp57
 70
     1
102
RTVSPost2010Prop28
280
     0
102
RTVSPost2010PropOp28
 70
     1
102
RTVSPost2010Prop29
280
     1
102
RTVSPost2010PropOp29
 70
     1
102
RTVSPost2010Prop30
280
     1
102
RTVSPost2010PropOp30
 70
     1
102
RTVSPost2010Prop31
280
     0
102
RTVSPost2010PropOp31
 70
     1
102
RTVSPost2010Prop32
280
     0
102
RTVSPost2010PropOp32
 70
     1
102
RTVSPost2010Prop33
280
     0
102
RTVSPost2010PropOp33
 70
     1
102
RTVSPost2010Prop34
280
     0
102
RTVSPost2010PropOp34
 70
     1
102
RTVSPost2010Prop35
280
     0
102
RTVSPost2010PropOp35
 70
     1
102
RTVSPost2010Prop36
280
     0
102
RTVSPost2010PropOp36
 70
     1
102
RTVSPost2010Prop37
 90
       50
102
RTVSPost2010PropOp37
 70
     1
102
RTVSPost2010Prop38
140
0.0
102
RTVSPost2010PropOp38
 70
     1
102
RTVSPost2010Prop39
140
1.0
102
RTVSPost2010PropOp39
 70
     1
102
RTVSPost2010Prop40
 90
        0
102
RTVSPost2010PropOp40
 70
     1
102
RTVSPost2010Prop41ColorIndex
 90
       18
102
RTVSPost2010Prop41ColorRGB
 90
        0
102
RTVSPost2010PropOp41
 70
     1
102
RTVSPost2010Prop42
 90
       50
102
RTVSPost2010PropOp42
 70
     1
102
RTVSPost2010Prop43
 90
        3
102
RTVSPost2010PropOp43
 70
     1
102
RTVSPost2010Prop44ColorIndex
 90
        5
102
RTVSPost2010Prop44ColorRGB
 90
      255
102
RTVSPost2010PropOp44
 70
     1
102
RTVSPost2010Prop45
280
     0
102
RTVSPost2010PropOp45
 70
     1
102
RTVSPost2010Prop46
 90
       50
102
RTVSPost2010PropOp46
 70
     1
102
RTVSPost2010Prop47
 90
       50
102
RTVSPost2010PropOp47
 70
     1
102
RTVSPost2010Prop48
 90
       50
102
RTVSPost2010PropOp48
 70
     1
102
RTVSPost2010Prop49
280
     0
102
RTVSPost2010PropOp49
 70
     1
102
RTVSPost2010Prop50
 90
       50
102
RTVSPost2010PropOp50
 70
     1
102
RTVSPost2010Prop51ColorIndex
 90
      256
102
RTVSPost2010Prop51ColorRGB
 90
-16777216
102
RTVSPost2010PropOp51
 70
     0
102
RTVSPost2010Prop52
140
1.0
102
RTVSPost2010PropOp52
 70
     0
102
RTVSPost2010Prop53
 90
        2
102
RTVSPost2010PropOp53
 70
     1
102
RTVSPost2010Prop54
  1
strokes_ogs.tif
102
RTVSPost2010PropOp54
 70
     1
102
RTVSPost2010Prop55
280
     0
102
RTVSPost2010PropOp55
 70
     1
102
RTVSPost2010Prop56
140
1.0
102
RTVSPost2010PropOp56
 70
     1
102
RTVSPost2010Prop57
140
1.0
102
RTVSPost2010PropOp57
 70
     1
  0
XRECORD
  5
424
102
{ACAD_REACTORS
330
423
102
}
330
423
100
AcDbXrecord
280
     1
102
RTVSPropertyOp0
 70
     1
102
RTVSPropertyOp1
 70
     1
102
RTVSPropertyOp2
 70
     1
102
RTVSPropertyOp3
 70
     1
102
RTVSPropertyOp4
 70
     1
102
RTVSPropertyOp5
 70
     1
102
RTVSPropertyOp6
 70
     1
102
RTVSPropertyOp7
 70
     1
102
RTVSPropertyOp8
 70
     1
102
RTVSPropertyOp9
 70
     1
102
RTVSPropertyOp10
 70
     1
102
RTVSPropertyOp11
 70
     1
102
RTVSPropertyOp12
 70
     1
102
RTVSPropertyOp13
 70
     1
102
RTVSPropertyOp14
 70
     1
102
RTVSPropertyOp15
 70
     1
102
RTVSPropertyOp16
 70
     1
102
RTVSPropertyOp17
 70
     1
102
RTVSPropertyOp18
 70
     1
102
RTVSPropertyOp19
 70
     1
102
RTVSPropertyOp20
 70
     1
102
RTVSPropertyOp21
 70
     1
102
RTVSPropertyOp22
 70
     1
102
RTVSPropertyOp23
 70
     1
102
RTVSPropertyOp24
 70
     1
102
RTVSPropertyOp25
 70
     1
102
RTVSPropertyOp26
 70
     1
102
RTVSPropertyOp27
 70
     1
102
RTVSPropertyOp28
 70
     1
102
RTVSPropertyOp29
 70
     1
102
RTVSPropertyOp30
 70
     1
102
RTVSPropertyOp31
 70
     1
102
RTVSPropertyOp32
 70
     1
102
RTVSPropertyOp33
 70
     1
102
RTVSPropertyOp34
 70
     1
102
RTVSPropertyOp35
 70
     1
102
RTVSPropertyOp36
 70
     1
102
RTVSPropertyOp37
 70
     1
102
RTVSPropertyOp38
 70
     1
102
RTVSPropertyOp39
 70
     1
102
RTVSPropertyOp40
 70
     1
102
RTVSPropertyOp41
 70
     1
102
RTVSPropertyOp42
 70
     1
102
RTVSPropertyOp43
 70
     1
102
RTVSPropertyOp44
 70
     1
102
RTVSPropertyOp45
 70
     1
102
RTVSPropertyOp46
 70
     1
102
RTVSPropertyOp47
 70
     1
102
RTVSPropertyOp48
 70
     1
102
RTVSPropertyOp49
 70
     1
102
RTVSPropertyOp50
 70
     1
102
RTVSPropertyOp51
 70
     0
102
RTVSPropertyOp52
 70
     0
102
RTVSPropertyOp53
 70
     1
102
RTVSPropertyOp54
 70
     1
102
RTVSPropertyOp55
 70
     1
102
RTVSPropertyOp56
 70
     1
102
RTVSPropertyOp57
 70
     1
102
RTVSPost2010Prop28
280
     0
102
RTVSPost2010PropOp28
 70
     1
102
RTVSPost2010Prop29
280
     1
102
RTVSPost2010PropOp29
 70
     1
102
RTVSPost2010Prop30
280
     1
102
RTVSPost2010PropOp30
 70
     1
102
RTVSPost2010Prop31
280
     0
102
RTVSPost2010PropOp31
 70
     1
102
RTVSPost2010Prop32
280
     0
102
RTVSPost2010PropOp32
 70
     1
102
RTVSPost2010Prop33
280
     0
102
RTVSPost2010PropOp33
 70
     1
102
RTVSPost2010Prop34
280
     0
102
RTVSPost2010PropOp34
 70
     1
102
RTVSPost2010Prop35
280
     0
102
RTVSPost2010PropOp35
 70
     1
102
RTVSPost2010Prop36
280
     0
102
RTVSPost2010PropOp36
 70
     1
102
RTVSPost2010Prop37
 90
       50
102
RTVSPost2010PropOp37
 70
     1
102
RTVSPost2010Prop38
140
0.0
102
RTVSPost2010PropOp38
 70
     1
102
RTVSPost2010Prop39
140
1.0
102
RTVSPost2010PropOp39
 70
     1
102
RTVSPost2010Prop40
 90
        0
102
RTVSPost2010PropOp40
 70
     1
102
RTVSPost2010Prop41ColorIndex
 90
       18
102
RTVSPost2010Prop41ColorRGB
 90
        0
102
RTVSPost2010PropOp41
 70
     1
102
RTVSPost2010Prop42
 90
       50
102
RTVSPost2010PropOp42
 70
     1
102
RTVSPost2010Prop43
 90
        3
102
RTVSPost2010PropOp43
 70
     1
102
RTVSPost2010Prop44ColorIndex
 90
        5
102
RTVSPost2010Prop44ColorRGB
 90
      255
102
RTVSPost2010PropOp44
 70
     1
102
RTVSPost2010Prop45
280
     0
102
RTVSPost2010PropOp45
 70
     1
102
RTVSPost2010Prop46
 90
       50
102
RTVSPost2010PropOp46
 70
     1
102
RTVSPost2010Prop47
 90
       50
102
RTVSPost2010PropOp47
 70
     1
102
RTVSPost2010Prop48
 90
       50
102
RTVSPost2010PropOp48
 70
     1
102
RTVSPost2010Prop49
280
     0
102
RTVSPost2010PropOp49
 70
     1
102
RTVSPost2010Prop50
 90
       50
102
RTVSPost2010PropOp50
 70
     1
102
RTVSPost2010Prop51ColorIndex
 90
      256
102
RTVSPost2010Prop51ColorRGB
 90
-16777216
102
RTVSPost2010PropOp51
 70
     0
102
RTVSPost2010Prop52
140
1.0
102
RTVSPost2010PropOp52
 70
     0
102
RTVSPost2010Prop53
 90
        2
102
RTVSPost2010PropOp53
 70
     1
102
RTVSPost2010Prop54
  1
strokes_ogs.tif
102
RTVSPost2010PropOp54
 70
     1
102
RTVSPost2010Prop55
280
     0
102
RTVSPost2010PropOp55
 70
     1
102
RTVSPost2010Prop56
140
1.0
102
RTVSPost2010PropOp56
 70
     1
102
RTVSPost2010Prop57
140
1.0
102
RTVSPost2010PropOp57
 70
     1
  0
XRECORD
  5
42A
102
{ACAD_REACTORS
330
429
102
}
330
429
100
AcDbXrecord
280
     1
102
RTVSPropertyOp0
 70
     1
102
RTVSPropertyOp1
 70
     1
102
RTVSPropertyOp2
 70
     1
102
RTVSPropertyOp3
 70
     1
102
RTVSPropertyOp4
 70
     1
102
RTVSPropertyOp5
 70
     1
102
RTVSPropertyOp6
 70
     1
102
RTVSPropertyOp7
 70
     1
102
RTVSPropertyOp8
 70
     1
102
RTVSPropertyOp9
 70
     1
102
RTVSPropertyOp10
 70
     1
102
RTVSPropertyOp11
 70
     1
102
RTVSPropertyOp12
 70
     1
102
RTVSPropertyOp13
 70
     1
102
RTVSPropertyOp14
 70
     1
102
RTVSPropertyOp15
 70
     1
102
RTVSPropertyOp16
 70
     1
102
RTVSPropertyOp17
 70
     1
102
RTVSPropertyOp18
 70
     1
102
RTVSPropertyOp19
 70
     1
102
RTVSPropertyOp20
 70
     1
102
RTVSPropertyOp21
 70
     1
102
RTVSPropertyOp22
 70
     1
102
RTVSPropertyOp23
 70
     1
102
RTVSPropertyOp24
 70
     1
102
RTVSPropertyOp25
 70
     1
102
RTVSPropertyOp26
 70
     1
102
RTVSPropertyOp27
 70
     1
102
RTVSPropertyOp28
 70
     1
102
RTVSPropertyOp29
 70
     1
102
RTVSPropertyOp30
 70
     1
102
RTVSPropertyOp31
 70
     1
102
RTVSPropertyOp32
 70
     1
102
RTVSPropertyOp33
 70
     1
102
RTVSPropertyOp34
 70
     1
102
RTVSPropertyOp35
 70
     1
102
RTVSPropertyOp36
 70
     1
102
RTVSPropertyOp37
 70
     1
102
RTVSPropertyOp38
 70
     1
102
RTVSPropertyOp39
 70
     1
102
RTVSPropertyOp40
 70
     1
102
RTVSPropertyOp41
 70
     1
102
RTVSPropertyOp42
 70
     1
102
RTVSPropertyOp43
 70
     1
102
RTVSPropertyOp44
 70
     1
102
RTVSPropertyOp45
 70
     1
102
RTVSPropertyOp46
 70
     1
102
RTVSPropertyOp47
 70
     1
102
RTVSPropertyOp48
 70
     1
102
RTVSPropertyOp49
 70
     1
102
RTVSPropertyOp50
 70
     1
102
RTVSPropertyOp51
 70
     0
102
RTVSPropertyOp52
 70
     0
102
RTVSPropertyOp53
 70
     1
102
RTVSPropertyOp54
 70
     1
102
RTVSPropertyOp55
 70
     1
102
RTVSPropertyOp56
 70
     1
102
RTVSPropertyOp57
 70
     1
102
RTVSPost2010Prop28
280
     0
102
RTVSPost2010PropOp28
 70
     1
102
RTVSPost2010Prop29
280
     1
102
RTVSPost2010PropOp29
 70
     1
102
RTVSPost2010Prop30
280
     1
102
RTVSPost2010PropOp30
 70
     1
102
RTVSPost2010Prop31
280
     0
102
RTVSPost2010PropOp31
 70
     1
102
RTVSPost2010Prop32
280
     0
102
RTVSPost2010PropOp32
 70
     1
102
RTVSPost2010Prop33
280
     0
102
RTVSPost2010PropOp33
 70
     1
102
RTVSPost2010Prop34
280
     0
102
RTVSPost2010PropOp34
 70
     1
102
RTVSPost2010Prop35
280
     0
102
RTVSPost2010PropOp35
 70
     1
102
RTVSPost2010Prop36
280
     0
102
RTVSPost2010PropOp36
 70
     1
102
RTVSPost2010Prop37
 90
       50
102
RTVSPost2010PropOp37
 70
     1
102
RTVSPost2010Prop38
140
0.0
102
RTVSPost2010PropOp38
 70
     1
102
RTVSPost2010Prop39
140
1.0
102
RTVSPost2010PropOp39
 70
     1
102
RTVSPost2010Prop40
 90
        0
102
RTVSPost2010PropOp40
 70
     1
102
RTVSPost2010Prop41ColorIndex
 90
       18
102
RTVSPost2010Prop41ColorRGB
 90
        0
102
RTVSPost2010PropOp41
 70
     1
102
RTVSPost2010Prop42
 90
       50
102
RTVSPost2010PropOp42
 70
     1
102
RTVSPost2010Prop43
 90
        3
102
RTVSPost2010PropOp43
 70
     1
102
RTVSPost2010Prop44ColorIndex
 90
        5
102
RTVSPost2010Prop44ColorRGB
 90
      255
102
RTVSPost2010PropOp44
 70
     1
102
RTVSPost2010Prop45
280
     0
102
RTVSPost2010PropOp45
 70
     1
102
RTVSPost2010Prop46
 90
       50
102
RTVSPost2010PropOp46
 70
     1
102
RTVSPost2010Prop47
 90
       50
102
RTVSPost2010PropOp47
 70
     1
102
RTVSPost2010Prop48
 90
       50
102
RTVSPost2010PropOp48
 70
     1
102
RTVSPost2010Prop49
280
     0
102
RTVSPost2010PropOp49
 70
     1
102
RTVSPost2010Prop50
 90
       50
102
RTVSPost2010PropOp50
 70
     1
102
RTVSPost2010Prop51ColorIndex
 90
      256
102
RTVSPost2010Prop51ColorRGB
 90
-16777216
102
RTVSPost2010PropOp51
 70
     0
102
RTVSPost2010Prop52
140
1.0
102
RTVSPost2010PropOp52
 70
     0
102
RTVSPost2010Prop53
 90
        2
102
RTVSPost2010PropOp53
 70
     1
102
RTVSPost2010Prop54
  1
strokes_ogs.tif
102
RTVSPost2010PropOp54
 70
     1
102
RTVSPost2010Prop55
280
     0
102
RTVSPost2010PropOp55
 70
     1
102
RTVSPost2010Prop56
140
1.0
102
RTVSPost2010PropOp56
 70
     1
102
RTVSPost2010Prop57
140
1.0
102
RTVSPost2010PropOp57
 70
     1
  0
XRECORD
  5
43E
102
{ACAD_REACTORS
330
43D
102
}
330
43D
100
AcDbXrecord
280
     1
102
RTVSPropertyOp0
 70
     0
102
RTVSPropertyOp1
 70
     0
102
RTVSPropertyOp2
 70
     0
102
RTVSPropertyOp3
 70
     0
102
RTVSPropertyOp4
 70
     0
102
RTVSPropertyOp5
 70
     0
102
RTVSPropertyOp6
 70
     0
102
RTVSPropertyOp7
 70
     0
102
RTVSPropertyOp8
 70
     0
102
RTVSPropertyOp9
 70
     0
102
RTVSPropertyOp10
 70
     0
102
RTVSPropertyOp11
 70
     0
102
RTVSPropertyOp12
 70
     0
102
RTVSPropertyOp13
 70
     0
102
RTVSPropertyOp14
 70
     2
102
RTVSPropertyOp15
 70
     0
102
RTVSPropertyOp16
 70
     0
102
RTVSPropertyOp17
 70
     0
102
RTVSPropertyOp18
 70
     0
102
RTVSPropertyOp19
 70
     0
102
RTVSPropertyOp20
 70
     0
102
RTVSPropertyOp21
 70
     0
102
RTVSPropertyOp22
 70
     0
102
RTVSPropertyOp23
 70
     0
102
RTVSPropertyOp24
 70
     0
102
RTVSPropertyOp25
 70
     0
102
RTVSPropertyOp26
 70
     0
102
RTVSPropertyOp27
 70
     0
102
RTVSPropertyOp28
 70
     0
102
RTVSPropertyOp29
 70
     0
102
RTVSPropertyOp30
 70
     0
102
RTVSPropertyOp31
 70
     0
102
RTVSPropertyOp32
 70
     0
102
RTVSPropertyOp33
 70
     0
102
RTVSPropertyOp34
 70
     0
102
RTVSPropertyOp35
 70
     0
102
RTVSPropertyOp36
 70
     0
102
RTVSPropertyOp37
 70
     0
102
RTVSPropertyOp38
 70
     0
102
RTVSPropertyOp39
 70
     0
102
RTVSPropertyOp40
 70
     0
102
RTVSPropertyOp41
 70
     0
102
RTVSPropertyOp42
 70
     0
102
RTVSPropertyOp43
 70
     0
102
RTVSPropertyOp44
 70
     0
102
RTVSPropertyOp45
 70
     0
102
RTVSPropertyOp46
 70
     0
102
RTVSPropertyOp47
 70
     0
102
RTVSPropertyOp48
 70
     0
102
RTVSPropertyOp49
 70
     0
102
RTVSPropertyOp50
 70
     0
102
RTVSPropertyOp51
 70
     0
102
RTVSPropertyOp52
 70
     0
102
RTVSPropertyOp53
 70
     0
102
RTVSPropertyOp54
 70
     0
102
RTVSPropertyOp55
 70
     0
102
RTVSPropertyOp56
 70
     0
102
RTVSPropertyOp57
 70
     0
102
RTVSPost2010Prop28
280
     0
102
RTVSPost2010PropOp28
 70
     0
102
RTVSPost2010Prop29
280
     1
102
RTVSPost2010PropOp29
 70
     0
102
RTVSPost2010Prop30
280
     1
102
RTVSPost2010PropOp30
 70
     0
102
RTVSPost2010Prop31
280
     0
102
RTVSPost2010PropOp31
 70
     0
102
RTVSPost2010Prop32
280
     0
102
RTVSPost2010PropOp32
 70
     0
102
RTVSPost2010Prop33
280
     0
102
RTVSPost2010PropOp33
 70
     0
102
RTVSPost2010Prop34
280
     0
102
RTVSPost2010PropOp34
 70
     0
102
RTVSPost2010Prop35
280
     0
102
RTVSPost2010PropOp35
 70
     0
102
RTVSPost2010Prop36
280
     0
102
RTVSPost2010PropOp36
 70
     0
102
RTVSPost2010Prop37
 90
       50
102
RTVSPost2010PropOp37
 70
     0
102
RTVSPost2010Prop38
140
0.0
102
RTVSPost2010PropOp38
 70
     0
102
RTVSPost2010Prop39
140
1.0
102
RTVSPost2010PropOp39
 70
     0
102
RTVSPost2010Prop40
 90
        0
102
RTVSPost2010PropOp40
 70
     0
102
RTVSPost2010Prop41ColorIndex
 90
       18
102
RTVSPost2010Prop41ColorRGB
 90
        0
102
RTVSPost2010PropOp41
 70
     0
102
RTVSPost2010Prop42
 90
       50
102
RTVSPost2010PropOp42
 70
     0
102
RTVSPost2010Prop43
 90
        3
102
RTVSPost2010PropOp43
 70
     0
102
RTVSPost2010Prop44ColorIndex
 90
        5
102
RTVSPost2010Prop44ColorRGB
 90
      255
102
RTVSPost2010PropOp44
 70
     0
102
RTVSPost2010Prop45
280
     0
102
RTVSPost2010PropOp45
 70
     0
102
RTVSPost2010Prop46
 90
       50
102
RTVSPost2010PropOp46
 70
     0
102
RTVSPost2010Prop47
 90
       50
102
RTVSPost2010PropOp47
 70
     0
102
RTVSPost2010Prop48
 90
       50
102
RTVSPost2010PropOp48
 70
     0
102
RTVSPost2010Prop49
280
     0
102
RTVSPost2010PropOp49
 70
     0
102
RTVSPost2010Prop50
 90
       50
102
RTVSPost2010PropOp50
 70
     0
102
RTVSPost2010Prop51ColorIndex
 90
      256
102
RTVSPost2010Prop51ColorRGB
 90
-16777216
102
RTVSPost2010PropOp51
 70
     0
102
RTVSPost2010Prop52
140
1.0
102
RTVSPost2010PropOp52
 70
     0
102
RTVSPost2010Prop53
 90
        2
102
RTVSPost2010PropOp53
 70
     0
102
RTVSPost2010Prop54
  1
strokes_ogs.tif
102
RTVSPost2010PropOp54
 70
     0
102
RTVSPost2010Prop55
280
     0
102
RTVSPost2010PropOp55
 70
     0
102
RTVSPost2010Prop56
140
1.0
102
RTVSPost2010PropOp56
 70
     0
102
RTVSPost2010Prop57
140
1.0
102
RTVSPost2010PropOp57
 70
     0
  0
XRECORD
  5
438
102
{ACAD_REACTORS
330
437
102
}
330
437
100
AcDbXrecord
280
     1
102
RTVSPropertyOp0
 70
     1
102
RTVSPropertyOp1
 70
     1
102
RTVSPropertyOp2
 70
     1
102
RTVSPropertyOp3
 70
     1
102
RTVSPropertyOp4
 70
     1
102
RTVSPropertyOp5
 70
     1
102
RTVSPropertyOp6
 70
     1
102
RTVSPropertyOp7
 70
     1
102
RTVSPropertyOp8
 70
     1
102
RTVSPropertyOp9
 70
     1
102
RTVSPropertyOp10
 70
     1
102
RTVSPropertyOp11
 70
     1
102
RTVSPropertyOp12
 70
     1
102
RTVSPropertyOp13
 70
     1
102
RTVSPropertyOp14
 70
     1
102
RTVSPropertyOp15
 70
     1
102
RTVSPropertyOp16
 70
     1
102
RTVSPropertyOp17
 70
     1
102
RTVSPropertyOp18
 70
     1
102
RTVSPropertyOp19
 70
     1
102
RTVSPropertyOp20
 70
     1
102
RTVSPropertyOp21
 70
     1
102
RTVSPropertyOp22
 70
     1
102
RTVSPropertyOp23
 70
     1
102
RTVSPropertyOp24
 70
     1
102
RTVSPropertyOp25
 70
     1
102
RTVSPropertyOp26
 70
     1
102
RTVSPropertyOp27
 70
     1
102
RTVSPropertyOp28
 70
     1
102
RTVSPropertyOp29
 70
     1
102
RTVSPropertyOp30
 70
     1
102
RTVSPropertyOp31
 70
     1
102
RTVSPropertyOp32
 70
     1
102
RTVSPropertyOp33
 70
     1
102
RTVSPropertyOp34
 70
     1
102
RTVSPropertyOp35
 70
     1
102
RTVSPropertyOp36
 70
     1
102
RTVSPropertyOp37
 70
     1
102
RTVSPropertyOp38
 70
     1
102
RTVSPropertyOp39
 70
     1
102
RTVSPropertyOp40
 70
     1
102
RTVSPropertyOp41
 70
     1
102
RTVSPropertyOp42
 70
     1
102
RTVSPropertyOp43
 70
     1
102
RTVSPropertyOp44
 70
     1
102
RTVSPropertyOp45
 70
     1
102
RTVSPropertyOp46
 70
     1
102
RTVSPropertyOp47
 70
     1
102
RTVSPropertyOp48
 70
     1
102
RTVSPropertyOp49
 70
     1
102
RTVSPropertyOp50
 70
     1
102
RTVSPropertyOp51
 70
     0
102
RTVSPropertyOp52
 70
     0
102
RTVSPropertyOp53
 70
     1
102
RTVSPropertyOp54
 70
     1
102
RTVSPropertyOp55
 70
     1
102
RTVSPropertyOp56
 70
     1
102
RTVSPropertyOp57
 70
     1
102
RTVSPost2010Prop28
280
     0
102
RTVSPost2010PropOp28
 70
     1
102
RTVSPost2010Prop29
280
     1
102
RTVSPost2010PropOp29
 70
     1
102
RTVSPost2010Prop30
280
     1
102
RTVSPost2010PropOp30
 70
     1
102
RTVSPost2010Prop31
280
     0
102
RTVSPost2010PropOp31
 70
     1
102
RTVSPost2010Prop32
280
     0
102
RTVSPost2010PropOp32
 70
     1
102
RTVSPost2010Prop33
280
     0
102
RTVSPost2010PropOp33
 70
     1
102
RTVSPost2010Prop34
280
     0
102
RTVSPost2010PropOp34
 70
     1
102
RTVSPost2010Prop35
280
     0
102
RTVSPost2010PropOp35
 70
     1
102
RTVSPost2010Prop36
280
     0
102
RTVSPost2010PropOp36
 70
     1
102
RTVSPost2010Prop37
 90
       50
102
RTVSPost2010PropOp37
 70
     1
102
RTVSPost2010Prop38
140
0.0
102
RTVSPost2010PropOp38
 70
     1
102
RTVSPost2010Prop39
140
1.0
102
RTVSPost2010PropOp39
 70
     1
102
RTVSPost2010Prop40
 90
        0
102
RTVSPost2010PropOp40
 70
     1
102
RTVSPost2010Prop41ColorIndex
 90
       18
102
RTVSPost2010Prop41ColorRGB
 90
        0
102
RTVSPost2010PropOp41
 70
     1
102
RTVSPost2010Prop42
 90
       50
102
RTVSPost2010PropOp42
 70
     1
102
RTVSPost2010Prop43
 90
        3
102
RTVSPost2010PropOp43
 70
     1
102
RTVSPost2010Prop44ColorIndex
 90
        5
102
RTVSPost2010Prop44ColorRGB
 90
      255
102
RTVSPost2010PropOp44
 70
     1
102
RTVSPost2010Prop45
280
     0
102
RTVSPost2010PropOp45
 70
     1
102
RTVSPost2010Prop46
 90
       50
102
RTVSPost2010PropOp46
 70
     1
102
RTVSPost2010Prop47
 90
       50
102
RTVSPost2010PropOp47
 70
     1
102
RTVSPost2010Prop48
 90
       50
102
RTVSPost2010PropOp48
 70
     1
102
RTVSPost2010Prop49
280
     0
102
RTVSPost2010PropOp49
 70
     1
102
RTVSPost2010Prop50
 90
       50
102
RTVSPost2010PropOp50
 70
     1
102
RTVSPost2010Prop51ColorIndex
 90
      256
102
RTVSPost2010Prop51ColorRGB
 90
-16777216
102
RTVSPost2010PropOp51
 70
     0
102
RTVSPost2010Prop52
140
1.0
102
RTVSPost2010PropOp52
 70
     0
102
RTVSPost2010Prop53
 90
        2
102
RTVSPost2010PropOp53
 70
     1
102
RTVSPost2010Prop54
  1
strokes_ogs.tif
102
RTVSPost2010PropOp54
 70
     1
102
RTVSPost2010Prop55
280
     0
102
RTVSPost2010PropOp55
 70
     1
102
RTVSPost2010Prop56
140
1.0
102
RTVSPost2010PropOp56
 70
     1
102
RTVSPost2010Prop57
140
1.0
102
RTVSPost2010PropOp57
 70
     1
  0
XRECORD
  5
440
102
{ACAD_REACTORS
330
43F
102
}
330
43F
100
AcDbXrecord
280
     1
102
RTVSPropertyOp0
 70
     0
102
RTVSPropertyOp1
 70
     0
102
RTVSPropertyOp2
 70
     0
102
RTVSPropertyOp3
 70
     0
102
RTVSPropertyOp4
 70
     0
102
RTVSPropertyOp5
 70
     0
102
RTVSPropertyOp6
 70
     0
102
RTVSPropertyOp7
 70
     0
102
RTVSPropertyOp8
 70
     0
102
RTVSPropertyOp9
 70
     0
102
RTVSPropertyOp10
 70
     0
102
RTVSPropertyOp11
 70
     0
102
RTVSPropertyOp12
 70
     0
102
RTVSPropertyOp13
 70
     0
102
RTVSPropertyOp14
 70
     2
102
RTVSPropertyOp15
 70
     0
102
RTVSPropertyOp16
 70
     0
102
RTVSPropertyOp17
 70
     0
102
RTVSPropertyOp18
 70
     0
102
RTVSPropertyOp19
 70
     0
102
RTVSPropertyOp20
 70
     0
102
RTVSPropertyOp21
 70
     0
102
RTVSPropertyOp22
 70
     0
102
RTVSPropertyOp23
 70
     0
102
RTVSPropertyOp24
 70
     0
102
RTVSPropertyOp25
 70
     0
102
RTVSPropertyOp26
 70
     0
102
RTVSPropertyOp27
 70
     0
102
RTVSPropertyOp28
 70
     0
102
RTVSPropertyOp29
 70
     0
102
RTVSPropertyOp30
 70
     0
102
RTVSPropertyOp31
 70
     0
102
RTVSPropertyOp32
 70
     0
102
RTVSPropertyOp33
 70
     0
102
RTVSPropertyOp34
 70
     0
102
RTVSPropertyOp35
 70
     0
102
RTVSPropertyOp36
 70
     0
102
RTVSPropertyOp37
 70
     0
102
RTVSPropertyOp38
 70
     0
102
RTVSPropertyOp39
 70
     0
102
RTVSPropertyOp40
 70
     0
102
RTVSPropertyOp41
 70
     0
102
RTVSPropertyOp42
 70
     0
102
RTVSPropertyOp43
 70
     0
102
RTVSPropertyOp44
 70
     0
102
RTVSPropertyOp45
 70
     0
102
RTVSPropertyOp46
 70
     0
102
RTVSPropertyOp47
 70
     0
102
RTVSPropertyOp48
 70
     0
102
RTVSPropertyOp49
 70
     0
102
RTVSPropertyOp50
 70
     0
102
RTVSPropertyOp51
 70
     0
102
RTVSPropertyOp52
 70
     0
102
RTVSPropertyOp53
 70
     0
102
RTVSPropertyOp54
 70
     0
102
RTVSPropertyOp55
 70
     0
102
RTVSPropertyOp56
 70
     0
102
RTVSPropertyOp57
 70
     0
102
RTVSPost2010Prop28
280
     0
102
RTVSPost2010PropOp28
 70
     0
102
RTVSPost2010Prop29
280
     1
102
RTVSPost2010PropOp29
 70
     0
102
RTVSPost2010Prop30
280
     1
102
RTVSPost2010PropOp30
 70
     0
102
RTVSPost2010Prop31
280
     0
102
RTVSPost2010PropOp31
 70
     0
102
RTVSPost2010Prop32
280
     0
102
RTVSPost2010PropOp32
 70
     0
102
RTVSPost2010Prop33
280
     0
102
RTVSPost2010PropOp33
 70
     0
102
RTVSPost2010Prop34
280
     0
102
RTVSPost2010PropOp34
 70
     0
102
RTVSPost2010Prop35
280
     0
102
RTVSPost2010PropOp35
 70
     0
102
RTVSPost2010Prop36
280
     0
102
RTVSPost2010PropOp36
 70
     0
102
RTVSPost2010Prop37
 90
       50
102
RTVSPost2010PropOp37
 70
     0
102
RTVSPost2010Prop38
140
0.0
102
RTVSPost2010PropOp38
 70
     0
102
RTVSPost2010Prop39
140
1.0
102
RTVSPost2010PropOp39
 70
     0
102
RTVSPost2010Prop40
 90
        0
102
RTVSPost2010PropOp40
 70
     0
102
RTVSPost2010Prop41ColorIndex
 90
       18
102
RTVSPost2010Prop41ColorRGB
 90
        0
102
RTVSPost2010PropOp41
 70
     0
102
RTVSPost2010Prop42
 90
       50
102
RTVSPost2010PropOp42
 70
     0
102
RTVSPost2010Prop43
 90
        3
102
RTVSPost2010PropOp43
 70
     0
102
RTVSPost2010Prop44ColorIndex
 90
        5
102
RTVSPost2010Prop44ColorRGB
 90
      255
102
RTVSPost2010PropOp44
 70
     0
102
RTVSPost2010Prop45
280
     0
102
RTVSPost2010PropOp45
 70
     0
102
RTVSPost2010Prop46
 90
       50
102
RTVSPost2010PropOp46
 70
     0
102
RTVSPost2010Prop47
 90
       50
102
RTVSPost2010PropOp47
 70
     0
102
RTVSPost2010Prop48
 90
       50
102
RTVSPost2010PropOp48
 70
     0
102
RTVSPost2010Prop49
280
     0
102
RTVSPost2010PropOp49
 70
     0
102
RTVSPost2010Prop50
 90
       50
102
RTVSPost2010PropOp50
 70
     0
102
RTVSPost2010Prop51ColorIndex
 90
      256
102
RTVSPost2010Prop51ColorRGB
 90
-16777216
102
RTVSPost2010PropOp51
 70
     0
102
RTVSPost2010Prop52
140
1.0
102
RTVSPost2010PropOp52
 70
     0
102
RTVSPost2010Prop53
 90
        2
102
RTVSPost2010PropOp53
 70
     0
102
RTVSPost2010Prop54
  1
strokes_ogs.tif
102
RTVSPost2010PropOp54
 70
     0
102
RTVSPost2010Prop55
280
     0
102
RTVSPost2010PropOp55
 70
     0
102
RTVSPost2010Prop56
140
1.0
102
RTVSPost2010PropOp56
 70
     0
102
RTVSPost2010Prop57
140
1.0
102
RTVSPost2010PropOp57
 70
     0
  0
XRECORD
  5
42E
102
{ACAD_REACTORS
330
42D
102
}
330
42D
100
AcDbXrecord
280
     1
102
RTVSPropertyOp0
 70
     1
102
RTVSPropertyOp1
 70
     1
102
RTVSPropertyOp2
 70
     1
102
RTVSPropertyOp3
 70
     1
102
RTVSPropertyOp4
 70
     1
102
RTVSPropertyOp5
 70
     1
102
RTVSPropertyOp6
 70
     1
102
RTVSPropertyOp7
 70
     1
102
RTVSPropertyOp8
 70
     1
102
RTVSPropertyOp9
 70
     1
102
RTVSPropertyOp10
 70
     1
102
RTVSPropertyOp11
 70
     1
102
RTVSPropertyOp12
 70
     1
102
RTVSPropertyOp13
 70
     1
102
RTVSPropertyOp14
 70
     1
102
RTVSPropertyOp15
 70
     1
102
RTVSPropertyOp16
 70
     1
102
RTVSPropertyOp17
 70
     1
102
RTVSPropertyOp18
 70
     1
102
RTVSPropertyOp19
 70
     1
102
RTVSPropertyOp20
 70
     1
102
RTVSPropertyOp21
 70
     1
102
RTVSPropertyOp22
 70
     1
102
RTVSPropertyOp23
 70
     1
102
RTVSPropertyOp24
 70
     1
102
RTVSPropertyOp25
 70
     1
102
RTVSPropertyOp26
 70
     1
102
RTVSPropertyOp27
 70
     1
102
RTVSPropertyOp28
 70
     1
102
RTVSPropertyOp29
 70
     1
102
RTVSPropertyOp30
 70
     1
102
RTVSPropertyOp31
 70
     1
102
RTVSPropertyOp32
 70
     1
102
RTVSPropertyOp33
 70
     1
102
RTVSPropertyOp34
 70
     1
102
RTVSPropertyOp35
 70
     1
102
RTVSPropertyOp36
 70
     1
102
RTVSPropertyOp37
 70
     1
102
RTVSPropertyOp38
 70
     1
102
RTVSPropertyOp39
 70
     1
102
RTVSPropertyOp40
 70
     1
102
RTVSPropertyOp41
 70
     1
102
RTVSPropertyOp42
 70
     1
102
RTVSPropertyOp43
 70
     1
102
RTVSPropertyOp44
 70
     1
102
RTVSPropertyOp45
 70
     1
102
RTVSPropertyOp46
 70
     1
102
RTVSPropertyOp47
 70
     1
102
RTVSPropertyOp48
 70
     1
102
RTVSPropertyOp49
 70
     1
102
RTVSPropertyOp50
 70
     1
102
RTVSPropertyOp51
 70
     0
102
RTVSPropertyOp52
 70
     0
102
RTVSPropertyOp53
 70
     1
102
RTVSPropertyOp54
 70
     1
102
RTVSPropertyOp55
 70
     1
102
RTVSPropertyOp56
 70
     1
102
RTVSPropertyOp57
 70
     1
102
RTVSPost2010Prop28
280
     0
102
RTVSPost2010PropOp28
 70
     1
102
RTVSPost2010Prop29
280
     1
102
RTVSPost2010PropOp29
 70
     1
102
RTVSPost2010Prop30
280
     1
102
RTVSPost2010PropOp30
 70
     1
102
RTVSPost2010Prop31
280
     0
102
RTVSPost2010PropOp31
 70
     1
102
RTVSPost2010Prop32
280
     0
102
RTVSPost2010PropOp32
 70
     1
102
RTVSPost2010Prop33
280
     0
102
RTVSPost2010PropOp33
 70
     1
102
RTVSPost2010Prop34
280
     0
102
RTVSPost2010PropOp34
 70
     1
102
RTVSPost2010Prop35
280
     0
102
RTVSPost2010PropOp35
 70
     1
102
RTVSPost2010Prop36
280
     0
102
RTVSPost2010PropOp36
 70
     1
102
RTVSPost2010Prop37
 90
       50
102
RTVSPost2010PropOp37
 70
     1
102
RTVSPost2010Prop38
140
0.0
102
RTVSPost2010PropOp38
 70
     1
102
RTVSPost2010Prop39
140
1.0
102
RTVSPost2010PropOp39
 70
     1
102
RTVSPost2010Prop40
 90
        0
102
RTVSPost2010PropOp40
 70
     1
102
RTVSPost2010Prop41ColorIndex
 90
       18
102
RTVSPost2010Prop41ColorRGB
 90
        0
102
RTVSPost2010PropOp41
 70
     1
102
RTVSPost2010Prop42
 90
       50
102
RTVSPost2010PropOp42
 70
     1
102
RTVSPost2010Prop43
 90
        3
102
RTVSPost2010PropOp43
 70
     1
102
RTVSPost2010Prop44ColorIndex
 90
        5
102
RTVSPost2010Prop44ColorRGB
 90
      255
102
RTVSPost2010PropOp44
 70
     1
102
RTVSPost2010Prop45
280
     0
102
RTVSPost2010PropOp45
 70
     1
102
RTVSPost2010Prop46
 90
       50
102
RTVSPost2010PropOp46
 70
     1
102
RTVSPost2010Prop47
 90
       50
102
RTVSPost2010PropOp47
 70
     1
102
RTVSPost2010Prop48
 90
       50
102
RTVSPost2010PropOp48
 70
     1
102
RTVSPost2010Prop49
280
     0
102
RTVSPost2010PropOp49
 70
     1
102
RTVSPost2010Prop50
 90
       50
102
RTVSPost2010PropOp50
 70
     1
102
RTVSPost2010Prop51ColorIndex
 90
      256
102
RTVSPost2010Prop51ColorRGB
 90
-16777216
102
RTVSPost2010PropOp51
 70
     0
102
RTVSPost2010Prop52
140
1.0
102
RTVSPost2010PropOp52
 70
     0
102
RTVSPost2010Prop53
 90
        2
102
RTVSPost2010PropOp53
 70
     1
102
RTVSPost2010Prop54
  1
strokes_ogs.tif
102
RTVSPost2010PropOp54
 70
     1
102
RTVSPost2010Prop55
280
     0
102
RTVSPost2010PropOp55
 70
     1
102
RTVSPost2010Prop56
140
1.0
102
RTVSPost2010PropOp56
 70
     1
102
RTVSPost2010Prop57
140
1.0
102
RTVSPost2010PropOp57
 70
     1
  0
XRECORD
  5
44C
102
{ACAD_REACTORS
330
44B
102
}
330
44B
100
AcDbXrecord
280
     1
102
RTVSPropertyOp0
 70
     1
102
RTVSPropertyOp1
 70
     1
102
RTVSPropertyOp2
 70
     1
102
RTVSPropertyOp3
 70
     1
102
RTVSPropertyOp4
 70
     1
102
RTVSPropertyOp5
 70
     1
102
RTVSPropertyOp6
 70
     1
102
RTVSPropertyOp7
 70
     1
102
RTVSPropertyOp8
 70
     1
102
RTVSPropertyOp9
 70
     1
102
RTVSPropertyOp10
 70
     1
102
RTVSPropertyOp11
 70
     1
102
RTVSPropertyOp12
 70
     1
102
RTVSPropertyOp13
 70
     1
102
RTVSPropertyOp14
 70
     1
102
RTVSPropertyOp15
 70
     1
102
RTVSPropertyOp16
 70
     1
102
RTVSPropertyOp17
 70
     1
102
RTVSPropertyOp18
 70
     1
102
RTVSPropertyOp19
 70
     1
102
RTVSPropertyOp20
 70
     1
102
RTVSPropertyOp21
 70
     1
102
RTVSPropertyOp22
 70
     1
102
RTVSPropertyOp23
 70
     1
102
RTVSPropertyOp24
 70
     1
102
RTVSPropertyOp25
 70
     1
102
RTVSPropertyOp26
 70
     1
102
RTVSPropertyOp27
 70
     1
102
RTVSPropertyOp28
 70
     1
102
RTVSPropertyOp29
 70
     1
102
RTVSPropertyOp30
 70
     1
102
RTVSPropertyOp31
 70
     1
102
RTVSPropertyOp32
 70
     1
102
RTVSPropertyOp33
 70
     1
102
RTVSPropertyOp34
 70
     1
102
RTVSPropertyOp35
 70
     1
102
RTVSPropertyOp36
 70
     1
102
RTVSPropertyOp37
 70
     1
102
RTVSPropertyOp38
 70
     1
102
RTVSPropertyOp39
 70
     1
102
RTVSPropertyOp40
 70
     1
102
RTVSPropertyOp41
 70
     1
102
RTVSPropertyOp42
 70
     1
102
RTVSPropertyOp43
 70
     1
102
RTVSPropertyOp44
 70
     1
102
RTVSPropertyOp45
 70
     1
102
RTVSPropertyOp46
 70
     1
102
RTVSPropertyOp47
 70
     1
102
RTVSPropertyOp48
 70
     1
102
RTVSPropertyOp49
 70
     1
102
RTVSPropertyOp50
 70
     1
102
RTVSPropertyOp51
 70
     0
102
RTVSPropertyOp52
 70
     0
102
RTVSPropertyOp53
 70
     1
102
RTVSPropertyOp54
 70
     1
102
RTVSPropertyOp55
 70
     1
102
RTVSPropertyOp56
 70
     1
102
RTVSPropertyOp57
 70
     1
102
RTVSPost2010Prop28
280
     0
102
RTVSPost2010PropOp28
 70
     1
102
RTVSPost2010Prop29
280
     1
102
RTVSPost2010PropOp29
 70
     1
102
RTVSPost2010Prop30
280
     1
102
RTVSPost2010PropOp30
 70
     1
102
RTVSPost2010Prop31
280
     0
102
RTVSPost2010PropOp31
 70
     1
102
RTVSPost2010Prop32
280
     0
102
RTVSPost2010PropOp32
 70
     1
102
RTVSPost2010Prop33
280
     0
102
RTVSPost2010PropOp33
 70
     1
102
RTVSPost2010Prop34
280
     0
102
RTVSPost2010PropOp34
 70
     1
102
RTVSPost2010Prop35
280
     0
102
RTVSPost2010PropOp35
 70
     1
102
RTVSPost2010Prop36
280
     0
102
RTVSPost2010PropOp36
 70
     1
102
RTVSPost2010Prop37
 90
       50
102
RTVSPost2010PropOp37
 70
     1
102
RTVSPost2010Prop38
140
0.0
102
RTVSPost2010PropOp38
 70
     1
102
RTVSPost2010Prop39
140
1.0
102
RTVSPost2010PropOp39
 70
     1
102
RTVSPost2010Prop40
 90
        0
102
RTVSPost2010PropOp40
 70
     1
102
RTVSPost2010Prop41ColorIndex
 90
       18
102
RTVSPost2010Prop41ColorRGB
 90
        0
102
RTVSPost2010PropOp41
 70
     1
102
RTVSPost2010Prop42
 90
       50
102
RTVSPost2010PropOp42
 70
     1
102
RTVSPost2010Prop43
 90
        3
102
RTVSPost2010PropOp43
 70
     1
102
RTVSPost2010Prop44ColorIndex
 90
        5
102
RTVSPost2010Prop44ColorRGB
 90
      255
102
RTVSPost2010PropOp44
 70
     1
102
RTVSPost2010Prop45
280
     0
102
RTVSPost2010PropOp45
 70
     1
102
RTVSPost2010Prop46
 90
       50
102
RTVSPost2010PropOp46
 70
     1
102
RTVSPost2010Prop47
 90
       50
102
RTVSPost2010PropOp47
 70
     1
102
RTVSPost2010Prop48
 90
       50
102
RTVSPost2010PropOp48
 70
     1
102
RTVSPost2010Prop49
280
     0
102
RTVSPost2010PropOp49
 70
     1
102
RTVSPost2010Prop50
 90
       50
102
RTVSPost2010PropOp50
 70
     1
102
RTVSPost2010Prop51ColorIndex
 90
      256
102
RTVSPost2010Prop51ColorRGB
 90
-16777216
102
RTVSPost2010PropOp51
 70
     0
102
RTVSPost2010Prop52
140
1.0
102
RTVSPost2010PropOp52
 70
     0
102
RTVSPost2010Prop53
 90
        2
102
RTVSPost2010PropOp53
 70
     1
102
RTVSPost2010Prop54
  1
strokes_ogs.tif
102
RTVSPost2010PropOp54
 70
     1
102
RTVSPost2010Prop55
280
     0
102
RTVSPost2010PropOp55
 70
     1
102
RTVSPost2010Prop56
140
1.0
102
RTVSPost2010PropOp56
 70
     1
102
RTVSPost2010Prop57
140
1.0
102
RTVSPost2010PropOp57
 70
     1
  0
XRECORD
  5
44A
102
{ACAD_REACTORS
330
449
102
}
330
449
100
AcDbXrecord
280
     1
102
RTVSPropertyOp0
 70
     1
102
RTVSPropertyOp1
 70
     1
102
RTVSPropertyOp2
 70
     1
102
RTVSPropertyOp3
 70
     1
102
RTVSPropertyOp4
 70
     1
102
RTVSPropertyOp5
 70
     1
102
RTVSPropertyOp6
 70
     1
102
RTVSPropertyOp7
 70
     1
102
RTVSPropertyOp8
 70
     1
102
RTVSPropertyOp9
 70
     1
102
RTVSPropertyOp10
 70
     1
102
RTVSPropertyOp11
 70
     1
102
RTVSPropertyOp12
 70
     1
102
RTVSPropertyOp13
 70
     1
102
RTVSPropertyOp14
 70
     1
102
RTVSPropertyOp15
 70
     1
102
RTVSPropertyOp16
 70
     1
102
RTVSPropertyOp17
 70
     1
102
RTVSPropertyOp18
 70
     1
102
RTVSPropertyOp19
 70
     1
102
RTVSPropertyOp20
 70
     1
102
RTVSPropertyOp21
 70
     1
102
RTVSPropertyOp22
 70
     1
102
RTVSPropertyOp23
 70
     1
102
RTVSPropertyOp24
 70
     1
102
RTVSPropertyOp25
 70
     1
102
RTVSPropertyOp26
 70
     1
102
RTVSPropertyOp27
 70
     1
102
RTVSPropertyOp28
 70
     1
102
RTVSPropertyOp29
 70
     1
102
RTVSPropertyOp30
 70
     1
102
RTVSPropertyOp31
 70
     1
102
RTVSPropertyOp32
 70
     1
102
RTVSPropertyOp33
 70
     1
102
RTVSPropertyOp34
 70
     1
102
RTVSPropertyOp35
 70
     1
102
RTVSPropertyOp36
 70
     1
102
RTVSPropertyOp37
 70
     1
102
RTVSPropertyOp38
 70
     1
102
RTVSPropertyOp39
 70
     1
102
RTVSPropertyOp40
 70
     1
102
RTVSPropertyOp41
 70
     1
102
RTVSPropertyOp42
 70
     1
102
RTVSPropertyOp43
 70
     1
102
RTVSPropertyOp44
 70
     1
102
RTVSPropertyOp45
 70
     1
102
RTVSPropertyOp46
 70
     1
102
RTVSPropertyOp47
 70
     1
102
RTVSPropertyOp48
 70
     1
102
RTVSPropertyOp49
 70
     1
102
RTVSPropertyOp50
 70
     1
102
RTVSPropertyOp51
 70
     0
102
RTVSPropertyOp52
 70
     0
102
RTVSPropertyOp53
 70
     1
102
RTVSPropertyOp54
 70
     1
102
RTVSPropertyOp55
 70
     1
102
RTVSPropertyOp56
 70
     1
102
RTVSPropertyOp57
 70
     1
102
RTVSPost2010Prop28
280
     0
102
RTVSPost2010PropOp28
 70
     1
102
RTVSPost2010Prop29
280
     1
102
RTVSPost2010PropOp29
 70
     1
102
RTVSPost2010Prop30
280
     1
102
RTVSPost2010PropOp30
 70
     1
102
RTVSPost2010Prop31
280
     0
102
RTVSPost2010PropOp31
 70
     1
102
RTVSPost2010Prop32
280
     0
102
RTVSPost2010PropOp32
 70
     1
102
RTVSPost2010Prop33
280
     0
102
RTVSPost2010PropOp33
 70
     1
102
RTVSPost2010Prop34
280
     0
102
RTVSPost2010PropOp34
 70
     1
102
RTVSPost2010Prop35
280
     0
102
RTVSPost2010PropOp35
 70
     1
102
RTVSPost2010Prop36
280
     0
102
RTVSPost2010PropOp36
 70
     1
102
RTVSPost2010Prop37
 90
       50
102
RTVSPost2010PropOp37
 70
     1
102
RTVSPost2010Prop38
140
0.0
102
RTVSPost2010PropOp38
 70
     1
102
RTVSPost2010Prop39
140
1.0
102
RTVSPost2010PropOp39
 70
     1
102
RTVSPost2010Prop40
 90
        0
102
RTVSPost2010PropOp40
 70
     1
102
RTVSPost2010Prop41ColorIndex
 90
       18
102
RTVSPost2010Prop41ColorRGB
 90
        0
102
RTVSPost2010PropOp41
 70
     1
102
RTVSPost2010Prop42
 90
       50
102
RTVSPost2010PropOp42
 70
     1
102
RTVSPost2010Prop43
 90
        3
102
RTVSPost2010PropOp43
 70
     1
102
RTVSPost2010Prop44ColorIndex
 90
        5
102
RTVSPost2010Prop44ColorRGB
 90
      255
102
RTVSPost2010PropOp44
 70
     1
102
RTVSPost2010Prop45
280
     0
102
RTVSPost2010PropOp45
 70
     1
102
RTVSPost2010Prop46
 90
       50
102
RTVSPost2010PropOp46
 70
     1
102
RTVSPost2010Prop47
 90
       50
102
RTVSPost2010PropOp47
 70
     1
102
RTVSPost2010Prop48
 90
       50
102
RTVSPost2010PropOp48
 70
     1
102
RTVSPost2010Prop49
280
     0
102
RTVSPost2010PropOp49
 70
     1
102
RTVSPost2010Prop50
 90
       50
102
RTVSPost2010PropOp50
 70
     1
102
RTVSPost2010Prop51ColorIndex
 90
      256
102
RTVSPost2010Prop51ColorRGB
 90
-16777216
102
RTVSPost2010PropOp51
 70
     0
102
RTVSPost2010Prop52
140
1.0
102
RTVSPost2010PropOp52
 70
     0
102
RTVSPost2010Prop53
 90
        2
102
RTVSPost2010PropOp53
 70
     1
102
RTVSPost2010Prop54
  1
strokes_ogs.tif
102
RTVSPost2010PropOp54
 70
     1
102
RTVSPost2010Prop55
280
     0
102
RTVSPost2010PropOp55
 70
     1
102
RTVSPost2010Prop56
140
1.0
102
RTVSPost2010PropOp56
 70
     1
102
RTVSPost2010Prop57
140
1.0
102
RTVSPost2010PropOp57
 70
     1
  0
XRECORD
  5
444
102
{ACAD_REACTORS
330
443
102
}
330
443
100
AcDbXrecord
280
     1
102
RTVSPropertyOp0
 70
     1
102
RTVSPropertyOp1
 70
     1
102
RTVSPropertyOp2
 70
     1
102
RTVSPropertyOp3
 70
     1
102
RTVSPropertyOp4
 70
     1
102
RTVSPropertyOp5
 70
     1
102
RTVSPropertyOp6
 70
     1
102
RTVSPropertyOp7
 70
     1
102
RTVSPropertyOp8
 70
     1
102
RTVSPropertyOp9
 70
     1
102
RTVSPropertyOp10
 70
     1
102
RTVSPropertyOp11
 70
     1
102
RTVSPropertyOp12
 70
     1
102
RTVSPropertyOp13
 70
     1
102
RTVSPropertyOp14
 70
     1
102
RTVSPropertyOp15
 70
     1
102
RTVSPropertyOp16
 70
     1
102
RTVSPropertyOp17
 70
     1
102
RTVSPropertyOp18
 70
     1
102
RTVSPropertyOp19
 70
     1
102
RTVSPropertyOp20
 70
     1
102
RTVSPropertyOp21
 70
     1
102
RTVSPropertyOp22
 70
     1
102
RTVSPropertyOp23
 70
     1
102
RTVSPropertyOp24
 70
     1
102
RTVSPropertyOp25
 70
     1
102
RTVSPropertyOp26
 70
     1
102
RTVSPropertyOp27
 70
     1
102
RTVSPropertyOp28
 70
     1
102
RTVSPropertyOp29
 70
     1
102
RTVSPropertyOp30
 70
     1
102
RTVSPropertyOp31
 70
     1
102
RTVSPropertyOp32
 70
     1
102
RTVSPropertyOp33
 70
     1
102
RTVSPropertyOp34
 70
     1
102
RTVSPropertyOp35
 70
     1
102
RTVSPropertyOp36
 70
     1
102
RTVSPropertyOp37
 70
     1
102
RTVSPropertyOp38
 70
     1
102
RTVSPropertyOp39
 70
     1
102
RTVSPropertyOp40
 70
     1
102
RTVSPropertyOp41
 70
     1
102
RTVSPropertyOp42
 70
     1
102
RTVSPropertyOp43
 70
     1
102
RTVSPropertyOp44
 70
     1
102
RTVSPropertyOp45
 70
     1
102
RTVSPropertyOp46
 70
     1
102
RTVSPropertyOp47
 70
     1
102
RTVSPropertyOp48
 70
     1
102
RTVSPropertyOp49
 70
     1
102
RTVSPropertyOp50
 70
     1
102
RTVSPropertyOp51
 70
     0
102
RTVSPropertyOp52
 70
     0
102
RTVSPropertyOp53
 70
     1
102
RTVSPropertyOp54
 70
     1
102
RTVSPropertyOp55
 70
     1
102
RTVSPropertyOp56
 70
     1
102
RTVSPropertyOp57
 70
     1
102
RTVSPost2010Prop28
280
     0
102
RTVSPost2010PropOp28
 70
     1
102
RTVSPost2010Prop29
280
     1
102
RTVSPost2010PropOp29
 70
     1
102
RTVSPost2010Prop30
280
     1
102
RTVSPost2010PropOp30
 70
     1
102
RTVSPost2010Prop31
280
     0
102
RTVSPost2010PropOp31
 70
     1
102
RTVSPost2010Prop32
280
     0
102
RTVSPost2010PropOp32
 70
     1
102
RTVSPost2010Prop33
280
     0
102
RTVSPost2010PropOp33
 70
     1
102
RTVSPost2010Prop34
280
     0
102
RTVSPost2010PropOp34
 70
     1
102
RTVSPost2010Prop35
280
     0
102
RTVSPost2010PropOp35
 70
     1
102
RTVSPost2010Prop36
280
     0
102
RTVSPost2010PropOp36
 70
     1
102
RTVSPost2010Prop37
 90
       50
102
RTVSPost2010PropOp37
 70
     1
102
RTVSPost2010Prop38
140
0.0
102
RTVSPost2010PropOp38
 70
     1
102
RTVSPost2010Prop39
140
1.0
102
RTVSPost2010PropOp39
 70
     1
102
RTVSPost2010Prop40
 90
        0
102
RTVSPost2010PropOp40
 70
     1
102
RTVSPost2010Prop41ColorIndex
 90
       18
102
RTVSPost2010Prop41ColorRGB
 90
        0
102
RTVSPost2010PropOp41
 70
     1
102
RTVSPost2010Prop42
 90
       50
102
RTVSPost2010PropOp42
 70
     1
102
RTVSPost2010Prop43
 90
        3
102
RTVSPost2010PropOp43
 70
     1
102
RTVSPost2010Prop44ColorIndex
 90
        5
102
RTVSPost2010Prop44ColorRGB
 90
      255
102
RTVSPost2010PropOp44
 70
     1
102
RTVSPost2010Prop45
280
     0
102
RTVSPost2010PropOp45
 70
     1
102
RTVSPost2010Prop46
 90
       50
102
RTVSPost2010PropOp46
 70
     1
102
RTVSPost2010Prop47
 90
       50
102
RTVSPost2010PropOp47
 70
     1
102
RTVSPost2010Prop48
 90
       50
102
RTVSPost2010PropOp48
 70
     1
102
RTVSPost2010Prop49
280
     0
102
RTVSPost2010PropOp49
 70
     1
102
RTVSPost2010Prop50
 90
       50
102
RTVSPost2010PropOp50
 70
     1
102
RTVSPost2010Prop51ColorIndex
 90
      256
102
RTVSPost2010Prop51ColorRGB
 90
-16777216
102
RTVSPost2010PropOp51
 70
     0
102
RTVSPost2010Prop52
140
1.0
102
RTVSPost2010PropOp52
 70
     0
102
RTVSPost2010Prop53
 90
        2
102
RTVSPost2010PropOp53
 70
     1
102
RTVSPost2010Prop54
  1
strokes_ogs.tif
102
RTVSPost2010PropOp54
 70
     1
102
RTVSPost2010Prop55
280
     0
102
RTVSPost2010PropOp55
 70
     1
102
RTVSPost2010Prop56
140
1.0
102
RTVSPost2010PropOp56
 70
     1
102
RTVSPost2010Prop57
140
1.0
102
RTVSPost2010PropOp57
 70
     1
  0
XRECORD
  5
446
102
{ACAD_REACTORS
330
445
102
}
330
445
100
AcDbXrecord
280
     1
102
RTVSPropertyOp0
 70
     1
102
RTVSPropertyOp1
 70
     1
102
RTVSPropertyOp2
 70
     1
102
RTVSPropertyOp3
 70
     1
102
RTVSPropertyOp4
 70
     1
102
RTVSPropertyOp5
 70
     1
102
RTVSPropertyOp6
 70
     1
102
RTVSPropertyOp7
 70
     1
102
RTVSPropertyOp8
 70
     1
102
RTVSPropertyOp9
 70
     1
102
RTVSPropertyOp10
 70
     1
102
RTVSPropertyOp11
 70
     1
102
RTVSPropertyOp12
 70
     1
102
RTVSPropertyOp13
 70
     1
102
RTVSPropertyOp14
 70
     1
102
RTVSPropertyOp15
 70
     1
102
RTVSPropertyOp16
 70
     1
102
RTVSPropertyOp17
 70
     1
102
RTVSPropertyOp18
 70
     1
102
RTVSPropertyOp19
 70
     1
102
RTVSPropertyOp20
 70
     1
102
RTVSPropertyOp21
 70
     1
102
RTVSPropertyOp22
 70
     1
102
RTVSPropertyOp23
 70
     1
102
RTVSPropertyOp24
 70
     1
102
RTVSPropertyOp25
 70
     1
102
RTVSPropertyOp26
 70
     1
102
RTVSPropertyOp27
 70
     1
102
RTVSPropertyOp28
 70
     1
102
RTVSPropertyOp29
 70
     1
102
RTVSPropertyOp30
 70
     1
102
RTVSPropertyOp31
 70
     1
102
RTVSPropertyOp32
 70
     1
102
RTVSPropertyOp33
 70
     1
102
RTVSPropertyOp34
 70
     1
102
RTVSPropertyOp35
 70
     1
102
RTVSPropertyOp36
 70
     1
102
RTVSPropertyOp37
 70
     1
102
RTVSPropertyOp38
 70
     1
102
RTVSPropertyOp39
 70
     1
102
RTVSPropertyOp40
 70
     1
102
RTVSPropertyOp41
 70
     1
102
RTVSPropertyOp42
 70
     1
102
RTVSPropertyOp43
 70
     1
102
RTVSPropertyOp44
 70
     1
102
RTVSPropertyOp45
 70
     1
102
RTVSPropertyOp46
 70
     1
102
RTVSPropertyOp47
 70
     1
102
RTVSPropertyOp48
 70
     1
102
RTVSPropertyOp49
 70
     1
102
RTVSPropertyOp50
 70
     1
102
RTVSPropertyOp51
 70
     0
102
RTVSPropertyOp52
 70
     0
102
RTVSPropertyOp53
 70
     1
102
RTVSPropertyOp54
 70
     1
102
RTVSPropertyOp55
 70
     1
102
RTVSPropertyOp56
 70
     1
102
RTVSPropertyOp57
 70
     1
102
RTVSPost2010Prop28
280
     0
102
RTVSPost2010PropOp28
 70
     1
102
RTVSPost2010Prop29
280
     1
102
RTVSPost2010PropOp29
 70
     1
102
RTVSPost2010Prop30
280
     1
102
RTVSPost2010PropOp30
 70
     1
102
RTVSPost2010Prop31
280
     0
102
RTVSPost2010PropOp31
 70
     1
102
RTVSPost2010Prop32
280
     0
102
RTVSPost2010PropOp32
 70
     1
102
RTVSPost2010Prop33
280
     0
102
RTVSPost2010PropOp33
 70
     1
102
RTVSPost2010Prop34
280
     0
102
RTVSPost2010PropOp34
 70
     1
102
RTVSPost2010Prop35
280
     0
102
RTVSPost2010PropOp35
 70
     1
102
RTVSPost2010Prop36
280
     0
102
RTVSPost2010PropOp36
 70
     1
102
RTVSPost2010Prop37
 90
       50
102
RTVSPost2010PropOp37
 70
     1
102
RTVSPost2010Prop38
140
0.0
102
RTVSPost2010PropOp38
 70
     1
102
RTVSPost2010Prop39
140
1.0
102
RTVSPost2010PropOp39
 70
     1
102
RTVSPost2010Prop40
 90
        0
102
RTVSPost2010PropOp40
 70
     1
102
RTVSPost2010Prop41ColorIndex
 90
       18
102
RTVSPost2010Prop41ColorRGB
 90
        0
102
RTVSPost2010PropOp41
 70
     1
102
RTVSPost2010Prop42
 90
       50
102
RTVSPost2010PropOp42
 70
     1
102
RTVSPost2010Prop43
 90
        3
102
RTVSPost2010PropOp43
 70
     1
102
RTVSPost2010Prop44ColorIndex
 90
        5
102
RTVSPost2010Prop44ColorRGB
 90
      255
102
RTVSPost2010PropOp44
 70
     1
102
RTVSPost2010Prop45
280
     0
102
RTVSPost2010PropOp45
 70
     1
102
RTVSPost2010Prop46
 90
       50
102
RTVSPost2010PropOp46
 70
     1
102
RTVSPost2010Prop47
 90
       50
102
RTVSPost2010PropOp47
 70
     1
102
RTVSPost2010Prop48
 90
       50
102
RTVSPost2010PropOp48
 70
     1
102
RTVSPost2010Prop49
280
     0
102
RTVSPost2010PropOp49
 70
     1
102
RTVSPost2010Prop50
 90
       50
102
RTVSPost2010PropOp50
 70
     1
102
RTVSPost2010Prop51ColorIndex
 90
      256
102
RTVSPost2010Prop51ColorRGB
 90
-16777216
102
RTVSPost2010PropOp51
 70
     0
102
RTVSPost2010Prop52
140
1.0
102
RTVSPost2010PropOp52
 70
     0
102
RTVSPost2010Prop53
 90
        2
102
RTVSPost2010PropOp53
 70
     1
102
RTVSPost2010Prop54
  1
strokes_ogs.tif
102
RTVSPost2010PropOp54
 70
     1
102
RTVSPost2010Prop55
280
     0
102
RTVSPost2010PropOp55
 70
     1
102
RTVSPost2010Prop56
140
1.0
102
RTVSPost2010PropOp56
 70
     1
102
RTVSPost2010Prop57
140
1.0
102
RTVSPost2010PropOp57
 70
     1
  0
XRECORD
  5
436
102
{ACAD_REACTORS
330
435
102
}
330
435
100
AcDbXrecord
280
     1
102
RTVSPropertyOp0
 70
     1
102
RTVSPropertyOp1
 70
     1
102
RTVSPropertyOp2
 70
     1
102
RTVSPropertyOp3
 70
     1
102
RTVSPropertyOp4
 70
     1
102
RTVSPropertyOp5
 70
     1
102
RTVSPropertyOp6
 70
     1
102
RTVSPropertyOp7
 70
     1
102
RTVSPropertyOp8
 70
     1
102
RTVSPropertyOp9
 70
     1
102
RTVSPropertyOp10
 70
     1
102
RTVSPropertyOp11
 70
     1
102
RTVSPropertyOp12
 70
     1
102
RTVSPropertyOp13
 70
     1
102
RTVSPropertyOp14
 70
     1
102
RTVSPropertyOp15
 70
     1
102
RTVSPropertyOp16
 70
     1
102
RTVSPropertyOp17
 70
     1
102
RTVSPropertyOp18
 70
     1
102
RTVSPropertyOp19
 70
     1
102
RTVSPropertyOp20
 70
     1
102
RTVSPropertyOp21
 70
     1
102
RTVSPropertyOp22
 70
     1
102
RTVSPropertyOp23
 70
     1
102
RTVSPropertyOp24
 70
     1
102
RTVSPropertyOp25
 70
     1
102
RTVSPropertyOp26
 70
     1
102
RTVSPropertyOp27
 70
     1
102
RTVSPropertyOp28
 70
     1
102
RTVSPropertyOp29
 70
     1
102
RTVSPropertyOp30
 70
     1
102
RTVSPropertyOp31
 70
     1
102
RTVSPropertyOp32
 70
     1
102
RTVSPropertyOp33
 70
     1
102
RTVSPropertyOp34
 70
     1
102
RTVSPropertyOp35
 70
     1
102
RTVSPropertyOp36
 70
     1
102
RTVSPropertyOp37
 70
     1
102
RTVSPropertyOp38
 70
     1
102
RTVSPropertyOp39
 70
     1
102
RTVSPropertyOp40
 70
     1
102
RTVSPropertyOp41
 70
     1
102
RTVSPropertyOp42
 70
     1
102
RTVSPropertyOp43
 70
     1
102
RTVSPropertyOp44
 70
     1
102
RTVSPropertyOp45
 70
     1
102
RTVSPropertyOp46
 70
     1
102
RTVSPropertyOp47
 70
     1
102
RTVSPropertyOp48
 70
     1
102
RTVSPropertyOp49
 70
     1
102
RTVSPropertyOp50
 70
     1
102
RTVSPropertyOp51
 70
     0
102
RTVSPropertyOp52
 70
     0
102
RTVSPropertyOp53
 70
     1
102
RTVSPropertyOp54
 70
     1
102
RTVSPropertyOp55
 70
     1
102
RTVSPropertyOp56
 70
     1
102
RTVSPropertyOp57
 70
     1
102
RTVSPost2010Prop28
280
     0
102
RTVSPost2010PropOp28
 70
     1
102
RTVSPost2010Prop29
280
     1
102
RTVSPost2010PropOp29
 70
     1
102
RTVSPost2010Prop30
280
     1
102
RTVSPost2010PropOp30
 70
     1
102
RTVSPost2010Prop31
280
     0
102
RTVSPost2010PropOp31
 70
     1
102
RTVSPost2010Prop32
280
     0
102
RTVSPost2010PropOp32
 70
     1
102
RTVSPost2010Prop33
280
     0
102
RTVSPost2010PropOp33
 70
     1
102
RTVSPost2010Prop34
280
     0
102
RTVSPost2010PropOp34
 70
     1
102
RTVSPost2010Prop35
280
     0
102
RTVSPost2010PropOp35
 70
     1
102
RTVSPost2010Prop36
280
     0
102
RTVSPost2010PropOp36
 70
     1
102
RTVSPost2010Prop37
 90
       50
102
RTVSPost2010PropOp37
 70
     1
102
RTVSPost2010Prop38
140
0.0
102
RTVSPost2010PropOp38
 70
     1
102
RTVSPost2010Prop39
140
1.0
102
RTVSPost2010PropOp39
 70
     1
102
RTVSPost2010Prop40
 90
        0
102
RTVSPost2010PropOp40
 70
     1
102
RTVSPost2010Prop41ColorIndex
 90
       18
102
RTVSPost2010Prop41ColorRGB
 90
        0
102
RTVSPost2010PropOp41
 70
     1
102
RTVSPost2010Prop42
 90
       50
102
RTVSPost2010PropOp42
 70
     1
102
RTVSPost2010Prop43
 90
        3
102
RTVSPost2010PropOp43
 70
     1
102
RTVSPost2010Prop44ColorIndex
 90
        5
102
RTVSPost2010Prop44ColorRGB
 90
      255
102
RTVSPost2010PropOp44
 70
     1
102
RTVSPost2010Prop45
280
     0
102
RTVSPost2010PropOp45
 70
     1
102
RTVSPost2010Prop46
 90
       50
102
RTVSPost2010PropOp46
 70
     1
102
RTVSPost2010Prop47
 90
       50
102
RTVSPost2010PropOp47
 70
     1
102
RTVSPost2010Prop48
 90
       50
102
RTVSPost2010PropOp48
 70
     1
102
RTVSPost2010Prop49
280
     0
102
RTVSPost2010PropOp49
 70
     1
102
RTVSPost2010Prop50
 90
       50
102
RTVSPost2010PropOp50
 70
     1
102
RTVSPost2010Prop51ColorIndex
 90
      256
102
RTVSPost2010Prop51ColorRGB
 90
-16777216
102
RTVSPost2010PropOp51
 70
     0
102
RTVSPost2010Prop52
140
1.0
102
RTVSPost2010PropOp52
 70
     0
102
RTVSPost2010Prop53
 90
        2
102
RTVSPost2010PropOp53
 70
     1
102
RTVSPost2010Prop54
  1
strokes_ogs.tif
102
RTVSPost2010PropOp54
 70
     1
102
RTVSPost2010Prop55
280
     0
102
RTVSPost2010PropOp55
 70
     1
102
RTVSPost2010Prop56
140
1.0
102
RTVSPost2010PropOp56
 70
     1
102
RTVSPost2010Prop57
140
1.0
102
RTVSPost2010PropOp57
 70
     1
  0
XRECORD
  5
428
102
{ACAD_REACTORS
330
427
102
}
330
427
100
AcDbXrecord
280
     1
102
RTVSPropertyOp0
 70
     1
102
RTVSPropertyOp1
 70
     1
102
RTVSPropertyOp2
 70
     1
102
RTVSPropertyOp3
 70
     1
102
RTVSPropertyOp4
 70
     1
102
RTVSPropertyOp5
 70
     1
102
RTVSPropertyOp6
 70
     1
102
RTVSPropertyOp7
 70
     1
102
RTVSPropertyOp8
 70
     1
102
RTVSPropertyOp9
 70
     1
102
RTVSPropertyOp10
 70
     1
102
RTVSPropertyOp11
 70
     1
102
RTVSPropertyOp12
 70
     1
102
RTVSPropertyOp13
 70
     1
102
RTVSPropertyOp14
 70
     1
102
RTVSPropertyOp15
 70
     1
102
RTVSPropertyOp16
 70
     1
102
RTVSPropertyOp17
 70
     1
102
RTVSPropertyOp18
 70
     1
102
RTVSPropertyOp19
 70
     1
102
RTVSPropertyOp20
 70
     1
102
RTVSPropertyOp21
 70
     1
102
RTVSPropertyOp22
 70
     1
102
RTVSPropertyOp23
 70
     1
102
RTVSPropertyOp24
 70
     1
102
RTVSPropertyOp25
 70
     1
102
RTVSPropertyOp26
 70
     1
102
RTVSPropertyOp27
 70
     1
102
RTVSPropertyOp28
 70
     1
102
RTVSPropertyOp29
 70
     1
102
RTVSPropertyOp30
 70
     1
102
RTVSPropertyOp31
 70
     1
102
RTVSPropertyOp32
 70
     1
102
RTVSPropertyOp33
 70
     1
102
RTVSPropertyOp34
 70
     1
102
RTVSPropertyOp35
 70
     1
102
RTVSPropertyOp36
 70
     1
102
RTVSPropertyOp37
 70
     1
102
RTVSPropertyOp38
 70
     1
102
RTVSPropertyOp39
 70
     1
102
RTVSPropertyOp40
 70
     1
102
RTVSPropertyOp41
 70
     1
102
RTVSPropertyOp42
 70
     1
102
RTVSPropertyOp43
 70
     1
102
RTVSPropertyOp44
 70
     1
102
RTVSPropertyOp45
 70
     1
102
RTVSPropertyOp46
 70
     1
102
RTVSPropertyOp47
 70
     1
102
RTVSPropertyOp48
 70
     1
102
RTVSPropertyOp49
 70
     1
102
RTVSPropertyOp50
 70
     1
102
RTVSPropertyOp51
 70
     0
102
RTVSPropertyOp52
 70
     0
102
RTVSPropertyOp53
 70
     1
102
RTVSPropertyOp54
 70
     1
102
RTVSPropertyOp55
 70
     1
102
RTVSPropertyOp56
 70
     1
102
RTVSPropertyOp57
 70
     1
102
RTVSPost2010Prop28
280
     0
102
RTVSPost2010PropOp28
 70
     1
102
RTVSPost2010Prop29
280
     1
102
RTVSPost2010PropOp29
 70
     1
102
RTVSPost2010Prop30
280
     1
102
RTVSPost2010PropOp30
 70
     1
102
RTVSPost2010Prop31
280
     0
102
RTVSPost2010PropOp31
 70
     1
102
RTVSPost2010Prop32
280
     0
102
RTVSPost2010PropOp32
 70
     1
102
RTVSPost2010Prop33
280
     0
102
RTVSPost2010PropOp33
 70
     1
102
RTVSPost2010Prop34
280
     0
102
RTVSPost2010PropOp34
 70
     1
102
RTVSPost2010Prop35
280
     0
102
RTVSPost2010PropOp35
 70
     1
102
RTVSPost2010Prop36
280
     0
102
RTVSPost2010PropOp36
 70
     1
102
RTVSPost2010Prop37
 90
       50
102
RTVSPost2010PropOp37
 70
     1
102
RTVSPost2010Prop38
140
0.0
102
RTVSPost2010PropOp38
 70
     1
102
RTVSPost2010Prop39
140
1.0
102
RTVSPost2010PropOp39
 70
     1
102
RTVSPost2010Prop40
 90
        0
102
RTVSPost2010PropOp40
 70
     1
102
RTVSPost2010Prop41ColorIndex
 90
       18
102
RTVSPost2010Prop41ColorRGB
 90
        0
102
RTVSPost2010PropOp41
 70
     1
102
RTVSPost2010Prop42
 90
       50
102
RTVSPost2010PropOp42
 70
     1
102
RTVSPost2010Prop43
 90
        3
102
RTVSPost2010PropOp43
 70
     1
102
RTVSPost2010Prop44ColorIndex
 90
        5
102
RTVSPost2010Prop44ColorRGB
 90
      255
102
RTVSPost2010PropOp44
 70
     1
102
RTVSPost2010Prop45
280
     0
102
RTVSPost2010PropOp45
 70
     1
102
RTVSPost2010Prop46
 90
       50
102
RTVSPost2010PropOp46
 70
     1
102
RTVSPost2010Prop47
 90
       50
102
RTVSPost2010PropOp47
 70
     1
102
RTVSPost2010Prop48
 90
       50
102
RTVSPost2010PropOp48
 70
     1
102
RTVSPost2010Prop49
280
     0
102
RTVSPost2010PropOp49
 70
     1
102
RTVSPost2010Prop50
 90
       50
102
RTVSPost2010PropOp50
 70
     1
102
RTVSPost2010Prop51ColorIndex
 90
      256
102
RTVSPost2010Prop51ColorRGB
 90
-16777216
102
RTVSPost2010PropOp51
 70
     0
102
RTVSPost2010Prop52
140
1.0
102
RTVSPost2010PropOp52
 70
     0
102
RTVSPost2010Prop53
 90
        2
102
RTVSPost2010PropOp53
 70
     1
102
RTVSPost2010Prop54
  1
strokes_ogs.tif
102
RTVSPost2010PropOp54
 70
     1
102
RTVSPost2010Prop55
280
     0
102
RTVSPost2010PropOp55
 70
     1
102
RTVSPost2010Prop56
140
1.0
102
RTVSPost2010PropOp56
 70
     1
102
RTVSPost2010Prop57
140
1.0
102
RTVSPost2010PropOp57
 70
     1
  0
XRECORD
  5
448
102
{ACAD_REACTORS
330
447
102
}
330
447
100
AcDbXrecord
280
     1
102
RTVSPropertyOp0
 70
     1
102
RTVSPropertyOp1
 70
     1
102
RTVSPropertyOp2
 70
     1
102
RTVSPropertyOp3
 70
     1
102
RTVSPropertyOp4
 70
     1
102
RTVSPropertyOp5
 70
     1
102
RTVSPropertyOp6
 70
     1
102
RTVSPropertyOp7
 70
     1
102
RTVSPropertyOp8
 70
     1
102
RTVSPropertyOp9
 70
     1
102
RTVSPropertyOp10
 70
     1
102
RTVSPropertyOp11
 70
     1
102
RTVSPropertyOp12
 70
     1
102
RTVSPropertyOp13
 70
     1
102
RTVSPropertyOp14
 70
     1
102
RTVSPropertyOp15
 70
     1
102
RTVSPropertyOp16
 70
     1
102
RTVSPropertyOp17
 70
     1
102
RTVSPropertyOp18
 70
     1
102
RTVSPropertyOp19
 70
     1
102
RTVSPropertyOp20
 70
     1
102
RTVSPropertyOp21
 70
     1
102
RTVSPropertyOp22
 70
     1
102
RTVSPropertyOp23
 70
     1
102
RTVSPropertyOp24
 70
     1
102
RTVSPropertyOp25
 70
     1
102
RTVSPropertyOp26
 70
     1
102
RTVSPropertyOp27
 70
     1
102
RTVSPropertyOp28
 70
     1
102
RTVSPropertyOp29
 70
     1
102
RTVSPropertyOp30
 70
     1
102
RTVSPropertyOp31
 70
     1
102
RTVSPropertyOp32
 70
     1
102
RTVSPropertyOp33
 70
     1
102
RTVSPropertyOp34
 70
     1
102
RTVSPropertyOp35
 70
     1
102
RTVSPropertyOp36
 70
     1
102
RTVSPropertyOp37
 70
     1
102
RTVSPropertyOp38
 70
     1
102
RTVSPropertyOp39
 70
     1
102
RTVSPropertyOp40
 70
     1
102
RTVSPropertyOp41
 70
     1
102
RTVSPropertyOp42
 70
     1
102
RTVSPropertyOp43
 70
     1
102
RTVSPropertyOp44
 70
     1
102
RTVSPropertyOp45
 70
     1
102
RTVSPropertyOp46
 70
     1
102
RTVSPropertyOp47
 70
     1
102
RTVSPropertyOp48
 70
     1
102
RTVSPropertyOp49
 70
     1
102
RTVSPropertyOp50
 70
     1
102
RTVSPropertyOp51
 70
     0
102
RTVSPropertyOp52
 70
     0
102
RTVSPropertyOp53
 70
     1
102
RTVSPropertyOp54
 70
     1
102
RTVSPropertyOp55
 70
     1
102
RTVSPropertyOp56
 70
     1
102
RTVSPropertyOp57
 70
     1
102
RTVSPost2010Prop28
280
     0
102
RTVSPost2010PropOp28
 70
     1
102
RTVSPost2010Prop29
280
     1
102
RTVSPost2010PropOp29
 70
     1
102
RTVSPost2010Prop30
280
     1
102
RTVSPost2010PropOp30
 70
     1
102
RTVSPost2010Prop31
280
     0
102
RTVSPost2010PropOp31
 70
     1
102
RTVSPost2010Prop32
280
     0
102
RTVSPost2010PropOp32
 70
     1
102
RTVSPost2010Prop33
280
     0
102
RTVSPost2010PropOp33
 70
     1
102
RTVSPost2010Prop34
280
     0
102
RTVSPost2010PropOp34
 70
     1
102
RTVSPost2010Prop35
280
     0
102
RTVSPost2010PropOp35
 70
     1
102
RTVSPost2010Prop36
280
     0
102
RTVSPost2010PropOp36
 70
     1
102
RTVSPost2010Prop37
 90
       50
102
RTVSPost2010PropOp37
 70
     1
102
RTVSPost2010Prop38
140
0.0
102
RTVSPost2010PropOp38
 70
     1
102
RTVSPost2010Prop39
140
1.0
102
RTVSPost2010PropOp39
 70
     1
102
RTVSPost2010Prop40
 90
        0
102
RTVSPost2010PropOp40
 70
     1
102
RTVSPost2010Prop41ColorIndex
 90
       18
102
RTVSPost2010Prop41ColorRGB
 90
        0
102
RTVSPost2010PropOp41
 70
     1
102
RTVSPost2010Prop42
 90
       50
102
RTVSPost2010PropOp42
 70
     1
102
RTVSPost2010Prop43
 90
        3
102
RTVSPost2010PropOp43
 70
     1
102
RTVSPost2010Prop44ColorIndex
 90
        5
102
RTVSPost2010Prop44ColorRGB
 90
      255
102
RTVSPost2010PropOp44
 70
     1
102
RTVSPost2010Prop45
280
     0
102
RTVSPost2010PropOp45
 70
     1
102
RTVSPost2010Prop46
 90
       50
102
RTVSPost2010PropOp46
 70
     1
102
RTVSPost2010Prop47
 90
       50
102
RTVSPost2010PropOp47
 70
     1
102
RTVSPost2010Prop48
 90
       50
102
RTVSPost2010PropOp48
 70
     1
102
RTVSPost2010Prop49
280
     0
102
RTVSPost2010PropOp49
 70
     1
102
RTVSPost2010Prop50
 90
       50
102
RTVSPost2010PropOp50
 70
     1
102
RTVSPost2010Prop51ColorIndex
 90
      256
102
RTVSPost2010Prop51ColorRGB
 90
-16777216
102
RTVSPost2010PropOp51
 70
     0
102
RTVSPost2010Prop52
140
1.0
102
RTVSPost2010PropOp52
 70
     0
102
RTVSPost2010Prop53
 90
        2
102
RTVSPost2010PropOp53
 70
     1
102
RTVSPost2010Prop54
  1
strokes_ogs.tif
102
RTVSPost2010PropOp54
 70
     1
102
RTVSPost2010Prop55
280
     0
102
RTVSPost2010PropOp55
 70
     1
102
RTVSPost2010Prop56
140
1.0
102
RTVSPost2010PropOp56
 70
     1
102
RTVSPost2010Prop57
140
1.0
102
RTVSPost2010PropOp57
 70
     1
  0
ENDSEC
  0
EOF
