  0
SECTION
  2
HEADER
  9
$ACADVER
  1
AC1018
  9
$ACADMAINTVER
 70
     0
  9
$DWGCODEPAGE
  3
ANSI_1252
  9
$INSBASE
 10
0.0
 20
0.0
 30
0.0
  9
$EXTMIN
 10
915.439039765429
 20
-402.7711198037724
 30
0.0
  9
$EXTMAX
 10
2114.439039765429
 20
407.2288801962276
 30
22.72879266332487
  9
$LIMMIN
 10
0.0
 20
0.0
  9
$LIMMAX
 10
12.0
 20
9.0
  9
$ORTHOMODE
 70
     0
  9
$REGENMODE
 70
     1
  9
$FILLMODE
 70
     1
  9
$QTEXTMODE
 70
     0
  9
$MIRRTEXT
 70
     1
  9
$LTSCALE
 40
1.0
  9
$ATTMODE
 70
     1
  9
$TEXTSIZE
 40
0.2
  9
$TRACEWID
 40
0.05
  9
$TEXTSTYLE
  7
Standard
  9
$CLAYER
  8
Layer 01
  9
$CELTYPE
  6
ByLayer
  9
$CECOLOR
 62
   256
  9
$CELTSCALE
 40
1.0
  9
$DISPSILH
 70
     0
  9
$DIMSCALE
 40
1.0
  9
$DIMASZ
 40
0.18
  9
$DIMEXO
 40
0.0625
  9
$DIMDLI
 40
0.38
  9
$DIMRND
 40
0.0
  9
$DIMDLE
 40
0.0
  9
$DIMEXE
 40
0.18
  9
$DIMTP
 40
0.0
  9
$DIMTM
 40
0.0
  9
$DIMTXT
 40
0.18
  9
$DIMCEN
 40
0.09
  9
$DIMTSZ
 40
0.0
  9
$DIMTOL
 70
     0
  9
$DIMLIM
 70
     0
  9
$DIMTIH
 70
     1
  9
$DIMTOH
 70
     1
  9
$DIMSE1
 70
     0
  9
$DIMSE2
 70
     0
  9
$DIMTAD
 70
     0
  9
$DIMZIN
 70
     0
  9
$DIMBLK
  1

  9
$DIMASO
 70
     1
  9
$DIMSHO
 70
     1
  9
$DIMPOST
  1

  9
$DIMAPOST
  1

  9
$DIMALT
 70
     0
  9
$DIMALTD
 70
     2
  9
$DIMALTF
 40
25.4
  9
$DIMLFAC
 40
1.0
  9
$DIMTOFL
 70
     0
  9
$DIMTVP
 40
0.0
  9
$DIMTIX
 70
     0
  9
$DIMSOXD
 70
     0
  9
$DIMSAH
 70
     0
  9
$DIMBLK1
  1

  9
$DIMBLK2
  1

  9
$DIMSTYLE
  2
Standard
  9
$DIMCLRD
 70
     0
  9
$DIMCLRE
 70
     0
  9
$DIMCLRT
 70
     0
  9
$DIMTFAC
 40
1.0
  9
$DIMGAP
 40
0.09
  9
$DIMJUST
 70
     0
  9
$DIMSD1
 70
     0
  9
$DIMSD2
 70
     0
  9
$DIMTOLJ
 70
     1
  9
$DIMTZIN
 70
     0
  9
$DIMALTZ
 70
     0
  9
$DIMALTTZ
 70
     0
  9
$DIMUPT
 70
     0
  9
$DIMDEC
 70
     4
  9
$DIMTDEC
 70
     4
  9
$DIMALTU
 70
     2
  9
$DIMALTTD
 70
     2
  9
$DIMTXSTY
  7
Standard
  9
$DIMAUNIT
 70
     0
  9
$DIMADEC
 70
     0
  9
$DIMALTRND
 40
0.0
  9
$DIMAZIN
 70
     0
  9
$DIMDSEP
 70
    46
  9
$DIMATFIT
 70
     3
  9
$DIMFRAC
 70
     0
  9
$DIMLDRBLK
  1

  9
$DIMLUNIT
 70
     2
  9
$DIMLWD
 70
    -2
  9
$DIMLWE
 70
    -2
  9
$DIMTMOVE
 70
     2
  9
$LUNITS
 70
     2
  9
$LUPREC
 70
     2
  9
$SKETCHINC
 40
0.1
  9
$FILLETRAD
 40
0.5
  9
$AUNITS
 70
     0
  9
$AUPREC
 70
     0
  9
$MENU
  1
.
  9
$ELEVATION
 40
0.0
  9
$PELEVATION
 40
0.0
  9
$THICKNESS
 40
0.0
  9
$LIMCHECK
 70
     0
  9
$CHAMFERA
 40
0.5
  9
$CHAMFERB
 40
0.5
  9
$CHAMFERC
 40
1.0
  9
$CHAMFERD
 40
0.0
  9
$SKPOLY
 70
     0
  9
$TDCREATE
 40
2457936.874804109
  9
$TDUCREATE
 40
2457936.999804109
  9
$TDUPDATE
 40
2457936.87519728
  9
$TDUUPDATE
 40
2457937.00019728
  9
$TDINDWG
 40
0.0000000116
  9
$TDUSRTIMER
 40
0.0000000116
  9
$USRTIMER
 70
     1
  9
$ANGBASE
 50
0.0
  9
$ANGDIR
 70
     0
  9
$PDMODE
 70
     0
  9
$PDSIZE
 40
0.0
  9
$PLINEWID
 40
0.0
  9
$SPLFRAME
 70
     0
  9
$SPLINETYPE
 70
     6
  9
$SPLINESEGS
 70
     8
  9
$HANDSEED
  5
2CF
  9
$SURFTAB1
 70
     6
  9
$SURFTAB2
 70
     6
  9
$SURFTYPE
 70
     6
  9
$SURFU
 70
     6
  9
$SURFV
 70
     6
  9
$UCSBASE
  2

  9
$UCSNAME
  2

  9
$UCSORG
 10
0.0
 20
0.0
 30
0.0
  9
$UCSXDIR
 10
1.0
 20
0.0
 30
0.0
  9
$UCSYDIR
 10
0.0
 20
1.0
 30
0.0
  9
$UCSORTHOREF
  2

  9
$UCSORTHOVIEW
 70
     0
  9
$UCSORGTOP
 10
0.0
 20
0.0
 30
0.0
  9
$UCSORGBOTTOM
 10
0.0
 20
0.0
 30
0.0
  9
$UCSORGLEFT
 10
0.0
 20
0.0
 30
0.0
  9
$UCSORGRIGHT
 10
0.0
 20
0.0
 30
0.0
  9
$UCSORGFRONT
 10
0.0
 20
0.0
 30
0.0
  9
$UCSORGBACK
 10
0.0
 20
0.0
 30
0.0
  9
$PUCSBASE
  2

  9
$PUCSNAME
  2

  9
$PUCSORG
 10
0.0
 20
0.0
 30
0.0
  9
$PUCSXDIR
 10
1.0
 20
0.0
 30
0.0
  9
$PUCSYDIR
 10
0.0
 20
1.0
 30
0.0
  9
$PUCSORTHOREF
  2

  9
$PUCSORTHOVIEW
 70
     0
  9
$PUCSORGTOP
 10
0.0
 20
0.0
 30
0.0
  9
$PUCSORGBOTTOM
 10
0.0
 20
0.0
 30
0.0
  9
$PUCSORGLEFT
 10
0.0
 20
0.0
 30
0.0
  9
$PUCSORGRIGHT
 10
0.0
 20
0.0
 30
0.0
  9
$PUCSORGFRONT
 10
0.0
 20
0.0
 30
0.0
  9
$PUCSORGBACK
 10
0.0
 20
0.0
 30
0.0
  9
$USERI1
 70
     0
  9
$USERI2
 70
     0
  9
$USERI3
 70
     0
  9
$USERI4
 70
     0
  9
$USERI5
 70
     0
  9
$USERR1
 40
0.0
  9
$USERR2
 40
0.0
  9
$USERR3
 40
0.0
  9
$USERR4
 40
0.0
  9
$USERR5
 40
0.0
  9
$WORLDVIEW
 70
     1
  9
$SHADEDGE
 70
     3
  9
$SHADEDIF
 70
    70
  9
$TILEMODE
 70
     1
  9
$MAXACTVP
 70
    64
  9
$PINSBASE
 10
0.0
 20
0.0
 30
0.0
  9
$PLIMCHECK
 70
     0
  9
$PEXTMIN
 10
1.000000000000000E+20
 20
1.000000000000000E+20
 30
1.000000000000000E+20
  9
$PEXTMAX
 10
-1.000000000000000E+20
 20
-1.000000000000000E+20
 30
-1.000000000000000E+20
  9
$PLIMMIN
 10
0.0
 20
0.0
  9
$PLIMMAX
 10
12.0
 20
9.0
  9
$UNITMODE
 70
     0
  9
$VISRETAIN
 70
     1
  9
$PLINEGEN
 70
     0
  9
$PSLTSCALE
 70
     1
  9
$TREEDEPTH
 70
  3020
  9
$CMLSTYLE
  2
Standard
  9
$CMLJUST
 70
     0
  9
$CMLSCALE
 40
1.0
  9
$PROXYGRAPHICS
 70
     1
  9
$MEASUREMENT
 70
     0
  9
$CELWEIGHT
370
    -1
  9
$ENDCAPS
280
     0
  9
$JOINSTYLE
280
     0
  9
$LWDISPLAY
290
     0
  9
$INSUNITS
 70
     4
  9
$HYPERLINKBASE
  1

  9
$STYLESHEET
  1

  9
$XEDIT
290
     1
  9
$CEPSNTYPE
380
     0
  9
$PSTYLEMODE
290
     1
  9
$FINGERPRINTGUID
  2
{7F004893-0BB0-456C-AF27-07243D2210C3}
  9
$VERSIONGUID
  2
{FAEB1C32-E019-11D5-929B-00C0DF256EC4}
  9
$EXTNAMES
290
     1
  9
$PSVPSCALE
 40
0.0
  9
$OLESTARTUP
290
     0
  9
$SORTENTS
280
   127
  9
$INDEXCTL
280
     0
  9
$HIDETEXT
280
     1
  9
$XCLIPFRAME
290
     0
  9
$HALOGAP
280
     0
  9
$OBSCOLOR
 70
   257
  9
$OBSLTYPE
280
     0
  9
$INTERSECTIONDISPLAY
280
     0
  9
$INTERSECTIONCOLOR
 70
   257
  9
$DIMASSOC
280
     2
  9
$PROJECTNAME
  1

  0
ENDSEC
  0
SECTION
  2
CLASSES
  0
CLASS
  1
ACDBDICTIONARYWDFLT
  2
AcDbDictionaryWithDefault
  3
ObjectDBX Classes
 90
        0
 91
        4
280
     0
281
     0
  0
CLASS
  1
VISUALSTYLE
  2
AcDbVisualStyle
  3
ObjectDBX Classes
 90
     4095
 91
        4
280
     0
281
     0
  0
CLASS
  1
MATERIAL
  2
AcDbMaterial
  3
ObjectDBX Classes
 90
     1153
 91
        4
280
     0
281
     0
  0
CLASS
  1
SUN
  2
AcDbSun
  3
SCENEOE
 90
     1024
 91
        4
280
     0
281
     0
  0
ENDSEC
  0
SECTION
  2
TABLES
  0
TABLE
  2
VPORT
  5
8
330
0
100
AcDbSymbolTable
 70
     1
  0
VPORT
  5
29
330
8
100
AcDbSymbolTableRecord
100
AcDbViewportTableRecord
  2
*Active
 70
     0
 10
0.0
 20
0.0
 11
1.0
 21
1.0
 12
1514.939039765429
 22
2.228880196227578
 13
0.0
 23
0.0
 14
0.5
 24
0.5
 15
0.5
 25
0.5
 16
0.0
 26
0.0
 36
1.0
 17
0.0
 27
0.0
 37
0.0
 40
826.2
 41
1.480246913580247
 42
50.0
 43
0.0
 44
0.0
 50
0.0
 51
0.0
 71
     0
 72
   100
 73
     1
 74
     3
 75
     0
 76
     0
 77
     0
 78
     0
281
     0
 65
     1
110
0.0
120
0.0
130
0.0
111
1.0
121
0.0
131
0.0
112
0.0
122
1.0
132
0.0
 79
     0
146
0.0
  0
ENDTAB
  0
TABLE
  2
LTYPE
  5
5
330
0
100
AcDbSymbolTable
 70
     1
  0
LTYPE
  5
14
330
5
100
AcDbSymbolTableRecord
100
AcDbLinetypeTableRecord
  2
ByBlock
 70
     0
  3

 72
    65
 73
     0
 40
0.0
  0
LTYPE
  5
15
330
5
100
AcDbSymbolTableRecord
100
AcDbLinetypeTableRecord
  2
ByLayer
 70
     0
  3

 72
    65
 73
     0
 40
0.0
  0
LTYPE
  5
16
330
5
100
AcDbSymbolTableRecord
100
AcDbLinetypeTableRecord
  2
Continuous
 70
     0
  3
Solid line
 72
    65
 73
     0
 40
0.0
  0
ENDTAB
  0
TABLE
  2
LAYER
  5
2
330
0
100
AcDbSymbolTable
 70
     4
  0
LAYER
  5
10
330
2
100
AcDbSymbolTableRecord
100
AcDbLayerTableRecord
  2
0
 70
     0
 62
     7
  6
Continuous
370
    -3
390
F
  0
LAYER
  5
40
330
2
100
AcDbSymbolTableRecord
100
AcDbLayerTableRecord
  2
Layer 01
 70
     0
 62
     1
420
 16711680
  6
Continuous
370
    -3
390
F
  0
LAYER
  5
43
330
2
100
AcDbSymbolTableRecord
100
AcDbLayerTableRecord
  2
Layer 03
 70
     0
 62
     5
420
      255
  6
Continuous
370
    -3
390
F
  0
LAYER
  5
87
330
2
100
AcDbSymbolTableRecord
100
AcDbLayerTableRecord
  2
Default
 70
     0
 62
    18
420
        0
  6
Continuous
370
    -3
390
F
  0
ENDTAB
  0
TABLE
  2
STYLE
  5
3
330
0
100
AcDbSymbolTable
 70
     1
  0
STYLE
  5
11
330
3
100
AcDbSymbolTableRecord
100
AcDbTextStyleTableRecord
  2
Standard
 70
     0
 40
0.0
 41
1.0
 50
0.0
 71
     0
 42
0.2
  3
txt
  4

  0
ENDTAB
  0
TABLE
  2
VIEW
  5
6
330
0
100
AcDbSymbolTable
 70
     0
  0
ENDTAB
  0
TABLE
  2
UCS
  5
7
330
0
100
AcDbSymbolTable
 70
     0
  0
ENDTAB
  0
TABLE
  2
APPID
  5
9
330
0
100
AcDbSymbolTable
 70
     1
  0
APPID
  5
12
330
9
100
AcDbSymbolTableRecord
100
AcDbRegAppTableRecord
  2
ACAD
 70
     0
  0
ENDTAB
  0
TABLE
  2
DIMSTYLE
  5
A
330
0
100
AcDbSymbolTable
 70
     1
100
AcDbDimStyleTable
  0
DIMSTYLE
105
27
330
A
100
AcDbSymbolTableRecord
100
AcDbDimStyleTableRecord
  2
Standard
 70
     0
178
     0
340
11
  0
ENDTAB
  0
TABLE
  2
BLOCK_RECORD
  5
1
330
0
100
AcDbSymbolTable
 70
     1
  0
BLOCK_RECORD
  5
1F
330
1
100
AcDbSymbolTableRecord
100
AcDbBlockTableRecord
  2
*Model_Space
340
22
  0
BLOCK_RECORD
  5
1B
330
1
100
AcDbSymbolTableRecord
100
AcDbBlockTableRecord
  2
*Paper_Space
340
1E
  0
BLOCK_RECORD
  5
23
330
1
100
AcDbSymbolTableRecord
100
AcDbBlockTableRecord
  2
*Paper_Space0
340
26
  0
ENDTAB
  0
ENDSEC
  0
SECTION
  2
BLOCKS
  0
BLOCK
  5
20
330
1F
100
AcDbEntity
  8
0
100
AcDbBlockBegin
  2
*Model_Space
 70
     0
 10
0.0
 20
0.0
 30
0.0
  3
*Model_Space
  1

  0
ENDBLK
  5
21
330
1F
100
AcDbEntity
  8
0
100
AcDbBlockEnd
  0
BLOCK
  5
1C
330
1B
100
AcDbEntity
 67
     1
  8
0
100
AcDbBlockBegin
  2
*Paper_Space
 70
     0
 10
0.0
 20
0.0
 30
0.0
  3
*Paper_Space
  1

  0
ENDBLK
  5
1D
330
1B
100
AcDbEntity
 67
     1
  8
0
100
AcDbBlockEnd
  0
BLOCK
  5
24
330
23
100
AcDbEntity
  8
0
100
AcDbBlockBegin
  2
*Paper_Space0
 70
     0
 10
0.0
 20
0.0
 30
0.0
  3
*Paper_Space0
  1

  0
ENDBLK
  5
25
330
23
100
AcDbEntity
  8
0
100
AcDbBlockEnd
  0
ENDSEC
  0
SECTION
  2
ENTITIES
  0
CIRCLE
  5
41
330
1F
100
AcDbEntity
  8
Layer 01
100
AcDbCircle
 10
1538.439039765429
 20
-122.7711198037724
 30
0.0
 40
1.5
  0
CIRCLE
  5
42
330
1F
100
AcDbEntity
  8
Layer 01
100
AcDbCircle
 10
1538.439039765429
 20
-122.7711198037724
 30
0.0
 40
1.5
  0
POLYLINE
  5
44
330
1F
100
AcDbEntity
  8
Layer 03
 62
     1
420
 16711680
100
AcDb2dPolyline
 66
     1
 10
0.0
 20
0.0
 30
22.72879266332487
  0
VERTEX
  5
45
330
44
100
AcDbEntity
  8
Layer 03
 62
     1
420
 16711680
100
AcDbVertex
100
AcDb2dVertex
 10
1753.154899060902
 20
-167.3961360631589
 30
22.72879266332487
  0
VERTEX
  5
46
330
44
100
AcDbEntity
  8
Layer 03
 62
     1
420
 16711680
100
AcDbVertex
100
AcDb2dVertex
 10
1743.154899060902
 20
-177.3961360631589
 30
22.72879266332487
  0
VERTEX
  5
47
330
44
100
AcDbEntity
  8
Layer 03
 62
     1
420
 16711680
100
AcDbVertex
100
AcDb2dVertex
 10
1593.154899060902
 20
-177.3961360631589
 30
22.72879266332487
  0
VERTEX
  5
48
330
44
100
AcDbEntity
  8
Layer 03
 62
     1
420
 16711680
100
AcDbVertex
100
AcDb2dVertex
 10
1593.154899060902
 20
-327.3961360631589
 30
22.72879266332487
  0
VERTEX
  5
49
330
44
100
AcDbEntity
  8
Layer 03
 62
     1
420
 16711680
100
AcDbVertex
100
AcDb2dVertex
 10
1583.154899060902
 20
-337.3961360631589
 30
22.72879266332487
  0
VERTEX
  5
4A
330
44
100
AcDbEntity
  8
Layer 03
 62
     1
420
 16711680
100
AcDbVertex
100
AcDb2dVertex
 10
1583.154899060902
 20
-167.3961360631589
 30
22.72879266332487
  0
VERTEX
  5
4B
330
44
100
AcDbEntity
  8
Layer 03
 62
     1
420
 16711680
100
AcDbVertex
100
AcDb2dVertex
 10
1753.154899060902
 20
-167.3961360631589
 30
22.72879266332487
  0
SEQEND
  5
4C
330
44
100
AcDbEntity
  8
Layer 03
 62
     1
420
 16711680
  0
CIRCLE
  5
4D
330
1F
100
AcDbEntity
  8
Layer 01
100
AcDbCircle
 10
1498.439039765429
 20
-82.77111980377242
 30
0.0
 40
1.5
  0
POLYLINE
  5
4E
330
1F
100
AcDbEntity
  8
Layer 03
 62
     1
420
 16711680
100
AcDb2dPolyline
 66
     1
 10
0.0
 20
0.0
 30
22.72879266332487
  0
VERTEX
  5
4F
330
4E
100
AcDbEntity
  8
Layer 03
 62
     1
420
 16711680
100
AcDbVertex
100
AcDb2dVertex
 10
1673.154899060902
 20
-87.3961360631589
 30
22.72879266332487
  0
VERTEX
  5
50
330
4E
100
AcDbEntity
  8
Layer 03
 62
     1
420
 16711680
100
AcDbVertex
100
AcDb2dVertex
 10
1663.154899060902
 20
-97.3961360631589
 30
22.72879266332487
  0
VERTEX
  5
51
330
4E
100
AcDbEntity
  8
Layer 03
 62
     1
420
 16711680
100
AcDbVertex
100
AcDb2dVertex
 10
1513.154899060902
 20
-97.3961360631589
 30
22.72879266332487
  0
VERTEX
  5
52
330
4E
100
AcDbEntity
  8
Layer 03
 62
     1
420
 16711680
100
AcDbVertex
100
AcDb2dVertex
 10
1513.154899060902
 20
-247.3961360631589
 30
22.72879266332487
  0
VERTEX
  5
53
330
4E
100
AcDbEntity
  8
Layer 03
 62
     1
420
 16711680
100
AcDbVertex
100
AcDb2dVertex
 10
1503.154899060902
 20
-257.3961360631589
 30
22.72879266332487
  0
VERTEX
  5
54
330
4E
100
AcDbEntity
  8
Layer 03
 62
     1
420
 16711680
100
AcDbVertex
100
AcDb2dVertex
 10
1503.154899060902
 20
-87.3961360631589
 30
22.72879266332487
  0
VERTEX
  5
55
330
4E
100
AcDbEntity
  8
Layer 03
 62
     1
420
 16711680
100
AcDbVertex
100
AcDb2dVertex
 10
1673.154899060902
 20
-87.3961360631589
 30
22.72879266332487
  0
SEQEND
  5
56
330
4E
100
AcDbEntity
  8
Layer 03
 62
     1
420
 16711680
  0
POLYLINE
  5
57
330
1F
100
AcDbEntity
  8
Layer 03
 62
     1
420
 16711680
100
AcDb2dPolyline
 66
     1
 10
0.0
 20
0.0
 30
22.72879266332487
  0
VERTEX
  5
58
330
57
100
AcDbEntity
  8
Layer 03
 62
     1
420
 16711680
100
AcDbVertex
100
AcDb2dVertex
 10
1663.154899060902
 20
-77.3961360631589
 30
22.72879266332487
  0
VERTEX
  5
59
330
57
100
AcDbEntity
  8
Layer 03
 62
     1
420
 16711680
100
AcDbVertex
100
AcDb2dVertex
 10
1653.154899060902
 20
-87.3961360631589
 30
22.72879266332487
  0
VERTEX
  5
5A
330
57
100
AcDbEntity
  8
Layer 03
 62
     1
420
 16711680
100
AcDbVertex
100
AcDb2dVertex
 10
1503.154899060902
 20
-87.3961360631589
 30
22.72879266332487
  0
VERTEX
  5
5B
330
57
100
AcDbEntity
  8
Layer 03
 62
     1
420
 16711680
100
AcDbVertex
100
AcDb2dVertex
 10
1503.154899060902
 20
-237.3961360631589
 30
22.72879266332487
  0
VERTEX
  5
5C
330
57
100
AcDbEntity
  8
Layer 03
 62
     1
420
 16711680
100
AcDbVertex
100
AcDb2dVertex
 10
1493.154899060902
 20
-247.3961360631589
 30
22.72879266332487
  0
VERTEX
  5
5D
330
57
100
AcDbEntity
  8
Layer 03
 62
     1
420
 16711680
100
AcDbVertex
100
AcDb2dVertex
 10
1493.154899060902
 20
-77.3961360631589
 30
22.72879266332487
  0
VERTEX
  5
5E
330
57
100
AcDbEntity
  8
Layer 03
 62
     1
420
 16711680
100
AcDbVertex
100
AcDb2dVertex
 10
1663.154899060902
 20
-77.3961360631589
 30
22.72879266332487
  0
SEQEND
  5
5F
330
57
100
AcDbEntity
  8
Layer 03
 62
     1
420
 16711680
  0
CIRCLE
  5
60
330
1F
100
AcDbEntity
  8
Layer 01
100
AcDbCircle
 10
1498.439039765429
 20
-82.77111980377242
 30
0.0
 40
1.5
  0
POLYLINE
  5
61
330
1F
100
AcDbEntity
  8
Layer 03
 62
     1
420
 16711680
100
AcDb2dPolyline
 66
     1
 10
0.0
 20
0.0
 30
22.72879266332487
  0
VERTEX
  5
62
330
61
100
AcDbEntity
  8
Layer 03
 62
     1
420
 16711680
100
AcDbVertex
100
AcDb2dVertex
 10
1663.154899060902
 20
-77.3961360631589
 30
22.72879266332487
  0
VERTEX
  5
63
330
61
100
AcDbEntity
  8
Layer 03
 62
     1
420
 16711680
100
AcDbVertex
100
AcDb2dVertex
 10
1653.154899060902
 20
-87.3961360631589
 30
22.72879266332487
  0
VERTEX
  5
64
330
61
100
AcDbEntity
  8
Layer 03
 62
     1
420
 16711680
100
AcDbVertex
100
AcDb2dVertex
 10
1503.154899060902
 20
-87.3961360631589
 30
22.72879266332487
  0
VERTEX
  5
65
330
61
100
AcDbEntity
  8
Layer 03
 62
     1
420
 16711680
100
AcDbVertex
100
AcDb2dVertex
 10
1503.154899060902
 20
-237.3961360631589
 30
22.72879266332487
  0
VERTEX
  5
66
330
61
100
AcDbEntity
  8
Layer 03
 62
     1
420
 16711680
100
AcDbVertex
100
AcDb2dVertex
 10
1493.154899060902
 20
-247.3961360631589
 30
22.72879266332487
  0
VERTEX
  5
67
330
61
100
AcDbEntity
  8
Layer 03
 62
     1
420
 16711680
100
AcDbVertex
100
AcDb2dVertex
 10
1493.154899060902
 20
-77.3961360631589
 30
22.72879266332487
  0
VERTEX
  5
68
330
61
100
AcDbEntity
  8
Layer 03
 62
     1
420
 16711680
100
AcDbVertex
100
AcDb2dVertex
 10
1663.154899060902
 20
-77.3961360631589
 30
22.72879266332487
  0
SEQEND
  5
69
330
61
100
AcDbEntity
  8
Layer 03
 62
     1
420
 16711680
  0
POLYLINE
  5
6A
330
1F
100
AcDbEntity
  8
Layer 03
 62
     1
420
 16711680
100
AcDb2dPolyline
 66
     1
 10
0.0
 20
0.0
 30
22.72879266332487
  0
VERTEX
  5
6B
330
6A
100
AcDbEntity
  8
Layer 03
 62
     1
420
 16711680
100
AcDbVertex
100
AcDb2dVertex
 10
1673.154899060902
 20
-87.3961360631589
 30
22.72879266332487
  0
VERTEX
  5
6C
330
6A
100
AcDbEntity
  8
Layer 03
 62
     1
420
 16711680
100
AcDbVertex
100
AcDb2dVertex
 10
1663.154899060902
 20
-97.3961360631589
 30
22.72879266332487
  0
VERTEX
  5
6D
330
6A
100
AcDbEntity
  8
Layer 03
 62
     1
420
 16711680
100
AcDbVertex
100
AcDb2dVertex
 10
1513.154899060902
 20
-97.3961360631589
 30
22.72879266332487
  0
VERTEX
  5
6E
330
6A
100
AcDbEntity
  8
Layer 03
 62
     1
420
 16711680
100
AcDbVertex
100
AcDb2dVertex
 10
1513.154899060902
 20
-247.3961360631589
 30
22.72879266332487
  0
VERTEX
  5
6F
330
6A
100
AcDbEntity
  8
Layer 03
 62
     1
420
 16711680
100
AcDbVertex
100
AcDb2dVertex
 10
1503.154899060902
 20
-257.3961360631589
 30
22.72879266332487
  0
VERTEX
  5
70
330
6A
100
AcDbEntity
  8
Layer 03
 62
     1
420
 16711680
100
AcDbVertex
100
AcDb2dVertex
 10
1503.154899060902
 20
-87.3961360631589
 30
22.72879266332487
  0
VERTEX
  5
71
330
6A
100
AcDbEntity
  8
Layer 03
 62
     1
420
 16711680
100
AcDbVertex
100
AcDb2dVertex
 10
1673.154899060902
 20
-87.3961360631589
 30
22.72879266332487
  0
SEQEND
  5
72
330
6A
100
AcDbEntity
  8
Layer 03
 62
     1
420
 16711680
  0
CIRCLE
  5
73
330
1F
100
AcDbEntity
  8
Layer 01
100
AcDbCircle
 10
1461.870758356376
 20
-224.0211523225454
 30
0.0
 40
1.5
  0
POLYLINE
  5
74
330
1F
100
AcDbEntity
  8
Layer 03
 62
     1
420
 16711680
100
AcDb2dPolyline
 66
     1
 10
0.0
 20
0.0
 30
22.72879266332487
  0
VERTEX
  5
75
330
74
100
AcDbEntity
  8
Layer 03
 62
     1
420
 16711680
100
AcDbVertex
100
AcDb2dVertex
 10
1703.154899060902
 20
-117.3961360631589
 30
22.72879266332487
  0
VERTEX
  5
76
330
74
100
AcDbEntity
  8
Layer 03
 62
     1
420
 16711680
100
AcDbVertex
100
AcDb2dVertex
 10
1693.154899060902
 20
-127.3961360631589
 30
22.72879266332487
  0
VERTEX
  5
77
330
74
100
AcDbEntity
  8
Layer 03
 62
     1
420
 16711680
100
AcDbVertex
100
AcDb2dVertex
 10
1543.154899060902
 20
-127.3961360631589
 30
22.72879266332487
  0
VERTEX
  5
78
330
74
100
AcDbEntity
  8
Layer 03
 62
     1
420
 16711680
100
AcDbVertex
100
AcDb2dVertex
 10
1543.154899060902
 20
-277.3961360631589
 30
22.72879266332487
  0
VERTEX
  5
79
330
74
100
AcDbEntity
  8
Layer 03
 62
     1
420
 16711680
100
AcDbVertex
100
AcDb2dVertex
 10
1533.154899060902
 20
-287.3961360631589
 30
22.72879266332487
  0
VERTEX
  5
7A
330
74
100
AcDbEntity
  8
Layer 03
 62
     1
420
 16711680
100
AcDbVertex
100
AcDb2dVertex
 10
1533.154899060902
 20
-117.3961360631589
 30
22.72879266332487
  0
VERTEX
  5
7B
330
74
100
AcDbEntity
  8
Layer 03
 62
     1
420
 16711680
100
AcDbVertex
100
AcDb2dVertex
 10
1703.154899060902
 20
-117.3961360631589
 30
22.72879266332487
  0
SEQEND
  5
7C
330
74
100
AcDbEntity
  8
Layer 03
 62
     1
420
 16711680
  0
LINE
  5
7D
330
1F
100
AcDbEntity
  8
Layer 03
100
AcDbLine
 10
1457.154899060902
 20
-69.3961360631589
 30
22.72879266332487
 11
1467.154899060902
 21
-59.39613606315891
 31
22.72879266332487
  0
LINE
  5
7E
330
1F
100
AcDbEntity
  8
Layer 03
100
AcDbLine
 10
1307.154899060902
 20
-219.3961360631589
 30
22.72879266332487
 11
1297.154899060902
 21
-229.3961360631589
 31
22.72879266332487
  0
CIRCLE
  5
7F
330
1F
100
AcDbEntity
  8
Layer 01
100
AcDbCircle
 10
1302.439039765429
 20
-64.77111980377242
 30
0.0
 40
1.5
  0
POLYLINE
  5
80
330
1F
100
AcDbEntity
  8
Layer 01
100
AcDb2dPolyline
 66
     1
 10
0.0
 20
0.0
 30
0.0
  0
VERTEX
  5
81
330
80
100
AcDbEntity
  8
Layer 01
100
AcDbVertex
100
AcDb2dVertex
 10
1889.439039765429
 20
-350.7711198037724
 30
0.0
  0
VERTEX
  5
82
330
80
100
AcDbEntity
  8
Layer 01
100
AcDbVertex
100
AcDb2dVertex
 10
1889.439039765429
 20
-50.77111980377242
 30
0.0
  0
VERTEX
  5
83
330
80
100
AcDbEntity
  8
Layer 01
100
AcDbVertex
100
AcDb2dVertex
 10
1289.439039765429
 20
-50.77111980377242
 30
0.0
  0
VERTEX
  5
84
330
80
100
AcDbEntity
  8
Layer 01
100
AcDbVertex
100
AcDb2dVertex
 10
1289.439039765429
 20
-350.7711198037724
 30
0.0
  0
VERTEX
  5
85
330
80
100
AcDbEntity
  8
Layer 01
100
AcDbVertex
100
AcDb2dVertex
 10
1889.439039765429
 20
-350.7711198037724
 30
0.0
  0
SEQEND
  5
86
330
80
100
AcDbEntity
  8
Layer 01
  0
POLYLINE
  5
88
330
1F
100
AcDbEntity
  8
Default
 62
     1
420
 16711680
100
AcDb2dPolyline
 66
     1
 10
0.0
 20
0.0
 30
15.10143077977017
  0
VERTEX
  5
89
330
88
100
AcDbEntity
  8
Default
 62
     1
420
 16711680
100
AcDbVertex
100
AcDb2dVertex
 10
1685.588846361708
 20
112.9946405069094
 30
15.10143077977017
  0
VERTEX
  5
8A
330
88
100
AcDbEntity
  8
Default
 62
     1
420
 16711680
100
AcDbVertex
100
AcDb2dVertex
 10
1685.284385799893
 20
108.3631424737105
 30
15.10143077977017
  0
VERTEX
  5
8B
330
88
100
AcDbEntity
  8
Default
 62
     1
420
 16711680
100
AcDbVertex
100
AcDb2dVertex
 10
1651.776742322019
 20
58.23631895757933
 30
15.10143077977017
  0
VERTEX
  5
8C
330
88
100
AcDbEntity
  8
Default
 62
     1
420
 16711680
100
AcDbVertex
100
AcDb2dVertex
 10
1640.810048692515
 20
56.86405541128966
 30
15.10143077977017
  0
VERTEX
  5
8D
330
88
100
AcDbEntity
  8
Default
 62
     1
420
 16711680
100
AcDbVertex
100
AcDb2dVertex
 10
1613.086476621982
 20
113.1092129313819
 30
15.10143077977017
  0
VERTEX
  5
8E
330
88
100
AcDbEntity
  8
Default
 62
     1
420
 16711680
100
AcDbVertex
100
AcDb2dVertex
 10
1625.576152327689
 20
119.2654482382358
 30
15.10143077977017
  0
VERTEX
  5
8F
330
88
100
AcDbEntity
  8
Default
 62
     1
420
 16711680
100
AcDbVertex
100
AcDb2dVertex
 10
1674.317012903259
 20
125.3643973328539
 30
15.10143077977017
  0
VERTEX
  5
90
330
88
100
AcDbEntity
  8
Default
 62
     1
420
 16711680
100
AcDbVertex
100
AcDb2dVertex
 10
1685.588846361708
 20
112.9946405069094
 30
15.10143077977017
  0
SEQEND
  5
91
330
88
100
AcDbEntity
  8
Default
 62
     1
420
 16711680
  0
POLYLINE
  5
92
330
1F
100
AcDbEntity
  8
Default
 62
     1
420
 16711680
100
AcDb2dPolyline
 66
     1
 10
0.0
 20
0.0
 30
15.10143077977017
  0
VERTEX
  5
93
330
92
100
AcDbEntity
  8
Default
 62
     1
420
 16711680
100
AcDbVertex
100
AcDb2dVertex
 10
1651.517186363479
 20
30.72965953394066
 30
15.10143077977017
  0
VERTEX
  5
94
330
92
100
AcDbEntity
  8
Default
 62
     1
420
 16711680
100
AcDbVertex
100
AcDb2dVertex
 10
1658.405913512021
 20
34.71536064968393
 30
15.10143077977017
  0
VERTEX
  5
95
330
92
100
AcDbEntity
  8
Default
 62
     1
420
 16711680
100
AcDbVertex
100
AcDb2dVertex
 10
1710.016205797186
 20
124.2980935296303
 30
15.10143077977017
  0
VERTEX
  5
96
330
92
100
AcDbEntity
  8
Default
 62
     1
420
 16711680
100
AcDbVertex
100
AcDb2dVertex
 10
1703.796493285091
 20
142.1993533497346
 30
15.10143077977017
  0
VERTEX
  5
97
330
92
100
AcDbEntity
  8
Default
 62
     1
420
 16711680
100
AcDbVertex
100
AcDb2dVertex
 10
1596.274981985757
 20
142.099989436483
 30
15.10143077977017
  0
VERTEX
  5
98
330
92
100
AcDbEntity
  8
Default
 62
     1
420
 16711680
100
AcDbVertex
100
AcDb2dVertex
 10
1596.29704651732
 20
118.2239996317347
 30
15.10143077977017
  0
VERTEX
  5
99
330
92
100
AcDbEntity
  8
Default
 62
     1
420
 16711680
100
AcDbVertex
100
AcDb2dVertex
 10
1623.940213237744
 20
38.66284487571522
 30
15.10143077977017
  0
VERTEX
  5
9A
330
92
100
AcDbEntity
  8
Default
 62
     1
420
 16711680
100
AcDbVertex
100
AcDb2dVertex
 10
1651.517186363479
 20
30.72965953394066
 30
15.10143077977017
  0
SEQEND
  5
9B
330
92
100
AcDbEntity
  8
Default
 62
     1
420
 16711680
  0
CIRCLE
  5
9C
330
1F
100
AcDbEntity
  8
Layer 01
 62
     1
420
 16711680
100
AcDbCircle
 10
1694.238080153962
 20
130.0239057180011
 30
0.0
 40
1.5
  0
POLYLINE
  5
9D
330
1F
100
AcDbEntity
  8
Default
 62
     5
420
      255
100
AcDb2dPolyline
 66
     1
 10
0.0
 20
0.0
 30
15.10143077977017
  0
VERTEX
  5
9E
330
9D
100
AcDbEntity
  8
Default
 62
     5
420
      255
100
AcDbVertex
100
AcDb2dVertex
 10
1421.143232511354
 20
-82.22032544927936
 30
15.10143077977017
  0
VERTEX
  5
9F
330
9D
100
AcDbEntity
  8
Default
 62
     5
420
      255
100
AcDbVertex
100
AcDb2dVertex
 10
1413.184565844688
 20
-82.22032544927936
 30
15.10143077977017
  0
VERTEX
  5
A0
330
9D
100
AcDbEntity
  8
Default
 62
     5
420
      255
100
AcDbVertex
100
AcDb2dVertex
 10
1323.649565844688
 20
-133.9133818011722
 30
15.10143077977017
  0
VERTEX
  5
A1
330
9D
100
AcDbEntity
  8
Default
 62
     5
420
      255
100
AcDbVertex
100
AcDb2dVertex
 10
1320.068165844688
 20
-152.5228820878539
 30
15.10143077977017
  0
VERTEX
  5
A2
330
9D
100
AcDbEntity
  8
Default
 62
     5
420
      255
100
AcDbVertex
100
AcDb2dVertex
 10
1413.184565844688
 20
-206.2836606938228
 30
15.10143077977017
  0
VERTEX
  5
A3
330
9D
100
AcDbEntity
  8
Default
 62
     5
420
      255
100
AcDbVertex
100
AcDb2dVertex
 10
1425.122565844688
 20
-185.6064381530656
 30
15.10143077977017
  0
VERTEX
  5
A4
330
9D
100
AcDbEntity
  8
Default
 62
     5
420
      255
100
AcDbVertex
100
AcDb2dVertex
 10
1441.039899178021
 20
-102.8975479900365
 30
15.10143077977017
  0
VERTEX
  5
A5
330
9D
100
AcDbEntity
  8
Default
 62
     5
420
      255
100
AcDbVertex
100
AcDb2dVertex
 10
1421.143232511354
 20
-82.22032544927936
 30
15.10143077977017
  0
SEQEND
  5
A6
330
9D
100
AcDbEntity
  8
Default
 62
     5
420
      255
  0
CIRCLE
  5
A7
330
1F
100
AcDbEntity
  8
Layer 01
 62
     1
420
 16711680
100
AcDbCircle
 10
1547.89228808245
 20
43.587356060248
 30
0.0
 40
1.5
  0
POLYLINE
  5
A8
330
1F
100
AcDbEntity
  8
Default
 62
     1
420
 16711680
100
AcDb2dPolyline
 66
     1
 10
0.0
 20
0.0
 30
15.10143077977017
  0
VERTEX
  5
A9
330
A8
100
AcDbEntity
  8
Default
 62
     1
420
 16711680
100
AcDbVertex
100
AcDb2dVertex
 10
1507.015064399063
 20
112.8296150197707
 30
15.10143077977017
  0
VERTEX
  5
AA
330
A8
100
AcDbEntity
  8
Default
 62
     1
420
 16711680
100
AcDbVertex
100
AcDb2dVertex
 10
1507.328084651177
 20
108.1986876194553
 30
15.10143077977017
  0
VERTEX
  5
AB
330
A8
100
AcDbEntity
  8
Default
 62
     1
420
 16711680
100
AcDbVertex
100
AcDb2dVertex
 10
1540.928318275624
 20
58.13388054262418
 30
15.10143077977017
  0
VERTEX
  5
AC
330
A8
100
AcDbEntity
  8
Default
 62
     1
420
 16711680
100
AcDbVertex
100
AcDb2dVertex
 10
1551.897529472815
 20
56.78188863610194
 30
15.10143077977017
  0
VERTEX
  5
AD
330
A8
100
AcDbEntity
  8
Default
 62
     1
420
 16711680
100
AcDbVertex
100
AcDb2dVertex
 10
1579.517098542769
 20
113.0781904435923
 30
15.10143077977017
  0
VERTEX
  5
AE
330
A8
100
AcDbEntity
  8
Default
 62
     1
420
 16711680
100
AcDbVertex
100
AcDb2dVertex
 10
1567.016065849332
 20
119.2113310733768
 30
15.10143077977017
  0
VERTEX
  5
AF
330
A8
100
AcDbEntity
  8
Default
 62
     1
420
 16711680
100
AcDbVertex
100
AcDb2dVertex
 10
1518.264016084043
 20
125.2201839912508
 30
15.10143077977017
  0
VERTEX
  5
B0
330
A8
100
AcDbEntity
  8
Default
 62
     1
420
 16711680
100
AcDbVertex
100
AcDb2dVertex
 10
1507.015064399063
 20
112.8296150197707
 30
15.10143077977017
  0
SEQEND
  5
B1
330
A8
100
AcDbEntity
  8
Default
 62
     1
420
 16711680
  0
POLYLINE
  5
B2
330
1F
100
AcDbEntity
  8
Default
 62
     1
420
 16711680
100
AcDb2dPolyline
 66
     1
 10
0.0
 20
0.0
 30
15.10143077977017
  0
VERTEX
  5
B3
330
B2
100
AcDbEntity
  8
Default
 62
     1
420
 16711680
100
AcDbVertex
100
AcDb2dVertex
 10
1541.238713235957
 20
30.62774782804092
 30
15.10143077977017
  0
VERTEX
  5
B4
330
B2
100
AcDbEntity
  8
Default
 62
     1
420
 16711680
100
AcDbVertex
100
AcDb2dVertex
 10
1534.342631243561
 20
34.60070998054675
 30
15.10143077977017
  0
VERTEX
  5
B5
330
B2
100
AcDbEntity
  8
Default
 62
     1
420
 16711680
100
AcDbVertex
100
AcDb2dVertex
 10
1482.566854971673
 20
124.0879006362121
 30
15.10143077977017
  0
VERTEX
  5
B6
330
B2
100
AcDbEntity
  8
Default
 62
     1
420
 16711680
100
AcDbVertex
100
AcDb2dVertex
 10
1488.753470686424
 20
142.0006255232302
 30
15.10143077977017
  0
VERTEX
  5
B7
330
B2
100
AcDbEntity
  8
Default
 62
     1
420
 16711680
100
AcDbVertex
100
AcDb2dVertex
 10
1596.274981985757
 20
142.099989436483
 30
15.10143077977017
  0
VERTEX
  5
B8
330
B2
100
AcDbEntity
  8
Default
 62
     1
420
 16711680
100
AcDbVertex
100
AcDb2dVertex
 10
1596.29704651732
 20
118.2239996317347
 30
15.10143077977017
  0
VERTEX
  5
B9
330
B2
100
AcDbEntity
  8
Default
 62
     1
420
 16711680
100
AcDbVertex
100
AcDb2dVertex
 10
1568.800976673984
 20
38.61188902276535
 30
15.10143077977017
  0
VERTEX
  5
BA
330
B2
100
AcDbEntity
  8
Default
 62
     1
420
 16711680
100
AcDbVertex
100
AcDb2dVertex
 10
1541.238713235957
 20
30.62774782804092
 30
15.10143077977017
  0
SEQEND
  5
BB
330
B2
100
AcDbEntity
  8
Default
 62
     1
420
 16711680
  0
CIRCLE
  5
BC
330
1F
100
AcDbEntity
  8
Layer 01
 62
     1
420
 16711680
100
AcDbCircle
 10
1609.653616080709
 20
128.4527795484476
 30
0.0
 40
1.5
  0
CIRCLE
  5
BD
330
1F
100
AcDbEntity
  8
Layer 01
 62
     1
420
 16711680
100
AcDbCircle
 10
1644.839670162231
 20
43.67694809766078
 30
0.0
 40
1.5
  0
POLYLINE
  5
BE
330
1F
100
AcDbEntity
  8
Default
 62
     1
420
 16711680
100
AcDb2dPolyline
 66
     1
 10
0.0
 20
0.0
 30
15.10143077977017
  0
VERTEX
  5
BF
330
BE
100
AcDbEntity
  8
Default
 62
     1
420
 16711680
100
AcDbVertex
100
AcDb2dVertex
 10
1651.311250735558
 20
253.5722310449246
 30
15.10143077977017
  0
VERTEX
  5
C0
330
BE
100
AcDbEntity
  8
Default
 62
     1
420
 16711680
100
AcDbVertex
100
AcDb2dVertex
 10
1658.207332727955
 20
249.5992688924186
 30
15.10143077977017
  0
VERTEX
  5
C1
330
BE
100
AcDbEntity
  8
Default
 62
     1
420
 16711680
100
AcDbVertex
100
AcDb2dVertex
 10
1709.983108999841
 20
160.1120782367526
 30
15.10143077977017
  0
VERTEX
  5
C2
330
BE
100
AcDbEntity
  8
Default
 62
     1
420
 16711680
100
AcDbVertex
100
AcDb2dVertex
 10
1703.796493285091
 20
142.1993533497346
 30
15.10143077977017
  0
VERTEX
  5
C3
330
BE
100
AcDbEntity
  8
Default
 62
     1
420
 16711680
100
AcDbVertex
100
AcDb2dVertex
 10
1596.274981985757
 20
142.099989436483
 30
15.10143077977017
  0
VERTEX
  5
C4
330
BE
100
AcDbEntity
  8
Default
 62
     1
420
 16711680
100
AcDbVertex
100
AcDb2dVertex
 10
1596.252917454194
 20
165.9759792412315
 30
15.10143077977017
  0
VERTEX
  5
C5
330
BE
100
AcDbEntity
  8
Default
 62
     1
420
 16711680
100
AcDbVertex
100
AcDb2dVertex
 10
1623.748987297532
 20
245.5880898502005
 30
15.10143077977017
  0
VERTEX
  5
C6
330
BE
100
AcDbEntity
  8
Default
 62
     1
420
 16711680
100
AcDbVertex
100
AcDb2dVertex
 10
1651.311250735558
 20
253.5722310449246
 30
15.10143077977017
  0
SEQEND
  5
C7
330
BE
100
AcDbEntity
  8
Default
 62
     1
420
 16711680
  0
CIRCLE
  5
C8
330
1F
100
AcDbEntity
  8
Layer 01
 62
     1
420
 16711680
100
AcDbCircle
 10
1694.215593093061
 20
154.3571137573421
 30
0.0
 40
1.5
  0
CIRCLE
  5
C9
330
1F
100
AcDbEntity
  8
Layer 01
 62
     1
420
 16711680
100
AcDbCircle
 10
1609.628369643973
 20
155.7719032024534
 30
0.0
 40
1.5
  0
CIRCLE
  5
CA
330
1F
100
AcDbEntity
  8
Layer 01
 62
     1
420
 16711680
100
AcDbCircle
 10
1498.311883817553
 20
154.1760731549639
 30
0.0
 40
1.5
  0
CIRCLE
  5
CB
330
1F
100
AcDbEntity
  8
Layer 01
 62
     1
420
 16711680
100
AcDbCircle
 10
1582.896347890805
 20
155.7471993245183
 30
0.0
 40
1.5
  0
CIRCLE
  5
CC
330
1F
100
AcDbEntity
  8
Layer 01
 62
     1
420
 16711680
100
AcDbCircle
 10
1547.710293809283
 20
240.5230307753048
 30
0.0
 40
1.5
  0
CIRCLE
  5
CD
330
1F
100
AcDbEntity
  8
Layer 01
 62
     1
420
 16711680
100
AcDbCircle
 10
1498.334370878454
 20
129.8428651156229
 30
0.0
 40
1.5
  0
CIRCLE
  5
CE
330
1F
100
AcDbEntity
  8
Layer 01
 62
     1
420
 16711680
100
AcDbCircle
 10
1582.921594327542
 20
128.4280756705125
 30
0.0
 40
1.5
  0
CIRCLE
  5
CF
330
1F
100
AcDbEntity
  8
Layer 01
 62
     1
420
 16711680
100
AcDbCircle
 10
1644.657675889065
 20
240.6126228127176
 30
0.0
 40
1.5
  0
POLYLINE
  5
D0
330
1F
100
AcDbEntity
  8
Default
 62
     1
420
 16711680
100
AcDb2dPolyline
 66
     1
 10
0.0
 20
0.0
 30
15.10143077977017
  0
VERTEX
  5
D1
330
D0
100
AcDbEntity
  8
Default
 62
     1
420
 16711680
100
AcDbVertex
100
AcDb2dVertex
 10
1685.534899572452
 20
171.3703638531944
 30
15.10143077977017
  0
VERTEX
  5
D2
330
D0
100
AcDbEntity
  8
Default
 62
     1
420
 16711680
100
AcDbVertex
100
AcDb2dVertex
 10
1685.221879320338
 20
176.0012912535097
 30
15.10143077977017
  0
VERTEX
  5
D3
330
D0
100
AcDbEntity
  8
Default
 62
     1
420
 16711680
100
AcDbVertex
100
AcDb2dVertex
 10
1651.621645695892
 20
226.0660983303412
 30
15.10143077977017
  0
VERTEX
  5
D4
330
D0
100
AcDbEntity
  8
Default
 62
     1
420
 16711680
100
AcDbVertex
100
AcDb2dVertex
 10
1640.652434498701
 20
227.4180902368637
 30
15.10143077977017
  0
VERTEX
  5
D5
330
D0
100
AcDbEntity
  8
Default
 62
     1
420
 16711680
100
AcDbVertex
100
AcDb2dVertex
 10
1613.032865428746
 20
171.1217884293736
 30
15.10143077977017
  0
VERTEX
  5
D6
330
D0
100
AcDbEntity
  8
Default
 62
     1
420
 16711680
100
AcDbVertex
100
AcDb2dVertex
 10
1625.533898122182
 20
164.988647799589
 30
15.10143077977017
  0
VERTEX
  5
D7
330
D0
100
AcDbEntity
  8
Default
 62
     1
420
 16711680
100
AcDbVertex
100
AcDb2dVertex
 10
1674.285947887472
 20
158.9797948817144
 30
15.10143077977017
  0
VERTEX
  5
D8
330
D0
100
AcDbEntity
  8
Default
 62
     1
420
 16711680
100
AcDbVertex
100
AcDb2dVertex
 10
1685.534899572452
 20
171.3703638531944
 30
15.10143077977017
  0
SEQEND
  5
D9
330
D0
100
AcDbEntity
  8
Default
 62
     1
420
 16711680
  0
CIRCLE
  5
DA
330
1F
100
AcDbEntity
  8
Layer 01
 62
     1
420
 16711680
100
AcDbCircle
 10
1377.653616080709
 20
128.4527795484476
 30
0.0
 40
1.5
  0
POLYLINE
  5
DB
330
1F
100
AcDbEntity
  8
Default
 62
     1
420
 16711680
100
AcDb2dPolyline
 66
     1
 10
0.0
 20
0.0
 30
15.10143077977017
  0
VERTEX
  5
DC
330
DB
100
AcDbEntity
  8
Default
 62
     1
420
 16711680
100
AcDbVertex
100
AcDb2dVertex
 10
1541.032777608035
 20
253.4703193390249
 30
15.10143077977017
  0
VERTEX
  5
DD
330
DB
100
AcDbEntity
  8
Default
 62
     1
420
 16711680
100
AcDbVertex
100
AcDb2dVertex
 10
1534.144050459492
 20
249.4846182232815
 30
15.10143077977017
  0
VERTEX
  5
DE
330
DB
100
AcDbEntity
  8
Default
 62
     1
420
 16711680
100
AcDbVertex
100
AcDb2dVertex
 10
1482.533758174329
 20
159.9018853433345
 30
15.10143077977017
  0
VERTEX
  5
DF
330
DB
100
AcDbEntity
  8
Default
 62
     1
420
 16711680
100
AcDbVertex
100
AcDb2dVertex
 10
1488.753470686424
 20
142.0006255232302
 30
15.10143077977017
  0
VERTEX
  5
E0
330
DB
100
AcDbEntity
  8
Default
 62
     1
420
 16711680
100
AcDbVertex
100
AcDb2dVertex
 10
1596.274981985757
 20
142.099989436483
 30
15.10143077977017
  0
VERTEX
  5
E1
330
DB
100
AcDbEntity
  8
Default
 62
     1
420
 16711680
100
AcDbVertex
100
AcDb2dVertex
 10
1596.252917454194
 20
165.9759792412315
 30
15.10143077977017
  0
VERTEX
  5
E2
330
DB
100
AcDbEntity
  8
Default
 62
     1
420
 16711680
100
AcDbVertex
100
AcDb2dVertex
 10
1568.609750733769
 20
245.5371339972506
 30
15.10143077977017
  0
VERTEX
  5
E3
330
DB
100
AcDbEntity
  8
Default
 62
     1
420
 16711680
100
AcDbVertex
100
AcDb2dVertex
 10
1541.032777608035
 20
253.4703193390249
 30
15.10143077977017
  0
SEQEND
  5
E4
330
DB
100
AcDbEntity
  8
Default
 62
     1
420
 16711680
  0
POLYLINE
  5
E5
330
1F
100
AcDbEntity
  8
Default
 62
     1
420
 16711680
100
AcDb2dPolyline
 66
     1
 10
0.0
 20
0.0
 30
15.10143077977017
  0
VERTEX
  5
E6
330
E5
100
AcDbEntity
  8
Default
 62
     1
420
 16711680
100
AcDbVertex
100
AcDb2dVertex
 10
1506.961117609806
 20
171.2053383660557
 30
15.10143077977017
  0
VERTEX
  5
E7
330
E5
100
AcDbEntity
  8
Default
 62
     1
420
 16711680
100
AcDbVertex
100
AcDb2dVertex
 10
1507.265578171621
 20
175.8368363992546
 30
15.10143077977017
  0
VERTEX
  5
E8
330
E5
100
AcDbEntity
  8
Default
 62
     1
420
 16711680
100
AcDbVertex
100
AcDb2dVertex
 10
1540.773221649495
 20
225.9636599153861
 30
15.10143077977017
  0
VERTEX
  5
E9
330
E5
100
AcDbEntity
  8
Default
 62
     1
420
 16711680
100
AcDbVertex
100
AcDb2dVertex
 10
1551.739915278998
 20
227.3359234616759
 30
15.10143077977017
  0
VERTEX
  5
EA
330
E5
100
AcDbEntity
  8
Default
 62
     1
420
 16711680
100
AcDbVertex
100
AcDb2dVertex
 10
1579.463487349533
 20
171.0907659415841
 30
15.10143077977017
  0
VERTEX
  5
EB
330
E5
100
AcDbEntity
  8
Default
 62
     1
420
 16711680
100
AcDbVertex
100
AcDb2dVertex
 10
1566.973811643825
 20
164.93453063473
 30
15.10143077977017
  0
VERTEX
  5
EC
330
E5
100
AcDbEntity
  8
Default
 62
     1
420
 16711680
100
AcDbVertex
100
AcDb2dVertex
 10
1518.232951068255
 20
158.8355815401113
 30
15.10143077977017
  0
VERTEX
  5
ED
330
E5
100
AcDbEntity
  8
Default
 62
     1
420
 16711680
100
AcDbVertex
100
AcDb2dVertex
 10
1506.961117609806
 20
171.2053383660557
 30
15.10143077977017
  0
SEQEND
  5
EE
330
E5
100
AcDbEntity
  8
Default
 62
     1
420
 16711680
  0
POLYLINE
  5
EF
330
1F
100
AcDbEntity
  8
Default
 62
     1
420
 16711680
100
AcDb2dPolyline
 66
     1
 10
0.0
 20
0.0
 30
15.10143077977017
  0
VERTEX
  5
F0
330
EF
100
AcDbEntity
  8
Default
 62
     1
420
 16711680
100
AcDbVertex
100
AcDb2dVertex
 10
1419.517186363479
 20
30.72965953394066
 30
15.10143077977017
  0
VERTEX
  5
F1
330
EF
100
AcDbEntity
  8
Default
 62
     1
420
 16711680
100
AcDbVertex
100
AcDb2dVertex
 10
1426.405913512021
 20
34.71536064968393
 30
15.10143077977017
  0
VERTEX
  5
F2
330
EF
100
AcDbEntity
  8
Default
 62
     1
420
 16711680
100
AcDbVertex
100
AcDb2dVertex
 10
1478.016205797186
 20
124.2980935296303
 30
15.10143077977017
  0
VERTEX
  5
F3
330
EF
100
AcDbEntity
  8
Default
 62
     1
420
 16711680
100
AcDbVertex
100
AcDb2dVertex
 10
1471.796493285091
 20
142.1993533497346
 30
15.10143077977017
  0
VERTEX
  5
F4
330
EF
100
AcDbEntity
  8
Default
 62
     1
420
 16711680
100
AcDbVertex
100
AcDb2dVertex
 10
1364.274981985757
 20
142.099989436483
 30
15.10143077977017
  0
VERTEX
  5
F5
330
EF
100
AcDbEntity
  8
Default
 62
     1
420
 16711680
100
AcDbVertex
100
AcDb2dVertex
 10
1364.29704651732
 20
118.2239996317347
 30
15.10143077977017
  0
VERTEX
  5
F6
330
EF
100
AcDbEntity
  8
Default
 62
     1
420
 16711680
100
AcDbVertex
100
AcDb2dVertex
 10
1391.940213237744
 20
38.66284487571522
 30
15.10143077977017
  0
VERTEX
  5
F7
330
EF
100
AcDbEntity
  8
Default
 62
     1
420
 16711680
100
AcDbVertex
100
AcDb2dVertex
 10
1419.517186363479
 20
30.72965953394066
 30
15.10143077977017
  0
SEQEND
  5
F8
330
EF
100
AcDbEntity
  8
Default
 62
     1
420
 16711680
  0
CIRCLE
  5
F9
330
1F
100
AcDbEntity
  8
Layer 01
 62
     1
420
 16711680
100
AcDbCircle
 10
1412.839670162231
 20
43.67694809766078
 30
0.0
 40
1.5
  0
POLYLINE
  5
FA
330
1F
100
AcDbEntity
  8
Default
 62
     1
420
 16711680
100
AcDb2dPolyline
 66
     1
 10
0.0
 20
0.0
 30
15.10143077977017
  0
VERTEX
  5
FB
330
FA
100
AcDbEntity
  8
Default
 62
     1
420
 16711680
100
AcDbVertex
100
AcDb2dVertex
 10
1453.588846361708
 20
112.9946405069094
 30
15.10143077977017
  0
VERTEX
  5
FC
330
FA
100
AcDbEntity
  8
Default
 62
     1
420
 16711680
100
AcDbVertex
100
AcDb2dVertex
 10
1453.284385799893
 20
108.3631424737105
 30
15.10143077977017
  0
VERTEX
  5
FD
330
FA
100
AcDbEntity
  8
Default
 62
     1
420
 16711680
100
AcDbVertex
100
AcDb2dVertex
 10
1419.776742322019
 20
58.23631895757933
 30
15.10143077977017
  0
VERTEX
  5
FE
330
FA
100
AcDbEntity
  8
Default
 62
     1
420
 16711680
100
AcDbVertex
100
AcDb2dVertex
 10
1408.810048692515
 20
56.86405541128966
 30
15.10143077977017
  0
VERTEX
  5
FF
330
FA
100
AcDbEntity
  8
Default
 62
     1
420
 16711680
100
AcDbVertex
100
AcDb2dVertex
 10
1381.086476621982
 20
113.1092129313819
 30
15.10143077977017
  0
VERTEX
  5
100
330
FA
100
AcDbEntity
  8
Default
 62
     1
420
 16711680
100
AcDbVertex
100
AcDb2dVertex
 10
1393.576152327689
 20
119.2654482382358
 30
15.10143077977017
  0
VERTEX
  5
101
330
FA
100
AcDbEntity
  8
Default
 62
     1
420
 16711680
100
AcDbVertex
100
AcDb2dVertex
 10
1442.317012903259
 20
125.3643973328539
 30
15.10143077977017
  0
VERTEX
  5
102
330
FA
100
AcDbEntity
  8
Default
 62
     1
420
 16711680
100
AcDbVertex
100
AcDb2dVertex
 10
1453.588846361708
 20
112.9946405069094
 30
15.10143077977017
  0
SEQEND
  5
103
330
FA
100
AcDbEntity
  8
Default
 62
     1
420
 16711680
  0
CIRCLE
  5
104
330
1F
100
AcDbEntity
  8
Layer 01
 62
     1
420
 16711680
100
AcDbCircle
 10
1462.238080153962
 20
130.0239057180011
 30
0.0
 40
1.5
  0
POLYLINE
  5
105
330
1F
100
AcDbEntity
  8
Default
 62
     1
420
 16711680
100
AcDb2dPolyline
 66
     1
 10
0.0
 20
0.0
 30
15.10143077977017
  0
VERTEX
  5
106
330
105
100
AcDbEntity
  8
Default
 62
     1
420
 16711680
100
AcDbVertex
100
AcDb2dVertex
 10
1419.311250735558
 20
253.5722310449246
 30
15.10143077977017
  0
VERTEX
  5
107
330
105
100
AcDbEntity
  8
Default
 62
     1
420
 16711680
100
AcDbVertex
100
AcDb2dVertex
 10
1426.207332727955
 20
249.5992688924186
 30
15.10143077977017
  0
VERTEX
  5
108
330
105
100
AcDbEntity
  8
Default
 62
     1
420
 16711680
100
AcDbVertex
100
AcDb2dVertex
 10
1477.983108999841
 20
160.1120782367526
 30
15.10143077977017
  0
VERTEX
  5
109
330
105
100
AcDbEntity
  8
Default
 62
     1
420
 16711680
100
AcDbVertex
100
AcDb2dVertex
 10
1471.796493285091
 20
142.1993533497346
 30
15.10143077977017
  0
VERTEX
  5
10A
330
105
100
AcDbEntity
  8
Default
 62
     1
420
 16711680
100
AcDbVertex
100
AcDb2dVertex
 10
1364.274981985757
 20
142.099989436483
 30
15.10143077977017
  0
VERTEX
  5
10B
330
105
100
AcDbEntity
  8
Default
 62
     1
420
 16711680
100
AcDbVertex
100
AcDb2dVertex
 10
1364.252917454194
 20
165.9759792412315
 30
15.10143077977017
  0
VERTEX
  5
10C
330
105
100
AcDbEntity
  8
Default
 62
     1
420
 16711680
100
AcDbVertex
100
AcDb2dVertex
 10
1391.748987297532
 20
245.5880898502005
 30
15.10143077977017
  0
VERTEX
  5
10D
330
105
100
AcDbEntity
  8
Default
 62
     1
420
 16711680
100
AcDbVertex
100
AcDb2dVertex
 10
1419.311250735558
 20
253.5722310449246
 30
15.10143077977017
  0
SEQEND
  5
10E
330
105
100
AcDbEntity
  8
Default
 62
     1
420
 16711680
  0
CIRCLE
  5
10F
330
1F
100
AcDbEntity
  8
Layer 01
 62
     1
420
 16711680
100
AcDbCircle
 10
1462.215593093061
 20
154.3571137573421
 30
0.0
 40
1.5
  0
CIRCLE
  5
110
330
1F
100
AcDbEntity
  8
Layer 01
 62
     1
420
 16711680
100
AcDbCircle
 10
1377.628369643973
 20
155.7719032024534
 30
0.0
 40
1.5
  0
CIRCLE
  5
111
330
1F
100
AcDbEntity
  8
Layer 01
 62
     1
420
 16711680
100
AcDbCircle
 10
1350.921594327542
 20
128.4280756705125
 30
0.0
 40
1.5
  0
CIRCLE
  5
112
330
1F
100
AcDbEntity
  8
Layer 01
 62
     1
420
 16711680
100
AcDbCircle
 10
1412.657675889065
 20
240.6126228127176
 30
0.0
 40
1.5
  0
POLYLINE
  5
113
330
1F
100
AcDbEntity
  8
Default
 62
     1
420
 16711680
100
AcDb2dPolyline
 66
     1
 10
0.0
 20
0.0
 30
15.10143077977017
  0
VERTEX
  5
114
330
113
100
AcDbEntity
  8
Default
 62
     1
420
 16711680
100
AcDbVertex
100
AcDb2dVertex
 10
1453.534899572452
 20
171.3703638531944
 30
15.10143077977017
  0
VERTEX
  5
115
330
113
100
AcDbEntity
  8
Default
 62
     1
420
 16711680
100
AcDbVertex
100
AcDb2dVertex
 10
1453.221879320338
 20
176.0012912535097
 30
15.10143077977017
  0
VERTEX
  5
116
330
113
100
AcDbEntity
  8
Default
 62
     1
420
 16711680
100
AcDbVertex
100
AcDb2dVertex
 10
1419.621645695892
 20
226.0660983303412
 30
15.10143077977017
  0
VERTEX
  5
117
330
113
100
AcDbEntity
  8
Default
 62
     1
420
 16711680
100
AcDbVertex
100
AcDb2dVertex
 10
1408.652434498701
 20
227.4180902368637
 30
15.10143077977017
  0
VERTEX
  5
118
330
113
100
AcDbEntity
  8
Default
 62
     1
420
 16711680
100
AcDbVertex
100
AcDb2dVertex
 10
1381.032865428746
 20
171.1217884293736
 30
15.10143077977017
  0
VERTEX
  5
119
330
113
100
AcDbEntity
  8
Default
 62
     1
420
 16711680
100
AcDbVertex
100
AcDb2dVertex
 10
1393.533898122182
 20
164.988647799589
 30
15.10143077977017
  0
VERTEX
  5
11A
330
113
100
AcDbEntity
  8
Default
 62
     1
420
 16711680
100
AcDbVertex
100
AcDb2dVertex
 10
1442.285947887472
 20
158.9797948817144
 30
15.10143077977017
  0
VERTEX
  5
11B
330
113
100
AcDbEntity
  8
Default
 62
     1
420
 16711680
100
AcDbVertex
100
AcDb2dVertex
 10
1453.534899572452
 20
171.3703638531944
 30
15.10143077977017
  0
SEQEND
  5
11C
330
113
100
AcDbEntity
  8
Default
 62
     1
420
 16711680
  0
POLYLINE
  5
11D
330
1F
100
AcDbEntity
  8
Default
 62
     1
420
 16711680
100
AcDb2dPolyline
 66
     1
 10
0.0
 20
0.0
 30
15.10143077977017
  0
VERTEX
  5
11E
330
11D
100
AcDbEntity
  8
Default
 62
     1
420
 16711680
100
AcDbVertex
100
AcDb2dVertex
 10
1275.015064399063
 20
112.8296150197707
 30
15.10143077977017
  0
VERTEX
  5
11F
330
11D
100
AcDbEntity
  8
Default
 62
     1
420
 16711680
100
AcDbVertex
100
AcDb2dVertex
 10
1275.328084651177
 20
108.1986876194553
 30
15.10143077977017
  0
VERTEX
  5
120
330
11D
100
AcDbEntity
  8
Default
 62
     1
420
 16711680
100
AcDbVertex
100
AcDb2dVertex
 10
1308.928318275624
 20
58.13388054262418
 30
15.10143077977017
  0
VERTEX
  5
121
330
11D
100
AcDbEntity
  8
Default
 62
     1
420
 16711680
100
AcDbVertex
100
AcDb2dVertex
 10
1319.897529472815
 20
56.78188863610194
 30
15.10143077977017
  0
VERTEX
  5
122
330
11D
100
AcDbEntity
  8
Default
 62
     1
420
 16711680
100
AcDbVertex
100
AcDb2dVertex
 10
1347.517098542769
 20
113.0781904435923
 30
15.10143077977017
  0
VERTEX
  5
123
330
11D
100
AcDbEntity
  8
Default
 62
     1
420
 16711680
100
AcDbVertex
100
AcDb2dVertex
 10
1335.016065849332
 20
119.2113310733768
 30
15.10143077977017
  0
VERTEX
  5
124
330
11D
100
AcDbEntity
  8
Default
 62
     1
420
 16711680
100
AcDbVertex
100
AcDb2dVertex
 10
1286.264016084043
 20
125.2201839912508
 30
15.10143077977017
  0
VERTEX
  5
125
330
11D
100
AcDbEntity
  8
Default
 62
     1
420
 16711680
100
AcDbVertex
100
AcDb2dVertex
 10
1275.015064399063
 20
112.8296150197707
 30
15.10143077977017
  0
SEQEND
  5
126
330
11D
100
AcDbEntity
  8
Default
 62
     1
420
 16711680
  0
POLYLINE
  5
127
330
1F
100
AcDbEntity
  8
Default
 62
     1
420
 16711680
100
AcDb2dPolyline
 66
     1
 10
0.0
 20
0.0
 30
15.10143077977017
  0
VERTEX
  5
128
330
127
100
AcDbEntity
  8
Default
 62
     1
420
 16711680
100
AcDbVertex
100
AcDb2dVertex
 10
1309.238713235957
 20
30.62774782804092
 30
15.10143077977017
  0
VERTEX
  5
129
330
127
100
AcDbEntity
  8
Default
 62
     1
420
 16711680
100
AcDbVertex
100
AcDb2dVertex
 10
1302.342631243561
 20
34.60070998054675
 30
15.10143077977017
  0
VERTEX
  5
12A
330
127
100
AcDbEntity
  8
Default
 62
     1
420
 16711680
100
AcDbVertex
100
AcDb2dVertex
 10
1250.566854971673
 20
124.0879006362121
 30
15.10143077977017
  0
VERTEX
  5
12B
330
127
100
AcDbEntity
  8
Default
 62
     1
420
 16711680
100
AcDbVertex
100
AcDb2dVertex
 10
1256.753470686424
 20
142.0006255232302
 30
15.10143077977017
  0
VERTEX
  5
12C
330
127
100
AcDbEntity
  8
Default
 62
     1
420
 16711680
100
AcDbVertex
100
AcDb2dVertex
 10
1364.274981985757
 20
142.099989436483
 30
15.10143077977017
  0
VERTEX
  5
12D
330
127
100
AcDbEntity
  8
Default
 62
     1
420
 16711680
100
AcDbVertex
100
AcDb2dVertex
 10
1364.29704651732
 20
118.2239996317347
 30
15.10143077977017
  0
VERTEX
  5
12E
330
127
100
AcDbEntity
  8
Default
 62
     1
420
 16711680
100
AcDbVertex
100
AcDb2dVertex
 10
1336.800976673984
 20
38.61188902276535
 30
15.10143077977017
  0
VERTEX
  5
12F
330
127
100
AcDbEntity
  8
Default
 62
     1
420
 16711680
100
AcDbVertex
100
AcDb2dVertex
 10
1309.238713235957
 20
30.62774782804092
 30
15.10143077977017
  0
SEQEND
  5
130
330
127
100
AcDbEntity
  8
Default
 62
     1
420
 16711680
  0
CIRCLE
  5
131
330
1F
100
AcDbEntity
  8
Layer 01
 62
     1
420
 16711680
100
AcDbCircle
 10
1266.334370878454
 20
129.8428651156229
 30
0.0
 40
1.5
  0
POLYLINE
  5
132
330
1F
100
AcDbEntity
  8
Default
 62
     1
420
 16711680
100
AcDb2dPolyline
 66
     1
 10
0.0
 20
0.0
 30
15.10143077977017
  0
VERTEX
  5
133
330
132
100
AcDbEntity
  8
Default
 62
     1
420
 16711680
100
AcDbVertex
100
AcDb2dVertex
 10
1274.961117609806
 20
171.2053383660557
 30
15.10143077977017
  0
VERTEX
  5
134
330
132
100
AcDbEntity
  8
Default
 62
     1
420
 16711680
100
AcDbVertex
100
AcDb2dVertex
 10
1275.265578171621
 20
175.8368363992546
 30
15.10143077977017
  0
VERTEX
  5
135
330
132
100
AcDbEntity
  8
Default
 62
     1
420
 16711680
100
AcDbVertex
100
AcDb2dVertex
 10
1308.773221649495
 20
225.9636599153861
 30
15.10143077977017
  0
VERTEX
  5
136
330
132
100
AcDbEntity
  8
Default
 62
     1
420
 16711680
100
AcDbVertex
100
AcDb2dVertex
 10
1319.739915278998
 20
227.3359234616759
 30
15.10143077977017
  0
VERTEX
  5
137
330
132
100
AcDbEntity
  8
Default
 62
     1
420
 16711680
100
AcDbVertex
100
AcDb2dVertex
 10
1347.463487349533
 20
171.0907659415841
 30
15.10143077977017
  0
VERTEX
  5
138
330
132
100
AcDbEntity
  8
Default
 62
     1
420
 16711680
100
AcDbVertex
100
AcDb2dVertex
 10
1334.973811643825
 20
164.93453063473
 30
15.10143077977017
  0
VERTEX
  5
139
330
132
100
AcDbEntity
  8
Default
 62
     1
420
 16711680
100
AcDbVertex
100
AcDb2dVertex
 10
1286.232951068255
 20
158.8355815401113
 30
15.10143077977017
  0
VERTEX
  5
13A
330
132
100
AcDbEntity
  8
Default
 62
     1
420
 16711680
100
AcDbVertex
100
AcDb2dVertex
 10
1274.961117609806
 20
171.2053383660557
 30
15.10143077977017
  0
SEQEND
  5
13B
330
132
100
AcDbEntity
  8
Default
 62
     1
420
 16711680
  0
POLYLINE
  5
13C
330
1F
100
AcDbEntity
  8
Default
 62
     1
420
 16711680
100
AcDb2dPolyline
 66
     1
 10
0.0
 20
0.0
 30
15.10143077977017
  0
VERTEX
  5
13D
330
13C
100
AcDbEntity
  8
Default
 62
     1
420
 16711680
100
AcDbVertex
100
AcDb2dVertex
 10
1309.032777608035
 20
253.4703193390249
 30
15.10143077977017
  0
VERTEX
  5
13E
330
13C
100
AcDbEntity
  8
Default
 62
     1
420
 16711680
100
AcDbVertex
100
AcDb2dVertex
 10
1302.144050459492
 20
249.4846182232815
 30
15.10143077977017
  0
VERTEX
  5
13F
330
13C
100
AcDbEntity
  8
Default
 62
     1
420
 16711680
100
AcDbVertex
100
AcDb2dVertex
 10
1250.533758174329
 20
159.9018853433345
 30
15.10143077977017
  0
VERTEX
  5
140
330
13C
100
AcDbEntity
  8
Default
 62
     1
420
 16711680
100
AcDbVertex
100
AcDb2dVertex
 10
1256.753470686424
 20
142.0006255232302
 30
15.10143077977017
  0
VERTEX
  5
141
330
13C
100
AcDbEntity
  8
Default
 62
     1
420
 16711680
100
AcDbVertex
100
AcDb2dVertex
 10
1364.274981985757
 20
142.099989436483
 30
15.10143077977017
  0
VERTEX
  5
142
330
13C
100
AcDbEntity
  8
Default
 62
     1
420
 16711680
100
AcDbVertex
100
AcDb2dVertex
 10
1364.252917454194
 20
165.9759792412315
 30
15.10143077977017
  0
VERTEX
  5
143
330
13C
100
AcDbEntity
  8
Default
 62
     1
420
 16711680
100
AcDbVertex
100
AcDb2dVertex
 10
1336.609750733769
 20
245.5371339972506
 30
15.10143077977017
  0
VERTEX
  5
144
330
13C
100
AcDbEntity
  8
Default
 62
     1
420
 16711680
100
AcDbVertex
100
AcDb2dVertex
 10
1309.032777608035
 20
253.4703193390249
 30
15.10143077977017
  0
SEQEND
  5
145
330
13C
100
AcDbEntity
  8
Default
 62
     1
420
 16711680
  0
CIRCLE
  5
146
330
1F
100
AcDbEntity
  8
Layer 01
 62
     1
420
 16711680
100
AcDbCircle
 10
1266.311883817553
 20
154.1760731549639
 30
0.0
 40
1.5
  0
CIRCLE
  5
147
330
1F
100
AcDbEntity
  8
Layer 01
 62
     1
420
 16711680
100
AcDbCircle
 10
1350.896347890805
 20
155.7471993245183
 30
0.0
 40
1.5
  0
CIRCLE
  5
148
330
1F
100
AcDbEntity
  8
Layer 01
 62
     1
420
 16711680
100
AcDbCircle
 10
1315.89228808245
 20
43.587356060248
 30
0.0
 40
1.5
  0
CIRCLE
  5
149
330
1F
100
AcDbEntity
  8
Layer 01
100
AcDbCircle
 10
973.439039765429
 20
283.2288801962276
 30
0.0
 40
1.5
  0
CIRCLE
  5
14A
330
1F
100
AcDbEntity
  8
Layer 01
100
AcDbCircle
 10
974.439039765429
 20
126.2288801962276
 30
0.0
 40
1.5
  0
CIRCLE
  5
14B
330
1F
100
AcDbEntity
  8
Layer 01
100
AcDbCircle
 10
1131.439039765429
 20
126.2288801962276
 30
0.0
 40
1.5
  0
CIRCLE
  5
14C
330
1F
100
AcDbEntity
  8
Layer 01
100
AcDbCircle
 10
1131.439039765429
 20
283.2288801962276
 30
0.0
 40
1.5
  0
CIRCLE
  5
14D
330
1F
100
AcDbEntity
  8
Layer 01
 62
     1
420
 16711680
100
AcDbCircle
 10
1315.710293809283
 20
240.5230307753048
 30
0.0
 40
1.5
  0
POLYLINE
  5
14E
330
1F
100
AcDbEntity
  8
Layer 03
 62
     1
420
 16711680
100
AcDb2dPolyline
 66
     1
 10
0.0
 20
0.0
 30
22.72879266332487
  0
VERTEX
  5
14F
330
14E
100
AcDbEntity
  8
Layer 03
 62
     1
420
 16711680
100
AcDbVertex
100
AcDb2dVertex
 10
1713.154899060902
 20
-127.3961360631589
 30
22.72879266332487
  0
VERTEX
  5
150
330
14E
100
AcDbEntity
  8
Layer 03
 62
     1
420
 16711680
100
AcDbVertex
100
AcDb2dVertex
 10
1703.154899060902
 20
-137.3961360631589
 30
22.72879266332487
  0
VERTEX
  5
151
330
14E
100
AcDbEntity
  8
Layer 03
 62
     1
420
 16711680
100
AcDbVertex
100
AcDb2dVertex
 10
1553.154899060902
 20
-137.3961360631589
 30
22.72879266332487
  0
VERTEX
  5
152
330
14E
100
AcDbEntity
  8
Layer 03
 62
     1
420
 16711680
100
AcDbVertex
100
AcDb2dVertex
 10
1553.154899060902
 20
-287.3961360631589
 30
22.72879266332487
  0
VERTEX
  5
153
330
14E
100
AcDbEntity
  8
Layer 03
 62
     1
420
 16711680
100
AcDbVertex
100
AcDb2dVertex
 10
1543.154899060902
 20
-297.3961360631589
 30
22.72879266332487
  0
VERTEX
  5
154
330
14E
100
AcDbEntity
  8
Layer 03
 62
     1
420
 16711680
100
AcDbVertex
100
AcDb2dVertex
 10
1543.154899060902
 20
-127.3961360631589
 30
22.72879266332487
  0
VERTEX
  5
155
330
14E
100
AcDbEntity
  8
Layer 03
 62
     1
420
 16711680
100
AcDbVertex
100
AcDb2dVertex
 10
1713.154899060902
 20
-127.3961360631589
 30
22.72879266332487
  0
SEQEND
  5
156
330
14E
100
AcDbEntity
  8
Layer 03
 62
     1
420
 16711680
  0
CIRCLE
  5
157
330
1F
100
AcDbEntity
  8
Layer 01
100
AcDbCircle
 10
1548.439039765429
 20
-132.7711198037724
 30
0.0
 40
1.5
  0
POLYLINE
  5
158
330
1F
100
AcDbEntity
  8
Layer 03
 62
     1
420
 16711680
100
AcDb2dPolyline
 66
     1
 10
0.0
 20
0.0
 30
22.72879266332487
  0
VERTEX
  5
159
330
158
100
AcDbEntity
  8
Layer 03
 62
     1
420
 16711680
100
AcDbVertex
100
AcDb2dVertex
 10
1743.154899060902
 20
-157.3961360631589
 30
22.72879266332487
  0
VERTEX
  5
15A
330
158
100
AcDbEntity
  8
Layer 03
 62
     1
420
 16711680
100
AcDbVertex
100
AcDb2dVertex
 10
1733.154899060902
 20
-167.3961360631589
 30
22.72879266332487
  0
VERTEX
  5
15B
330
158
100
AcDbEntity
  8
Layer 03
 62
     1
420
 16711680
100
AcDbVertex
100
AcDb2dVertex
 10
1583.154899060902
 20
-167.3961360631589
 30
22.72879266332487
  0
VERTEX
  5
15C
330
158
100
AcDbEntity
  8
Layer 03
 62
     1
420
 16711680
100
AcDbVertex
100
AcDb2dVertex
 10
1583.154899060902
 20
-317.3961360631589
 30
22.72879266332487
  0
VERTEX
  5
15D
330
158
100
AcDbEntity
  8
Layer 03
 62
     1
420
 16711680
100
AcDbVertex
100
AcDb2dVertex
 10
1573.154899060902
 20
-327.3961360631589
 30
22.72879266332487
  0
VERTEX
  5
15E
330
158
100
AcDbEntity
  8
Layer 03
 62
     1
420
 16711680
100
AcDbVertex
100
AcDb2dVertex
 10
1573.154899060902
 20
-157.3961360631589
 30
22.72879266332487
  0
VERTEX
  5
15F
330
158
100
AcDbEntity
  8
Layer 03
 62
     1
420
 16711680
100
AcDbVertex
100
AcDb2dVertex
 10
1743.154899060902
 20
-157.3961360631589
 30
22.72879266332487
  0
SEQEND
  5
160
330
158
100
AcDbEntity
  8
Layer 03
 62
     1
420
 16711680
  0
POLYLINE
  5
161
330
1F
100
AcDbEntity
  8
Layer 03
 62
     1
420
 16711680
100
AcDb2dPolyline
 66
     1
 10
0.0
 20
0.0
 30
22.72879266332487
  0
VERTEX
  5
162
330
161
100
AcDbEntity
  8
Layer 03
 62
     1
420
 16711680
100
AcDbVertex
100
AcDb2dVertex
 10
1703.154899060902
 20
-117.3961360631589
 30
22.72879266332487
  0
VERTEX
  5
163
330
161
100
AcDbEntity
  8
Layer 03
 62
     1
420
 16711680
100
AcDbVertex
100
AcDb2dVertex
 10
1693.154899060902
 20
-127.3961360631589
 30
22.72879266332487
  0
VERTEX
  5
164
330
161
100
AcDbEntity
  8
Layer 03
 62
     1
420
 16711680
100
AcDbVertex
100
AcDb2dVertex
 10
1543.154899060902
 20
-127.3961360631589
 30
22.72879266332487
  0
VERTEX
  5
165
330
161
100
AcDbEntity
  8
Layer 03
 62
     1
420
 16711680
100
AcDbVertex
100
AcDb2dVertex
 10
1543.154899060902
 20
-277.3961360631589
 30
22.72879266332487
  0
VERTEX
  5
166
330
161
100
AcDbEntity
  8
Layer 03
 62
     1
420
 16711680
100
AcDbVertex
100
AcDb2dVertex
 10
1533.154899060902
 20
-287.3961360631589
 30
22.72879266332487
  0
VERTEX
  5
167
330
161
100
AcDbEntity
  8
Layer 03
 62
     1
420
 16711680
100
AcDbVertex
100
AcDb2dVertex
 10
1533.154899060902
 20
-117.3961360631589
 30
22.72879266332487
  0
VERTEX
  5
168
330
161
100
AcDbEntity
  8
Layer 03
 62
     1
420
 16711680
100
AcDbVertex
100
AcDb2dVertex
 10
1703.154899060902
 20
-117.3961360631589
 30
22.72879266332487
  0
SEQEND
  5
169
330
161
100
AcDbEntity
  8
Layer 03
 62
     1
420
 16711680
  0
CIRCLE
  5
16A
330
1F
100
AcDbEntity
  8
Layer 01
100
AcDbCircle
 10
1478.439039765429
 20
-62.77111980377242
 30
0.0
 40
1.5
  0
CIRCLE
  5
16B
330
1F
100
AcDbEntity
  8
Layer 01
100
AcDbCircle
 10
1578.439039765429
 20
-162.7711198037724
 30
0.0
 40
1.5
  0
CIRCLE
  5
16C
330
1F
100
AcDbEntity
  8
Layer 01
100
AcDbCircle
 10
1478.439039765429
 20
-62.77111980377242
 30
0.0
 40
1.5
  0
POLYLINE
  5
16D
330
1F
100
AcDbEntity
  8
Layer 03
 62
     1
420
 16711680
100
AcDb2dPolyline
 66
     1
 10
0.0
 20
0.0
 30
22.72879266332487
  0
VERTEX
  5
16E
330
16D
100
AcDbEntity
  8
Layer 03
 62
     1
420
 16711680
100
AcDbVertex
100
AcDb2dVertex
 10
1653.154899060902
 20
-67.3961360631589
 30
22.72879266332487
  0
VERTEX
  5
16F
330
16D
100
AcDbEntity
  8
Layer 03
 62
     1
420
 16711680
100
AcDbVertex
100
AcDb2dVertex
 10
1643.154899060902
 20
-77.3961360631589
 30
22.72879266332487
  0
VERTEX
  5
170
330
16D
100
AcDbEntity
  8
Layer 03
 62
     1
420
 16711680
100
AcDbVertex
100
AcDb2dVertex
 10
1493.154899060902
 20
-77.3961360631589
 30
22.72879266332487
  0
VERTEX
  5
171
330
16D
100
AcDbEntity
  8
Layer 03
 62
     1
420
 16711680
100
AcDbVertex
100
AcDb2dVertex
 10
1493.154899060902
 20
-227.3961360631589
 30
22.72879266332487
  0
VERTEX
  5
172
330
16D
100
AcDbEntity
  8
Layer 03
 62
     1
420
 16711680
100
AcDbVertex
100
AcDb2dVertex
 10
1483.154899060902
 20
-237.3961360631589
 30
22.72879266332487
  0
VERTEX
  5
173
330
16D
100
AcDbEntity
  8
Layer 03
 62
     1
420
 16711680
100
AcDbVertex
100
AcDb2dVertex
 10
1483.154899060902
 20
-67.3961360631589
 30
22.72879266332487
  0
VERTEX
  5
174
330
16D
100
AcDbEntity
  8
Layer 03
 62
     1
420
 16711680
100
AcDbVertex
100
AcDb2dVertex
 10
1653.154899060902
 20
-67.3961360631589
 30
22.72879266332487
  0
SEQEND
  5
175
330
16D
100
AcDbEntity
  8
Layer 03
 62
     1
420
 16711680
  0
CIRCLE
  5
176
330
1F
100
AcDbEntity
  8
Layer 01
100
AcDbCircle
 10
1488.439039765429
 20
-72.77111980377242
 30
0.0
 40
1.5
  0
POLYLINE
  5
177
330
1F
100
AcDbEntity
  8
Layer 03
 62
     1
420
 16711680
100
AcDb2dPolyline
 66
     1
 10
0.0
 20
0.0
 30
22.72879266332487
  0
VERTEX
  5
178
330
177
100
AcDbEntity
  8
Layer 03
 62
     1
420
 16711680
100
AcDbVertex
100
AcDb2dVertex
 10
1693.154899060902
 20
-107.3961360631589
 30
22.72879266332487
  0
VERTEX
  5
179
330
177
100
AcDbEntity
  8
Layer 03
 62
     1
420
 16711680
100
AcDbVertex
100
AcDb2dVertex
 10
1683.154899060902
 20
-117.3961360631589
 30
22.72879266332487
  0
VERTEX
  5
17A
330
177
100
AcDbEntity
  8
Layer 03
 62
     1
420
 16711680
100
AcDbVertex
100
AcDb2dVertex
 10
1533.154899060902
 20
-117.3961360631589
 30
22.72879266332487
  0
VERTEX
  5
17B
330
177
100
AcDbEntity
  8
Layer 03
 62
     1
420
 16711680
100
AcDbVertex
100
AcDb2dVertex
 10
1533.154899060902
 20
-267.3961360631589
 30
22.72879266332487
  0
VERTEX
  5
17C
330
177
100
AcDbEntity
  8
Layer 03
 62
     1
420
 16711680
100
AcDbVertex
100
AcDb2dVertex
 10
1523.154899060902
 20
-277.3961360631589
 30
22.72879266332487
  0
VERTEX
  5
17D
330
177
100
AcDbEntity
  8
Layer 03
 62
     1
420
 16711680
100
AcDbVertex
100
AcDb2dVertex
 10
1523.154899060902
 20
-107.3961360631589
 30
22.72879266332487
  0
VERTEX
  5
17E
330
177
100
AcDbEntity
  8
Layer 03
 62
     1
420
 16711680
100
AcDbVertex
100
AcDb2dVertex
 10
1693.154899060902
 20
-107.3961360631589
 30
22.72879266332487
  0
SEQEND
  5
17F
330
177
100
AcDbEntity
  8
Layer 03
 62
     1
420
 16711680
  0
CIRCLE
  5
180
330
1F
100
AcDbEntity
  8
Layer 01
100
AcDbCircle
 10
1478.439039765429
 20
-62.77111980377242
 30
0.0
 40
1.5
  0
POLYLINE
  5
181
330
1F
100
AcDbEntity
  8
Layer 03
 62
     1
420
 16711680
100
AcDb2dPolyline
 66
     1
 10
0.0
 20
0.0
 30
22.72879266332487
  0
VERTEX
  5
182
330
181
100
AcDbEntity
  8
Layer 03
 62
     1
420
 16711680
100
AcDbVertex
100
AcDb2dVertex
 10
1643.154899060902
 20
-57.39613606315891
 30
22.72879266332487
  0
VERTEX
  5
183
330
181
100
AcDbEntity
  8
Layer 03
 62
     1
420
 16711680
100
AcDbVertex
100
AcDb2dVertex
 10
1633.154899060902
 20
-67.3961360631589
 30
22.72879266332487
  0
VERTEX
  5
184
330
181
100
AcDbEntity
  8
Layer 03
 62
     1
420
 16711680
100
AcDbVertex
100
AcDb2dVertex
 10
1483.154899060902
 20
-67.3961360631589
 30
22.72879266332487
  0
VERTEX
  5
185
330
181
100
AcDbEntity
  8
Layer 03
 62
     1
420
 16711680
100
AcDbVertex
100
AcDb2dVertex
 10
1483.154899060902
 20
-217.3961360631589
 30
22.72879266332487
  0
VERTEX
  5
186
330
181
100
AcDbEntity
  8
Layer 03
 62
     1
420
 16711680
100
AcDbVertex
100
AcDb2dVertex
 10
1473.154899060902
 20
-227.3961360631589
 30
22.72879266332487
  0
VERTEX
  5
187
330
181
100
AcDbEntity
  8
Layer 03
 62
     1
420
 16711680
100
AcDbVertex
100
AcDb2dVertex
 10
1473.154899060902
 20
-57.39613606315891
 30
22.72879266332487
  0
VERTEX
  5
188
330
181
100
AcDbEntity
  8
Layer 03
 62
     1
420
 16711680
100
AcDbVertex
100
AcDb2dVertex
 10
1643.154899060902
 20
-57.39613606315891
 30
22.72879266332487
  0
SEQEND
  5
189
330
181
100
AcDbEntity
  8
Layer 03
 62
     1
420
 16711680
  0
POLYLINE
  5
18A
330
1F
100
AcDbEntity
  8
Layer 03
 62
     1
420
 16711680
100
AcDb2dPolyline
 66
     1
 10
0.0
 20
0.0
 30
22.72879266332487
  0
VERTEX
  5
18B
330
18A
100
AcDbEntity
  8
Layer 03
 62
     1
420
 16711680
100
AcDbVertex
100
AcDb2dVertex
 10
1683.154899060902
 20
-97.3961360631589
 30
22.72879266332487
  0
VERTEX
  5
18C
330
18A
100
AcDbEntity
  8
Layer 03
 62
     1
420
 16711680
100
AcDbVertex
100
AcDb2dVertex
 10
1673.154899060902
 20
-107.3961360631589
 30
22.72879266332487
  0
VERTEX
  5
18D
330
18A
100
AcDbEntity
  8
Layer 03
 62
     1
420
 16711680
100
AcDbVertex
100
AcDb2dVertex
 10
1523.154899060902
 20
-107.3961360631589
 30
22.72879266332487
  0
VERTEX
  5
18E
330
18A
100
AcDbEntity
  8
Layer 03
 62
     1
420
 16711680
100
AcDbVertex
100
AcDb2dVertex
 10
1523.154899060902
 20
-257.3961360631589
 30
22.72879266332487
  0
VERTEX
  5
18F
330
18A
100
AcDbEntity
  8
Layer 03
 62
     1
420
 16711680
100
AcDbVertex
100
AcDb2dVertex
 10
1513.154899060902
 20
-267.3961360631589
 30
22.72879266332487
  0
VERTEX
  5
190
330
18A
100
AcDbEntity
  8
Layer 03
 62
     1
420
 16711680
100
AcDbVertex
100
AcDb2dVertex
 10
1513.154899060902
 20
-97.3961360631589
 30
22.72879266332487
  0
VERTEX
  5
191
330
18A
100
AcDbEntity
  8
Layer 03
 62
     1
420
 16711680
100
AcDbVertex
100
AcDb2dVertex
 10
1683.154899060902
 20
-97.3961360631589
 30
22.72879266332487
  0
SEQEND
  5
192
330
18A
100
AcDbEntity
  8
Layer 03
 62
     1
420
 16711680
  0
POLYLINE
  5
193
330
1F
100
AcDbEntity
  8
Layer 03
 62
     1
420
 16711680
100
AcDb2dPolyline
 66
     1
 10
0.0
 20
0.0
 30
22.72879266332487
  0
VERTEX
  5
194
330
193
100
AcDbEntity
  8
Layer 03
 62
     1
420
 16711680
100
AcDbVertex
100
AcDb2dVertex
 10
1713.154899060902
 20
-127.3961360631589
 30
22.72879266332487
  0
VERTEX
  5
195
330
193
100
AcDbEntity
  8
Layer 03
 62
     1
420
 16711680
100
AcDbVertex
100
AcDb2dVertex
 10
1703.154899060902
 20
-137.3961360631589
 30
22.72879266332487
  0
VERTEX
  5
196
330
193
100
AcDbEntity
  8
Layer 03
 62
     1
420
 16711680
100
AcDbVertex
100
AcDb2dVertex
 10
1553.154899060902
 20
-137.3961360631589
 30
22.72879266332487
  0
VERTEX
  5
197
330
193
100
AcDbEntity
  8
Layer 03
 62
     1
420
 16711680
100
AcDbVertex
100
AcDb2dVertex
 10
1553.154899060902
 20
-287.3961360631589
 30
22.72879266332487
  0
VERTEX
  5
198
330
193
100
AcDbEntity
  8
Layer 03
 62
     1
420
 16711680
100
AcDbVertex
100
AcDb2dVertex
 10
1543.154899060902
 20
-297.3961360631589
 30
22.72879266332487
  0
VERTEX
  5
199
330
193
100
AcDbEntity
  8
Layer 03
 62
     1
420
 16711680
100
AcDbVertex
100
AcDb2dVertex
 10
1543.154899060902
 20
-127.3961360631589
 30
22.72879266332487
  0
VERTEX
  5
19A
330
193
100
AcDbEntity
  8
Layer 03
 62
     1
420
 16711680
100
AcDbVertex
100
AcDb2dVertex
 10
1713.154899060902
 20
-127.3961360631589
 30
22.72879266332487
  0
SEQEND
  5
19B
330
193
100
AcDbEntity
  8
Layer 03
 62
     1
420
 16711680
  0
CIRCLE
  5
19C
330
1F
100
AcDbEntity
  8
Layer 01
100
AcDbCircle
 10
1548.439039765429
 20
-132.7711198037724
 30
0.0
 40
1.5
  0
CIRCLE
  5
19D
330
1F
100
AcDbEntity
  8
Layer 01
100
AcDbCircle
 10
1518.439039765429
 20
-102.7711198037724
 30
0.0
 40
1.5
  0
CIRCLE
  5
19E
330
1F
100
AcDbEntity
  8
Layer 01
100
AcDbCircle
 10
1528.439039765429
 20
-112.7711198037724
 30
0.0
 40
1.5
  0
CIRCLE
  5
19F
330
1F
100
AcDbEntity
  8
Layer 01
100
AcDbCircle
 10
1518.439039765429
 20
-102.7711198037724
 30
0.0
 40
1.5
  0
CIRCLE
  5
1A0
330
1F
100
AcDbEntity
  8
Layer 01
100
AcDbCircle
 10
1508.439039765429
 20
-92.77111980377242
 30
0.0
 40
1.5
  0
CIRCLE
  5
1A1
330
1F
100
AcDbEntity
  8
Layer 01
100
AcDbCircle
 10
1498.439039765429
 20
-82.77111980377242
 30
0.0
 40
1.5
  0
POLYLINE
  5
1A2
330
1F
100
AcDbEntity
  8
Default
 62
     5
420
      255
100
AcDb2dPolyline
 66
     1
 10
0.0
 20
0.0
 30
22.72879266332487
  0
VERTEX
  5
1A3
330
1A2
100
AcDbEntity
  8
Default
 62
     5
420
      255
100
AcDbVertex
100
AcDb2dVertex
 10
1307.154899060902
 20
-219.3961360631589
 30
22.72879266332487
  0
VERTEX
  5
1A4
330
1A2
100
AcDbEntity
  8
Default
 62
     5
420
      255
100
AcDbVertex
100
AcDb2dVertex
 10
1457.154899060902
 20
-219.3961360631589
 30
22.72879266332487
  0
VERTEX
  5
1A5
330
1A2
100
AcDbEntity
  8
Default
 62
     5
420
      255
100
AcDbVertex
100
AcDb2dVertex
 10
1457.154899060902
 20
-69.3961360631589
 30
22.72879266332487
  0
VERTEX
  5
1A6
330
1A2
100
AcDbEntity
  8
Default
 62
     5
420
      255
100
AcDbVertex
100
AcDb2dVertex
 10
1307.154899060902
 20
-69.3961360631589
 30
22.72879266332487
  0
VERTEX
  5
1A7
330
1A2
100
AcDbEntity
  8
Default
 62
     5
420
      255
100
AcDbVertex
100
AcDb2dVertex
 10
1307.154899060902
 20
-219.3961360631589
 30
22.72879266332487
  0
SEQEND
  5
1A8
330
1A2
100
AcDbEntity
  8
Default
 62
     5
420
      255
  0
POLYLINE
  5
1A9
330
1F
100
AcDbEntity
  8
Default
 62
     5
420
      255
100
AcDb2dPolyline
 66
     1
 10
0.0
 20
0.0
 30
15.10143077977017
  0
VERTEX
  5
1AA
330
1A9
100
AcDbEntity
  8
Default
 62
     5
420
      255
100
AcDbVertex
100
AcDb2dVertex
 10
1350.45375407992
 20
-136.3627556552625
 30
15.10143077977017
  0
VERTEX
  5
1AB
330
1A9
100
AcDbEntity
  8
Default
 62
     5
420
      255
100
AcDbVertex
100
AcDb2dVertex
 10
1353.036738576861
 20
-132.5063763489972
 30
15.10143077977017
  0
VERTEX
  5
1AC
330
1A9
100
AcDbEntity
  8
Default
 62
     5
420
      255
100
AcDbVertex
100
AcDb2dVertex
 10
1407.143232511354
 20
-105.8990855929961
 30
15.10143077977017
  0
VERTEX
  5
1AD
330
1A9
100
AcDbEntity
  8
Default
 62
     5
420
      255
100
AcDbVertex
100
AcDb2dVertex
 10
1417.322826138786
 20
-110.2034264233922
 30
15.10143077977017
  0
VERTEX
  5
1AE
330
1A9
100
AcDbEntity
  8
Default
 62
     5
420
      255
100
AcDbVertex
100
AcDb2dVertex
 10
1413.151742602248
 20
-172.7711198037724
 30
15.10143077977017
  0
VERTEX
  5
1AF
330
1A9
100
AcDbEntity
  8
Default
 62
     5
420
      255
100
AcDbVertex
100
AcDb2dVertex
 10
1399.258098519272
 20
-171.8448981873752
 30
15.10143077977017
  0
VERTEX
  5
1B0
330
1A9
100
AcDbEntity
  8
Default
 62
     5
420
      255
100
AcDbVertex
100
AcDb2dVertex
 10
1354.015460175133
 20
-152.7144944967234
 30
15.10143077977017
  0
VERTEX
  5
1B1
330
1A9
100
AcDbEntity
  8
Default
 62
     5
420
      255
100
AcDbVertex
100
AcDb2dVertex
 10
1350.45375407992
 20
-136.3627556552625
 30
15.10143077977017
  0
SEQEND
  5
1B2
330
1A9
100
AcDbEntity
  8
Default
 62
     5
420
      255
  0
CIRCLE
  5
1B3
330
1F
100
AcDbEntity
  8
Layer 01
100
AcDbCircle
 10
1420.439039765429
 20
-96.77111980377242
 30
0.0
 40
1.5
  0
CIRCLE
  5
1B4
330
1F
100
AcDbEntity
  8
Layer 01
100
AcDbCircle
 10
1408.439039765429
 20
-187.7711198037724
 30
0.0
 40
1.5
  0
CIRCLE
  5
1B5
330
1F
100
AcDbEntity
  8
Layer 01
100
AcDbCircle
 10
1334.439039765429
 20
-146.7711198037724
 30
0.0
 40
1.5
  0
POLYLINE
  5
1B6
330
1F
100
AcDbEntity
  8
Layer 01
100
AcDb2dPolyline
 66
     1
 10
0.0
 20
0.0
 30
22.72879266332487
  0
VERTEX
  5
1B7
330
1B6
100
AcDbEntity
  8
Layer 01
100
AcDbVertex
100
AcDb2dVertex
 10
1297.154899060902
 20
-229.3961360631589
 30
22.72879266332487
  0
VERTEX
  5
1B8
330
1B6
100
AcDbEntity
  8
Layer 01
100
AcDbVertex
100
AcDb2dVertex
 10
1467.154899060902
 20
-229.3961360631589
 30
22.72879266332487
  0
VERTEX
  5
1B9
330
1B6
100
AcDbEntity
  8
Layer 01
100
AcDbVertex
100
AcDb2dVertex
 10
1467.154899060902
 20
-59.39613606315891
 30
22.72879266332487
  0
VERTEX
  5
1BA
330
1B6
100
AcDbEntity
  8
Layer 01
100
AcDbVertex
100
AcDb2dVertex
 10
1297.154899060902
 20
-59.39613606315891
 30
22.72879266332487
  0
VERTEX
  5
1BB
330
1B6
100
AcDbEntity
  8
Layer 01
100
AcDbVertex
100
AcDb2dVertex
 10
1297.154899060902
 20
-229.3961360631589
 30
22.72879266332487
  0
SEQEND
  5
1BC
330
1B6
100
AcDbEntity
  8
Layer 01
  0
CIRCLE
  5
1BD
330
1F
100
AcDbEntity
  8
Layer 01
100
AcDbCircle
 10
1091.439039765429
 20
252.2288801962276
 30
0.0
 40
1.5
  0
POLYLINE
  5
1BE
330
1F
100
AcDbEntity
  8
Default
100
AcDb2dPolyline
 66
     1
 10
0.0
 20
0.0
 30
15.10143077977017
  0
VERTEX
  5
1BF
330
1BE
100
AcDbEntity
  8
Default
100
AcDbVertex
100
AcDb2dVertex
 10
1092.143232511354
 20
266.7796745507208
 30
15.10143077977017
  0
VERTEX
  5
1C0
330
1BE
100
AcDbEntity
  8
Default
100
AcDbVertex
100
AcDb2dVertex
 10
1084.184565844688
 20
266.7796745507208
 30
15.10143077977017
  0
VERTEX
  5
1C1
330
1BE
100
AcDbEntity
  8
Default
100
AcDbVertex
100
AcDb2dVertex
 10
994.6495658446877
 20
215.0866181988278
 30
15.10143077977017
  0
VERTEX
  5
1C2
330
1BE
100
AcDbEntity
  8
Default
100
AcDbVertex
100
AcDb2dVertex
 10
991.0681658446877
 20
196.4771179121462
 30
15.10143077977017
  0
VERTEX
  5
1C3
330
1BE
100
AcDbEntity
  8
Default
100
AcDbVertex
100
AcDb2dVertex
 10
1084.184565844688
 20
142.7163393061772
 30
15.10143077977017
  0
VERTEX
  5
1C4
330
1BE
100
AcDbEntity
  8
Default
100
AcDbVertex
100
AcDb2dVertex
 10
1096.122565844688
 20
163.3935618469345
 30
15.10143077977017
  0
VERTEX
  5
1C5
330
1BE
100
AcDbEntity
  8
Default
100
AcDbVertex
100
AcDb2dVertex
 10
1112.039899178021
 20
246.1024520099636
 30
15.10143077977017
  0
VERTEX
  5
1C6
330
1BE
100
AcDbEntity
  8
Default
100
AcDbVertex
100
AcDb2dVertex
 10
1092.143232511354
 20
266.7796745507208
 30
15.10143077977017
  0
SEQEND
  5
1C7
330
1BE
100
AcDbEntity
  8
Default
  0
POLYLINE
  5
1C8
330
1F
100
AcDbEntity
  8
Default
100
AcDb2dPolyline
 66
     1
 10
0.0
 20
0.0
 30
15.10143077977017
  0
VERTEX
  5
1C9
330
1C8
100
AcDbEntity
  8
Default
100
AcDbVertex
100
AcDb2dVertex
 10
1021.45375407992
 20
212.6372443447375
 30
15.10143077977017
  0
VERTEX
  5
1CA
330
1C8
100
AcDbEntity
  8
Default
100
AcDbVertex
100
AcDb2dVertex
 10
1024.036738576861
 20
216.4936236510028
 30
15.10143077977017
  0
VERTEX
  5
1CB
330
1C8
100
AcDbEntity
  8
Default
100
AcDbVertex
100
AcDb2dVertex
 10
1078.143232511354
 20
243.100914407004
 30
15.10143077977017
  0
VERTEX
  5
1CC
330
1C8
100
AcDbEntity
  8
Default
100
AcDbVertex
100
AcDb2dVertex
 10
1088.322826138786
 20
238.7965735766079
 30
15.10143077977017
  0
VERTEX
  5
1CD
330
1C8
100
AcDbEntity
  8
Default
100
AcDbVertex
100
AcDb2dVertex
 10
1084.151742602248
 20
176.2288801962276
 30
15.10143077977017
  0
VERTEX
  5
1CE
330
1C8
100
AcDbEntity
  8
Default
100
AcDbVertex
100
AcDb2dVertex
 10
1070.258098519272
 20
177.1551018126248
 30
15.10143077977017
  0
VERTEX
  5
1CF
330
1C8
100
AcDbEntity
  8
Default
100
AcDbVertex
100
AcDb2dVertex
 10
1025.015460175133
 20
196.2855055032766
 30
15.10143077977017
  0
VERTEX
  5
1D0
330
1C8
100
AcDbEntity
  8
Default
100
AcDbVertex
100
AcDb2dVertex
 10
1021.45375407992
 20
212.6372443447375
 30
15.10143077977017
  0
SEQEND
  5
1D1
330
1C8
100
AcDbEntity
  8
Default
  0
CIRCLE
  5
1D2
330
1F
100
AcDbEntity
  8
Layer 01
100
AcDbCircle
 10
1079.439039765429
 20
161.2288801962276
 30
0.0
 40
1.5
  0
CIRCLE
  5
1D3
330
1F
100
AcDbEntity
  8
Layer 01
100
AcDbCircle
 10
1005.439039765429
 20
202.2288801962276
 30
0.0
 40
1.5
  0
POLYLINE
  5
1D4
330
1F
100
AcDbEntity
  8
Layer 03
 62
     1
420
 16711680
100
AcDb2dPolyline
 66
     1
 10
0.0
 20
0.0
 30
22.72879266332487
  0
VERTEX
  5
1D5
330
1D4
100
AcDbEntity
  8
Layer 03
 62
     1
420
 16711680
100
AcDbVertex
100
AcDb2dVertex
 10
1683.154899060902
 20
-97.3961360631589
 30
22.72879266332487
  0
VERTEX
  5
1D6
330
1D4
100
AcDbEntity
  8
Layer 03
 62
     1
420
 16711680
100
AcDbVertex
100
AcDb2dVertex
 10
1673.154899060902
 20
-107.3961360631589
 30
22.72879266332487
  0
VERTEX
  5
1D7
330
1D4
100
AcDbEntity
  8
Layer 03
 62
     1
420
 16711680
100
AcDbVertex
100
AcDb2dVertex
 10
1523.154899060902
 20
-107.3961360631589
 30
22.72879266332487
  0
VERTEX
  5
1D8
330
1D4
100
AcDbEntity
  8
Layer 03
 62
     1
420
 16711680
100
AcDbVertex
100
AcDb2dVertex
 10
1523.154899060902
 20
-257.3961360631589
 30
22.72879266332487
  0
VERTEX
  5
1D9
330
1D4
100
AcDbEntity
  8
Layer 03
 62
     1
420
 16711680
100
AcDbVertex
100
AcDb2dVertex
 10
1513.154899060902
 20
-267.3961360631589
 30
22.72879266332487
  0
VERTEX
  5
1DA
330
1D4
100
AcDbEntity
  8
Layer 03
 62
     1
420
 16711680
100
AcDbVertex
100
AcDb2dVertex
 10
1513.154899060902
 20
-97.3961360631589
 30
22.72879266332487
  0
VERTEX
  5
1DB
330
1D4
100
AcDbEntity
  8
Layer 03
 62
     1
420
 16711680
100
AcDbVertex
100
AcDb2dVertex
 10
1683.154899060902
 20
-97.3961360631589
 30
22.72879266332487
  0
SEQEND
  5
1DC
330
1D4
100
AcDbEntity
  8
Layer 03
 62
     1
420
 16711680
  0
CIRCLE
  5
1DD
330
1F
100
AcDbEntity
  8
Layer 01
100
AcDbCircle
 10
1598.439039765429
 20
-182.7711198037724
 30
0.0
 40
1.5
  0
POLYLINE
  5
1DE
330
1F
100
AcDbEntity
  8
Layer 03
 62
     1
420
 16711680
100
AcDb2dPolyline
 66
     1
 10
0.0
 20
0.0
 30
22.72879266332487
  0
VERTEX
  5
1DF
330
1DE
100
AcDbEntity
  8
Layer 03
 62
     1
420
 16711680
100
AcDbVertex
100
AcDb2dVertex
 10
1763.154899060902
 20
-177.3961360631589
 30
22.72879266332487
  0
VERTEX
  5
1E0
330
1DE
100
AcDbEntity
  8
Layer 03
 62
     1
420
 16711680
100
AcDbVertex
100
AcDb2dVertex
 10
1753.154899060902
 20
-187.3961360631589
 30
22.72879266332487
  0
VERTEX
  5
1E1
330
1DE
100
AcDbEntity
  8
Layer 03
 62
     1
420
 16711680
100
AcDbVertex
100
AcDb2dVertex
 10
1603.154899060902
 20
-187.3961360631589
 30
22.72879266332487
  0
VERTEX
  5
1E2
330
1DE
100
AcDbEntity
  8
Layer 03
 62
     1
420
 16711680
100
AcDbVertex
100
AcDb2dVertex
 10
1603.154899060902
 20
-337.3961360631589
 30
22.72879266332487
  0
VERTEX
  5
1E3
330
1DE
100
AcDbEntity
  8
Layer 03
 62
     1
420
 16711680
100
AcDbVertex
100
AcDb2dVertex
 10
1593.154899060902
 20
-347.3961360631589
 30
22.72879266332487
  0
VERTEX
  5
1E4
330
1DE
100
AcDbEntity
  8
Layer 03
 62
     1
420
 16711680
100
AcDbVertex
100
AcDb2dVertex
 10
1593.154899060902
 20
-177.3961360631589
 30
22.72879266332487
  0
VERTEX
  5
1E5
330
1DE
100
AcDbEntity
  8
Layer 03
 62
     1
420
 16711680
100
AcDbVertex
100
AcDb2dVertex
 10
1763.154899060902
 20
-177.3961360631589
 30
22.72879266332487
  0
SEQEND
  5
1E6
330
1DE
100
AcDbEntity
  8
Layer 03
 62
     1
420
 16711680
  0
CIRCLE
  5
1E7
330
1F
100
AcDbEntity
  8
Layer 01
100
AcDbCircle
 10
1588.439039765429
 20
-172.7711198037724
 30
0.0
 40
1.5
  0
CIRCLE
  5
1E8
330
1F
100
AcDbEntity
  8
Layer 01
100
AcDbCircle
 10
1578.439039765429
 20
-162.7711198037724
 30
0.0
 40
1.5
  0
CIRCLE
  5
1E9
330
1F
100
AcDbEntity
  8
Layer 01
100
AcDbCircle
 10
1568.439039765429
 20
-152.7711198037724
 30
0.0
 40
1.5
  0
POLYLINE
  5
1EA
330
1F
100
AcDbEntity
  8
Layer 03
 62
     1
420
 16711680
100
AcDb2dPolyline
 66
     1
 10
0.0
 20
0.0
 30
22.72879266332487
  0
VERTEX
  5
1EB
330
1EA
100
AcDbEntity
  8
Layer 03
 62
     1
420
 16711680
100
AcDbVertex
100
AcDb2dVertex
 10
1723.154899060902
 20
-137.3961360631589
 30
22.72879266332487
  0
VERTEX
  5
1EC
330
1EA
100
AcDbEntity
  8
Layer 03
 62
     1
420
 16711680
100
AcDbVertex
100
AcDb2dVertex
 10
1713.154899060902
 20
-147.3961360631589
 30
22.72879266332487
  0
VERTEX
  5
1ED
330
1EA
100
AcDbEntity
  8
Layer 03
 62
     1
420
 16711680
100
AcDbVertex
100
AcDb2dVertex
 10
1563.154899060902
 20
-147.3961360631589
 30
22.72879266332487
  0
VERTEX
  5
1EE
330
1EA
100
AcDbEntity
  8
Layer 03
 62
     1
420
 16711680
100
AcDbVertex
100
AcDb2dVertex
 10
1563.154899060902
 20
-297.3961360631589
 30
22.72879266332487
  0
VERTEX
  5
1EF
330
1EA
100
AcDbEntity
  8
Layer 03
 62
     1
420
 16711680
100
AcDbVertex
100
AcDb2dVertex
 10
1553.154899060902
 20
-307.3961360631589
 30
22.72879266332487
  0
VERTEX
  5
1F0
330
1EA
100
AcDbEntity
  8
Layer 03
 62
     1
420
 16711680
100
AcDbVertex
100
AcDb2dVertex
 10
1553.154899060902
 20
-137.3961360631589
 30
22.72879266332487
  0
VERTEX
  5
1F1
330
1EA
100
AcDbEntity
  8
Layer 03
 62
     1
420
 16711680
100
AcDbVertex
100
AcDb2dVertex
 10
1723.154899060902
 20
-137.3961360631589
 30
22.72879266332487
  0
SEQEND
  5
1F2
330
1EA
100
AcDbEntity
  8
Layer 03
 62
     1
420
 16711680
  0
CIRCLE
  5
1F3
330
1F
100
AcDbEntity
  8
Layer 01
100
AcDbCircle
 10
1558.439039765429
 20
-142.7711198037724
 30
0.0
 40
1.5
  0
CIRCLE
  5
1F4
330
1F
100
AcDbEntity
  8
Layer 01
100
AcDbCircle
 10
1598.439039765429
 20
-182.7711198037724
 30
0.0
 40
1.5
  0
CIRCLE
  5
1F5
330
1F
100
AcDbEntity
  8
Layer 01
100
AcDbCircle
 10
1558.439039765429
 20
-142.7711198037724
 30
0.0
 40
1.5
  0
CIRCLE
  5
1F6
330
1F
100
AcDbEntity
  8
Layer 01
100
AcDbCircle
 10
1518.439039765429
 20
-102.7711198037724
 30
0.0
 40
1.5
  0
POLYLINE
  5
1F7
330
1F
100
AcDbEntity
  8
Layer 03
 62
     1
420
 16711680
100
AcDb2dPolyline
 66
     1
 10
0.0
 20
0.0
 30
22.72879266332487
  0
VERTEX
  5
1F8
330
1F7
100
AcDbEntity
  8
Layer 03
 62
     1
420
 16711680
100
AcDbVertex
100
AcDb2dVertex
 10
1693.154899060902
 20
-107.3961360631589
 30
22.72879266332487
  0
VERTEX
  5
1F9
330
1F7
100
AcDbEntity
  8
Layer 03
 62
     1
420
 16711680
100
AcDbVertex
100
AcDb2dVertex
 10
1683.154899060902
 20
-117.3961360631589
 30
22.72879266332487
  0
VERTEX
  5
1FA
330
1F7
100
AcDbEntity
  8
Layer 03
 62
     1
420
 16711680
100
AcDbVertex
100
AcDb2dVertex
 10
1533.154899060902
 20
-117.3961360631589
 30
22.72879266332487
  0
VERTEX
  5
1FB
330
1F7
100
AcDbEntity
  8
Layer 03
 62
     1
420
 16711680
100
AcDbVertex
100
AcDb2dVertex
 10
1533.154899060902
 20
-267.3961360631589
 30
22.72879266332487
  0
VERTEX
  5
1FC
330
1F7
100
AcDbEntity
  8
Layer 03
 62
     1
420
 16711680
100
AcDbVertex
100
AcDb2dVertex
 10
1523.154899060902
 20
-277.3961360631589
 30
22.72879266332487
  0
VERTEX
  5
1FD
330
1F7
100
AcDbEntity
  8
Layer 03
 62
     1
420
 16711680
100
AcDbVertex
100
AcDb2dVertex
 10
1523.154899060902
 20
-107.3961360631589
 30
22.72879266332487
  0
VERTEX
  5
1FE
330
1F7
100
AcDbEntity
  8
Layer 03
 62
     1
420
 16711680
100
AcDbVertex
100
AcDb2dVertex
 10
1693.154899060902
 20
-107.3961360631589
 30
22.72879266332487
  0
SEQEND
  5
1FF
330
1F7
100
AcDbEntity
  8
Layer 03
 62
     1
420
 16711680
  0
CIRCLE
  5
200
330
1F
100
AcDbEntity
  8
Layer 01
100
AcDbCircle
 10
1538.439039765429
 20
-122.7711198037724
 30
0.0
 40
1.5
  0
CIRCLE
  5
201
330
1F
100
AcDbEntity
  8
Layer 01
100
AcDbCircle
 10
1538.439039765429
 20
-122.7711198037724
 30
0.0
 40
1.5
  0
CIRCLE
  5
202
330
1F
100
AcDbEntity
  8
Layer 01
100
AcDbCircle
 10
1518.439039765429
 20
-102.7711198037724
 30
0.0
 40
1.5
  0
CIRCLE
  5
203
330
1F
100
AcDbEntity
  8
Layer 01
100
AcDbCircle
 10
1528.439039765429
 20
-112.7711198037724
 30
0.0
 40
1.5
  0
POLYLINE
  5
204
330
1F
100
AcDbEntity
  8
Layer 03
 62
     1
420
 16711680
100
AcDb2dPolyline
 66
     1
 10
0.0
 20
0.0
 30
22.72879266332487
  0
VERTEX
  5
205
330
204
100
AcDbEntity
  8
Layer 03
 62
     1
420
 16711680
100
AcDbVertex
100
AcDb2dVertex
 10
1653.154899060902
 20
-67.3961360631589
 30
22.72879266332487
  0
VERTEX
  5
206
330
204
100
AcDbEntity
  8
Layer 03
 62
     1
420
 16711680
100
AcDbVertex
100
AcDb2dVertex
 10
1643.154899060902
 20
-77.3961360631589
 30
22.72879266332487
  0
VERTEX
  5
207
330
204
100
AcDbEntity
  8
Layer 03
 62
     1
420
 16711680
100
AcDbVertex
100
AcDb2dVertex
 10
1493.154899060902
 20
-77.3961360631589
 30
22.72879266332487
  0
VERTEX
  5
208
330
204
100
AcDbEntity
  8
Layer 03
 62
     1
420
 16711680
100
AcDbVertex
100
AcDb2dVertex
 10
1493.154899060902
 20
-227.3961360631589
 30
22.72879266332487
  0
VERTEX
  5
209
330
204
100
AcDbEntity
  8
Layer 03
 62
     1
420
 16711680
100
AcDbVertex
100
AcDb2dVertex
 10
1483.154899060902
 20
-237.3961360631589
 30
22.72879266332487
  0
VERTEX
  5
20A
330
204
100
AcDbEntity
  8
Layer 03
 62
     1
420
 16711680
100
AcDbVertex
100
AcDb2dVertex
 10
1483.154899060902
 20
-67.3961360631589
 30
22.72879266332487
  0
VERTEX
  5
20B
330
204
100
AcDbEntity
  8
Layer 03
 62
     1
420
 16711680
100
AcDbVertex
100
AcDb2dVertex
 10
1653.154899060902
 20
-67.3961360631589
 30
22.72879266332487
  0
SEQEND
  5
20C
330
204
100
AcDbEntity
  8
Layer 03
 62
     1
420
 16711680
  0
CIRCLE
  5
20D
330
1F
100
AcDbEntity
  8
Layer 01
100
AcDbCircle
 10
1488.439039765429
 20
-72.77111980377242
 30
0.0
 40
1.5
  0
CIRCLE
  5
20E
330
1F
100
AcDbEntity
  8
Layer 01
100
AcDbCircle
 10
1478.439039765429
 20
-62.77111980377242
 30
0.0
 40
1.5
  0
POLYLINE
  5
20F
330
1F
100
AcDbEntity
  8
Layer 03
 62
     1
420
 16711680
100
AcDb2dPolyline
 66
     1
 10
0.0
 20
0.0
 30
22.72879266332487
  0
VERTEX
  5
210
330
20F
100
AcDbEntity
  8
Layer 03
 62
     1
420
 16711680
100
AcDbVertex
100
AcDb2dVertex
 10
1733.154899060902
 20
-147.3961360631589
 30
22.72879266332487
  0
VERTEX
  5
211
330
20F
100
AcDbEntity
  8
Layer 03
 62
     1
420
 16711680
100
AcDbVertex
100
AcDb2dVertex
 10
1723.154899060902
 20
-157.3961360631589
 30
22.72879266332487
  0
VERTEX
  5
212
330
20F
100
AcDbEntity
  8
Layer 03
 62
     1
420
 16711680
100
AcDbVertex
100
AcDb2dVertex
 10
1573.154899060902
 20
-157.3961360631589
 30
22.72879266332487
  0
VERTEX
  5
213
330
20F
100
AcDbEntity
  8
Layer 03
 62
     1
420
 16711680
100
AcDbVertex
100
AcDb2dVertex
 10
1573.154899060902
 20
-307.3961360631589
 30
22.72879266332487
  0
VERTEX
  5
214
330
20F
100
AcDbEntity
  8
Layer 03
 62
     1
420
 16711680
100
AcDbVertex
100
AcDb2dVertex
 10
1563.154899060902
 20
-317.3961360631589
 30
22.72879266332487
  0
VERTEX
  5
215
330
20F
100
AcDbEntity
  8
Layer 03
 62
     1
420
 16711680
100
AcDbVertex
100
AcDb2dVertex
 10
1563.154899060902
 20
-147.3961360631589
 30
22.72879266332487
  0
VERTEX
  5
216
330
20F
100
AcDbEntity
  8
Layer 03
 62
     1
420
 16711680
100
AcDbVertex
100
AcDb2dVertex
 10
1733.154899060902
 20
-147.3961360631589
 30
22.72879266332487
  0
SEQEND
  5
217
330
20F
100
AcDbEntity
  8
Layer 03
 62
     1
420
 16711680
  0
CIRCLE
  5
218
330
1F
100
AcDbEntity
  8
Layer 01
100
AcDbCircle
 10
1508.439039765429
 20
-92.77111980377242
 30
0.0
 40
1.5
  0
CIRCLE
  5
219
330
1F
100
AcDbEntity
  8
Layer 01
100
AcDbCircle
 10
1498.439039765429
 20
-82.77111980377242
 30
0.0
 40
1.5
  0
POLYLINE
  5
21A
330
1F
100
AcDbEntity
  8
Layer 03
 62
     1
420
 16711680
100
AcDb2dPolyline
 66
     1
 10
0.0
 20
0.0
 30
22.72879266332487
  0
VERTEX
  5
21B
330
21A
100
AcDbEntity
  8
Layer 03
 62
     1
420
 16711680
100
AcDbVertex
100
AcDb2dVertex
 10
1643.154899060902
 20
-57.39613606315891
 30
22.72879266332487
  0
VERTEX
  5
21C
330
21A
100
AcDbEntity
  8
Layer 03
 62
     1
420
 16711680
100
AcDbVertex
100
AcDb2dVertex
 10
1633.154899060902
 20
-67.3961360631589
 30
22.72879266332487
  0
VERTEX
  5
21D
330
21A
100
AcDbEntity
  8
Layer 03
 62
     1
420
 16711680
100
AcDbVertex
100
AcDb2dVertex
 10
1483.154899060902
 20
-67.3961360631589
 30
22.72879266332487
  0
VERTEX
  5
21E
330
21A
100
AcDbEntity
  8
Layer 03
 62
     1
420
 16711680
100
AcDbVertex
100
AcDb2dVertex
 10
1483.154899060902
 20
-217.3961360631589
 30
22.72879266332487
  0
VERTEX
  5
21F
330
21A
100
AcDbEntity
  8
Layer 03
 62
     1
420
 16711680
100
AcDbVertex
100
AcDb2dVertex
 10
1473.154899060902
 20
-227.3961360631589
 30
22.72879266332487
  0
VERTEX
  5
220
330
21A
100
AcDbEntity
  8
Layer 03
 62
     1
420
 16711680
100
AcDbVertex
100
AcDb2dVertex
 10
1473.154899060902
 20
-57.39613606315891
 30
22.72879266332487
  0
VERTEX
  5
221
330
21A
100
AcDbEntity
  8
Layer 03
 62
     1
420
 16711680
100
AcDbVertex
100
AcDb2dVertex
 10
1643.154899060902
 20
-57.39613606315891
 30
22.72879266332487
  0
SEQEND
  5
222
330
21A
100
AcDbEntity
  8
Layer 03
 62
     1
420
 16711680
  0
POLYLINE
  5
223
330
1F
100
AcDbEntity
  8
Layer 03
 62
     1
420
 16711680
100
AcDb2dPolyline
 66
     1
 10
0.0
 20
0.0
 30
22.72879266332487
  0
VERTEX
  5
224
330
223
100
AcDbEntity
  8
Layer 03
 62
     1
420
 16711680
100
AcDbVertex
100
AcDb2dVertex
 10
1627.723180469956
 20
-254.3961360631589
 30
22.72879266332487
  0
VERTEX
  5
225
330
223
100
AcDbEntity
  8
Layer 03
 62
     1
420
 16711680
100
AcDbVertex
100
AcDb2dVertex
 10
1637.723180469956
 20
-244.3961360631589
 30
22.72879266332487
  0
VERTEX
  5
226
330
223
100
AcDbEntity
  8
Layer 03
 62
     1
420
 16711680
100
AcDbVertex
100
AcDb2dVertex
 10
1787.723180469956
 20
-244.3961360631589
 30
22.72879266332487
  0
VERTEX
  5
227
330
223
100
AcDbEntity
  8
Layer 03
 62
     1
420
 16711680
100
AcDbVertex
100
AcDb2dVertex
 10
1787.723180469956
 20
-94.3961360631589
 30
22.72879266332487
  0
VERTEX
  5
228
330
223
100
AcDbEntity
  8
Layer 03
 62
     1
420
 16711680
100
AcDbVertex
100
AcDb2dVertex
 10
1797.723180469956
 20
-84.3961360631589
 30
22.72879266332487
  0
VERTEX
  5
229
330
223
100
AcDbEntity
  8
Layer 03
 62
     1
420
 16711680
100
AcDbVertex
100
AcDb2dVertex
 10
1797.723180469956
 20
-254.3961360631589
 30
22.72879266332487
  0
VERTEX
  5
22A
330
223
100
AcDbEntity
  8
Layer 03
 62
     1
420
 16711680
100
AcDbVertex
100
AcDb2dVertex
 10
1627.723180469956
 20
-254.3961360631589
 30
22.72879266332487
  0
SEQEND
  5
22B
330
223
100
AcDbEntity
  8
Layer 03
 62
     1
420
 16711680
  0
CIRCLE
  5
22C
330
1F
100
AcDbEntity
  8
Layer 01
100
AcDbCircle
 10
1802.439039765429
 20
-259.0211523225454
 30
0.0
 40
1.5
  0
CIRCLE
  5
22D
330
1F
100
AcDbEntity
  8
Layer 01
100
AcDbCircle
 10
1812.439039765429
 20
-269.0211523225454
 30
0.0
 40
1.5
  0
CIRCLE
  5
22E
330
1F
100
AcDbEntity
  8
Layer 01
100
AcDbCircle
 10
1802.439039765429
 20
-259.0211523225454
 30
0.0
 40
1.5
  0
POLYLINE
  5
22F
330
1F
100
AcDbEntity
  8
Layer 03
 62
     1
420
 16711680
100
AcDb2dPolyline
 66
     1
 10
0.0
 20
0.0
 30
22.72879266332487
  0
VERTEX
  5
230
330
22F
100
AcDbEntity
  8
Layer 03
 62
     1
420
 16711680
100
AcDbVertex
100
AcDb2dVertex
 10
1637.723180469956
 20
-264.3961360631589
 30
22.72879266332487
  0
VERTEX
  5
231
330
22F
100
AcDbEntity
  8
Layer 03
 62
     1
420
 16711680
100
AcDbVertex
100
AcDb2dVertex
 10
1647.723180469956
 20
-254.3961360631589
 30
22.72879266332487
  0
VERTEX
  5
232
330
22F
100
AcDbEntity
  8
Layer 03
 62
     1
420
 16711680
100
AcDbVertex
100
AcDb2dVertex
 10
1797.723180469956
 20
-254.3961360631589
 30
22.72879266332487
  0
VERTEX
  5
233
330
22F
100
AcDbEntity
  8
Layer 03
 62
     1
420
 16711680
100
AcDbVertex
100
AcDb2dVertex
 10
1797.723180469956
 20
-104.3961360631589
 30
22.72879266332487
  0
VERTEX
  5
234
330
22F
100
AcDbEntity
  8
Layer 03
 62
     1
420
 16711680
100
AcDbVertex
100
AcDb2dVertex
 10
1807.723180469956
 20
-94.3961360631589
 30
22.72879266332487
  0
VERTEX
  5
235
330
22F
100
AcDbEntity
  8
Layer 03
 62
     1
420
 16711680
100
AcDbVertex
100
AcDb2dVertex
 10
1807.723180469956
 20
-264.3961360631589
 30
22.72879266332487
  0
VERTEX
  5
236
330
22F
100
AcDbEntity
  8
Layer 03
 62
     1
420
 16711680
100
AcDbVertex
100
AcDb2dVertex
 10
1637.723180469956
 20
-264.3961360631589
 30
22.72879266332487
  0
SEQEND
  5
237
330
22F
100
AcDbEntity
  8
Layer 03
 62
     1
420
 16711680
  0
POLYLINE
  5
238
330
1F
100
AcDbEntity
  8
Layer 03
 62
     1
420
 16711680
100
AcDb2dPolyline
 66
     1
 10
0.0
 20
0.0
 30
22.72879266332487
  0
VERTEX
  5
239
330
238
100
AcDbEntity
  8
Layer 03
 62
     1
420
 16711680
100
AcDbVertex
100
AcDb2dVertex
 10
1647.723180469956
 20
-274.3961360631589
 30
22.72879266332487
  0
VERTEX
  5
23A
330
238
100
AcDbEntity
  8
Layer 03
 62
     1
420
 16711680
100
AcDbVertex
100
AcDb2dVertex
 10
1657.723180469956
 20
-264.3961360631589
 30
22.72879266332487
  0
VERTEX
  5
23B
330
238
100
AcDbEntity
  8
Layer 03
 62
     1
420
 16711680
100
AcDbVertex
100
AcDb2dVertex
 10
1807.723180469956
 20
-264.3961360631589
 30
22.72879266332487
  0
VERTEX
  5
23C
330
238
100
AcDbEntity
  8
Layer 03
 62
     1
420
 16711680
100
AcDbVertex
100
AcDb2dVertex
 10
1807.723180469956
 20
-114.3961360631589
 30
22.72879266332487
  0
VERTEX
  5
23D
330
238
100
AcDbEntity
  8
Layer 03
 62
     1
420
 16711680
100
AcDbVertex
100
AcDb2dVertex
 10
1817.723180469956
 20
-104.3961360631589
 30
22.72879266332487
  0
VERTEX
  5
23E
330
238
100
AcDbEntity
  8
Layer 03
 62
     1
420
 16711680
100
AcDbVertex
100
AcDb2dVertex
 10
1817.723180469956
 20
-274.3961360631589
 30
22.72879266332487
  0
VERTEX
  5
23F
330
238
100
AcDbEntity
  8
Layer 03
 62
     1
420
 16711680
100
AcDbVertex
100
AcDb2dVertex
 10
1647.723180469956
 20
-274.3961360631589
 30
22.72879266332487
  0
SEQEND
  5
240
330
238
100
AcDbEntity
  8
Layer 03
 62
     1
420
 16711680
  0
CIRCLE
  5
241
330
1F
100
AcDbEntity
  8
Layer 01
100
AcDbCircle
 10
1792.439039765429
 20
-249.0211523225454
 30
0.0
 40
1.5
  0
CIRCLE
  5
242
330
1F
100
AcDbEntity
  8
Layer 01
100
AcDbCircle
 10
1842.439039765429
 20
-299.0211523225454
 30
0.0
 40
1.5
  0
POLYLINE
  5
243
330
1F
100
AcDbEntity
  8
Layer 03
 62
     1
420
 16711680
100
AcDb2dPolyline
 66
     1
 10
0.0
 20
0.0
 30
22.72879266332487
  0
VERTEX
  5
244
330
243
100
AcDbEntity
  8
Layer 03
 62
     1
420
 16711680
100
AcDbVertex
100
AcDb2dVertex
 10
1677.723180469956
 20
-304.3961360631589
 30
22.72879266332487
  0
VERTEX
  5
245
330
243
100
AcDbEntity
  8
Layer 03
 62
     1
420
 16711680
100
AcDbVertex
100
AcDb2dVertex
 10
1687.723180469956
 20
-294.3961360631589
 30
22.72879266332487
  0
VERTEX
  5
246
330
243
100
AcDbEntity
  8
Layer 03
 62
     1
420
 16711680
100
AcDbVertex
100
AcDb2dVertex
 10
1837.723180469956
 20
-294.3961360631589
 30
22.72879266332487
  0
VERTEX
  5
247
330
243
100
AcDbEntity
  8
Layer 03
 62
     1
420
 16711680
100
AcDbVertex
100
AcDb2dVertex
 10
1837.723180469956
 20
-144.3961360631589
 30
22.72879266332487
  0
VERTEX
  5
248
330
243
100
AcDbEntity
  8
Layer 03
 62
     1
420
 16711680
100
AcDbVertex
100
AcDb2dVertex
 10
1847.723180469956
 20
-134.3961360631589
 30
22.72879266332487
  0
VERTEX
  5
249
330
243
100
AcDbEntity
  8
Layer 03
 62
     1
420
 16711680
100
AcDbVertex
100
AcDb2dVertex
 10
1847.723180469956
 20
-304.3961360631589
 30
22.72879266332487
  0
VERTEX
  5
24A
330
243
100
AcDbEntity
  8
Layer 03
 62
     1
420
 16711680
100
AcDbVertex
100
AcDb2dVertex
 10
1677.723180469956
 20
-304.3961360631589
 30
22.72879266332487
  0
SEQEND
  5
24B
330
243
100
AcDbEntity
  8
Layer 03
 62
     1
420
 16711680
  0
CIRCLE
  5
24C
330
1F
100
AcDbEntity
  8
Layer 01
100
AcDbCircle
 10
1832.439039765429
 20
-289.0211523225454
 30
0.0
 40
1.5
  0
CIRCLE
  5
24D
330
1F
100
AcDbEntity
  8
Layer 01
100
AcDbCircle
 10
1822.439039765429
 20
-279.0211523225454
 30
0.0
 40
1.5
  0
POLYLINE
  5
24E
330
1F
100
AcDbEntity
  8
Layer 03
 62
     1
420
 16711680
100
AcDb2dPolyline
 66
     1
 10
0.0
 20
0.0
 30
22.72879266332487
  0
VERTEX
  5
24F
330
24E
100
AcDbEntity
  8
Layer 03
 62
     1
420
 16711680
100
AcDbVertex
100
AcDb2dVertex
 10
1667.723180469956
 20
-294.3961360631589
 30
22.72879266332487
  0
VERTEX
  5
250
330
24E
100
AcDbEntity
  8
Layer 03
 62
     1
420
 16711680
100
AcDbVertex
100
AcDb2dVertex
 10
1677.723180469956
 20
-284.3961360631589
 30
22.72879266332487
  0
VERTEX
  5
251
330
24E
100
AcDbEntity
  8
Layer 03
 62
     1
420
 16711680
100
AcDbVertex
100
AcDb2dVertex
 10
1827.723180469956
 20
-284.3961360631589
 30
22.72879266332487
  0
VERTEX
  5
252
330
24E
100
AcDbEntity
  8
Layer 03
 62
     1
420
 16711680
100
AcDbVertex
100
AcDb2dVertex
 10
1827.723180469956
 20
-134.3961360631589
 30
22.72879266332487
  0
VERTEX
  5
253
330
24E
100
AcDbEntity
  8
Layer 03
 62
     1
420
 16711680
100
AcDbVertex
100
AcDb2dVertex
 10
1837.723180469956
 20
-124.3961360631589
 30
22.72879266332487
  0
VERTEX
  5
254
330
24E
100
AcDbEntity
  8
Layer 03
 62
     1
420
 16711680
100
AcDbVertex
100
AcDb2dVertex
 10
1837.723180469956
 20
-294.3961360631589
 30
22.72879266332487
  0
VERTEX
  5
255
330
24E
100
AcDbEntity
  8
Layer 03
 62
     1
420
 16711680
100
AcDbVertex
100
AcDb2dVertex
 10
1667.723180469956
 20
-294.3961360631589
 30
22.72879266332487
  0
SEQEND
  5
256
330
24E
100
AcDbEntity
  8
Layer 03
 62
     1
420
 16711680
  0
POLYLINE
  5
257
330
1F
100
AcDbEntity
  8
Layer 03
 62
     1
420
 16711680
100
AcDb2dPolyline
 66
     1
 10
0.0
 20
0.0
 30
22.72879266332487
  0
VERTEX
  5
258
330
257
100
AcDbEntity
  8
Layer 03
 62
     1
420
 16711680
100
AcDbVertex
100
AcDb2dVertex
 10
1657.723180469956
 20
-284.3961360631589
 30
22.72879266332487
  0
VERTEX
  5
259
330
257
100
AcDbEntity
  8
Layer 03
 62
     1
420
 16711680
100
AcDbVertex
100
AcDb2dVertex
 10
1667.723180469956
 20
-274.3961360631589
 30
22.72879266332487
  0
VERTEX
  5
25A
330
257
100
AcDbEntity
  8
Layer 03
 62
     1
420
 16711680
100
AcDbVertex
100
AcDb2dVertex
 10
1817.723180469956
 20
-274.3961360631589
 30
22.72879266332487
  0
VERTEX
  5
25B
330
257
100
AcDbEntity
  8
Layer 03
 62
     1
420
 16711680
100
AcDbVertex
100
AcDb2dVertex
 10
1817.723180469956
 20
-124.3961360631589
 30
22.72879266332487
  0
VERTEX
  5
25C
330
257
100
AcDbEntity
  8
Layer 03
 62
     1
420
 16711680
100
AcDbVertex
100
AcDb2dVertex
 10
1827.723180469956
 20
-114.3961360631589
 30
22.72879266332487
  0
VERTEX
  5
25D
330
257
100
AcDbEntity
  8
Layer 03
 62
     1
420
 16711680
100
AcDbVertex
100
AcDb2dVertex
 10
1827.723180469956
 20
-284.3961360631589
 30
22.72879266332487
  0
VERTEX
  5
25E
330
257
100
AcDbEntity
  8
Layer 03
 62
     1
420
 16711680
100
AcDbVertex
100
AcDb2dVertex
 10
1657.723180469956
 20
-284.3961360631589
 30
22.72879266332487
  0
SEQEND
  5
25F
330
257
100
AcDbEntity
  8
Layer 03
 62
     1
420
 16711680
  0
CIRCLE
  5
260
330
1F
100
AcDbEntity
  8
Layer 01
100
AcDbCircle
 10
1832.439039765429
 20
-289.0211523225454
 30
0.0
 40
1.5
  0
CIRCLE
  5
261
330
1F
100
AcDbEntity
  8
Layer 01
100
AcDbCircle
 10
1782.439039765429
 20
-239.0211523225454
 30
0.0
 40
1.5
  0
POLYLINE
  5
262
330
1F
100
AcDbEntity
  8
Layer 03
 62
     1
420
 16711680
100
AcDb2dPolyline
 66
     1
 10
0.0
 20
0.0
 30
22.72879266332487
  0
VERTEX
  5
263
330
262
100
AcDbEntity
  8
Layer 03
 62
     1
420
 16711680
100
AcDbVertex
100
AcDb2dVertex
 10
1687.723180469956
 20
-314.3961360631589
 30
22.72879266332487
  0
VERTEX
  5
264
330
262
100
AcDbEntity
  8
Layer 03
 62
     1
420
 16711680
100
AcDbVertex
100
AcDb2dVertex
 10
1697.723180469956
 20
-304.3961360631589
 30
22.72879266332487
  0
VERTEX
  5
265
330
262
100
AcDbEntity
  8
Layer 03
 62
     1
420
 16711680
100
AcDbVertex
100
AcDb2dVertex
 10
1847.723180469956
 20
-304.3961360631589
 30
22.72879266332487
  0
VERTEX
  5
266
330
262
100
AcDbEntity
  8
Layer 03
 62
     1
420
 16711680
100
AcDbVertex
100
AcDb2dVertex
 10
1847.723180469956
 20
-154.3961360631589
 30
22.72879266332487
  0
VERTEX
  5
267
330
262
100
AcDbEntity
  8
Layer 03
 62
     1
420
 16711680
100
AcDbVertex
100
AcDb2dVertex
 10
1857.723180469956
 20
-144.3961360631589
 30
22.72879266332487
  0
VERTEX
  5
268
330
262
100
AcDbEntity
  8
Layer 03
 62
     1
420
 16711680
100
AcDbVertex
100
AcDb2dVertex
 10
1857.723180469956
 20
-314.3961360631589
 30
22.72879266332487
  0
VERTEX
  5
269
330
262
100
AcDbEntity
  8
Layer 03
 62
     1
420
 16711680
100
AcDbVertex
100
AcDb2dVertex
 10
1687.723180469956
 20
-314.3961360631589
 30
22.72879266332487
  0
SEQEND
  5
26A
330
262
100
AcDbEntity
  8
Layer 03
 62
     1
420
 16711680
  0
CIRCLE
  5
26B
330
1F
100
AcDbEntity
  8
Layer 01
100
AcDbCircle
 10
1772.439039765429
 20
-229.0211523225454
 30
0.0
 40
1.5
  0
CIRCLE
  5
26C
330
1F
100
AcDbEntity
  8
Layer 01
100
AcDbCircle
 10
1772.439039765429
 20
-229.0211523225454
 30
0.0
 40
1.5
  0
POLYLINE
  5
26D
330
1F
100
AcDbEntity
  8
Layer 03
 62
     1
420
 16711680
100
AcDb2dPolyline
 66
     1
 10
0.0
 20
0.0
 30
22.72879266332487
  0
VERTEX
  5
26E
330
26D
100
AcDbEntity
  8
Layer 03
 62
     1
420
 16711680
100
AcDbVertex
100
AcDb2dVertex
 10
1607.723180469956
 20
-234.3961360631589
 30
22.72879266332487
  0
VERTEX
  5
26F
330
26D
100
AcDbEntity
  8
Layer 03
 62
     1
420
 16711680
100
AcDbVertex
100
AcDb2dVertex
 10
1617.723180469956
 20
-224.3961360631589
 30
22.72879266332487
  0
VERTEX
  5
270
330
26D
100
AcDbEntity
  8
Layer 03
 62
     1
420
 16711680
100
AcDbVertex
100
AcDb2dVertex
 10
1767.723180469956
 20
-224.3961360631589
 30
22.72879266332487
  0
VERTEX
  5
271
330
26D
100
AcDbEntity
  8
Layer 03
 62
     1
420
 16711680
100
AcDbVertex
100
AcDb2dVertex
 10
1767.723180469956
 20
-74.3961360631589
 30
22.72879266332487
  0
VERTEX
  5
272
330
26D
100
AcDbEntity
  8
Layer 03
 62
     1
420
 16711680
100
AcDbVertex
100
AcDb2dVertex
 10
1777.723180469956
 20
-64.3961360631589
 30
22.72879266332487
  0
VERTEX
  5
273
330
26D
100
AcDbEntity
  8
Layer 03
 62
     1
420
 16711680
100
AcDbVertex
100
AcDb2dVertex
 10
1777.723180469956
 20
-234.3961360631589
 30
22.72879266332487
  0
VERTEX
  5
274
330
26D
100
AcDbEntity
  8
Layer 03
 62
     1
420
 16711680
100
AcDbVertex
100
AcDb2dVertex
 10
1607.723180469956
 20
-234.3961360631589
 30
22.72879266332487
  0
SEQEND
  5
275
330
26D
100
AcDbEntity
  8
Layer 03
 62
     1
420
 16711680
  0
POLYLINE
  5
276
330
1F
100
AcDbEntity
  8
Layer 03
 62
     1
420
 16711680
100
AcDb2dPolyline
 66
     1
 10
0.0
 20
0.0
 30
22.72879266332487
  0
VERTEX
  5
277
330
276
100
AcDbEntity
  8
Layer 03
 62
     1
420
 16711680
100
AcDbVertex
100
AcDb2dVertex
 10
1617.723180469956
 20
-244.3961360631589
 30
22.72879266332487
  0
VERTEX
  5
278
330
276
100
AcDbEntity
  8
Layer 03
 62
     1
420
 16711680
100
AcDbVertex
100
AcDb2dVertex
 10
1627.723180469956
 20
-234.3961360631589
 30
22.72879266332487
  0
VERTEX
  5
279
330
276
100
AcDbEntity
  8
Layer 03
 62
     1
420
 16711680
100
AcDbVertex
100
AcDb2dVertex
 10
1777.723180469956
 20
-234.3961360631589
 30
22.72879266332487
  0
VERTEX
  5
27A
330
276
100
AcDbEntity
  8
Layer 03
 62
     1
420
 16711680
100
AcDbVertex
100
AcDb2dVertex
 10
1777.723180469956
 20
-84.3961360631589
 30
22.72879266332487
  0
VERTEX
  5
27B
330
276
100
AcDbEntity
  8
Layer 03
 62
     1
420
 16711680
100
AcDbVertex
100
AcDb2dVertex
 10
1787.723180469956
 20
-74.3961360631589
 30
22.72879266332487
  0
VERTEX
  5
27C
330
276
100
AcDbEntity
  8
Layer 03
 62
     1
420
 16711680
100
AcDbVertex
100
AcDb2dVertex
 10
1787.723180469956
 20
-244.3961360631589
 30
22.72879266332487
  0
VERTEX
  5
27D
330
276
100
AcDbEntity
  8
Layer 03
 62
     1
420
 16711680
100
AcDbVertex
100
AcDb2dVertex
 10
1617.723180469956
 20
-244.3961360631589
 30
22.72879266332487
  0
SEQEND
  5
27E
330
276
100
AcDbEntity
  8
Layer 03
 62
     1
420
 16711680
  0
POLYLINE
  5
27F
330
1F
100
AcDbEntity
  8
Layer 03
 62
     1
420
 16711680
100
AcDb2dPolyline
 66
     1
 10
0.0
 20
0.0
 30
22.72879266332487
  0
VERTEX
  5
280
330
27F
100
AcDbEntity
  8
Layer 03
 62
     1
420
 16711680
100
AcDbVertex
100
AcDb2dVertex
 10
1697.723180469956
 20
-324.3961360631589
 30
22.72879266332487
  0
VERTEX
  5
281
330
27F
100
AcDbEntity
  8
Layer 03
 62
     1
420
 16711680
100
AcDbVertex
100
AcDb2dVertex
 10
1707.723180469956
 20
-314.3961360631589
 30
22.72879266332487
  0
VERTEX
  5
282
330
27F
100
AcDbEntity
  8
Layer 03
 62
     1
420
 16711680
100
AcDbVertex
100
AcDb2dVertex
 10
1857.723180469956
 20
-314.3961360631589
 30
22.72879266332487
  0
VERTEX
  5
283
330
27F
100
AcDbEntity
  8
Layer 03
 62
     1
420
 16711680
100
AcDbVertex
100
AcDb2dVertex
 10
1857.723180469956
 20
-164.3961360631589
 30
22.72879266332487
  0
VERTEX
  5
284
330
27F
100
AcDbEntity
  8
Layer 03
 62
     1
420
 16711680
100
AcDbVertex
100
AcDb2dVertex
 10
1867.723180469956
 20
-154.3961360631589
 30
22.72879266332487
  0
VERTEX
  5
285
330
27F
100
AcDbEntity
  8
Layer 03
 62
     1
420
 16711680
100
AcDbVertex
100
AcDb2dVertex
 10
1867.723180469956
 20
-324.3961360631589
 30
22.72879266332487
  0
VERTEX
  5
286
330
27F
100
AcDbEntity
  8
Layer 03
 62
     1
420
 16711680
100
AcDbVertex
100
AcDb2dVertex
 10
1697.723180469956
 20
-324.3961360631589
 30
22.72879266332487
  0
SEQEND
  5
287
330
27F
100
AcDbEntity
  8
Layer 03
 62
     1
420
 16711680
  0
CIRCLE
  5
288
330
1F
100
AcDbEntity
  8
Layer 01
100
AcDbCircle
 10
1862.439039765429
 20
-319.0211523225454
 30
0.0
 40
1.5
  0
CIRCLE
  5
289
330
1F
100
AcDbEntity
  8
Layer 01
100
AcDbCircle
 10
1852.439039765429
 20
-309.0211523225454
 30
0.0
 40
1.5
  0
CIRCLE
  5
28A
330
1F
100
AcDbEntity
  8
Layer 01
100
AcDbCircle
 10
1862.439039765429
 20
-319.0211523225454
 30
0.0
 40
1.5
  0
POLYLINE
  5
28B
330
1F
100
AcDbEntity
  8
Layer 01
100
AcDb2dPolyline
 66
     1
 10
0.0
 20
0.0
 30
0.0
  0
VERTEX
  5
28C
330
28B
100
AcDbEntity
  8
Layer 01
100
AcDbVertex
100
AcDb2dVertex
 10
1844.439039765429
 20
-41.77111980377242
 30
0.0
  0
VERTEX
  5
28D
330
28B
100
AcDbEntity
  8
Layer 01
100
AcDbVertex
100
AcDb2dVertex
 10
1844.439039765429
 20
258.2288801962276
 30
0.0
  0
VERTEX
  5
28E
330
28B
100
AcDbEntity
  8
Layer 01
100
AcDbVertex
100
AcDb2dVertex
 10
1244.439039765429
 20
258.2288801962276
 30
0.0
  0
VERTEX
  5
28F
330
28B
100
AcDbEntity
  8
Layer 01
100
AcDbVertex
100
AcDb2dVertex
 10
1244.439039765429
 20
-41.77111980377242
 30
0.0
  0
VERTEX
  5
290
330
28B
100
AcDbEntity
  8
Layer 01
100
AcDbVertex
100
AcDb2dVertex
 10
1844.439039765429
 20
-41.77111980377242
 30
0.0
  0
SEQEND
  5
291
330
28B
100
AcDbEntity
  8
Layer 01
  0
POLYLINE
  5
292
330
1F
100
AcDbEntity
  8
Layer 01
100
AcDb2dPolyline
 66
     1
 10
0.0
 20
0.0
 30
0.0
  0
VERTEX
  5
293
330
292
100
AcDbEntity
  8
Layer 01
100
AcDbVertex
100
AcDb2dVertex
 10
915.439039765429
 20
-402.7711198037724
 30
0.0
  0
VERTEX
  5
294
330
292
100
AcDbEntity
  8
Layer 01
100
AcDbVertex
100
AcDb2dVertex
 10
2114.439039765429
 20
-402.7711198037724
 30
0.0
  0
VERTEX
  5
295
330
292
100
AcDbEntity
  8
Layer 01
100
AcDbVertex
100
AcDb2dVertex
 10
2114.439039765429
 20
407.2288801962276
 30
0.0
  0
VERTEX
  5
296
330
292
100
AcDbEntity
  8
Layer 01
100
AcDbVertex
100
AcDb2dVertex
 10
915.439039765429
 20
407.2288801962276
 30
0.0
  0
VERTEX
  5
297
330
292
100
AcDbEntity
  8
Layer 01
100
AcDbVertex
100
AcDb2dVertex
 10
915.439039765429
 20
-402.7711198037724
 30
0.0
  0
SEQEND
  5
298
330
292
100
AcDbEntity
  8
Layer 01
  0
POLYLINE
  5
299
330
1F
100
AcDbEntity
  8
Layer 01
100
AcDb2dPolyline
 66
     1
 10
0.0
 20
0.0
 30
22.72879266332487
  0
VERTEX
  5
29A
330
299
100
AcDbEntity
  8
Layer 01
100
AcDbVertex
100
AcDb2dVertex
 10
968.1548990609024
 20
119.6038639368411
 30
22.72879266332487
  0
VERTEX
  5
29B
330
299
100
AcDbEntity
  8
Layer 01
100
AcDbVertex
100
AcDb2dVertex
 10
1138.154899060902
 20
119.6038639368411
 30
22.72879266332487
  0
VERTEX
  5
29C
330
299
100
AcDbEntity
  8
Layer 01
100
AcDbVertex
100
AcDb2dVertex
 10
1138.154899060902
 20
289.6038639368411
 30
22.72879266332487
  0
VERTEX
  5
29D
330
299
100
AcDbEntity
  8
Layer 01
100
AcDbVertex
100
AcDb2dVertex
 10
968.1548990609024
 20
289.6038639368411
 30
22.72879266332487
  0
VERTEX
  5
29E
330
299
100
AcDbEntity
  8
Layer 01
100
AcDbVertex
100
AcDb2dVertex
 10
968.1548990609024
 20
119.6038639368411
 30
22.72879266332487
  0
SEQEND
  5
29F
330
299
100
AcDbEntity
  8
Layer 01
  0
POLYLINE
  5
2A0
330
1F
100
AcDbEntity
  8
Default
100
AcDb2dPolyline
 66
     1
 10
0.0
 20
0.0
 30
22.72879266332487
  0
VERTEX
  5
2A1
330
2A0
100
AcDbEntity
  8
Default
100
AcDbVertex
100
AcDb2dVertex
 10
978.1548990609024
 20
129.6038639368411
 30
22.72879266332487
  0
VERTEX
  5
2A2
330
2A0
100
AcDbEntity
  8
Default
100
AcDbVertex
100
AcDb2dVertex
 10
1128.154899060902
 20
129.6038639368411
 30
22.72879266332487
  0
VERTEX
  5
2A3
330
2A0
100
AcDbEntity
  8
Default
100
AcDbVertex
100
AcDb2dVertex
 10
1128.154899060902
 20
279.6038639368411
 30
22.72879266332487
  0
VERTEX
  5
2A4
330
2A0
100
AcDbEntity
  8
Default
100
AcDbVertex
100
AcDb2dVertex
 10
978.1548990609024
 20
279.6038639368411
 30
22.72879266332487
  0
VERTEX
  5
2A5
330
2A0
100
AcDbEntity
  8
Default
100
AcDbVertex
100
AcDb2dVertex
 10
978.1548990609024
 20
129.6038639368411
 30
22.72879266332487
  0
SEQEND
  5
2A6
330
2A0
100
AcDbEntity
  8
Default
  0
ENDSEC
  0
SECTION
  2
OBJECTS
  0
DICTIONARY
  5
C
330
0
100
AcDbDictionary
281
     1
  3
ACAD_GROUP
350
D
  3
ACAD_LAYOUT
350
1A
  3
ACAD_MATERIAL
350
3B
  3
ACAD_MLEADERSTYLE
350
2CE
  3
ACAD_MLINESTYLE
350
17
  3
ACAD_PLOTSETTINGS
350
19
  3
ACAD_PLOTSTYLENAME
350
E
  3
ACAD_TABLESTYLE
350
2CD
  3
ACAD_VISUALSTYLE
350
2A
  0
DICTIONARY
  5
D
102
{ACAD_REACTORS
330
C
102
}
330
C
100
AcDbDictionary
281
     1
  0
DICTIONARY
  5
1A
102
{ACAD_REACTORS
330
C
102
}
330
C
100
AcDbDictionary
281
     1
  3
Layout1
350
1E
  3
Layout2
350
26
  3
Model
350
22
  0
DICTIONARY
  5
3B
102
{ACAD_REACTORS
330
C
102
}
330
C
100
AcDbDictionary
281
     1
  3
ByBlock
350
3D
  3
ByLayer
350
3C
  3
Global
350
3E
  0
DICTIONARY
  5
2CE
102
{ACAD_REACTORS
330
C
102
}
330
C
100
AcDbDictionary
281
     1
  0
DICTIONARY
  5
17
102
{ACAD_REACTORS
330
C
102
}
330
C
100
AcDbDictionary
281
     1
  3
Standard
350
18
  0
DICTIONARY
  5
19
102
{ACAD_REACTORS
330
C
102
}
330
C
100
AcDbDictionary
281
     1
  0
ACDBDICTIONARYWDFLT
  5
E
102
{ACAD_REACTORS
330
C
102
}
330
C
100
AcDbDictionary
281
     1
  3
Normal
350
F
100
AcDbDictionaryWithDefault
340
F
  0
DICTIONARY
  5
2CD
102
{ACAD_REACTORS
330
C
102
}
330
C
100
AcDbDictionary
281
     1
  0
DICTIONARY
  5
2A
102
{ACAD_REACTORS
330
C
102
}
330
C
100
AcDbDictionary
281
     1
  3
2dWireframe
350
2F
  3
3D Hidden
350
31
  3
3dWireframe
350
30
  3
Basic
350
32
  3
Brighten
350
36
  3
ColorChange
350
3A
  3
Conceptual
350
34
  3
Dim
350
35
  3
Facepattern
350
39
  3
Flat
350
2B
  3
FlatWithEdges
350
2C
  3
Gouraud
350
2D
  3
GouraudWithEdges
350
2E
  3
Linepattern
350
38
  3
Realistic
350
33
  3
Thicken
350
37
  0
LAYOUT
  5
1E
102
{ACAD_REACTORS
330
1A
102
}
330
1A
100
AcDbPlotSettings
  1

  2
none_device
  4

  6

 40
0.0
 41
0.0
 42
0.0
 43
0.0
 44
0.0
 45
0.0
 46
0.0
 47
0.0
 48
0.0
 49
0.0
140
0.0
141
0.0
142
1.0
143
1.0
 70
   688
 72
     0
 73
     0
 74
     5
  7

 75
    16
 76
     0
 77
     2
 78
   300
147
1.0
148
0.0
149
0.0
100
AcDbLayout
  1
Layout1
 70
     1
 71
     1
 10
0.0
 20
0.0
 11
12.0
 21
9.0
 12
0.0
 22
0.0
 32
0.0
 14
1.000000000000000E+20
 24
1.000000000000000E+20
 34
1.000000000000000E+20
 15
-1.000000000000000E+20
 25
-1.000000000000000E+20
 35
-1.000000000000000E+20
146
0.0
 13
0.0
 23
0.0
 33
0.0
 16
1.0
 26
0.0
 36
0.0
 17
0.0
 27
1.0
 37
0.0
 76
     0
330
1B
  0
LAYOUT
  5
26
102
{ACAD_REACTORS
330
1A
102
}
330
1A
100
AcDbPlotSettings
  1

  2
none_device
  4

  6

 40
0.0
 41
0.0
 42
0.0
 43
0.0
 44
0.0
 45
0.0
 46
0.0
 47
0.0
 48
0.0
 49
0.0
140
0.0
141
0.0
142
1.0
143
1.0
 70
   688
 72
     0
 73
     0
 74
     5
  7

 75
    16
 76
     0
 77
     2
 78
   300
147
1.0
148
0.0
149
0.0
100
AcDbLayout
  1
Layout2
 70
     1
 71
     2
 10
0.0
 20
0.0
 11
0.0
 21
0.0
 12
0.0
 22
0.0
 32
0.0
 14
0.0
 24
0.0
 34
0.0
 15
0.0
 25
0.0
 35
0.0
146
0.0
 13
0.0
 23
0.0
 33
0.0
 16
1.0
 26
0.0
 36
0.0
 17
0.0
 27
1.0
 37
0.0
 76
     0
330
23
  0
LAYOUT
  5
22
102
{ACAD_REACTORS
330
1A
102
}
330
1A
100
AcDbPlotSettings
  1

  2
none_device
  4

  6

 40
0.0
 41
0.0
 42
0.0
 43
0.0
 44
0.0
 45
0.0
 46
0.0
 47
0.0
 48
0.0
 49
0.0
140
0.0
141
0.0
142
1.0
143
1.0
 70
  1712
 72
     0
 73
     0
 74
     0
  7

 75
     0
 76
     0
 77
     2
 78
   300
147
1.0
148
0.0
149
0.0
100
AcDbLayout
  1
Model
 70
     1
 71
     0
 10
0.0
 20
0.0
 11
12.0
 21
9.0
 12
0.0
 22
0.0
 32
0.0
 14
915.439039765429
 24
-402.7711198037724
 34
0.0
 15
2114.439039765429
 25
407.2288801962276
 35
22.72879266332487
146
0.0
 13
0.0
 23
0.0
 33
0.0
 16
1.0
 26
0.0
 36
0.0
 17
0.0
 27
1.0
 37
0.0
 76
     0
330
1F
331
29
  0
MATERIAL
  5
3D
102
{ACAD_REACTORS
330
3B
102
}
102
{ACAD_XDICTIONARY
360
2C9
102
}
330
3B
100
AcDbMaterial
  1
ByBlock
  0
MATERIAL
  5
3C
102
{ACAD_REACTORS
330
3B
102
}
102
{ACAD_XDICTIONARY
360
2C7
102
}
330
3B
100
AcDbMaterial
  1
ByLayer
  0
MATERIAL
  5
3E
102
{ACAD_REACTORS
330
3B
102
}
102
{ACAD_XDICTIONARY
360
2CB
102
}
330
3B
100
AcDbMaterial
  1
Global
  0
MLINESTYLE
  5
18
102
{ACAD_REACTORS
330
17
102
}
330
17
100
AcDbMlineStyle
  2
Standard
 70
     0
  3

 62
   256
 51
90.0
 52
90.0
 71
     2
 49
0.5
 62
   256
  6
BYLAYER
 49
-0.5
 62
   256
  6
BYLAYER
  0
ACDBPLACEHOLDER
  5
F
102
{ACAD_REACTORS
330
E
102
}
330
E
  0
VISUALSTYLE
  5
2F
102
{ACAD_REACTORS
330
2A
102
}
102
{ACAD_XDICTIONARY
360
2AF
102
}
330
2A
100
AcDbVisualStyle
  2
2dWireframe
 70
     4
 71
     0
 72
     2
 73
     0
 90
        0
 40
-0.6
 41
-30.0
 62
     5
 63
     7
421
 16777215
 74
     1
 91
        4
 64
     7
 65
   257
 75
     1
175
     1
 42
1.0
 92
        0
 66
   257
 43
1.0
 76
     1
 77
     6
 78
     2
 67
     7
 79
     5
170
     0
171
     0
290
     0
174
     0
 93
        1
 44
0.0
173
     0
291
     0
 45
0.0
1001
ACAD
1000
AcDbSavedByObjectVersion
1070
     0
  0
VISUALSTYLE
  5
31
102
{ACAD_REACTORS
330
2A
102
}
102
{ACAD_XDICTIONARY
360
2B3
102
}
330
2A
100
AcDbVisualStyle
  2
3D Hidden
 70
     6
 71
     1
 72
     2
 73
     2
 90
        0
 40
-0.6
 41
-30.0
 62
     5
 63
     7
421
 16777215
 74
     2
 91
        2
 64
     7
 65
   257
 75
     2
175
     1
 42
40.0
 92
        0
 66
   257
 43
1.0
 76
     1
 77
     6
 78
     2
 67
     7
 79
     3
170
     0
171
     0
290
     0
174
     0
 93
        1
 44
0.0
173
     0
291
     0
 45
0.0
1001
ACAD
1000
AcDbSavedByObjectVersion
1070
     0
  0
VISUALSTYLE
  5
30
102
{ACAD_REACTORS
330
2A
102
}
102
{ACAD_XDICTIONARY
360
2B1
102
}
330
2A
100
AcDbVisualStyle
  2
3dWireframe
 70
     5
 71
     0
 72
     2
 73
     0
 90
        0
 40
-0.6
 41
-30.0
 62
     5
 63
     7
421
 16777215
 74
     1
 91
        4
 64
     7
 65
   257
 75
     1
175
     1
 42
1.0
 92
        0
 66
   257
 43
1.0
 76
     1
 77
     6
 78
     2
 67
     7
 79
     5
170
     0
171
     0
290
     0
174
     0
 93
        1
 44
0.0
173
     0
291
     0
 45
0.0
1001
ACAD
1000
AcDbSavedByObjectVersion
1070
     0
  0
VISUALSTYLE
  5
32
102
{ACAD_REACTORS
330
2A
102
}
102
{ACAD_XDICTIONARY
360
2B5
102
}
330
2A
100
AcDbVisualStyle
  2
Basic
 70
     7
 71
     1
 72
     0
 73
     1
 90
        0
 40
-0.6
 41
-30.0
 62
     5
 63
     7
421
 16777215
 74
     0
 91
        4
 64
     7
 65
   257
 75
     1
175
     1
 42
1.0
 92
        8
 66
     7
 43
1.0
 76
     1
 77
     6
 78
     2
 67
     7
 79
     5
170
     0
171
     0
290
     0
174
     0
 93
        1
 44
0.0
173
     0
291
     1
 45
0.0
1001
ACAD
1000
AcDbSavedByObjectVersion
1070
     0
  0
VISUALSTYLE
  5
36
102
{ACAD_REACTORS
330
2A
102
}
102
{ACAD_XDICTIONARY
360
2BD
102
}
330
2A
100
AcDbVisualStyle
  2
Brighten
 70
    12
 71
     2
 72
     2
 73
     0
 90
        0
 40
-0.6
 41
-30.0
 62
     5
 63
     7
421
 16777215
 74
     1
 91
        4
 64
     7
 65
   257
 75
     1
175
     1
 42
1.0
 92
        8
 66
     7
 43
1.0
 76
     1
 77
     6
 78
     2
 67
     7
 79
     5
170
     0
171
     0
290
     0
174
     0
 93
        1
 44
50.0
173
     0
291
     1
 45
0.0
1001
ACAD
1000
AcDbSavedByObjectVersion
1070
     0
  0
VISUALSTYLE
  5
3A
102
{ACAD_REACTORS
330
2A
102
}
102
{ACAD_XDICTIONARY
360
2C5
102
}
330
2A
100
AcDbVisualStyle
  2
ColorChange
 70
    16
 71
     2
 72
     2
 73
     3
 90
        0
 40
-0.6
 41
-30.0
 62
     5
 63
     8
421
  8421504
 74
     1
 91
        4
 64
     7
 65
   257
 75
     1
175
     1
 42
1.0
 92
        8
 66
     8
424
  8421504
 43
1.0
 76
     1
 77
     6
 78
     2
 67
     7
 79
     5
170
     0
171
     0
290
     0
174
     0
 93
        1
 44
0.0
173
     0
291
     1
 45
0.0
1001
ACAD
1000
AcDbSavedByObjectVersion
1070
     0
  0
VISUALSTYLE
  5
34
102
{ACAD_REACTORS
330
2A
102
}
102
{ACAD_XDICTIONARY
360
2B9
102
}
330
2A
100
AcDbVisualStyle
  2
Conceptual
 70
     9
 71
     3
 72
     2
 73
     0
 90
        0
 40
-0.6
 41
-30.0
 62
     5
 63
     7
421
 16777215
 74
     2
 91
        2
 64
     7
 65
   257
 75
     1
175
     1
 42
40.0
 92
        8
 66
     7
 43
1.0
 76
     1
 77
     6
 78
     2
 67
     7
 79
     3
170
     0
171
     0
290
     0
174
     0
 93
        1
 44
0.0
173
     0
291
     0
 45
0.0
1001
ACAD
1000
AcDbSavedByObjectVersion
1070
     0
  0
VISUALSTYLE
  5
35
102
{ACAD_REACTORS
330
2A
102
}
102
{ACAD_XDICTIONARY
360
2BB
102
}
330
2A
100
AcDbVisualStyle
  2
Dim
 70
    11
 71
     2
 72
     2
 73
     0
 90
        0
 40
-0.6
 41
-30.0
 62
     5
 63
     7
421
 16777215
 74
     1
 91
        4
 64
     7
 65
   257
 75
     1
175
     1
 42
1.0
 92
        8
 66
     7
 43
1.0
 76
     1
 77
     6
 78
     2
 67
     7
 79
     5
170
     0
171
     0
290
     0
174
     0
 93
        1
 44
-50.0
173
     0
291
     1
 45
0.0
1001
ACAD
1000
AcDbSavedByObjectVersion
1070
     0
  0
VISUALSTYLE
  5
39
102
{ACAD_REACTORS
330
2A
102
}
102
{ACAD_XDICTIONARY
360
2C3
102
}
330
2A
100
AcDbVisualStyle
  2
Facepattern
 70
    15
 71
     2
 72
     2
 73
     0
 90
        0
 40
-0.6
 41
-30.0
 62
     5
 63
     7
421
 16777215
 74
     1
 91
        4
 64
     7
 65
   257
 75
     1
175
     1
 42
1.0
 92
        8
 66
     7
 43
1.0
 76
     1
 77
     6
 78
     2
 67
     7
 79
     5
170
     0
171
     0
290
     0
174
     0
 93
        1
 44
0.0
173
     0
291
     1
 45
0.0
1001
ACAD
1000
AcDbSavedByObjectVersion
1070
     0
  0
VISUALSTYLE
  5
2B
102
{ACAD_REACTORS
330
2A
102
}
102
{ACAD_XDICTIONARY
360
2A7
102
}
330
2A
100
AcDbVisualStyle
  2
Flat
 70
     0
 71
     2
 72
     1
 73
     1
 90
        2
 40
-0.6
 41
30.0
 62
     5
 63
     7
421
 16777215
 74
     0
 91
        4
 64
     7
 65
   257
 75
     1
175
     1
 42
1.0
 92
        8
 66
     7
 43
1.0
 76
     1
 77
     6
 78
     2
 67
     7
 79
     5
170
     0
171
     0
290
     0
174
     0
 93
       13
 44
0.0
173
     0
291
     1
 45
0.0
1001
ACAD
1000
AcDbSavedByObjectVersion
1070
     0
  0
VISUALSTYLE
  5
2C
102
{ACAD_REACTORS
330
2A
102
}
102
{ACAD_XDICTIONARY
360
2A9
102
}
330
2A
100
AcDbVisualStyle
  2
FlatWithEdges
 70
     1
 71
     2
 72
     1
 73
     1
 90
        2
 40
-0.6
 41
30.0
 62
     5
 63
     7
421
 16777215
 74
     1
 91
        4
 64
     7
 65
   257
 75
     1
175
     1
 42
1.0
 92
        0
 66
   257
 43
1.0
 76
     1
 77
     6
 78
     2
 67
     7
 79
     5
170
     0
171
     0
290
     0
174
     0
 93
       13
 44
0.0
173
     0
291
     1
 45
0.0
1001
ACAD
1000
AcDbSavedByObjectVersion
1070
     0
  0
VISUALSTYLE
  5
2D
102
{ACAD_REACTORS
330
2A
102
}
102
{ACAD_XDICTIONARY
360
2AB
102
}
330
2A
100
AcDbVisualStyle
  2
Gouraud
 70
     2
 71
     2
 72
     2
 73
     1
 90
        2
 40
-0.6
 41
30.0
 62
     5
 63
     7
421
 16777215
 74
     0
 91
        4
 64
     7
 65
   257
 75
     1
175
     1
 42
1.0
 92
        0
 66
     7
 43
1.0
 76
     1
 77
     6
 78
     2
 67
     7
 79
     5
170
     0
171
     0
290
     0
174
     0
 93
       13
 44
0.0
173
     0
291
     1
 45
0.0
1001
ACAD
1000
AcDbSavedByObjectVersion
1070
     0
  0
VISUALSTYLE
  5
2E
102
{ACAD_REACTORS
330
2A
102
}
102
{ACAD_XDICTIONARY
360
2AD
102
}
330
2A
100
AcDbVisualStyle
  2
GouraudWithEdges
 70
     3
 71
     2
 72
     2
 73
     1
 90
        2
 40
-0.6
 41
30.0
 62
     5
 63
     7
421
 16777215
 74
     1
 91
        4
 64
     7
 65
   257
 75
     1
175
     1
 42
1.0
 92
        0
 66
   257
 43
1.0
 76
     1
 77
     6
 78
     2
 67
     7
 79
     5
170
     0
171
     0
290
     0
174
     0
 93
       13
 44
0.0
173
     0
291
     1
 45
0.0
1001
ACAD
1000
AcDbSavedByObjectVersion
1070
     0
  0
VISUALSTYLE
  5
38
102
{ACAD_REACTORS
330
2A
102
}
102
{ACAD_XDICTIONARY
360
2C1
102
}
330
2A
100
AcDbVisualStyle
  2
Linepattern
 70
    14
 71
     2
 72
     2
 73
     0
 90
        0
 40
-0.6
 41
-30.0
 62
     5
 63
     7
421
 16777215
 74
     1
 91
        4
 64
     7
 65
   257
 75
     7
175
     7
 42
1.0
 92
        8
 66
     7
 43
1.0
 76
     1
 77
     6
 78
     2
 67
     7
 79
     5
170
     0
171
     0
290
     0
174
     0
 93
        1
 44
0.0
173
     0
291
     1
 45
0.0
1001
ACAD
1000
AcDbSavedByObjectVersion
1070
     0
  0
VISUALSTYLE
  5
33
102
{ACAD_REACTORS
330
2A
102
}
102
{ACAD_XDICTIONARY
360
2B7
102
}
330
2A
100
AcDbVisualStyle
  2
Realistic
 70
     8
 71
     2
 72
     2
 73
     0
 90
        0
 40
-0.6
 41
-30.0
 62
     5
 63
     7
421
 16777215
 74
     1
 91
        0
 64
     7
 65
   257
 75
     1
175
     1
 42
1.0
 92
        8
 66
     8
424
  7895160
 43
1.0
 76
     1
 77
     6
 78
     2
 67
     7
 79
     5
170
     0
171
     0
290
     0
174
     0
 93
       13
 44
0.0
173
     0
291
     0
 45
0.0
1001
ACAD
1000
AcDbSavedByObjectVersion
1070
     0
  0
VISUALSTYLE
  5
37
102
{ACAD_REACTORS
330
2A
102
}
102
{ACAD_XDICTIONARY
360
2BF
102
}
330
2A
100
AcDbVisualStyle
  2
Thicken
 70
    13
 71
     2
 72
     2
 73
     0
 90
        0
 40
-0.6
 41
-30.0
 62
     5
 63
     7
421
 16777215
 74
     1
 91
        4
 64
     7
 65
   257
 75
     1
175
     1
 42
1.0
 92
       12
 66
     7
 43
1.0
 76
     1
 77
     6
 78
     2
 67
     7
 79
     5
170
     0
171
     0
290
     0
174
     0
 93
        1
 44
0.0
173
     0
291
     1
 45
0.0
1001
ACAD
1000
AcDbSavedByObjectVersion
1070
     0
  0
DICTIONARY
  5
2C9
330
3D
100
AcDbDictionary
280
     1
281
     1
  3
ACAD_XREC_ROUNDTRIP
360
2CA
  0
DICTIONARY
  5
2C7
330
3C
100
AcDbDictionary
280
     1
281
     1
  3
ACAD_XREC_ROUNDTRIP
360
2C8
  0
DICTIONARY
  5
2CB
330
3E
100
AcDbDictionary
280
     1
281
     1
  3
ACAD_XREC_ROUNDTRIP
360
2CC
  0
DICTIONARY
  5
2AF
330
2F
100
AcDbDictionary
280
     1
281
     1
  3
ACAD_XREC_ROUNDTRIP
360
2B0
  0
DICTIONARY
  5
2B3
330
31
100
AcDbDictionary
280
     1
281
     1
  3
ACAD_XREC_ROUNDTRIP
360
2B4
  0
DICTIONARY
  5
2B1
330
30
100
AcDbDictionary
280
     1
281
     1
  3
ACAD_XREC_ROUNDTRIP
360
2B2
  0
DICTIONARY
  5
2B5
330
32
100
AcDbDictionary
280
     1
281
     1
  3
ACAD_XREC_ROUNDTRIP
360
2B6
  0
DICTIONARY
  5
2BD
330
36
100
AcDbDictionary
280
     1
281
     1
  3
ACAD_XREC_ROUNDTRIP
360
2BE
  0
DICTIONARY
  5
2C5
330
3A
100
AcDbDictionary
280
     1
281
     1
  3
ACAD_XREC_ROUNDTRIP
360
2C6
  0
DICTIONARY
  5
2B9
330
34
100
AcDbDictionary
280
     1
281
     1
  3
ACAD_XREC_ROUNDTRIP
360
2BA
  0
DICTIONARY
  5
2BB
330
35
100
AcDbDictionary
280
     1
281
     1
  3
ACAD_XREC_ROUNDTRIP
360
2BC
  0
DICTIONARY
  5
2C3
330
39
100
AcDbDictionary
280
     1
281
     1
  3
ACAD_XREC_ROUNDTRIP
360
2C4
  0
DICTIONARY
  5
2A7
330
2B
100
AcDbDictionary
280
     1
281
     1
  3
ACAD_XREC_ROUNDTRIP
360
2A8
  0
DICTIONARY
  5
2A9
330
2C
100
AcDbDictionary
280
     1
281
     1
  3
ACAD_XREC_ROUNDTRIP
360
2AA
  0
DICTIONARY
  5
2AB
330
2D
100
AcDbDictionary
280
     1
281
     1
  3
ACAD_XREC_ROUNDTRIP
360
2AC
  0
DICTIONARY
  5
2AD
330
2E
100
AcDbDictionary
280
     1
281
     1
  3
ACAD_XREC_ROUNDTRIP
360
2AE
  0
DICTIONARY
  5
2C1
330
38
100
AcDbDictionary
280
     1
281
     1
  3
ACAD_XREC_ROUNDTRIP
360
2C2
  0
DICTIONARY
  5
2B7
330
33
100
AcDbDictionary
280
     1
281
     1
  3
ACAD_XREC_ROUNDTRIP
360
2B8
  0
DICTIONARY
  5
2BF
330
37
100
AcDbDictionary
280
     1
281
     1
  3
ACAD_XREC_ROUNDTRIP
360
2C0
  0
XRECORD
  5
2CA
102
{ACAD_REACTORS
330
2C9
102
}
330
2C9
100
AcDbXrecord
280
     1
102
MATERIAL
148
0.0
149
0.0
149
0.0
 93
        0
 94
      127
282
     0
 72
     1
 77
     1
171
     1
175
     1
179
     1
273
     0
  0
XRECORD
  5
2C8
102
{ACAD_REACTORS
330
2C7
102
}
330
2C7
100
AcDbXrecord
280
     1
102
MATERIAL
148
0.0
149
0.0
149
0.0
 93
        0
 94
      127
282
     0
 72
     1
 77
     1
171
     1
175
     1
179
     1
273
     0
  0
XRECORD
  5
2CC
102
{ACAD_REACTORS
330
2CB
102
}
330
2CB
100
AcDbXrecord
280
     1
102
MATERIAL
148
0.0
149
0.0
149
0.0
 93
        0
 94
      127
282
     0
 72
     1
 77
     1
171
     1
175
     1
179
     1
273
     0
  0
XRECORD
  5
2B0
102
{ACAD_REACTORS
330
2AF
102
}
330
2AF
100
AcDbXrecord
280
     1
102
RTVSPropertyOp0
 70
     1
102
RTVSPropertyOp1
 70
     1
102
RTVSPropertyOp2
 70
     1
102
RTVSPropertyOp3
 70
     1
102
RTVSPropertyOp4
 70
     1
102
RTVSPropertyOp5
 70
     1
102
RTVSPropertyOp6
 70
     1
102
RTVSPropertyOp7
 70
     1
102
RTVSPropertyOp8
 70
     1
102
RTVSPropertyOp9
 70
     1
102
RTVSPropertyOp10
 70
     1
102
RTVSPropertyOp11
 70
     1
102
RTVSPropertyOp12
 70
     1
102
RTVSPropertyOp13
 70
     1
102
RTVSPropertyOp14
 70
     1
102
RTVSPropertyOp15
 70
     1
102
RTVSPropertyOp16
 70
     1
102
RTVSPropertyOp17
 70
     1
102
RTVSPropertyOp18
 70
     1
102
RTVSPropertyOp19
 70
     1
102
RTVSPropertyOp20
 70
     1
102
RTVSPropertyOp21
 70
     1
102
RTVSPropertyOp22
 70
     1
102
RTVSPropertyOp23
 70
     1
102
RTVSPropertyOp24
 70
     1
102
RTVSPropertyOp25
 70
     1
102
RTVSPropertyOp26
 70
     1
102
RTVSPropertyOp27
 70
     1
102
RTVSPropertyOp28
 70
     1
102
RTVSPropertyOp29
 70
     1
102
RTVSPropertyOp30
 70
     1
102
RTVSPropertyOp31
 70
     1
102
RTVSPropertyOp32
 70
     1
  0
XRECORD
  5
2B4
102
{ACAD_REACTORS
330
2B3
102
}
330
2B3
100
AcDbXrecord
280
     1
102
RTVSPropertyOp0
 70
     1
102
RTVSPropertyOp1
 70
     1
102
RTVSPropertyOp2
 70
     1
102
RTVSPropertyOp3
 70
     1
102
RTVSPropertyOp4
 70
     1
102
RTVSPropertyOp5
 70
     1
102
RTVSPropertyOp6
 70
     1
102
RTVSPropertyOp7
 70
     1
102
RTVSPropertyOp8
 70
     1
102
RTVSPropertyOp9
 70
     1
102
RTVSPropertyOp10
 70
     1
102
RTVSPropertyOp11
 70
     1
102
RTVSPropertyOp12
 70
     1
102
RTVSPropertyOp13
 70
     1
102
RTVSPropertyOp14
 70
     1
102
RTVSPropertyOp15
 70
     1
102
RTVSPropertyOp16
 70
     1
102
RTVSPropertyOp17
 70
     1
102
RTVSPropertyOp18
 70
     1
102
RTVSPropertyOp19
 70
     1
102
RTVSPropertyOp20
 70
     1
102
RTVSPropertyOp21
 70
     1
102
RTVSPropertyOp22
 70
     1
102
RTVSPropertyOp23
 70
     1
102
RTVSPropertyOp24
 70
     1
102
RTVSPropertyOp25
 70
     1
102
RTVSPropertyOp26
 70
     1
102
RTVSPropertyOp27
 70
     1
102
RTVSPropertyOp28
 70
     1
102
RTVSPropertyOp29
 70
     1
102
RTVSPropertyOp30
 70
     1
102
RTVSPropertyOp31
 70
     1
102
RTVSPropertyOp32
 70
     1
  0
XRECORD
  5
2B2
102
{ACAD_REACTORS
330
2B1
102
}
330
2B1
100
AcDbXrecord
280
     1
102
RTVSPropertyOp0
 70
     1
102
RTVSPropertyOp1
 70
     1
102
RTVSPropertyOp2
 70
     1
102
RTVSPropertyOp3
 70
     1
102
RTVSPropertyOp4
 70
     1
102
RTVSPropertyOp5
 70
     1
102
RTVSPropertyOp6
 70
     1
102
RTVSPropertyOp7
 70
     1
102
RTVSPropertyOp8
 70
     1
102
RTVSPropertyOp9
 70
     1
102
RTVSPropertyOp10
 70
     1
102
RTVSPropertyOp11
 70
     1
102
RTVSPropertyOp12
 70
     1
102
RTVSPropertyOp13
 70
     1
102
RTVSPropertyOp14
 70
     1
102
RTVSPropertyOp15
 70
     1
102
RTVSPropertyOp16
 70
     1
102
RTVSPropertyOp17
 70
     1
102
RTVSPropertyOp18
 70
     1
102
RTVSPropertyOp19
 70
     1
102
RTVSPropertyOp20
 70
     1
102
RTVSPropertyOp21
 70
     1
102
RTVSPropertyOp22
 70
     1
102
RTVSPropertyOp23
 70
     1
102
RTVSPropertyOp24
 70
     1
102
RTVSPropertyOp25
 70
     1
102
RTVSPropertyOp26
 70
     1
102
RTVSPropertyOp27
 70
     1
102
RTVSPropertyOp28
 70
     1
102
RTVSPropertyOp29
 70
     1
102
RTVSPropertyOp30
 70
     1
102
RTVSPropertyOp31
 70
     1
102
RTVSPropertyOp32
 70
     1
  0
XRECORD
  5
2B6
102
{ACAD_REACTORS
330
2B5
102
}
330
2B5
100
AcDbXrecord
280
     1
102
RTVSPropertyOp0
 70
     1
102
RTVSPropertyOp1
 70
     1
102
RTVSPropertyOp2
 70
     1
102
RTVSPropertyOp3
 70
     1
102
RTVSPropertyOp4
 70
     1
102
RTVSPropertyOp5
 70
     1
102
RTVSPropertyOp6
 70
     1
102
RTVSPropertyOp7
 70
     1
102
RTVSPropertyOp8
 70
     1
102
RTVSPropertyOp9
 70
     1
102
RTVSPropertyOp10
 70
     1
102
RTVSPropertyOp11
 70
     1
102
RTVSPropertyOp12
 70
     1
102
RTVSPropertyOp13
 70
     1
102
RTVSPropertyOp14
 70
     1
102
RTVSPropertyOp15
 70
     1
102
RTVSPropertyOp16
 70
     1
102
RTVSPropertyOp17
 70
     1
102
RTVSPropertyOp18
 70
     1
102
RTVSPropertyOp19
 70
     1
102
RTVSPropertyOp20
 70
     1
102
RTVSPropertyOp21
 70
     1
102
RTVSPropertyOp22
 70
     1
102
RTVSPropertyOp23
 70
     1
102
RTVSPropertyOp24
 70
     1
102
RTVSPropertyOp25
 70
     1
102
RTVSPropertyOp26
 70
     1
102
RTVSPropertyOp27
 70
     1
102
RTVSPropertyOp28
 70
     1
102
RTVSPropertyOp29
 70
     1
102
RTVSPropertyOp30
 70
     1
102
RTVSPropertyOp31
 70
     1
102
RTVSPropertyOp32
 70
     1
  0
XRECORD
  5
2BE
102
{ACAD_REACTORS
330
2BD
102
}
330
2BD
100
AcDbXrecord
280
     1
102
RTVSPropertyOp0
 70
     1
102
RTVSPropertyOp1
 70
     1
102
RTVSPropertyOp2
 70
     1
102
RTVSPropertyOp3
 70
     1
102
RTVSPropertyOp4
 70
     1
102
RTVSPropertyOp5
 70
     1
102
RTVSPropertyOp6
 70
     1
102
RTVSPropertyOp7
 70
     1
102
RTVSPropertyOp8
 70
     1
102
RTVSPropertyOp9
 70
     1
102
RTVSPropertyOp10
 70
     1
102
RTVSPropertyOp11
 70
     1
102
RTVSPropertyOp12
 70
     1
102
RTVSPropertyOp13
 70
     1
102
RTVSPropertyOp14
 70
     1
102
RTVSPropertyOp15
 70
     1
102
RTVSPropertyOp16
 70
     1
102
RTVSPropertyOp17
 70
     1
102
RTVSPropertyOp18
 70
     1
102
RTVSPropertyOp19
 70
     1
102
RTVSPropertyOp20
 70
     1
102
RTVSPropertyOp21
 70
     1
102
RTVSPropertyOp22
 70
     1
102
RTVSPropertyOp23
 70
     1
102
RTVSPropertyOp24
 70
     1
102
RTVSPropertyOp25
 70
     1
102
RTVSPropertyOp26
 70
     1
102
RTVSPropertyOp27
 70
     1
102
RTVSPropertyOp28
 70
     1
102
RTVSPropertyOp29
 70
     1
102
RTVSPropertyOp30
 70
     1
102
RTVSPropertyOp31
 70
     1
102
RTVSPropertyOp32
 70
     1
  0
XRECORD
  5
2C6
102
{ACAD_REACTORS
330
2C5
102
}
330
2C5
100
AcDbXrecord
280
     1
102
RTVSPropertyOp0
 70
     1
102
RTVSPropertyOp1
 70
     1
102
RTVSPropertyOp2
 70
     1
102
RTVSPropertyOp3
 70
     1
102
RTVSPropertyOp4
 70
     1
102
RTVSPropertyOp5
 70
     1
102
RTVSPropertyOp6
 70
     1
102
RTVSPropertyOp7
 70
     1
102
RTVSPropertyOp8
 70
     1
102
RTVSPropertyOp9
 70
     1
102
RTVSPropertyOp10
 70
     1
102
RTVSPropertyOp11
 70
     1
102
RTVSPropertyOp12
 70
     1
102
RTVSPropertyOp13
 70
     1
102
RTVSPropertyOp14
 70
     1
102
RTVSPropertyOp15
 70
     1
102
RTVSPropertyOp16
 70
     1
102
RTVSPropertyOp17
 70
     1
102
RTVSPropertyOp18
 70
     1
102
RTVSPropertyOp19
 70
     1
102
RTVSPropertyOp20
 70
     1
102
RTVSPropertyOp21
 70
     1
102
RTVSPropertyOp22
 70
     1
102
RTVSPropertyOp23
 70
     1
102
RTVSPropertyOp24
 70
     1
102
RTVSPropertyOp25
 70
     1
102
RTVSPropertyOp26
 70
     1
102
RTVSPropertyOp27
 70
     1
102
RTVSPropertyOp28
 70
     1
102
RTVSPropertyOp29
 70
     1
102
RTVSPropertyOp30
 70
     1
102
RTVSPropertyOp31
 70
     1
102
RTVSPropertyOp32
 70
     1
  0
XRECORD
  5
2BA
102
{ACAD_REACTORS
330
2B9
102
}
330
2B9
100
AcDbXrecord
280
     1
102
RTVSPropertyOp0
 70
     1
102
RTVSPropertyOp1
 70
     1
102
RTVSPropertyOp2
 70
     1
102
RTVSPropertyOp3
 70
     1
102
RTVSPropertyOp4
 70
     1
102
RTVSPropertyOp5
 70
     1
102
RTVSPropertyOp6
 70
     1
102
RTVSPropertyOp7
 70
     1
102
RTVSPropertyOp8
 70
     1
102
RTVSPropertyOp9
 70
     1
102
RTVSPropertyOp10
 70
     1
102
RTVSPropertyOp11
 70
     1
102
RTVSPropertyOp12
 70
     1
102
RTVSPropertyOp13
 70
     1
102
RTVSPropertyOp14
 70
     1
102
RTVSPropertyOp15
 70
     1
102
RTVSPropertyOp16
 70
     1
102
RTVSPropertyOp17
 70
     1
102
RTVSPropertyOp18
 70
     1
102
RTVSPropertyOp19
 70
     1
102
RTVSPropertyOp20
 70
     1
102
RTVSPropertyOp21
 70
     1
102
RTVSPropertyOp22
 70
     1
102
RTVSPropertyOp23
 70
     1
102
RTVSPropertyOp24
 70
     1
102
RTVSPropertyOp25
 70
     1
102
RTVSPropertyOp26
 70
     1
102
RTVSPropertyOp27
 70
     1
102
RTVSPropertyOp28
 70
     1
102
RTVSPropertyOp29
 70
     1
102
RTVSPropertyOp30
 70
     1
102
RTVSPropertyOp31
 70
     1
102
RTVSPropertyOp32
 70
     1
  0
XRECORD
  5
2BC
102
{ACAD_REACTORS
330
2BB
102
}
330
2BB
100
AcDbXrecord
280
     1
102
RTVSPropertyOp0
 70
     1
102
RTVSPropertyOp1
 70
     1
102
RTVSPropertyOp2
 70
     1
102
RTVSPropertyOp3
 70
     1
102
RTVSPropertyOp4
 70
     1
102
RTVSPropertyOp5
 70
     1
102
RTVSPropertyOp6
 70
     1
102
RTVSPropertyOp7
 70
     1
102
RTVSPropertyOp8
 70
     1
102
RTVSPropertyOp9
 70
     1
102
RTVSPropertyOp10
 70
     1
102
RTVSPropertyOp11
 70
     1
102
RTVSPropertyOp12
 70
     1
102
RTVSPropertyOp13
 70
     1
102
RTVSPropertyOp14
 70
     1
102
RTVSPropertyOp15
 70
     1
102
RTVSPropertyOp16
 70
     1
102
RTVSPropertyOp17
 70
     1
102
RTVSPropertyOp18
 70
     1
102
RTVSPropertyOp19
 70
     1
102
RTVSPropertyOp20
 70
     1
102
RTVSPropertyOp21
 70
     1
102
RTVSPropertyOp22
 70
     1
102
RTVSPropertyOp23
 70
     1
102
RTVSPropertyOp24
 70
     1
102
RTVSPropertyOp25
 70
     1
102
RTVSPropertyOp26
 70
     1
102
RTVSPropertyOp27
 70
     1
102
RTVSPropertyOp28
 70
     1
102
RTVSPropertyOp29
 70
     1
102
RTVSPropertyOp30
 70
     1
102
RTVSPropertyOp31
 70
     1
102
RTVSPropertyOp32
 70
     1
  0
XRECORD
  5
2C4
102
{ACAD_REACTORS
330
2C3
102
}
330
2C3
100
AcDbXrecord
280
     1
102
RTVSPropertyOp0
 70
     1
102
RTVSPropertyOp1
 70
     1
102
RTVSPropertyOp2
 70
     1
102
RTVSPropertyOp3
 70
     1
102
RTVSPropertyOp4
 70
     1
102
RTVSPropertyOp5
 70
     1
102
RTVSPropertyOp6
 70
     1
102
RTVSPropertyOp7
 70
     1
102
RTVSPropertyOp8
 70
     1
102
RTVSPropertyOp9
 70
     1
102
RTVSPropertyOp10
 70
     1
102
RTVSPropertyOp11
 70
     1
102
RTVSPropertyOp12
 70
     1
102
RTVSPropertyOp13
 70
     1
102
RTVSPropertyOp14
 70
     1
102
RTVSPropertyOp15
 70
     1
102
RTVSPropertyOp16
 70
     1
102
RTVSPropertyOp17
 70
     1
102
RTVSPropertyOp18
 70
     1
102
RTVSPropertyOp19
 70
     1
102
RTVSPropertyOp20
 70
     1
102
RTVSPropertyOp21
 70
     1
102
RTVSPropertyOp22
 70
     1
102
RTVSPropertyOp23
 70
     1
102
RTVSPropertyOp24
 70
     1
102
RTVSPropertyOp25
 70
     1
102
RTVSPropertyOp26
 70
     1
102
RTVSPropertyOp27
 70
     1
102
RTVSPropertyOp28
 70
     1
102
RTVSPropertyOp29
 70
     1
102
RTVSPropertyOp30
 70
     1
102
RTVSPropertyOp31
 70
     1
102
RTVSPropertyOp32
 70
     1
  0
XRECORD
  5
2A8
102
{ACAD_REACTORS
330
2A7
102
}
330
2A7
100
AcDbXrecord
280
     1
102
RTVSPropertyOp0
 70
     1
102
RTVSPropertyOp1
 70
     1
102
RTVSPropertyOp2
 70
     1
102
RTVSPropertyOp3
 70
     1
102
RTVSPropertyOp4
 70
     1
102
RTVSPropertyOp5
 70
     1
102
RTVSPropertyOp6
 70
     1
102
RTVSPropertyOp7
 70
     1
102
RTVSPropertyOp8
 70
     1
102
RTVSPropertyOp9
 70
     1
102
RTVSPropertyOp10
 70
     1
102
RTVSPropertyOp11
 70
     1
102
RTVSPropertyOp12
 70
     1
102
RTVSPropertyOp13
 70
     1
102
RTVSPropertyOp14
 70
     1
102
RTVSPropertyOp15
 70
     1
102
RTVSPropertyOp16
 70
     1
102
RTVSPropertyOp17
 70
     1
102
RTVSPropertyOp18
 70
     1
102
RTVSPropertyOp19
 70
     1
102
RTVSPropertyOp20
 70
     1
102
RTVSPropertyOp21
 70
     1
102
RTVSPropertyOp22
 70
     1
102
RTVSPropertyOp23
 70
     1
102
RTVSPropertyOp24
 70
     1
102
RTVSPropertyOp25
 70
     1
102
RTVSPropertyOp26
 70
     1
102
RTVSPropertyOp27
 70
     1
102
RTVSPropertyOp28
 70
     1
102
RTVSPropertyOp29
 70
     1
102
RTVSPropertyOp30
 70
     1
102
RTVSPropertyOp31
 70
     1
102
RTVSPropertyOp32
 70
     1
  0
XRECORD
  5
2AA
102
{ACAD_REACTORS
330
2A9
102
}
330
2A9
100
AcDbXrecord
280
     1
102
RTVSPropertyOp0
 70
     1
102
RTVSPropertyOp1
 70
     1
102
RTVSPropertyOp2
 70
     1
102
RTVSPropertyOp3
 70
     1
102
RTVSPropertyOp4
 70
     1
102
RTVSPropertyOp5
 70
     1
102
RTVSPropertyOp6
 70
     1
102
RTVSPropertyOp7
 70
     1
102
RTVSPropertyOp8
 70
     1
102
RTVSPropertyOp9
 70
     1
102
RTVSPropertyOp10
 70
     1
102
RTVSPropertyOp11
 70
     1
102
RTVSPropertyOp12
 70
     1
102
RTVSPropertyOp13
 70
     1
102
RTVSPropertyOp14
 70
     1
102
RTVSPropertyOp15
 70
     1
102
RTVSPropertyOp16
 70
     1
102
RTVSPropertyOp17
 70
     1
102
RTVSPropertyOp18
 70
     1
102
RTVSPropertyOp19
 70
     1
102
RTVSPropertyOp20
 70
     1
102
RTVSPropertyOp21
 70
     1
102
RTVSPropertyOp22
 70
     1
102
RTVSPropertyOp23
 70
     1
102
RTVSPropertyOp24
 70
     1
102
RTVSPropertyOp25
 70
     1
102
RTVSPropertyOp26
 70
     1
102
RTVSPropertyOp27
 70
     1
102
RTVSPropertyOp28
 70
     1
102
RTVSPropertyOp29
 70
     1
102
RTVSPropertyOp30
 70
     1
102
RTVSPropertyOp31
 70
     1
102
RTVSPropertyOp32
 70
     1
  0
XRECORD
  5
2AC
102
{ACAD_REACTORS
330
2AB
102
}
330
2AB
100
AcDbXrecord
280
     1
102
RTVSPropertyOp0
 70
     1
102
RTVSPropertyOp1
 70
     1
102
RTVSPropertyOp2
 70
     1
102
RTVSPropertyOp3
 70
     1
102
RTVSPropertyOp4
 70
     1
102
RTVSPropertyOp5
 70
     1
102
RTVSPropertyOp6
 70
     1
102
RTVSPropertyOp7
 70
     1
102
RTVSPropertyOp8
 70
     1
102
RTVSPropertyOp9
 70
     1
102
RTVSPropertyOp10
 70
     1
102
RTVSPropertyOp11
 70
     1
102
RTVSPropertyOp12
 70
     1
102
RTVSPropertyOp13
 70
     1
102
RTVSPropertyOp14
 70
     1
102
RTVSPropertyOp15
 70
     1
102
RTVSPropertyOp16
 70
     1
102
RTVSPropertyOp17
 70
     1
102
RTVSPropertyOp18
 70
     1
102
RTVSPropertyOp19
 70
     1
102
RTVSPropertyOp20
 70
     1
102
RTVSPropertyOp21
 70
     1
102
RTVSPropertyOp22
 70
     1
102
RTVSPropertyOp23
 70
     1
102
RTVSPropertyOp24
 70
     1
102
RTVSPropertyOp25
 70
     1
102
RTVSPropertyOp26
 70
     1
102
RTVSPropertyOp27
 70
     1
102
RTVSPropertyOp28
 70
     1
102
RTVSPropertyOp29
 70
     1
102
RTVSPropertyOp30
 70
     1
102
RTVSPropertyOp31
 70
     1
102
RTVSPropertyOp32
 70
     1
  0
XRECORD
  5
2AE
102
{ACAD_REACTORS
330
2AD
102
}
330
2AD
100
AcDbXrecord
280
     1
102
RTVSPropertyOp0
 70
     1
102
RTVSPropertyOp1
 70
     1
102
RTVSPropertyOp2
 70
     1
102
RTVSPropertyOp3
 70
     1
102
RTVSPropertyOp4
 70
     1
102
RTVSPropertyOp5
 70
     1
102
RTVSPropertyOp6
 70
     1
102
RTVSPropertyOp7
 70
     1
102
RTVSPropertyOp8
 70
     1
102
RTVSPropertyOp9
 70
     1
102
RTVSPropertyOp10
 70
     1
102
RTVSPropertyOp11
 70
     1
102
RTVSPropertyOp12
 70
     1
102
RTVSPropertyOp13
 70
     1
102
RTVSPropertyOp14
 70
     1
102
RTVSPropertyOp15
 70
     1
102
RTVSPropertyOp16
 70
     1
102
RTVSPropertyOp17
 70
     1
102
RTVSPropertyOp18
 70
     1
102
RTVSPropertyOp19
 70
     1
102
RTVSPropertyOp20
 70
     1
102
RTVSPropertyOp21
 70
     1
102
RTVSPropertyOp22
 70
     1
102
RTVSPropertyOp23
 70
     1
102
RTVSPropertyOp24
 70
     1
102
RTVSPropertyOp25
 70
     1
102
RTVSPropertyOp26
 70
     1
102
RTVSPropertyOp27
 70
     1
102
RTVSPropertyOp28
 70
     1
102
RTVSPropertyOp29
 70
     1
102
RTVSPropertyOp30
 70
     1
102
RTVSPropertyOp31
 70
     1
102
RTVSPropertyOp32
 70
     1
  0
XRECORD
  5
2C2
102
{ACAD_REACTORS
330
2C1
102
}
330
2C1
100
AcDbXrecord
280
     1
102
RTVSPropertyOp0
 70
     1
102
RTVSPropertyOp1
 70
     1
102
RTVSPropertyOp2
 70
     1
102
RTVSPropertyOp3
 70
     1
102
RTVSPropertyOp4
 70
     1
102
RTVSPropertyOp5
 70
     1
102
RTVSPropertyOp6
 70
     1
102
RTVSPropertyOp7
 70
     1
102
RTVSPropertyOp8
 70
     1
102
RTVSPropertyOp9
 70
     1
102
RTVSPropertyOp10
 70
     1
102
RTVSPropertyOp11
 70
     1
102
RTVSPropertyOp12
 70
     1
102
RTVSPropertyOp13
 70
     1
102
RTVSPropertyOp14
 70
     1
102
RTVSPropertyOp15
 70
     1
102
RTVSPropertyOp16
 70
     1
102
RTVSPropertyOp17
 70
     1
102
RTVSPropertyOp18
 70
     1
102
RTVSPropertyOp19
 70
     1
102
RTVSPropertyOp20
 70
     1
102
RTVSPropertyOp21
 70
     1
102
RTVSPropertyOp22
 70
     1
102
RTVSPropertyOp23
 70
     1
102
RTVSPropertyOp24
 70
     1
102
RTVSPropertyOp25
 70
     1
102
RTVSPropertyOp26
 70
     1
102
RTVSPropertyOp27
 70
     1
102
RTVSPropertyOp28
 70
     1
102
RTVSPropertyOp29
 70
     1
102
RTVSPropertyOp30
 70
     1
102
RTVSPropertyOp31
 70
     1
102
RTVSPropertyOp32
 70
     1
  0
XRECORD
  5
2B8
102
{ACAD_REACTORS
330
2B7
102
}
330
2B7
100
AcDbXrecord
280
     1
102
RTVSPropertyOp0
 70
     1
102
RTVSPropertyOp1
 70
     1
102
RTVSPropertyOp2
 70
     1
102
RTVSPropertyOp3
 70
     1
102
RTVSPropertyOp4
 70
     1
102
RTVSPropertyOp5
 70
     1
102
RTVSPropertyOp6
 70
     1
102
RTVSPropertyOp7
 70
     1
102
RTVSPropertyOp8
 70
     1
102
RTVSPropertyOp9
 70
     1
102
RTVSPropertyOp10
 70
     1
102
RTVSPropertyOp11
 70
     1
102
RTVSPropertyOp12
 70
     1
102
RTVSPropertyOp13
 70
     1
102
RTVSPropertyOp14
 70
     1
102
RTVSPropertyOp15
 70
     1
102
RTVSPropertyOp16
 70
     1
102
RTVSPropertyOp17
 70
     1
102
RTVSPropertyOp18
 70
     1
102
RTVSPropertyOp19
 70
     1
102
RTVSPropertyOp20
 70
     1
102
RTVSPropertyOp21
 70
     1
102
RTVSPropertyOp22
 70
     1
102
RTVSPropertyOp23
 70
     1
102
RTVSPropertyOp24
 70
     1
102
RTVSPropertyOp25
 70
     1
102
RTVSPropertyOp26
 70
     1
102
RTVSPropertyOp27
 70
     1
102
RTVSPropertyOp28
 70
     1
102
RTVSPropertyOp29
 70
     1
102
RTVSPropertyOp30
 70
     1
102
RTVSPropertyOp31
 70
     1
102
RTVSPropertyOp32
 70
     1
  0
XRECORD
  5
2C0
102
{ACAD_REACTORS
330
2BF
102
}
330
2BF
100
AcDbXrecord
280
     1
102
RTVSPropertyOp0
 70
     1
102
RTVSPropertyOp1
 70
     1
102
RTVSPropertyOp2
 70
     1
102
RTVSPropertyOp3
 70
     1
102
RTVSPropertyOp4
 70
     1
102
RTVSPropertyOp5
 70
     1
102
RTVSPropertyOp6
 70
     1
102
RTVSPropertyOp7
 70
     1
102
RTVSPropertyOp8
 70
     1
102
RTVSPropertyOp9
 70
     1
102
RTVSPropertyOp10
 70
     1
102
RTVSPropertyOp11
 70
     1
102
RTVSPropertyOp12
 70
     1
102
RTVSPropertyOp13
 70
     1
102
RTVSPropertyOp14
 70
     1
102
RTVSPropertyOp15
 70
     1
102
RTVSPropertyOp16
 70
     1
102
RTVSPropertyOp17
 70
     1
102
RTVSPropertyOp18
 70
     1
102
RTVSPropertyOp19
 70
     1
102
RTVSPropertyOp20
 70
     1
102
RTVSPropertyOp21
 70
     1
102
RTVSPropertyOp22
 70
     1
102
RTVSPropertyOp23
 70
     1
102
RTVSPropertyOp24
 70
     1
102
RTVSPropertyOp25
 70
     1
102
RTVSPropertyOp26
 70
     1
102
RTVSPropertyOp27
 70
     1
102
RTVSPropertyOp28
 70
     1
102
RTVSPropertyOp29
 70
     1
102
RTVSPropertyOp30
 70
     1
102
RTVSPropertyOp31
 70
     1
102
RTVSPropertyOp32
 70
     1
  0
ENDSEC
  0
EOF
