  0
SECTION
  2
HEADER
  9
$ACADVER
  1
AC1018
  9
$ACADMAINTVER
 70
     0
  9
$DWGCODEPAGE
  3
ANSI_1252
  9
$INSBASE
 10
0.0
 20
0.0
 30
0.0
  9
$EXTMIN
 10
-451.51547683519
 20
-206.5914164973
 30
-0.0000000000000284
  9
$EXTMAX
 10
-26.50639999999999
 20
118.40861581631
 30
400.0
  9
$LIMMIN
 10
0.0
 20
0.0
  9
$LIMMAX
 10
12.0
 20
9.0
  9
$ORTHOMODE
 70
     0
  9
$REGENMODE
 70
     1
  9
$FILLMODE
 70
     1
  9
$QTEXTMODE
 70
     0
  9
$MIRRTEXT
 70
     1
  9
$LTSCALE
 40
1.0
  9
$ATTMODE
 70
     1
  9
$TEXTSIZE
 40
0.2
  9
$TRACEWID
 40
0.05
  9
$TEXTSTYLE
  7
Standard
  9
$CLAYER
  8
Default
  9
$CELTYPE
  6
ByLayer
  9
$CECOLOR
 62
   256
  9
$CELTSCALE
 40
1.0
  9
$DISPSILH
 70
     0
  9
$DIMSCALE
 40
1.0
  9
$DIMASZ
 40
0.18
  9
$DIMEXO
 40
0.0625
  9
$DIMDLI
 40
0.38
  9
$DIMRND
 40
0.0
  9
$DIMDLE
 40
0.0
  9
$DIMEXE
 40
0.18
  9
$DIMTP
 40
0.0
  9
$DIMTM
 40
0.0
  9
$DIMTXT
 40
0.18
  9
$DIMCEN
 40
0.09
  9
$DIMTSZ
 40
0.0
  9
$DIMTOL
 70
     0
  9
$DIMLIM
 70
     0
  9
$DIMTIH
 70
     1
  9
$DIMTOH
 70
     1
  9
$DIMSE1
 70
     0
  9
$DIMSE2
 70
     0
  9
$DIMTAD
 70
     0
  9
$DIMZIN
 70
     0
  9
$DIMBLK
  1

  9
$DIMASO
 70
     1
  9
$DIMSHO
 70
     1
  9
$DIMPOST
  1

  9
$DIMAPOST
  1

  9
$DIMALT
 70
     0
  9
$DIMALTD
 70
     2
  9
$DIMALTF
 40
25.4
  9
$DIMLFAC
 40
1.0
  9
$DIMTOFL
 70
     0
  9
$DIMTVP
 40
0.0
  9
$DIMTIX
 70
     0
  9
$DIMSOXD
 70
     0
  9
$DIMSAH
 70
     0
  9
$DIMBLK1
  1

  9
$DIMBLK2
  1

  9
$DIMSTYLE
  2
Standard
  9
$DIMCLRD
 70
     0
  9
$DIMCLRE
 70
     0
  9
$DIMCLRT
 70
     0
  9
$DIMTFAC
 40
1.0
  9
$DIMGAP
 40
0.09
  9
$DIMJUST
 70
     0
  9
$DIMSD1
 70
     0
  9
$DIMSD2
 70
     0
  9
$DIMTOLJ
 70
     1
  9
$DIMTZIN
 70
     0
  9
$DIMALTZ
 70
     0
  9
$DIMALTTZ
 70
     0
  9
$DIMUPT
 70
     0
  9
$DIMDEC
 70
     4
  9
$DIMTDEC
 70
     4
  9
$DIMALTU
 70
     2
  9
$DIMALTTD
 70
     2
  9
$DIMTXSTY
  7
Standard
  9
$DIMAUNIT
 70
     0
  9
$DIMADEC
 70
     0
  9
$DIMALTRND
 40
0.0
  9
$DIMAZIN
 70
     0
  9
$DIMDSEP
 70
    46
  9
$DIMATFIT
 70
     3
  9
$DIMFRAC
 70
     0
  9
$DIMLDRBLK
  1

  9
$DIMLUNIT
 70
     2
  9
$DIMLWD
 70
    -2
  9
$DIMLWE
 70
    -2
  9
$DIMTMOVE
 70
     2
  9
$LUNITS
 70
     2
  9
$LUPREC
 70
     2
  9
$SKETCHINC
 40
0.1
  9
$FILLETRAD
 40
0.5
  9
$AUNITS
 70
     0
  9
$AUPREC
 70
     0
  9
$MENU
  1
.
  9
$ELEVATION
 40
0.0
  9
$PELEVATION
 40
0.0
  9
$THICKNESS
 40
0.0
  9
$LIMCHECK
 70
     0
  9
$CHAMFERA
 40
0.5
  9
$CHAMFERB
 40
0.5
  9
$CHAMFERC
 40
1.0
  9
$CHAMFERD
 40
0.0
  9
$SKPOLY
 70
     0
  9
$TDCREATE
 40
2458028.49384566
  9
$TDUCREATE
 40
2458028.61884566
  9
$TDUPDATE
 40
2458028.494118958
  9
$TDUUPDATE
 40
2458028.619118958
  9
$TDINDWG
 40
0.0000000116
  9
$TDUSRTIMER
 40
0.0000000116
  9
$USRTIMER
 70
     1
  9
$ANGBASE
 50
0.0
  9
$ANGDIR
 70
     0
  9
$PDMODE
 70
     0
  9
$PDSIZE
 40
0.0
  9
$PLINEWID
 40
0.0
  9
$SPLFRAME
 70
     0
  9
$SPLINETYPE
 70
     6
  9
$SPLINESEGS
 70
     8
  9
$HANDSEED
  5
1A9
  9
$SURFTAB1
 70
     6
  9
$SURFTAB2
 70
     6
  9
$SURFTYPE
 70
     6
  9
$SURFU
 70
     6
  9
$SURFV
 70
     6
  9
$UCSBASE
  2

  9
$UCSNAME
  2

  9
$UCSORG
 10
0.0
 20
0.0
 30
0.0
  9
$UCSXDIR
 10
1.0
 20
0.0
 30
0.0
  9
$UCSYDIR
 10
0.0
 20
1.0
 30
0.0
  9
$UCSORTHOREF
  2

  9
$UCSORTHOVIEW
 70
     0
  9
$UCSORGTOP
 10
0.0
 20
0.0
 30
0.0
  9
$UCSORGBOTTOM
 10
0.0
 20
0.0
 30
0.0
  9
$UCSORGLEFT
 10
0.0
 20
0.0
 30
0.0
  9
$UCSORGRIGHT
 10
0.0
 20
0.0
 30
0.0
  9
$UCSORGFRONT
 10
0.0
 20
0.0
 30
0.0
  9
$UCSORGBACK
 10
0.0
 20
0.0
 30
0.0
  9
$PUCSBASE
  2

  9
$PUCSNAME
  2

  9
$PUCSORG
 10
0.0
 20
0.0
 30
0.0
  9
$PUCSXDIR
 10
1.0
 20
0.0
 30
0.0
  9
$PUCSYDIR
 10
0.0
 20
1.0
 30
0.0
  9
$PUCSORTHOREF
  2

  9
$PUCSORTHOVIEW
 70
     0
  9
$PUCSORGTOP
 10
0.0
 20
0.0
 30
0.0
  9
$PUCSORGBOTTOM
 10
0.0
 20
0.0
 30
0.0
  9
$PUCSORGLEFT
 10
0.0
 20
0.0
 30
0.0
  9
$PUCSORGRIGHT
 10
0.0
 20
0.0
 30
0.0
  9
$PUCSORGFRONT
 10
0.0
 20
0.0
 30
0.0
  9
$PUCSORGBACK
 10
0.0
 20
0.0
 30
0.0
  9
$USERI1
 70
     0
  9
$USERI2
 70
     0
  9
$USERI3
 70
     0
  9
$USERI4
 70
     0
  9
$USERI5
 70
     0
  9
$USERR1
 40
0.0
  9
$USERR2
 40
0.0
  9
$USERR3
 40
0.0
  9
$USERR4
 40
0.0
  9
$USERR5
 40
0.0
  9
$WORLDVIEW
 70
     1
  9
$SHADEDGE
 70
     3
  9
$SHADEDIF
 70
    70
  9
$TILEMODE
 70
     1
  9
$MAXACTVP
 70
    64
  9
$PINSBASE
 10
0.0
 20
0.0
 30
0.0
  9
$PLIMCHECK
 70
     0
  9
$PEXTMIN
 10
1.000000000000000E+20
 20
1.000000000000000E+20
 30
1.000000000000000E+20
  9
$PEXTMAX
 10
-1.000000000000000E+20
 20
-1.000000000000000E+20
 30
-1.000000000000000E+20
  9
$PLIMMIN
 10
0.0
 20
0.0
  9
$PLIMMAX
 10
12.0
 20
9.0
  9
$UNITMODE
 70
     0
  9
$VISRETAIN
 70
     1
  9
$PLINEGEN
 70
     0
  9
$PSLTSCALE
 70
     1
  9
$TREEDEPTH
 70
  3020
  9
$CMLSTYLE
  2
Standard
  9
$CMLJUST
 70
     0
  9
$CMLSCALE
 40
1.0
  9
$PROXYGRAPHICS
 70
     1
  9
$MEASUREMENT
 70
     0
  9
$CELWEIGHT
370
    -1
  9
$ENDCAPS
280
     0
  9
$JOINSTYLE
280
     0
  9
$LWDISPLAY
290
     0
  9
$INSUNITS
 70
     4
  9
$HYPERLINKBASE
  1

  9
$STYLESHEET
  1

  9
$XEDIT
290
     1
  9
$CEPSNTYPE
380
     0
  9
$PSTYLEMODE
290
     1
  9
$FINGERPRINTGUID
  2
{3F9CD9D8-9074-42F8-9860-FD5293168FEA}
  9
$VERSIONGUID
  2
{FAEB1C32-E019-11D5-929B-00C0DF256EC4}
  9
$EXTNAMES
290
     1
  9
$PSVPSCALE
 40
0.0
  9
$OLESTARTUP
290
     0
  9
$SORTENTS
280
   127
  9
$INDEXCTL
280
     0
  9
$HIDETEXT
280
     1
  9
$XCLIPFRAME
290
     0
  9
$HALOGAP
280
     0
  9
$OBSCOLOR
 70
   257
  9
$OBSLTYPE
280
     0
  9
$INTERSECTIONDISPLAY
280
     0
  9
$INTERSECTIONCOLOR
 70
   257
  9
$DIMASSOC
280
     2
  9
$PROJECTNAME
  1

  0
ENDSEC
  0
SECTION
  2
CLASSES
  0
CLASS
  1
ACDBDICTIONARYWDFLT
  2
AcDbDictionaryWithDefault
  3
ObjectDBX Classes
 90
        0
 91
        4
280
     0
281
     0
  0
CLASS
  1
VISUALSTYLE
  2
AcDbVisualStyle
  3
ObjectDBX Classes
 90
     4095
 91
        4
280
     0
281
     0
  0
CLASS
  1
MATERIAL
  2
AcDbMaterial
  3
ObjectDBX Classes
 90
     1153
 91
        4
280
     0
281
     0
  0
CLASS
  1
SUN
  2
AcDbSun
  3
SCENEOE
 90
     1024
 91
        4
280
     0
281
     0
  0
ENDSEC
  0
SECTION
  2
TABLES
  0
TABLE
  2
VPORT
  5
8
330
0
100
AcDbSymbolTable
 70
     1
  0
VPORT
  5
29
330
8
100
AcDbSymbolTableRecord
100
AcDbViewportTableRecord
  2
*Active
 70
     0
 10
0.0
 20
0.0
 11
1.0
 21
1.0
 12
-239.010938417595
 22
-44.091400340495
 13
0.0
 23
0.0
 14
0.5
 24
0.5
 15
0.5
 25
0.5
 16
0.0
 26
0.0
 36
1.0
 17
0.0
 27
0.0
 37
0.0
 40
331.5000329598822
 41
1.307720106393946
 42
50.0
 43
0.0
 44
0.0
 50
0.0
 51
0.0
 71
     0
 72
   100
 73
     1
 74
     3
 75
     0
 76
     0
 77
     0
 78
     0
281
     0
 65
     1
110
0.0
120
0.0
130
0.0
111
1.0
121
0.0
131
0.0
112
0.0
122
1.0
132
0.0
 79
     0
146
0.0
  0
ENDTAB
  0
TABLE
  2
LTYPE
  5
5
330
0
100
AcDbSymbolTable
 70
     1
  0
LTYPE
  5
14
330
5
100
AcDbSymbolTableRecord
100
AcDbLinetypeTableRecord
  2
ByBlock
 70
     0
  3

 72
    65
 73
     0
 40
0.0
  0
LTYPE
  5
15
330
5
100
AcDbSymbolTableRecord
100
AcDbLinetypeTableRecord
  2
ByLayer
 70
     0
  3

 72
    65
 73
     0
 40
0.0
  0
LTYPE
  5
16
330
5
100
AcDbSymbolTableRecord
100
AcDbLinetypeTableRecord
  2
Continuous
 70
     0
  3
Solid line
 72
    65
 73
     0
 40
0.0
  0
ENDTAB
  0
TABLE
  2
LAYER
  5
2
330
0
100
AcDbSymbolTable
 70
     2
  0
LAYER
  5
10
330
2
100
AcDbSymbolTableRecord
100
AcDbLayerTableRecord
  2
0
 70
     0
 62
     7
  6
Continuous
370
    -3
390
F
  0
LAYER
  5
40
330
2
100
AcDbSymbolTableRecord
100
AcDbLayerTableRecord
  2
Default
 70
     0
 62
    18
420
        0
  6
Continuous
370
    -3
390
F
  0
ENDTAB
  0
TABLE
  2
STYLE
  5
3
330
0
100
AcDbSymbolTable
 70
     1
  0
STYLE
  5
11
330
3
100
AcDbSymbolTableRecord
100
AcDbTextStyleTableRecord
  2
Standard
 70
     0
 40
0.0
 41
1.0
 50
0.0
 71
     0
 42
0.2
  3
txt
  4

  0
ENDTAB
  0
TABLE
  2
VIEW
  5
6
330
0
100
AcDbSymbolTable
 70
     0
  0
ENDTAB
  0
TABLE
  2
UCS
  5
7
330
0
100
AcDbSymbolTable
 70
     0
  0
ENDTAB
  0
TABLE
  2
APPID
  5
9
330
0
100
AcDbSymbolTable
 70
     1
  0
APPID
  5
12
330
9
100
AcDbSymbolTableRecord
100
AcDbRegAppTableRecord
  2
ACAD
 70
     0
  0
ENDTAB
  0
TABLE
  2
DIMSTYLE
  5
A
330
0
100
AcDbSymbolTable
 70
     1
100
AcDbDimStyleTable
  0
DIMSTYLE
105
27
330
A
100
AcDbSymbolTableRecord
100
AcDbDimStyleTableRecord
  2
Standard
 70
     0
178
     0
340
11
  0
ENDTAB
  0
TABLE
  2
BLOCK_RECORD
  5
1
330
0
100
AcDbSymbolTable
 70
    21
  0
BLOCK_RECORD
  5
1F
330
1
100
AcDbSymbolTableRecord
100
AcDbBlockTableRecord
  2
*Model_Space
340
22
  0
BLOCK_RECORD
  5
1B
330
1
100
AcDbSymbolTableRecord
100
AcDbBlockTableRecord
  2
*Paper_Space
340
1E
  0
BLOCK_RECORD
  5
23
330
1
100
AcDbSymbolTableRecord
100
AcDbBlockTableRecord
  2
*Paper_Space0
340
26
  0
BLOCK_RECORD
  5
41
330
1
100
AcDbSymbolTableRecord
100
AcDbBlockTableRecord
  2
ASSEMBLY
340
0
102
{BLKREFS
331
180
102
}
  0
BLOCK_RECORD
  5
42
330
1
100
AcDbSymbolTableRecord
100
AcDbBlockTableRecord
  2
Pad
340
0
102
{BLKREFS
331
5D
102
}
  0
BLOCK_RECORD
  5
5E
330
1
100
AcDbSymbolTableRecord
100
AcDbBlockTableRecord
  2
Block 01
340
0
102
{BLKREFS
331
65
102
}
  0
BLOCK_RECORD
  5
66
330
1
100
AcDbSymbolTableRecord
100
AcDbBlockTableRecord
  2
Block 02
340
0
102
{BLKREFS
331
6D
102
}
  0
BLOCK_RECORD
  5
6E
330
1
100
AcDbSymbolTableRecord
100
AcDbBlockTableRecord
  2
Block 03
340
0
102
{BLKREFS
331
75
102
}
  0
BLOCK_RECORD
  5
76
330
1
100
AcDbSymbolTableRecord
100
AcDbBlockTableRecord
  2
Block 04
340
0
102
{BLKREFS
331
7A
102
}
  0
BLOCK_RECORD
  5
7B
330
1
100
AcDbSymbolTableRecord
100
AcDbBlockTableRecord
  2
Block 05
340
0
102
{BLKREFS
331
7F
102
}
  0
BLOCK_RECORD
  5
80
330
1
100
AcDbSymbolTableRecord
100
AcDbBlockTableRecord
  2
Block 06
340
0
102
{BLKREFS
331
84
102
}
  0
BLOCK_RECORD
  5
85
330
1
100
AcDbSymbolTableRecord
100
AcDbBlockTableRecord
  2
Block 07
340
0
102
{BLKREFS
331
89
102
}
  0
BLOCK_RECORD
  5
8A
330
1
100
AcDbSymbolTableRecord
100
AcDbBlockTableRecord
  2
Block 08
340
0
102
{BLKREFS
331
8E
102
}
  0
BLOCK_RECORD
  5
8F
330
1
100
AcDbSymbolTableRecord
100
AcDbBlockTableRecord
  2
Pad001
340
0
102
{BLKREFS
331
AA
102
}
  0
BLOCK_RECORD
  5
AB
330
1
100
AcDbSymbolTableRecord
100
AcDbBlockTableRecord
  2
Pad002
340
0
102
{BLKREFS
331
C6
102
}
  0
BLOCK_RECORD
  5
C7
330
1
100
AcDbSymbolTableRecord
100
AcDbBlockTableRecord
  2
Pad003
340
0
102
{BLKREFS
331
DA
102
}
  0
BLOCK_RECORD
  5
DB
330
1
100
AcDbSymbolTableRecord
100
AcDbBlockTableRecord
  2
Pad006
340
0
102
{BLKREFS
331
EE
102
}
  0
BLOCK_RECORD
  5
EF
330
1
100
AcDbSymbolTableRecord
100
AcDbBlockTableRecord
  2
Pad007
340
0
102
{BLKREFS
331
102
102
}
  0
BLOCK_RECORD
  5
103
330
1
100
AcDbSymbolTableRecord
100
AcDbBlockTableRecord
  2
Pad008
340
0
102
{BLKREFS
331
116
102
}
  0
BLOCK_RECORD
  5
117
330
1
100
AcDbSymbolTableRecord
100
AcDbBlockTableRecord
  2
Pad009
340
0
102
{BLKREFS
331
12A
102
}
  0
BLOCK_RECORD
  5
12B
330
1
100
AcDbSymbolTableRecord
100
AcDbBlockTableRecord
  2
Pad010
340
0
102
{BLKREFS
331
155
102
}
  0
BLOCK_RECORD
  5
156
330
1
100
AcDbSymbolTableRecord
100
AcDbBlockTableRecord
  2
Pad011
340
0
102
{BLKREFS
331
169
102
}
  0
BLOCK_RECORD
  5
16A
330
1
100
AcDbSymbolTableRecord
100
AcDbBlockTableRecord
  2
Pad012
340
0
102
{BLKREFS
331
17D
102
}
  0
ENDTAB
  0
ENDSEC
  0
SECTION
  2
BLOCKS
  0
BLOCK
  5
20
330
1F
100
AcDbEntity
  8
0
100
AcDbBlockBegin
  2
*Model_Space
 70
     0
 10
0.0
 20
0.0
 30
0.0
  3
*Model_Space
  1

  0
ENDBLK
  5
21
330
1F
100
AcDbEntity
  8
0
100
AcDbBlockEnd
  0
BLOCK
  5
1C
330
1B
100
AcDbEntity
 67
     1
  8
0
100
AcDbBlockBegin
  2
*Paper_Space
 70
     0
 10
0.0
 20
0.0
 30
0.0
  3
*Paper_Space
  1

  0
ENDBLK
  5
1D
330
1B
100
AcDbEntity
 67
     1
  8
0
100
AcDbBlockEnd
  0
BLOCK
  5
24
330
23
100
AcDbEntity
  8
0
100
AcDbBlockBegin
  2
*Paper_Space0
 70
     0
 10
0.0
 20
0.0
 30
0.0
  3
*Paper_Space0
  1

  0
ENDBLK
  5
25
330
23
100
AcDbEntity
  8
0
100
AcDbBlockEnd
  0
BLOCK
  5
17E
330
41
100
AcDbEntity
  8
0
100
AcDbBlockBegin
  2
ASSEMBLY
 70
     0
 10
0.0
 20
0.0
 30
0.0
  3
ASSEMBLY
  1

  0
INSERT
  5
5D
330
41
100
AcDbEntity
  8
Default
100
AcDbBlockReference
  2
Pad
 10
0.0
 20
0.0
 30
0.0
  0
INSERT
  5
65
330
41
100
AcDbEntity
  8
Default
100
AcDbBlockReference
  2
Block 01
 10
0.0
 20
0.0
 30
0.0
  0
INSERT
  5
6D
330
41
100
AcDbEntity
  8
Default
100
AcDbBlockReference
  2
Block 02
 10
0.0
 20
0.0
 30
0.0
  0
INSERT
  5
75
330
41
100
AcDbEntity
  8
Default
100
AcDbBlockReference
  2
Block 03
 10
0.0
 20
0.0
 30
0.0
  0
INSERT
  5
7A
330
41
100
AcDbEntity
  8
Default
100
AcDbBlockReference
  2
Block 04
 10
0.0
 20
-0.0000000000000403
 30
181.5914164973
210
0.0
220
-1.0
230
2.220446049250000E-16
  0
INSERT
  5
7F
330
41
100
AcDbEntity
  8
Default
100
AcDbBlockReference
  2
Block 05
 10
114.0
 20
-0.0000000000000403
 30
181.591
210
0.0
220
-1.0
230
2.220446049250000E-16
  0
INSERT
  5
84
330
41
100
AcDbEntity
  8
Default
100
AcDbBlockReference
  2
Block 06
 10
114.0
 20
-0.0000000000000403
 30
181.591
210
0.0
220
-1.0
230
2.220446049250000E-16
  0
INSERT
  5
89
330
41
100
AcDbEntity
  8
Default
100
AcDbBlockReference
  2
Block 07
 10
228.0
 20
-0.0000000000000403
 30
181.591
210
0.0
220
-1.0
230
2.220446049250000E-16
  0
INSERT
  5
8E
330
41
100
AcDbEntity
  8
Default
100
AcDbBlockReference
  2
Block 08
 10
228.0
 20
-0.0000000000000403
 30
181.591
210
0.0
220
-1.0
230
2.220446049250000E-16
  0
INSERT
  5
AA
330
41
100
AcDbEntity
  8
Default
100
AcDbBlockReference
  2
Pad001
 10
0.0
 20
0.0
 30
0.0
  0
INSERT
  5
C6
330
41
100
AcDbEntity
  8
Default
100
AcDbBlockReference
  2
Pad002
 10
0.0
 20
0.0
 30
0.0
  0
INSERT
  5
DA
330
41
100
AcDbEntity
  8
Default
100
AcDbBlockReference
  2
Pad003
 10
0.0
 20
-0.0000000000000403
 30
181.5914164973
210
0.0
220
-1.0
230
2.220446049250000E-16
  0
INSERT
  5
EE
330
41
100
AcDbEntity
  8
Default
100
AcDbBlockReference
  2
Pad006
 10
114.0
 20
-0.0000000000000403
 30
181.591
210
0.0
220
-1.0
230
2.220446049250000E-16
  0
INSERT
  5
102
330
41
100
AcDbEntity
  8
Default
100
AcDbBlockReference
  2
Pad007
 10
114.0
 20
-0.0000000000000403
 30
181.591
210
0.0
220
-1.0
230
2.220446049250000E-16
  0
INSERT
  5
116
330
41
100
AcDbEntity
  8
Default
100
AcDbBlockReference
  2
Pad008
 10
228.0
 20
-0.0000000000000403
 30
181.591
210
0.0
220
-1.0
230
2.220446049250000E-16
  0
INSERT
  5
12A
330
41
100
AcDbEntity
  8
Default
100
AcDbBlockReference
  2
Pad009
 10
228.0
 20
-0.0000000000000403
 30
181.591
210
0.0
220
-1.0
230
2.220446049250000E-16
  0
INSERT
  5
155
330
41
100
AcDbEntity
  8
Default
100
AcDbBlockReference
  2
Pad010
 10
0.0
 20
0.0
 30
0.0
  0
INSERT
  5
169
330
41
100
AcDbEntity
  8
Default
100
AcDbBlockReference
  2
Pad011
 10
-109.0
 20
0.0
 30
-51.5064
210
1.0
220
0.0
230
0.0
  0
INSERT
  5
17D
330
41
100
AcDbEntity
  8
Default
100
AcDbBlockReference
  2
Pad012
 10
-109.0
 20
0.0
 30
-51.5064
210
1.0
220
0.0
230
0.0
  0
ENDBLK
  5
17F
330
41
100
AcDbEntity
  8
0
100
AcDbBlockEnd
  0
BLOCK
  5
5B
330
42
100
AcDbEntity
  8
0
100
AcDbBlockBegin
  2
Pad
 70
     0
 10
0.0
 20
0.0
 30
0.0
  3
Pad
  1

  0
LINE
  5
43
330
42
100
AcDbEntity
  8
Default
 62
   254
420
 13421772
100
AcDbLine
 10
-451.5154768351
 20
-81.59141649731
 30
0.0
 11
-451.5154768351
 21
-81.59141649731
 31
200.0
  0
LINE
  5
44
330
42
100
AcDbEntity
  8
Default
 62
   254
420
 13421772
100
AcDbLine
 10
-451.5154768351
 20
-81.59141649731
 30
200.0
 11
-51.51547683519
 21
-81.59141649731
 31
200.0
  0
LINE
  5
45
330
42
100
AcDbEntity
  8
Default
 62
   254
420
 13421772
100
AcDbLine
 10
-51.51547683519
 20
-81.59141649731
 30
200.0
 11
-51.51547683519
 21
-81.59141649731
 31
0.0
  0
LINE
  5
46
330
42
100
AcDbEntity
  8
Default
 62
   254
420
 13421772
100
AcDbLine
 10
-51.51547683519
 20
-81.59141649731
 30
0.0
 11
-451.5154768351
 21
-81.59141649731
 31
0.0
  0
LINE
  5
47
330
42
100
AcDbEntity
  8
Default
 62
   254
420
 13421772
100
AcDbLine
 10
-51.51547683519
 20
-81.59141649731
 30
200.0
 11
-51.51547683519
 21
-181.5914164973
 31
200.0
  0
LINE
  5
48
330
42
100
AcDbEntity
  8
Default
 62
   254
420
 13421772
100
AcDbLine
 10
-51.51547683519
 20
-181.5914164973
 30
200.0
 11
-51.51547683519
 21
-181.5914164973
 31
0.0
  0
LINE
  5
49
330
42
100
AcDbEntity
  8
Default
 62
   254
420
 13421772
100
AcDbLine
 10
-51.51547683519
 20
-181.5914164973
 30
0.0
 11
-51.51547683519
 21
-81.59141649731
 31
0.0
  0
LINE
  5
4A
330
42
100
AcDbEntity
  8
Default
 62
   254
420
 13421772
100
AcDbLine
 10
-51.51547683519
 20
-181.5914164973
 30
200.0
 11
-451.5154768351
 21
-181.5914164973
 31
200.0
  0
LINE
  5
4B
330
42
100
AcDbEntity
  8
Default
 62
   254
420
 13421772
100
AcDbLine
 10
-451.5154768351
 20
-181.5914164973
 30
200.0
 11
-451.5154768351
 21
-181.5914164973
 31
0.0
  0
LINE
  5
4C
330
42
100
AcDbEntity
  8
Default
 62
   254
420
 13421772
100
AcDbLine
 10
-451.5154768351
 20
-181.5914164973
 30
0.0
 11
-51.51547683519
 21
-181.5914164973
 31
0.0
  0
LINE
  5
4D
330
42
100
AcDbEntity
  8
Default
 62
   254
420
 13421772
100
AcDbLine
 10
-451.5154768351
 20
-181.5914164973
 30
200.0
 11
-451.5154768351
 21
-81.59141649731
 31
200.0
  0
LINE
  5
4E
330
42
100
AcDbEntity
  8
Default
 62
   254
420
 13421772
100
AcDbLine
 10
-451.5154768351
 20
-81.59141649731
 30
0.0
 11
-451.5154768351
 21
-181.5914164973
 31
0.0
  0
LINE
  5
4F
330
42
100
AcDbEntity
  8
Default
 62
   254
420
 13421772
100
AcDbLine
 10
-451.5154768351
 20
-81.59141649731
 30
100.0
 11
-51.51547683518996
 21
-81.59141649731
 31
100.0
  0
LINE
  5
50
330
42
100
AcDbEntity
  8
Default
 62
   254
420
 13421772
100
AcDbLine
 10
-251.515476835145
 20
-81.59141649731
 30
200.0
 11
-251.515476835145
 21
-81.59141649731
 31
0.0000000000000178
  0
LINE
  5
51
330
42
100
AcDbEntity
  8
Default
 62
   254
420
 13421772
100
AcDbLine
 10
-51.51547683519
 20
-81.59141649731
 30
100.0
 11
-51.51547683519
 21
-181.5914164973
 31
100.0
  0
LINE
  5
52
330
42
100
AcDbEntity
  8
Default
 62
   254
420
 13421772
100
AcDbLine
 10
-51.51547683519
 20
-131.591416497305
 30
200.0
 11
-51.51547683519
 21
-131.591416497305
 31
0.0000000000000178
  0
LINE
  5
53
330
42
100
AcDbEntity
  8
Default
 62
   254
420
 13421772
100
AcDbLine
 10
-51.51547683518999
 20
-181.5914164973
 30
100.0
 11
-451.5154768351
 21
-181.5914164973
 31
100.0
  0
LINE
  5
54
330
42
100
AcDbEntity
  8
Default
 62
   254
420
 13421772
100
AcDbLine
 10
-251.515476835145
 20
-181.5914164973
 30
200.0
 11
-251.515476835145
 21
-181.5914164973
 31
0.0000000000000178
  0
LINE
  5
55
330
42
100
AcDbEntity
  8
Default
 62
   254
420
 13421772
100
AcDbLine
 10
-451.5154768351
 20
-181.5914164973
 30
100.0
 11
-451.5154768351
 21
-81.59141649730998
 31
100.0
  0
LINE
  5
56
330
42
100
AcDbEntity
  8
Default
 62
   254
420
 13421772
100
AcDbLine
 10
-451.5154768351
 20
-131.591416497305
 30
200.0
 11
-451.5154768351
 21
-131.591416497305
 31
0.0000000000000178
  0
LINE
  5
57
330
42
100
AcDbEntity
  8
Default
 62
   254
420
 13421772
100
AcDbLine
 10
-451.5154768351
 20
-131.591416497305
 30
0.0
 11
-51.51547683518996
 21
-131.591416497305
 31
0.0
  0
LINE
  5
58
330
42
100
AcDbEntity
  8
Default
 62
   254
420
 13421772
100
AcDbLine
 10
-251.515476835145
 20
-181.5914164973
 30
0.0
 11
-251.515476835145
 21
-81.59141649730998
 31
0.0
  0
LINE
  5
59
330
42
100
AcDbEntity
  8
Default
 62
   254
420
 13421772
100
AcDbLine
 10
-451.5154768351
 20
-131.591416497305
 30
200.0
 11
-51.51547683518996
 21
-131.591416497305
 31
200.0
  0
LINE
  5
5A
330
42
100
AcDbEntity
  8
Default
 62
   254
420
 13421772
100
AcDbLine
 10
-251.515476835145
 20
-181.5914164973
 30
200.0
 11
-251.515476835145
 21
-81.59141649730998
 31
200.0
  0
ENDBLK
  5
5C
330
42
100
AcDbEntity
  8
0
100
AcDbBlockEnd
  0
BLOCK
  5
63
330
5E
100
AcDbEntity
  8
0
100
AcDbBlockBegin
  2
Block 01
 70
     0
 10
0.0
 20
0.0
 30
0.0
  3
Block 01
  1

  0
LINE
  5
5F
330
5E
100
AcDbEntity
  8
Default
100
AcDbLine
 10
-151.5061901648
 20
18.41010218369
 30
0.0
 11
-51.50619016479999
 21
18.41010218369
 31
0.0
  0
LINE
  5
60
330
5E
100
AcDbEntity
  8
Default
100
AcDbLine
 10
-51.50619016481
 20
18.41010218369
 30
0.0
 11
-51.50619016481
 21
-81.58989781631
 31
0.0
  0
LINE
  5
61
330
5E
100
AcDbEntity
  8
Default
100
AcDbLine
 10
-51.50619016481
 20
-81.58989781631
 30
0.0
 11
-151.50619016481
 21
-81.58989781631
 31
0.0
  0
LINE
  5
62
330
5E
100
AcDbEntity
  8
Default
100
AcDbLine
 10
-151.5061901648
 20
-81.58989781631
 30
0.0
 11
-151.5061901648
 21
18.41010218369
 31
0.0
  0
ENDBLK
  5
64
330
5E
100
AcDbEntity
  8
0
100
AcDbBlockEnd
  0
BLOCK
  5
6B
330
66
100
AcDbEntity
  8
0
100
AcDbBlockBegin
  2
Block 02
 70
     0
 10
0.0
 20
0.0
 30
0.0
  3
Block 02
  1

  0
LINE
  5
67
330
66
100
AcDbEntity
  8
Default
100
AcDbLine
 10
-451.5154768351
 20
-81.59141649731
 30
0.0
 11
-51.5154768351
 21
-81.59141649731
 31
0.0
  0
LINE
  5
68
330
66
100
AcDbEntity
  8
Default
100
AcDbLine
 10
-51.51547683519
 20
-81.59141649731
 30
0.0
 11
-51.51547683519
 21
-181.59141649731
 31
0.0
  0
LINE
  5
69
330
66
100
AcDbEntity
  8
Default
100
AcDbLine
 10
-51.51547683519
 20
-181.5914164973
 30
0.0
 11
-451.51547683519
 21
-181.5914164973
 31
0.0
  0
LINE
  5
6A
330
66
100
AcDbEntity
  8
Default
100
AcDbLine
 10
-451.5154768351
 20
-181.5914164973
 30
0.0
 11
-451.5154768351
 21
-81.5914164973
 31
0.0
  0
ENDBLK
  5
6C
330
66
100
AcDbEntity
  8
0
100
AcDbBlockEnd
  0
BLOCK
  5
73
330
6E
100
AcDbEntity
  8
0
100
AcDbBlockBegin
  2
Block 03
 70
     0
 10
0.0
 20
0.0
 30
0.0
  3
Block 03
  1

  0
LINE
  5
6F
330
6E
100
AcDbEntity
  8
Default
100
AcDbLine
 10
-251.5063658163
 20
118.40861581631
 30
0.0
 11
-51.50636581629999
 21
118.40861581631
 31
0.0
  0
LINE
  5
70
330
6E
100
AcDbEntity
  8
Default
100
AcDbLine
 10
-51.50636581631
 20
118.40861581631
 30
0.0
 11
-51.50636581631
 21
18.40861581631
 31
0.0
  0
LINE
  5
71
330
6E
100
AcDbEntity
  8
Default
100
AcDbLine
 10
-51.50636581631
 20
18.40861581631
 30
0.0
 11
-251.50636581631
 21
18.40861581631
 31
0.0
  0
LINE
  5
72
330
6E
100
AcDbEntity
  8
Default
100
AcDbLine
 10
-251.5063658163
 20
18.40861581631
 30
0.0
 11
-251.5063658163
 21
118.40861581631
 31
0.0
  0
ENDBLK
  5
74
330
6E
100
AcDbEntity
  8
0
100
AcDbBlockEnd
  0
BLOCK
  5
78
330
76
100
AcDbEntity
  8
0
100
AcDbBlockBegin
  2
Block 04
 70
     0
 10
0.0
 20
0.0
 30
0.0
  3
Block 04
  1

  0
CIRCLE
  5
77
330
76
100
AcDbEntity
  8
Default
100
AcDbCircle
 10
-377.237823
 20
96.980019
 30
0.0
 40
32.383089368059
  0
ENDBLK
  5
79
330
76
100
AcDbEntity
  8
0
100
AcDbBlockEnd
  0
BLOCK
  5
7D
330
7B
100
AcDbEntity
  8
0
100
AcDbBlockBegin
  2
Block 05
 70
     0
 10
0.0
 20
0.0
 30
0.0
  3
Block 05
  1

  0
CIRCLE
  5
7C
330
7B
100
AcDbEntity
  8
Default
100
AcDbCircle
 10
-377.237823
 20
96.980019
 30
0.0
 40
32.383089368059
  0
ENDBLK
  5
7E
330
7B
100
AcDbEntity
  8
0
100
AcDbBlockEnd
  0
BLOCK
  5
82
330
80
100
AcDbEntity
  8
0
100
AcDbBlockBegin
  2
Block 06
 70
     0
 10
0.0
 20
0.0
 30
0.0
  3
Block 06
  1

  0
CIRCLE
  5
81
330
80
100
AcDbEntity
  8
Default
100
AcDbCircle
 10
-377.237823
 20
96.980019
 30
0.0
 40
48.753802560019
  0
ENDBLK
  5
83
330
80
100
AcDbEntity
  8
0
100
AcDbBlockEnd
  0
BLOCK
  5
87
330
85
100
AcDbEntity
  8
0
100
AcDbBlockBegin
  2
Block 07
 70
     0
 10
0.0
 20
0.0
 30
0.0
  3
Block 07
  1

  0
CIRCLE
  5
86
330
85
100
AcDbEntity
  8
Default
100
AcDbCircle
 10
-377.237823
 20
96.980019
 30
0.0
 40
48.753802560019
  0
ENDBLK
  5
88
330
85
100
AcDbEntity
  8
0
100
AcDbBlockEnd
  0
BLOCK
  5
8C
330
8A
100
AcDbEntity
  8
0
100
AcDbBlockBegin
  2
Block 08
 70
     0
 10
0.0
 20
0.0
 30
0.0
  3
Block 08
  1

  0
CIRCLE
  5
8B
330
8A
100
AcDbEntity
  8
Default
100
AcDbCircle
 10
-377.237823
 20
96.980019
 30
0.0
 40
32.383089368059
  0
ENDBLK
  5
8D
330
8A
100
AcDbEntity
  8
0
100
AcDbBlockEnd
  0
BLOCK
  5
A8
330
8F
100
AcDbEntity
  8
0
100
AcDbBlockBegin
  2
Pad001
 70
     0
 10
0.0
 20
0.0
 30
0.0
  3
Pad001
  1

  0
LINE
  5
90
330
8F
100
AcDbEntity
  8
Default
 62
   254
420
 13421772
100
AcDbLine
 10
-151.5061901648
 20
18.41010218369
 30
0.0
 11
-151.5061901648
 21
18.41010218369
 31
100.0
  0
LINE
  5
91
330
8F
100
AcDbEntity
  8
Default
 62
   254
420
 13421772
100
AcDbLine
 10
-151.5061901648
 20
18.41010218369
 30
100.0
 11
-51.50619016481
 21
18.41010218369
 31
100.0
  0
LINE
  5
92
330
8F
100
AcDbEntity
  8
Default
 62
   254
420
 13421772
100
AcDbLine
 10
-51.50619016481
 20
18.41010218369
 30
100.0
 11
-51.50619016481
 21
18.41010218369
 31
0.0
  0
LINE
  5
93
330
8F
100
AcDbEntity
  8
Default
 62
   254
420
 13421772
100
AcDbLine
 10
-51.50619016481
 20
18.41010218369
 30
0.0
 11
-151.5061901648
 21
18.41010218369
 31
0.0
  0
LINE
  5
94
330
8F
100
AcDbEntity
  8
Default
 62
   254
420
 13421772
100
AcDbLine
 10
-51.50619016481
 20
18.41010218369
 30
100.0
 11
-51.50619016481
 21
-81.58989781631
 31
100.0
  0
LINE
  5
95
330
8F
100
AcDbEntity
  8
Default
 62
   254
420
 13421772
100
AcDbLine
 10
-51.50619016481
 20
-81.58989781631
 30
100.0
 11
-51.50619016481
 21
-81.58989781631
 31
0.0
  0
LINE
  5
96
330
8F
100
AcDbEntity
  8
Default
 62
   254
420
 13421772
100
AcDbLine
 10
-51.50619016481
 20
-81.58989781631
 30
0.0
 11
-51.50619016481
 21
18.41010218369
 31
0.0
  0
LINE
  5
97
330
8F
100
AcDbEntity
  8
Default
 62
   254
420
 13421772
100
AcDbLine
 10
-51.50619016481
 20
-81.58989781631
 30
100.0
 11
-151.5061901648
 21
-81.58989781631
 31
100.0
  0
LINE
  5
98
330
8F
100
AcDbEntity
  8
Default
 62
   254
420
 13421772
100
AcDbLine
 10
-151.5061901648
 20
-81.58989781631
 30
100.0
 11
-151.5061901648
 21
-81.58989781631
 31
0.0
  0
LINE
  5
99
330
8F
100
AcDbEntity
  8
Default
 62
   254
420
 13421772
100
AcDbLine
 10
-151.5061901648
 20
-81.58989781631
 30
0.0
 11
-51.50619016481
 21
-81.58989781631
 31
0.0
  0
LINE
  5
9A
330
8F
100
AcDbEntity
  8
Default
 62
   254
420
 13421772
100
AcDbLine
 10
-151.5061901648
 20
-81.58989781631
 30
100.0
 11
-151.5061901648
 21
18.41010218369
 31
100.0
  0
LINE
  5
9B
330
8F
100
AcDbEntity
  8
Default
 62
   254
420
 13421772
100
AcDbLine
 10
-151.5061901648
 20
18.41010218369
 30
0.0
 11
-151.5061901648
 21
-81.58989781631
 31
0.0
  0
LINE
  5
9C
330
8F
100
AcDbEntity
  8
Default
 62
   254
420
 13421772
100
AcDbLine
 10
-151.5061901648
 20
18.41010218369
 30
50.00000000000001
 11
-51.50619016481
 21
18.41010218369
 31
50.00000000000001
  0
LINE
  5
9D
330
8F
100
AcDbEntity
  8
Default
 62
   254
420
 13421772
100
AcDbLine
 10
-101.506190164805
 20
18.41010218369
 30
100.0
 11
-101.506190164805
 21
18.41010218369
 31
-0.0000000000000036
  0
LINE
  5
9E
330
8F
100
AcDbEntity
  8
Default
 62
   254
420
 13421772
100
AcDbLine
 10
-51.50619016481
 20
18.41010218369
 30
50.00000000000001
 11
-51.50619016481
 21
-81.58989781631
 31
50.00000000000001
  0
LINE
  5
9F
330
8F
100
AcDbEntity
  8
Default
 62
   254
420
 13421772
100
AcDbLine
 10
-51.50619016481
 20
-31.58989781631001
 30
100.0
 11
-51.50619016481
 21
-31.58989781631001
 31
-0.0000000000000036
  0
LINE
  5
A0
330
8F
100
AcDbEntity
  8
Default
 62
   254
420
 13421772
100
AcDbLine
 10
-51.50619016481001
 20
-81.58989781631
 30
50.00000000000001
 11
-151.5061901648
 21
-81.58989781631
 31
50.00000000000001
  0
LINE
  5
A1
330
8F
100
AcDbEntity
  8
Default
 62
   254
420
 13421772
100
AcDbLine
 10
-101.506190164805
 20
-81.58989781631
 30
100.0
 11
-101.506190164805
 21
-81.58989781631
 31
-0.0000000000000036
  0
LINE
  5
A2
330
8F
100
AcDbEntity
  8
Default
 62
   254
420
 13421772
100
AcDbLine
 10
-151.5061901648
 20
-81.58989781631
 30
50.00000000000001
 11
-151.5061901648
 21
18.41010218369
 31
50.00000000000001
  0
LINE
  5
A3
330
8F
100
AcDbEntity
  8
Default
 62
   254
420
 13421772
100
AcDbLine
 10
-151.5061901648
 20
-31.58989781631
 30
100.0
 11
-151.5061901648
 21
-31.58989781631
 31
-0.0000000000000036
  0
LINE
  5
A4
330
8F
100
AcDbEntity
  8
Default
 62
   254
420
 13421772
100
AcDbLine
 10
-151.5061901648
 20
-31.58989781631001
 30
0.0
 11
-51.50619016481
 21
-31.58989781631001
 31
0.0
  0
LINE
  5
A5
330
8F
100
AcDbEntity
  8
Default
 62
   254
420
 13421772
100
AcDbLine
 10
-101.506190164805
 20
-81.58989781631
 30
0.0
 11
-101.506190164805
 21
18.41010218369001
 31
0.0
  0
LINE
  5
A6
330
8F
100
AcDbEntity
  8
Default
 62
   254
420
 13421772
100
AcDbLine
 10
-151.5061901648
 20
-31.58989781631001
 30
100.0
 11
-51.50619016481
 21
-31.58989781631001
 31
100.0
  0
LINE
  5
A7
330
8F
100
AcDbEntity
  8
Default
 62
   254
420
 13421772
100
AcDbLine
 10
-101.506190164805
 20
-81.58989781631
 30
100.0
 11
-101.506190164805
 21
18.41010218369001
 31
100.0
  0
ENDBLK
  5
A9
330
8F
100
AcDbEntity
  8
0
100
AcDbBlockEnd
  0
BLOCK
  5
C4
330
AB
100
AcDbEntity
  8
0
100
AcDbBlockBegin
  2
Pad002
 70
     0
 10
0.0
 20
0.0
 30
0.0
  3
Pad002
  1

  0
LINE
  5
AC
330
AB
100
AcDbEntity
  8
Default
 62
   254
420
 13421772
100
AcDbLine
 10
-251.5063658163
 20
118.40861581631
 30
0.0
 11
-251.5063658163
 21
118.40861581631
 31
400.0
  0
LINE
  5
AD
330
AB
100
AcDbEntity
  8
Default
 62
   254
420
 13421772
100
AcDbLine
 10
-251.5063658163
 20
118.40861581631
 30
400.0
 11
-51.50636581631
 21
118.40861581631
 31
400.0
  0
LINE
  5
AE
330
AB
100
AcDbEntity
  8
Default
 62
   254
420
 13421772
100
AcDbLine
 10
-51.50636581631
 20
118.40861581631
 30
400.0
 11
-51.50636581631
 21
118.40861581631
 31
0.0
  0
LINE
  5
AF
330
AB
100
AcDbEntity
  8
Default
 62
   254
420
 13421772
100
AcDbLine
 10
-51.50636581631
 20
118.40861581631
 30
0.0
 11
-251.5063658163
 21
118.40861581631
 31
0.0
  0
LINE
  5
B0
330
AB
100
AcDbEntity
  8
Default
 62
   254
420
 13421772
100
AcDbLine
 10
-51.50636581631
 20
118.40861581631
 30
400.0
 11
-51.50636581631
 21
18.40861581631
 31
400.0
  0
LINE
  5
B1
330
AB
100
AcDbEntity
  8
Default
 62
   254
420
 13421772
100
AcDbLine
 10
-51.50636581631
 20
18.40861581631
 30
400.0
 11
-51.50636581631
 21
18.40861581631
 31
0.0
  0
LINE
  5
B2
330
AB
100
AcDbEntity
  8
Default
 62
   254
420
 13421772
100
AcDbLine
 10
-51.50636581631
 20
18.40861581631
 30
0.0
 11
-51.50636581631
 21
118.40861581631
 31
0.0
  0
LINE
  5
B3
330
AB
100
AcDbEntity
  8
Default
 62
   254
420
 13421772
100
AcDbLine
 10
-51.50636581631
 20
18.40861581631
 30
400.0
 11
-251.5063658163
 21
18.40861581631
 31
400.0
  0
LINE
  5
B4
330
AB
100
AcDbEntity
  8
Default
 62
   254
420
 13421772
100
AcDbLine
 10
-251.5063658163
 20
18.40861581631
 30
400.0
 11
-251.5063658163
 21
18.40861581631
 31
0.0
  0
LINE
  5
B5
330
AB
100
AcDbEntity
  8
Default
 62
   254
420
 13421772
100
AcDbLine
 10
-251.5063658163
 20
18.40861581631
 30
0.0
 11
-51.50636581631
 21
18.40861581631
 31
0.0
  0
LINE
  5
B6
330
AB
100
AcDbEntity
  8
Default
 62
   254
420
 13421772
100
AcDbLine
 10
-251.5063658163
 20
18.40861581631
 30
400.0
 11
-251.5063658163
 21
118.40861581631
 31
400.0
  0
LINE
  5
B7
330
AB
100
AcDbEntity
  8
Default
 62
   254
420
 13421772
100
AcDbLine
 10
-251.5063658163
 20
118.40861581631
 30
0.0
 11
-251.5063658163
 21
18.40861581631
 31
0.0
  0
LINE
  5
B8
330
AB
100
AcDbEntity
  8
Default
 62
   254
420
 13421772
100
AcDbLine
 10
-251.5063658163
 20
118.40861581631
 30
200.0
 11
-51.50636581630999
 21
118.40861581631
 31
200.0
  0
LINE
  5
B9
330
AB
100
AcDbEntity
  8
Default
 62
   254
420
 13421772
100
AcDbLine
 10
-151.506365816305
 20
118.40861581631
 30
400.0
 11
-151.506365816305
 21
118.40861581631
 31
-0.0000000000000284
  0
LINE
  5
BA
330
AB
100
AcDbEntity
  8
Default
 62
   254
420
 13421772
100
AcDbLine
 10
-51.50636581631
 20
118.40861581631
 30
200.0
 11
-51.50636581631
 21
18.40861581631
 31
200.0
  0
LINE
  5
BB
330
AB
100
AcDbEntity
  8
Default
 62
   254
420
 13421772
100
AcDbLine
 10
-51.50636581631
 20
68.40861581631
 30
400.0
 11
-51.50636581631
 21
68.40861581631
 31
-0.0000000000000284
  0
LINE
  5
BC
330
AB
100
AcDbEntity
  8
Default
 62
   254
420
 13421772
100
AcDbLine
 10
-51.50636581631
 20
18.40861581631
 30
200.0
 11
-251.5063658163
 21
18.40861581631
 31
200.0
  0
LINE
  5
BD
330
AB
100
AcDbEntity
  8
Default
 62
   254
420
 13421772
100
AcDbLine
 10
-151.506365816305
 20
18.40861581631
 30
400.0
 11
-151.506365816305
 21
18.40861581631
 31
-0.0000000000000284
  0
LINE
  5
BE
330
AB
100
AcDbEntity
  8
Default
 62
   254
420
 13421772
100
AcDbLine
 10
-251.5063658163
 20
18.40861581631
 30
200.0
 11
-251.5063658163
 21
118.40861581631
 31
200.0
  0
LINE
  5
BF
330
AB
100
AcDbEntity
  8
Default
 62
   254
420
 13421772
100
AcDbLine
 10
-251.5063658163
 20
68.40861581631
 30
400.0
 11
-251.5063658163
 21
68.40861581631
 31
-0.0000000000000284
  0
LINE
  5
C0
330
AB
100
AcDbEntity
  8
Default
 62
   254
420
 13421772
100
AcDbLine
 10
-251.5063658163
 20
68.40861581631
 30
0.0
 11
-51.50636581630999
 21
68.40861581631
 31
0.0
  0
LINE
  5
C1
330
AB
100
AcDbEntity
  8
Default
 62
   254
420
 13421772
100
AcDbLine
 10
-151.506365816305
 20
18.40861581631
 30
0.0
 11
-151.506365816305
 21
118.40861581631
 31
0.0
  0
LINE
  5
C2
330
AB
100
AcDbEntity
  8
Default
 62
   254
420
 13421772
100
AcDbLine
 10
-251.5063658163
 20
68.40861581631
 30
400.0
 11
-51.50636581630999
 21
68.40861581631
 31
400.0
  0
LINE
  5
C3
330
AB
100
AcDbEntity
  8
Default
 62
   254
420
 13421772
100
AcDbLine
 10
-151.506365816305
 20
18.40861581631
 30
400.0
 11
-151.506365816305
 21
118.40861581631
 31
400.0
  0
ENDBLK
  5
C5
330
AB
100
AcDbEntity
  8
0
100
AcDbBlockEnd
  0
BLOCK
  5
D8
330
C7
100
AcDbEntity
  8
0
100
AcDbBlockBegin
  2
Pad003
 70
     0
 10
0.0
 20
0.0
 30
0.0
  3
Pad003
  1

  0
ARC
  5
C8
330
C7
100
AcDbEntity
  8
Default
 62
   254
420
 13421772
100
AcDbCircle
 10
-377.2378229999999
 20
96.98001899999994
 30
-0.0000000000000739
 40
32.38308936805902
100
AcDbArc
 50
0.0000000000001257
 51
180.0
  0
ARC
  5
C9
330
C7
100
AcDbEntity
  8
Default
 62
   254
420
 13421772
100
AcDbCircle
 10
-377.237823
 20
96.98001900000001
 30
-0.0000000000000847
 40
32.38308936805902
100
AcDbArc
 50
270.0
 51
0.0
  0
ARC
  5
CA
330
C7
100
AcDbEntity
  8
Default
 62
   254
420
 13421772
100
AcDbCircle
 10
-377.237823
 20
96.98001900000003
 30
25.00000000000001
 40
32.38308936805902
100
AcDbArc
 50
270.0
 51
0.0
  0
ARC
  5
CB
330
C7
100
AcDbEntity
  8
Default
 62
   254
420
 13421772
100
AcDbCircle
 10
-377.2378229999998
 20
96.98001900000017
 30
25.00000000000001
 40
32.38308936805922
100
AcDbArc
 50
180.0000000000003
 51
270.0
  0
LINE
  5
CC
330
C7
100
AcDbEntity
  8
Default
 62
   254
420
 13421772
100
AcDbLine
 10
-344.854733631941
 20
96.98001900000001
 30
25.0
 11
-344.854733631941
 21
96.98001900000001
 31
-0.0000000000000909
  0
LINE
  5
CD
330
C7
100
AcDbEntity
  8
Default
 62
   254
420
 13421772
100
AcDbLine
 10
-377.237823
 20
64.59692963194101
 30
25.00000000000001
 11
-377.237823
 21
64.596929631941
 31
-0.0000000000000284
  0
ARC
  5
CE
330
C7
100
AcDbEntity
  8
Default
 62
   254
420
 13421772
100
AcDbCircle
 10
-377.2378229999998
 20
96.98001900000014
 30
-0.0000000000000506
 40
32.38308936805922
100
AcDbArc
 50
180.0000000000002
 51
270.0
  0
ARC
  5
CF
330
C7
100
AcDbEntity
  8
Default
 62
   254
420
 13421772
100
AcDbCircle
 10
-377.2378229999999
 20
96.98001899999994
 30
25.0
 40
32.38308936805902
100
AcDbArc
 50
0.0000000000001257
 51
180.0
  0
ARC
  5
D0
330
C7
100
AcDbEntity
  8
Default
 62
   254
420
 13421772
100
AcDbCircle
 10
-377.237823
 20
96.98001900000001
 30
12.5
 40
32.383089368059
100
AcDbArc
 50
0.0
 51
270.0
  0
LINE
  5
D1
330
C7
100
AcDbEntity
  8
Default
 62
   254
420
 13421772
100
AcDbLine
 10
-409.620912368059
 20
96.98001900000003
 30
25.00000000000001
 11
-409.620912368059
 21
96.98001900000003
 31
-0.0000000000000284
  0
LINE
  5
D2
330
C7
100
AcDbEntity
  8
Default
 62
   254
420
 13421772
100
AcDbLine
 10
-377.237823
 20
129.363108368059
 30
25.0
 11
-377.237823
 21
129.363108368059
 31
-0.0000000000000315
  0
ARC
  5
D3
330
C7
100
AcDbEntity
  8
Default
 62
   254
420
 13421772
100
AcDbCircle
 10
-377.237823
 20
96.98001900000001
 30
12.5
 40
32.383089368059
100
AcDbArc
 50
270.0
 51
0.0
  0
LINE
  5
D4
330
C7
100
AcDbEntity
  8
Default
 62
   254
420
 13421772
100
AcDbLine
 10
-377.237823
 20
64.59692963194101
 30
-0.0000000000000497
 11
-377.237823
 21
129.363108368059
 31
-0.000000000000064
  0
LINE
  5
D5
330
C7
100
AcDbEntity
  8
Default
 62
   254
420
 13421772
100
AcDbLine
 10
-409.620912368059
 20
96.980019
 30
-0.0000000000000568
 11
-344.8547336319409
 21
96.980019
 31
-0.0000000000000568
  0
LINE
  5
D6
330
C7
100
AcDbEntity
  8
Default
 62
   254
420
 13421772
100
AcDbLine
 10
-377.237823
 20
64.59692963194101
 30
25.00000000000001
 11
-377.237823
 21
129.363108368059
 31
24.99999999999999
  0
LINE
  5
D7
330
C7
100
AcDbEntity
  8
Default
 62
   254
420
 13421772
100
AcDbLine
 10
-409.620912368059
 20
96.980019
 30
25.0
 11
-344.8547336319409
 21
96.980019
 31
25.0
  0
ENDBLK
  5
D9
330
C7
100
AcDbEntity
  8
0
100
AcDbBlockEnd
  0
BLOCK
  5
EC
330
DB
100
AcDbEntity
  8
0
100
AcDbBlockBegin
  2
Pad006
 70
     0
 10
0.0
 20
0.0
 30
0.0
  3
Pad006
  1

  0
ARC
  5
DC
330
DB
100
AcDbEntity
  8
Default
 62
   254
420
 13421772
100
AcDbCircle
 10
-377.237823
 20
96.98001899999983
 30
-0.0000000000000199
 40
32.38308936805902
100
AcDbArc
 50
0.0000000000003269
 51
180.0
  0
ARC
  5
DD
330
DB
100
AcDbEntity
  8
Default
 62
   254
420
 13421772
100
AcDbCircle
 10
-377.2378230000001
 20
96.98001900000017
 30
-0.0000000000000149
 40
32.38308936805913
100
AcDbArc
 50
270.0
 51
359.9999999999998
  0
ARC
  5
DE
330
DB
100
AcDbEntity
  8
Default
 62
   254
420
 13421772
100
AcDbCircle
 10
-377.237823
 20
96.98001900000003
 30
25.00000000000001
 40
32.38308936805902
100
AcDbArc
 50
270.0
 51
0.0
  0
ARC
  5
DF
330
DB
100
AcDbEntity
  8
Default
 62
   254
420
 13421772
100
AcDbCircle
 10
-377.2378229999999
 20
96.98001900000013
 30
25.0
 40
32.38308936805906
100
AcDbArc
 50
180.0000000000002
 51
270.0
  0
LINE
  5
E0
330
DB
100
AcDbEntity
  8
Default
 62
   254
420
 13421772
100
AcDbLine
 10
-344.854733631941
 20
96.98001900000001
 30
25.00000000000001
 11
-344.854733631941
 21
96.98001900000001
 31
-0.0000000000000114
  0
LINE
  5
E1
330
DB
100
AcDbEntity
  8
Default
 62
   254
420
 13421772
100
AcDbLine
 10
-377.237823
 20
64.59692963194101
 30
25.0
 11
-377.237823
 21
64.59692963194101
 31
-0.0000000000000129
  0
ARC
  5
E2
330
DB
100
AcDbEntity
  8
Default
 62
   254
420
 13421772
100
AcDbCircle
 10
-377.2378229999999
 20
96.98001900000013
 30
-0.000000000000032
 40
32.38308936805906
100
AcDbArc
 50
180.0000000000002
 51
270.0
  0
ARC
  5
E3
330
DB
100
AcDbEntity
  8
Default
 62
   254
420
 13421772
100
AcDbCircle
 10
-377.237823
 20
96.98001899999983
 30
25.0
 40
32.38308936805902
100
AcDbArc
 50
0.0000000000003269
 51
180.0
  0
ARC
  5
E4
330
DB
100
AcDbEntity
  8
Default
 62
   254
420
 13421772
100
AcDbCircle
 10
-377.237823
 20
96.980019
 30
12.5
 40
32.38308936805899
100
AcDbArc
 50
0.0
 51
270.0
  0
LINE
  5
E5
330
DB
100
AcDbEntity
  8
Default
 62
   254
420
 13421772
100
AcDbLine
 10
-409.620912368059
 20
96.98001900000003
 30
25.0
 11
-409.620912368059
 21
96.98001900000003
 31
-0.0000000000000093
  0
LINE
  5
E6
330
DB
100
AcDbEntity
  8
Default
 62
   254
420
 13421772
100
AcDbLine
 10
-377.237823
 20
129.363108368059
 30
25.0
 11
-377.237823
 21
129.363108368059
 31
-0.0000000000000093
  0
ARC
  5
E7
330
DB
100
AcDbEntity
  8
Default
 62
   254
420
 13421772
100
AcDbCircle
 10
-377.237823
 20
96.980019
 30
12.5
 40
32.38308936805899
100
AcDbArc
 50
270.0
 51
0.0
  0
LINE
  5
E8
330
DB
100
AcDbEntity
  8
Default
 62
   254
420
 13421772
100
AcDbLine
 10
-377.237823
 20
64.59692963194101
 30
-0.000000000000032
 11
-377.237823
 21
129.363108368059
 31
-0.0000000000000248
  0
LINE
  5
E9
330
DB
100
AcDbEntity
  8
Default
 62
   254
420
 13421772
100
AcDbLine
 10
-409.620912368059
 20
96.980019
 30
-0.0000000000000284
 11
-344.8547336319409
 21
96.980019
 31
-0.0000000000000284
  0
LINE
  5
EA
330
DB
100
AcDbEntity
  8
Default
 62
   254
420
 13421772
100
AcDbLine
 10
-377.237823
 20
64.59692963194101
 30
25.0
 11
-377.237823
 21
129.363108368059
 31
25.0
  0
LINE
  5
EB
330
DB
100
AcDbEntity
  8
Default
 62
   254
420
 13421772
100
AcDbLine
 10
-409.620912368059
 20
96.980019
 30
25.0
 11
-344.8547336319409
 21
96.980019
 31
25.0
  0
ENDBLK
  5
ED
330
DB
100
AcDbEntity
  8
0
100
AcDbBlockEnd
  0
BLOCK
  5
100
330
EF
100
AcDbEntity
  8
0
100
AcDbBlockBegin
  2
Pad007
 70
     0
 10
0.0
 20
0.0
 30
0.0
  3
Pad007
  1

  0
ARC
  5
F0
330
EF
100
AcDbEntity
  8
Default
 62
   254
420
 13421772
100
AcDbCircle
 10
-377.237823
 20
96.98001900000007
 30
-0.0000000000000104
 40
48.75380256001904
100
AcDbArc
 50
359.9999999999999
 51
180.0
  0
ARC
  5
F1
330
EF
100
AcDbEntity
  8
Default
 62
   254
420
 13421772
100
AcDbCircle
 10
-377.237823
 20
96.98001899999994
 30
-0.0000000000000071
 40
48.75380256001901
100
AcDbArc
 50
270.0
 51
0.0000000000000835
  0
ARC
  5
F2
330
EF
100
AcDbEntity
  8
Default
 62
   254
420
 13421772
100
AcDbCircle
 10
-377.237823
 20
96.98001899999997
 30
15.00000000000001
 40
48.75380256001893
100
AcDbArc
 50
270.0000000000001
 51
0.0
  0
ARC
  5
F3
330
EF
100
AcDbEntity
  8
Default
 62
   254
420
 13421772
100
AcDbCircle
 10
-377.2378230000002
 20
96.98001899999988
 30
15.00000000000002
 40
48.75380256001881
100
AcDbArc
 50
179.9999999999999
 51
270.0
  0
LINE
  5
F4
330
EF
100
AcDbEntity
  8
Default
 62
   254
420
 13421772
100
AcDbLine
 10
-328.4840204399811
 20
96.98001900000001
 30
15.0
 11
-328.4840204399811
 21
96.98001900000001
 31
-0.0000000000000114
  0
LINE
  5
F5
330
EF
100
AcDbEntity
  8
Default
 62
   254
420
 13421772
100
AcDbLine
 10
-377.237823
 20
48.226216439981
 30
15.00000000000001
 11
-377.237823
 21
48.226216439981
 31
-0.0000000000000064
  0
ARC
  5
F6
330
EF
100
AcDbEntity
  8
Default
 62
   254
420
 13421772
100
AcDbCircle
 10
-377.2378230000002
 20
96.98001899999988
 30
-0.0000000000000053
 40
48.75380256001881
100
AcDbArc
 50
179.9999999999999
 51
270.0
  0
ARC
  5
F7
330
EF
100
AcDbEntity
  8
Default
 62
   254
420
 13421772
100
AcDbCircle
 10
-377.237823
 20
96.98001900000007
 30
15.00000000000001
 40
48.75380256001904
100
AcDbArc
 50
359.9999999999999
 51
180.0
  0
ARC
  5
F8
330
EF
100
AcDbEntity
  8
Default
 62
   254
420
 13421772
100
AcDbCircle
 10
-377.237823
 20
96.980019
 30
7.5
 40
48.753802560019
100
AcDbArc
 50
0.0000000000000167
 51
270.0
  0
LINE
  5
F9
330
EF
100
AcDbEntity
  8
Default
 62
   254
420
 13421772
100
AcDbLine
 10
-425.991625560019
 20
96.98001900000003
 30
15.0
 11
-425.991625560019
 21
96.98001900000003
 31
-0.0000000000000064
  0
LINE
  5
FA
330
EF
100
AcDbEntity
  8
Default
 62
   254
420
 13421772
100
AcDbLine
 10
-377.237823
 20
145.733821560019
 30
15.0
 11
-377.237823
 21
145.733821560019
 31
-0.0000000000000107
  0
ARC
  5
FB
330
EF
100
AcDbEntity
  8
Default
 62
   254
420
 13421772
100
AcDbCircle
 10
-377.237823
 20
96.980019
 30
7.5
 40
48.753802560019
100
AcDbArc
 50
270.0
 51
0.0000000000000167
  0
LINE
  5
FC
330
EF
100
AcDbEntity
  8
Default
 62
   254
420
 13421772
100
AcDbLine
 10
-377.237823
 20
48.226216439981
 30
-0.000000000000008
 11
-377.237823
 21
145.733821560019
 31
-0.0000000000000299
  0
LINE
  5
FD
330
EF
100
AcDbEntity
  8
Default
 62
   254
420
 13421772
100
AcDbLine
 10
-425.991625560019
 20
96.980019
 30
-0.0000000000000095
 11
-328.484020439981
 21
96.980019
 31
-0.0000000000000284
  0
LINE
  5
FE
330
EF
100
AcDbEntity
  8
Default
 62
   254
420
 13421772
100
AcDbLine
 10
-377.237823
 20
48.226216439981
 30
15.00000000000002
 11
-377.237823
 21
145.733821560019
 31
15.0
  0
LINE
  5
FF
330
EF
100
AcDbEntity
  8
Default
 62
   254
420
 13421772
100
AcDbLine
 10
-425.991625560019
 20
96.980019
 30
15.00000000000002
 11
-328.484020439981
 21
96.980019
 31
15.0
  0
ENDBLK
  5
101
330
EF
100
AcDbEntity
  8
0
100
AcDbBlockEnd
  0
BLOCK
  5
114
330
103
100
AcDbEntity
  8
0
100
AcDbBlockBegin
  2
Pad008
 70
     0
 10
0.0
 20
0.0
 30
0.0
  3
Pad008
  1

  0
ARC
  5
104
330
103
100
AcDbEntity
  8
Default
 62
   254
420
 13421772
100
AcDbCircle
 10
-377.237823
 20
96.98001900000007
 30
-0.0000000000000104
 40
48.75380256001904
100
AcDbArc
 50
359.9999999999999
 51
180.0
  0
ARC
  5
105
330
103
100
AcDbEntity
  8
Default
 62
   254
420
 13421772
100
AcDbCircle
 10
-377.237823
 20
96.98001899999994
 30
-0.0000000000000071
 40
48.75380256001901
100
AcDbArc
 50
270.0
 51
0.0000000000000835
  0
ARC
  5
106
330
103
100
AcDbEntity
  8
Default
 62
   254
420
 13421772
100
AcDbCircle
 10
-377.237823
 20
96.98001899999997
 30
15.00000000000001
 40
48.75380256001893
100
AcDbArc
 50
270.0000000000001
 51
0.0
  0
ARC
  5
107
330
103
100
AcDbEntity
  8
Default
 62
   254
420
 13421772
100
AcDbCircle
 10
-377.2378230000002
 20
96.98001899999988
 30
15.00000000000002
 40
48.75380256001881
100
AcDbArc
 50
179.9999999999999
 51
270.0
  0
LINE
  5
108
330
103
100
AcDbEntity
  8
Default
 62
   254
420
 13421772
100
AcDbLine
 10
-328.4840204399811
 20
96.98001900000001
 30
15.0
 11
-328.4840204399811
 21
96.98001900000001
 31
-0.0000000000000114
  0
LINE
  5
109
330
103
100
AcDbEntity
  8
Default
 62
   254
420
 13421772
100
AcDbLine
 10
-377.237823
 20
48.226216439981
 30
15.00000000000001
 11
-377.237823
 21
48.226216439981
 31
-0.0000000000000064
  0
ARC
  5
10A
330
103
100
AcDbEntity
  8
Default
 62
   254
420
 13421772
100
AcDbCircle
 10
-377.2378230000002
 20
96.98001899999988
 30
-0.0000000000000053
 40
48.75380256001881
100
AcDbArc
 50
179.9999999999999
 51
270.0
  0
ARC
  5
10B
330
103
100
AcDbEntity
  8
Default
 62
   254
420
 13421772
100
AcDbCircle
 10
-377.237823
 20
96.98001900000007
 30
15.00000000000001
 40
48.75380256001904
100
AcDbArc
 50
359.9999999999999
 51
180.0
  0
ARC
  5
10C
330
103
100
AcDbEntity
  8
Default
 62
   254
420
 13421772
100
AcDbCircle
 10
-377.237823
 20
96.980019
 30
7.5
 40
48.753802560019
100
AcDbArc
 50
0.0000000000000167
 51
270.0
  0
LINE
  5
10D
330
103
100
AcDbEntity
  8
Default
 62
   254
420
 13421772
100
AcDbLine
 10
-425.991625560019
 20
96.98001900000003
 30
15.0
 11
-425.991625560019
 21
96.98001900000003
 31
-0.0000000000000064
  0
LINE
  5
10E
330
103
100
AcDbEntity
  8
Default
 62
   254
420
 13421772
100
AcDbLine
 10
-377.237823
 20
145.733821560019
 30
15.0
 11
-377.237823
 21
145.733821560019
 31
-0.0000000000000107
  0
ARC
  5
10F
330
103
100
AcDbEntity
  8
Default
 62
   254
420
 13421772
100
AcDbCircle
 10
-377.237823
 20
96.980019
 30
7.5
 40
48.753802560019
100
AcDbArc
 50
270.0
 51
0.0000000000000167
  0
LINE
  5
110
330
103
100
AcDbEntity
  8
Default
 62
   254
420
 13421772
100
AcDbLine
 10
-377.237823
 20
48.226216439981
 30
-0.000000000000008
 11
-377.237823
 21
145.733821560019
 31
-0.0000000000000299
  0
LINE
  5
111
330
103
100
AcDbEntity
  8
Default
 62
   254
420
 13421772
100
AcDbLine
 10
-425.991625560019
 20
96.980019
 30
-0.0000000000000095
 11
-328.484020439981
 21
96.980019
 31
-0.0000000000000284
  0
LINE
  5
112
330
103
100
AcDbEntity
  8
Default
 62
   254
420
 13421772
100
AcDbLine
 10
-377.237823
 20
48.226216439981
 30
15.00000000000002
 11
-377.237823
 21
145.733821560019
 31
15.0
  0
LINE
  5
113
330
103
100
AcDbEntity
  8
Default
 62
   254
420
 13421772
100
AcDbLine
 10
-425.991625560019
 20
96.980019
 30
15.00000000000002
 11
-328.484020439981
 21
96.980019
 31
15.0
  0
ENDBLK
  5
115
330
103
100
AcDbEntity
  8
0
100
AcDbBlockEnd
  0
BLOCK
  5
128
330
117
100
AcDbEntity
  8
0
100
AcDbBlockBegin
  2
Pad009
 70
     0
 10
0.0
 20
0.0
 30
0.0
  3
Pad009
  1

  0
ARC
  5
118
330
117
100
AcDbEntity
  8
Default
 62
   254
420
 13421772
100
AcDbCircle
 10
-377.237823
 20
96.98001899999983
 30
-0.0000000000000199
 40
32.38308936805902
100
AcDbArc
 50
0.0000000000003269
 51
180.0
  0
ARC
  5
119
330
117
100
AcDbEntity
  8
Default
 62
   254
420
 13421772
100
AcDbCircle
 10
-377.2378230000001
 20
96.98001900000017
 30
-0.0000000000000149
 40
32.38308936805913
100
AcDbArc
 50
270.0
 51
359.9999999999998
  0
ARC
  5
11A
330
117
100
AcDbEntity
  8
Default
 62
   254
420
 13421772
100
AcDbCircle
 10
-377.237823
 20
96.98001900000003
 30
25.00000000000001
 40
32.38308936805902
100
AcDbArc
 50
270.0
 51
0.0
  0
ARC
  5
11B
330
117
100
AcDbEntity
  8
Default
 62
   254
420
 13421772
100
AcDbCircle
 10
-377.2378229999999
 20
96.98001900000013
 30
25.0
 40
32.38308936805906
100
AcDbArc
 50
180.0000000000002
 51
270.0
  0
LINE
  5
11C
330
117
100
AcDbEntity
  8
Default
 62
   254
420
 13421772
100
AcDbLine
 10
-344.854733631941
 20
96.98001900000001
 30
25.00000000000001
 11
-344.854733631941
 21
96.98001900000001
 31
-0.0000000000000114
  0
LINE
  5
11D
330
117
100
AcDbEntity
  8
Default
 62
   254
420
 13421772
100
AcDbLine
 10
-377.237823
 20
64.59692963194101
 30
25.0
 11
-377.237823
 21
64.59692963194101
 31
-0.0000000000000129
  0
ARC
  5
11E
330
117
100
AcDbEntity
  8
Default
 62
   254
420
 13421772
100
AcDbCircle
 10
-377.2378229999999
 20
96.98001900000013
 30
-0.000000000000032
 40
32.38308936805906
100
AcDbArc
 50
180.0000000000002
 51
270.0
  0
ARC
  5
11F
330
117
100
AcDbEntity
  8
Default
 62
   254
420
 13421772
100
AcDbCircle
 10
-377.237823
 20
96.98001899999983
 30
25.0
 40
32.38308936805902
100
AcDbArc
 50
0.0000000000003269
 51
180.0
  0
ARC
  5
120
330
117
100
AcDbEntity
  8
Default
 62
   254
420
 13421772
100
AcDbCircle
 10
-377.237823
 20
96.980019
 30
12.5
 40
32.38308936805899
100
AcDbArc
 50
0.0
 51
270.0
  0
LINE
  5
121
330
117
100
AcDbEntity
  8
Default
 62
   254
420
 13421772
100
AcDbLine
 10
-409.620912368059
 20
96.98001900000003
 30
25.0
 11
-409.620912368059
 21
96.98001900000003
 31
-0.0000000000000093
  0
LINE
  5
122
330
117
100
AcDbEntity
  8
Default
 62
   254
420
 13421772
100
AcDbLine
 10
-377.237823
 20
129.363108368059
 30
25.0
 11
-377.237823
 21
129.363108368059
 31
-0.0000000000000093
  0
ARC
  5
123
330
117
100
AcDbEntity
  8
Default
 62
   254
420
 13421772
100
AcDbCircle
 10
-377.237823
 20
96.980019
 30
12.5
 40
32.38308936805899
100
AcDbArc
 50
270.0
 51
0.0
  0
LINE
  5
124
330
117
100
AcDbEntity
  8
Default
 62
   254
420
 13421772
100
AcDbLine
 10
-377.237823
 20
64.59692963194101
 30
-0.000000000000032
 11
-377.237823
 21
129.363108368059
 31
-0.0000000000000248
  0
LINE
  5
125
330
117
100
AcDbEntity
  8
Default
 62
   254
420
 13421772
100
AcDbLine
 10
-409.620912368059
 20
96.980019
 30
-0.0000000000000284
 11
-344.8547336319409
 21
96.980019
 31
-0.0000000000000284
  0
LINE
  5
126
330
117
100
AcDbEntity
  8
Default
 62
   254
420
 13421772
100
AcDbLine
 10
-377.237823
 20
64.59692963194101
 30
25.0
 11
-377.237823
 21
129.363108368059
 31
25.0
  0
LINE
  5
127
330
117
100
AcDbEntity
  8
Default
 62
   254
420
 13421772
100
AcDbLine
 10
-409.620912368059
 20
96.980019
 30
25.0
 11
-344.8547336319409
 21
96.980019
 31
25.0
  0
ENDBLK
  5
129
330
117
100
AcDbEntity
  8
0
100
AcDbBlockEnd
  0
BLOCK
  5
153
330
12B
100
AcDbEntity
  8
0
100
AcDbBlockBegin
  2
Pad010
 70
     0
 10
0.0
 20
0.0
 30
0.0
  3
Pad010
  1

  0
LINE
  5
12C
330
12B
100
AcDbEntity
  8
Default
 62
   254
420
 13421772
100
AcDbLine
 10
-451.5154768351
 20
-81.59141649731
 30
0.0
 11
-451.5154768351
 21
-81.59141649731
 31
200.0
  0
LINE
  5
12D
330
12B
100
AcDbEntity
  8
Default
 62
   254
420
 13421772
100
AcDbLine
 10
-451.5154768351
 20
-81.59141649731
 30
200.0
 11
-51.51547683519
 21
-81.59141649731
 31
200.0
  0
LINE
  5
12E
330
12B
100
AcDbEntity
  8
Default
 62
   254
420
 13421772
100
AcDbLine
 10
-51.51547683519
 20
-81.59141649731
 30
200.0
 11
-51.51547683519
 21
-81.59141649731
 31
0.0
  0
LINE
  5
12F
330
12B
100
AcDbEntity
  8
Default
 62
   254
420
 13421772
100
AcDbLine
 10
-51.51547683519
 20
-81.59141649731
 30
0.0
 11
-451.5154768351
 21
-81.59141649731
 31
0.0
  0
LINE
  5
130
330
12B
100
AcDbEntity
  8
Default
 62
   254
420
 13421772
100
AcDbLine
 10
-451.5154768351
 20
-181.5914164973
 30
0.0
 11
-451.5154768351
 21
-181.5914164973
 31
200.0
  0
LINE
  5
131
330
12B
100
AcDbEntity
  8
Default
 62
   254
420
 13421772
100
AcDbLine
 10
-451.5154768351
 20
-181.5914164973
 30
200.0
 11
-451.5154768351
 21
-81.59141649731
 31
200.0
  0
LINE
  5
132
330
12B
100
AcDbEntity
  8
Default
 62
   254
420
 13421772
100
AcDbLine
 10
-451.5154768351
 20
-81.59141649731
 30
0.0
 11
-451.5154768351
 21
-181.5914164973
 31
0.0
  0
LINE
  5
133
330
12B
100
AcDbEntity
  8
Default
 62
   254
420
 13421772
100
AcDbLine
 10
-51.51547683519
 20
-81.59141649731
 30
200.0
 11
-51.51547683519
 21
-181.5914164973
 31
200.0
  0
LINE
  5
134
330
12B
100
AcDbEntity
  8
Default
 62
   254
420
 13421772
100
AcDbLine
 10
-51.51547683519
 20
-181.5914164973
 30
200.0
 11
-51.51547683519
 21
-181.5914164973
 31
0.0
  0
LINE
  5
135
330
12B
100
AcDbEntity
  8
Default
 62
   254
420
 13421772
100
AcDbLine
 10
-51.51547683519
 20
-181.5914164973
 30
0.0
 11
-51.51547683519
 21
-81.59141649731
 31
0.0
  0
LINE
  5
136
330
12B
100
AcDbEntity
  8
Default
 62
   254
420
 13421772
100
AcDbLine
 10
-451.5154768351
 20
-181.5914164973
 30
0.0
 11
-51.51547683519
 21
-181.5914164973
 31
0.0
  0
LINE
  5
137
330
12B
100
AcDbEntity
  8
Default
 62
   254
420
 13421772
100
AcDbLine
 10
-451.5154768351
 20
-181.5914164973
 30
200.0
 11
-51.51547683519
 21
-181.5914164973
 31
200.0
  0
ARC
  5
138
330
12B
100
AcDbEntity
  8
Default
 62
   254
420
 13421772
100
AcDbCircle
 10
377.237823
 20
96.98001899999997
 30
-196.5914164973001
 40
48.75380256001898
210
5.097704545348230E-31
220
1.0
230
-5.829639523074151E-16
100
AcDbArc
 50
180.0
 51
359.9999999999999
  0
ARC
  5
139
330
12B
100
AcDbEntity
  8
Default
 62
   254
420
 13421772
100
AcDbCircle
 10
377.2378229999999
 20
96.98001900000014
 30
-196.5914164973
 40
48.75380256001884
210
0.0
220
1.0
230
0.0
100
AcDbArc
 50
90.0
 51
180.0000000000002
  0
ARC
  5
13A
330
12B
100
AcDbEntity
  8
Default
 62
   254
420
 13421772
100
AcDbCircle
 10
377.237823
 20
96.98001899999987
 30
-181.5914164973002
 40
48.75380256001893
210
0.0
220
1.0
230
-1.165927904614830E-15
100
AcDbArc
 50
90.0
 51
180.0
  0
ARC
  5
13B
330
12B
100
AcDbEntity
  8
Default
 62
   254
420
 13421772
100
AcDbCircle
 10
377.237823
 20
96.98001900000006
 30
-181.5914164973
 40
48.75380256001895
210
0.0
220
1.0
230
0.0
100
AcDbArc
 50
359.9999999999999
 51
90.0
  0
LINE
  5
13C
330
12B
100
AcDbEntity
  8
Default
 62
   254
420
 13421772
100
AcDbLine
 10
-328.4840204399811
 20
-196.5914164973
 30
96.98001900000001
 11
-328.4840204399811
 21
-181.5914164973001
 31
96.98001900000001
  0
LINE
  5
13D
330
12B
100
AcDbEntity
  8
Default
 62
   254
420
 13421772
100
AcDbLine
 10
-377.237823
 20
-196.5914164973
 30
145.733821560019
 11
-377.237823
 21
-181.5914164973
 31
145.733821560019
  0
ARC
  5
13E
330
12B
100
AcDbEntity
  8
Default
 62
   254
420
 13421772
100
AcDbCircle
 10
377.237823
 20
96.98001899999994
 30
-196.5914164973001
 40
48.75380256001898
210
0.0
220
1.0
230
-5.829639523074148E-16
100
AcDbArc
 50
0.0
 51
90.0
  0
ARC
  5
13F
330
12B
100
AcDbEntity
  8
Default
 62
   254
420
 13421772
100
AcDbCircle
 10
377.2378229999999
 20
96.98001899999987
 30
-181.5914164973004
 40
48.75380256001898
210
5.829639523074159E-16
220
1.0
230
-1.165927904614830E-15
100
AcDbArc
 50
180.0
 51
359.9999999999999
  0
LINE
  5
140
330
12B
100
AcDbEntity
  8
Default
 62
   254
420
 13421772
100
AcDbLine
 10
-451.5154768351
 20
-81.59141649731
 30
100.0
 11
-51.51547683518996
 21
-81.59141649731
 31
100.0
  0
LINE
  5
141
330
12B
100
AcDbEntity
  8
Default
 62
   254
420
 13421772
100
AcDbLine
 10
-251.515476835145
 20
-81.59141649731
 30
200.0
 11
-251.515476835145
 21
-81.59141649731
 31
0.0000000000000178
  0
LINE
  5
142
330
12B
100
AcDbEntity
  8
Default
 62
   254
420
 13421772
100
AcDbLine
 10
-451.5154768351
 20
-181.5914164973
 30
100.0
 11
-451.5154768351
 21
-81.59141649730998
 31
100.0
  0
LINE
  5
143
330
12B
100
AcDbEntity
  8
Default
 62
   254
420
 13421772
100
AcDbLine
 10
-451.5154768351
 20
-131.591416497305
 30
200.0
 11
-451.5154768351
 21
-131.591416497305
 31
0.0000000000000178
  0
LINE
  5
144
330
12B
100
AcDbEntity
  8
Default
 62
   254
420
 13421772
100
AcDbLine
 10
-51.51547683519
 20
-81.59141649731
 30
100.0
 11
-51.51547683519
 21
-181.5914164973
 31
100.0
  0
LINE
  5
145
330
12B
100
AcDbEntity
  8
Default
 62
   254
420
 13421772
100
AcDbLine
 10
-51.51547683519
 20
-131.591416497305
 30
200.0
 11
-51.51547683519
 21
-131.591416497305
 31
0.0000000000000178
  0
LINE
  5
146
330
12B
100
AcDbEntity
  8
Default
 62
   254
420
 13421772
100
AcDbLine
 10
-451.5154768351
 20
-131.591416497305
 30
0.0
 11
-51.51547683518996
 21
-131.591416497305
 31
0.0
  0
LINE
  5
147
330
12B
100
AcDbEntity
  8
Default
 62
   254
420
 13421772
100
AcDbLine
 10
-251.515476835145
 20
-181.5914164973
 30
0.0
 11
-251.515476835145
 21
-81.59141649730998
 31
0.0
  0
LINE
  5
148
330
12B
100
AcDbEntity
  8
Default
 62
   254
420
 13421772
100
AcDbLine
 10
-451.5154768351
 20
-131.591416497305
 30
200.0
 11
-51.51547683518996
 21
-131.591416497305
 31
200.0
  0
LINE
  5
149
330
12B
100
AcDbEntity
  8
Default
 62
   254
420
 13421772
100
AcDbLine
 10
-251.515476835145
 20
-181.5914164973
 30
200.0
 11
-251.515476835145
 21
-81.59141649730998
 31
200.0
  0
LINE
  5
14A
330
12B
100
AcDbEntity
  8
Default
 62
   254
420
 13421772
100
AcDbLine
 10
-51.51547683518999
 20
-181.5914164973
 30
100.0
 11
-328.5776444263352
 21
-181.5914164973
 31
100.0
  0
LINE
  5
14B
330
12B
100
AcDbEntity
  8
Default
 62
   254
420
 13421772
100
AcDbLine
 10
-425.8980015736648
 20
-181.5914164973
 30
100.0
 11
-451.5154768351
 21
-181.5914164973
 31
100.0
  0
LINE
  5
14C
330
12B
100
AcDbEntity
  8
Default
 62
   254
420
 13421772
100
AcDbLine
 10
-251.515476835145
 20
-181.5914164973
 30
200.0
 11
-251.515476835145
 21
-181.5914164973
 31
0.0000000000000178
  0
ARC
  5
14D
330
12B
100
AcDbEntity
  8
Default
 62
   254
420
 13421772
100
AcDbCircle
 10
377.237823
 20
96.980019
 30
-189.0914164973001
 40
48.75380256001901
210
0.0
220
1.0
230
0.0
100
AcDbArc
 50
90.0
 51
180.0
  0
ARC
  5
14E
330
12B
100
AcDbEntity
  8
Default
 62
   254
420
 13421772
100
AcDbCircle
 10
377.237823
 20
96.980019
 30
-189.0914164973001
 40
48.75380256001901
210
0.0
220
1.0
230
0.0
100
AcDbArc
 50
180.0
 51
90.0
  0
LINE
  5
14F
330
12B
100
AcDbEntity
  8
Default
 62
   254
420
 13421772
100
AcDbLine
 10
-377.237823
 20
-196.5914164973
 30
48.22621643998099
 11
-377.237823
 21
-181.5914164973
 31
48.22621643998099
  0
LINE
  5
150
330
12B
100
AcDbEntity
  8
Default
 62
   254
420
 13421772
100
AcDbLine
 10
-425.991625560019
 20
-196.5914164973
 30
96.98001900000003
 11
-425.991625560019
 21
-181.5914164973
 31
96.98001900000003
  0
LINE
  5
151
330
12B
100
AcDbEntity
  8
Default
 62
   254
420
 13421772
100
AcDbLine
 10
-377.237823
 20
-196.5914164973
 30
48.226216439981
 11
-377.237823
 21
-196.5914164973
 31
145.733821560019
  0
LINE
  5
152
330
12B
100
AcDbEntity
  8
Default
 62
   254
420
 13421772
100
AcDbLine
 10
-425.991625560019
 20
-196.5914164973
 30
96.980019
 11
-328.484020439981
 21
-196.5914164973
 31
96.980019
  0
ENDBLK
  5
154
330
12B
100
AcDbEntity
  8
0
100
AcDbBlockEnd
  0
BLOCK
  5
167
330
156
100
AcDbEntity
  8
0
100
AcDbBlockBegin
  2
Pad011
 70
     0
 10
0.0
 20
0.0
 30
0.0
  3
Pad011
  1

  0
ARC
  5
157
330
156
100
AcDbEntity
  8
Default
 62
   254
420
 13421772
100
AcDbCircle
 10
177.206085
 20
278.948456
 30
0.0000000000000416
 40
46.35788318872301
100
AcDbArc
 50
0.0000000000000703
 51
180.0
  0
ARC
  5
158
330
156
100
AcDbEntity
  8
Default
 62
   254
420
 13421772
100
AcDbCircle
 10
177.206085
 20
278.948456
 30
0.0000000000000498
 40
46.35788318872301
100
AcDbArc
 50
270.0
 51
0.0
  0
ARC
  5
159
330
156
100
AcDbEntity
  8
Default
 62
   254
420
 13421772
100
AcDbCircle
 10
177.206085
 20
278.948456
 30
15.0
 40
46.35788318872301
100
AcDbArc
 50
270.0
 51
0.0
  0
ARC
  5
15A
330
156
100
AcDbEntity
  8
Default
 62
   254
420
 13421772
100
AcDbCircle
 10
177.206085
 20
278.948456
 30
14.99999999999997
 40
46.35788318872295
100
AcDbArc
 50
179.9999999999999
 51
270.0
  0
LINE
  5
15B
330
156
100
AcDbEntity
  8
Default
 62
   254
420
 13421772
100
AcDbLine
 10
223.563968188723
 20
278.948456
 30
15.0
 11
223.563968188723
 21
278.948456
 31
0.000000000000054
  0
LINE
  5
15C
330
156
100
AcDbEntity
  8
Default
 62
   254
420
 13421772
100
AcDbLine
 10
177.206085
 20
232.590572811277
 30
15.0
 11
177.206085
 21
232.590572811277
 31
0.0000000000000386
  0
ARC
  5
15D
330
156
100
AcDbEntity
  8
Default
 62
   254
420
 13421772
100
AcDbCircle
 10
177.206085
 20
278.948456
 30
0.0000000000000249
 40
46.35788318872295
100
AcDbArc
 50
179.9999999999999
 51
270.0
  0
ARC
  5
15E
330
156
100
AcDbEntity
  8
Default
 62
   254
420
 13421772
100
AcDbCircle
 10
177.206085
 20
278.948456
 30
14.99999999999999
 40
46.35788318872301
100
AcDbArc
 50
0.0000000000000703
 51
180.0
  0
ARC
  5
15F
330
156
100
AcDbEntity
  8
Default
 62
   254
420
 13421772
100
AcDbCircle
 10
177.206085
 20
278.948456
 30
7.499999999999972
 40
46.35788318872301
100
AcDbArc
 50
0.0
 51
270.0
  0
LINE
  5
160
330
156
100
AcDbEntity
  8
Default
 62
   254
420
 13421772
100
AcDbLine
 10
130.848201811277
 20
278.948456
 30
15.0
 11
130.848201811277
 21
278.948456
 31
0.0000000000000386
  0
LINE
  5
161
330
156
100
AcDbEntity
  8
Default
 62
   254
420
 13421772
100
AcDbLine
 10
177.206085
 20
325.306339188723
 30
15.00000000000001
 11
177.206085
 21
325.306339188723
 31
0.0000000000000429
  0
ARC
  5
162
330
156
100
AcDbEntity
  8
Default
 62
   254
420
 13421772
100
AcDbCircle
 10
177.206085
 20
278.948456
 30
7.499999999999972
 40
46.35788318872301
100
AcDbArc
 50
270.0
 51
0.0
  0
LINE
  5
163
330
156
100
AcDbEntity
  8
Default
 62
   254
420
 13421772
100
AcDbLine
 10
177.206085
 20
325.306339188723
 30
0.0000000000000394
 11
177.206085
 21
232.590572811277
 31
0.0000000000000394
  0
LINE
  5
164
330
156
100
AcDbEntity
  8
Default
 62
   254
420
 13421772
100
AcDbLine
 10
223.563968188723
 20
278.948456
 30
0.0000000000000497
 11
130.848201811277
 21
278.948456
 31
0.0000000000000292
  0
LINE
  5
165
330
156
100
AcDbEntity
  8
Default
 62
   254
420
 13421772
100
AcDbLine
 10
177.206085
 20
325.306339188723
 30
14.99999999999999
 11
177.206085
 21
232.590572811277
 31
14.99999999999999
  0
LINE
  5
166
330
156
100
AcDbEntity
  8
Default
 62
   254
420
 13421772
100
AcDbLine
 10
223.563968188723
 20
278.948456
 30
15.0
 11
130.848201811277
 21
278.948456
 31
14.99999999999998
  0
ENDBLK
  5
168
330
156
100
AcDbEntity
  8
0
100
AcDbBlockEnd
  0
BLOCK
  5
17B
330
16A
100
AcDbEntity
  8
0
100
AcDbBlockBegin
  2
Pad012
 70
     0
 10
0.0
 20
0.0
 30
0.0
  3
Pad012
  1

  0
ARC
  5
16B
330
16A
100
AcDbEntity
  8
Default
 62
   254
420
 13421772
100
AcDbCircle
 10
177.206085
 20
278.948456
 30
0.0000000000000596
 40
32.30612111986201
100
AcDbArc
 50
0.0000000000001008
 51
180.0
  0
ARC
  5
16C
330
16A
100
AcDbEntity
  8
Default
 62
   254
420
 13421772
100
AcDbCircle
 10
177.206085
 20
278.948456
 30
0.0000000000000843
 40
32.30612111986198
100
AcDbArc
 50
270.0
 51
0.0
  0
ARC
  5
16D
330
16A
100
AcDbEntity
  8
Default
 62
   254
420
 13421772
100
AcDbCircle
 10
177.206085
 20
278.948456
 30
25.0
 40
32.30612111986201
100
AcDbArc
 50
270.0000000000001
 51
0.0
  0
ARC
  5
16E
330
16A
100
AcDbEntity
  8
Default
 62
   254
420
 13421772
100
AcDbCircle
 10
177.206085
 20
278.948456
 30
24.99999999999996
 40
32.30612111986198
100
AcDbArc
 50
180.0
 51
270.0
  0
LINE
  5
16F
330
16A
100
AcDbEntity
  8
Default
 62
   254
420
 13421772
100
AcDbLine
 10
209.512206119862
 20
278.948456
 30
25.00000000000001
 11
209.512206119862
 21
278.948456
 31
0.0000000000000909
  0
LINE
  5
170
330
16A
100
AcDbEntity
  8
Default
 62
   254
420
 13421772
100
AcDbLine
 10
177.206085
 20
246.642334880138
 30
25.0
 11
177.206085
 21
246.642334880138
 31
0.0000000000000466
  0
ARC
  5
171
330
16A
100
AcDbEntity
  8
Default
 62
   254
420
 13421772
100
AcDbCircle
 10
177.206085
 20
278.948456
 30
0.0000000000000216
 40
32.30612111986198
100
AcDbArc
 50
180.0
 51
270.0
  0
ARC
  5
172
330
16A
100
AcDbEntity
  8
Default
 62
   254
420
 13421772
100
AcDbCircle
 10
177.206085
 20
278.948456
 30
24.99999999999999
 40
32.30612111986201
100
AcDbArc
 50
0.0000000000001008
 51
180.0
  0
ARC
  5
173
330
16A
100
AcDbEntity
  8
Default
 62
   254
420
 13421772
100
AcDbCircle
 10
177.206085
 20
278.948456
 30
12.5
 40
32.30612111986198
100
AcDbArc
 50
0.0
 51
270.0
  0
LINE
  5
174
330
16A
100
AcDbEntity
  8
Default
 62
   254
420
 13421772
100
AcDbLine
 10
144.899963880138
 20
278.948456
 30
25.00000000000001
 11
144.899963880138
 21
278.948456
 31
0.0000000000000502
  0
LINE
  5
175
330
16A
100
AcDbEntity
  8
Default
 62
   254
420
 13421772
100
AcDbLine
 10
177.206085
 20
311.254577119862
 30
25.00000000000001
 11
177.206085
 21
311.254577119862
 31
0.0000000000000533
  0
ARC
  5
176
330
16A
100
AcDbEntity
  8
Default
 62
   254
420
 13421772
100
AcDbCircle
 10
177.206085
 20
278.948456
 30
12.5
 40
32.30612111986198
100
AcDbArc
 50
270.0
 51
0.0
  0
LINE
  5
177
330
16A
100
AcDbEntity
  8
Default
 62
   254
420
 13421772
100
AcDbLine
 10
209.512206119862
 20
278.948456
 30
0.0000000000000568
 11
144.899963880138
 21
278.948456
 31
0.0000000000000283
  0
LINE
  5
178
330
16A
100
AcDbEntity
  8
Default
 62
   254
420
 13421772
100
AcDbLine
 10
177.206085
 20
246.642334880138
 30
0.0000000000000467
 11
177.206085
 21
311.254577119862
 31
0.0000000000000385
  0
LINE
  5
179
330
16A
100
AcDbEntity
  8
Default
 62
   254
420
 13421772
100
AcDbLine
 10
209.512206119862
 20
278.948456
 30
25.0
 11
144.899963880138
 21
278.948456
 31
24.99999999999997
  0
LINE
  5
17A
330
16A
100
AcDbEntity
  8
Default
 62
   254
420
 13421772
100
AcDbLine
 10
177.206085
 20
246.642334880138
 30
24.99999999999999
 11
177.206085
 21
311.254577119862
 31
24.99999999999998
  0
ENDBLK
  5
17C
330
16A
100
AcDbEntity
  8
0
100
AcDbBlockEnd
  0
ENDSEC
  0
SECTION
  2
ENTITIES
  0
INSERT
  5
180
330
1F
100
AcDbEntity
  8
Default
100
AcDbBlockReference
  2
ASSEMBLY
 10
0.0
 20
0.0
 30
0.0
  0
ENDSEC
  0
SECTION
  2
OBJECTS
  0
DICTIONARY
  5
C
330
0
100
AcDbDictionary
281
     1
  3
ACAD_GROUP
350
D
  3
ACAD_LAYOUT
350
1A
  3
ACAD_MATERIAL
350
3B
  3
ACAD_MLEADERSTYLE
350
1A8
  3
ACAD_MLINESTYLE
350
17
  3
ACAD_PLOTSETTINGS
350
19
  3
ACAD_PLOTSTYLENAME
350
E
  3
ACAD_TABLESTYLE
350
1A7
  3
ACAD_VISUALSTYLE
350
2A
  0
DICTIONARY
  5
D
102
{ACAD_REACTORS
330
C
102
}
330
C
100
AcDbDictionary
281
     1
  0
DICTIONARY
  5
1A
102
{ACAD_REACTORS
330
C
102
}
330
C
100
AcDbDictionary
281
     1
  3
Layout1
350
1E
  3
Layout2
350
26
  3
Model
350
22
  0
DICTIONARY
  5
3B
102
{ACAD_REACTORS
330
C
102
}
330
C
100
AcDbDictionary
281
     1
  3
ByBlock
350
3D
  3
ByLayer
350
3C
  3
Global
350
3E
  0
DICTIONARY
  5
1A8
102
{ACAD_REACTORS
330
C
102
}
330
C
100
AcDbDictionary
281
     1
  0
DICTIONARY
  5
17
102
{ACAD_REACTORS
330
C
102
}
330
C
100
AcDbDictionary
281
     1
  3
Standard
350
18
  0
DICTIONARY
  5
19
102
{ACAD_REACTORS
330
C
102
}
330
C
100
AcDbDictionary
281
     1
  0
ACDBDICTIONARYWDFLT
  5
E
102
{ACAD_REACTORS
330
C
102
}
330
C
100
AcDbDictionary
281
     1
  3
Normal
350
F
100
AcDbDictionaryWithDefault
340
F
  0
DICTIONARY
  5
1A7
102
{ACAD_REACTORS
330
C
102
}
330
C
100
AcDbDictionary
281
     1
  0
DICTIONARY
  5
2A
102
{ACAD_REACTORS
330
C
102
}
330
C
100
AcDbDictionary
281
     1
  3
2dWireframe
350
2F
  3
3D Hidden
350
31
  3
3dWireframe
350
30
  3
Basic
350
32
  3
Brighten
350
36
  3
ColorChange
350
3A
  3
Conceptual
350
34
  3
Dim
350
35
  3
Facepattern
350
39
  3
Flat
350
2B
  3
FlatWithEdges
350
2C
  3
Gouraud
350
2D
  3
GouraudWithEdges
350
2E
  3
Linepattern
350
38
  3
Realistic
350
33
  3
Thicken
350
37
  0
LAYOUT
  5
1E
102
{ACAD_REACTORS
330
1A
102
}
330
1A
100
AcDbPlotSettings
  1

  2
none_device
  4

  6

 40
0.0
 41
0.0
 42
0.0
 43
0.0
 44
0.0
 45
0.0
 46
0.0
 47
0.0
 48
0.0
 49
0.0
140
0.0
141
0.0
142
1.0
143
1.0
 70
   688
 72
     0
 73
     0
 74
     5
  7

 75
    16
 76
     0
 77
     2
 78
   300
147
1.0
148
0.0
149
0.0
100
AcDbLayout
  1
Layout1
 70
     1
 71
     1
 10
0.0
 20
0.0
 11
12.0
 21
9.0
 12
0.0
 22
0.0
 32
0.0
 14
1.000000000000000E+20
 24
1.000000000000000E+20
 34
1.000000000000000E+20
 15
-1.000000000000000E+20
 25
-1.000000000000000E+20
 35
-1.000000000000000E+20
146
0.0
 13
0.0
 23
0.0
 33
0.0
 16
1.0
 26
0.0
 36
0.0
 17
0.0
 27
1.0
 37
0.0
 76
     0
330
1B
  0
LAYOUT
  5
26
102
{ACAD_REACTORS
330
1A
102
}
330
1A
100
AcDbPlotSettings
  1

  2
none_device
  4

  6

 40
0.0
 41
0.0
 42
0.0
 43
0.0
 44
0.0
 45
0.0
 46
0.0
 47
0.0
 48
0.0
 49
0.0
140
0.0
141
0.0
142
1.0
143
1.0
 70
   688
 72
     0
 73
     0
 74
     5
  7

 75
    16
 76
     0
 77
     2
 78
   300
147
1.0
148
0.0
149
0.0
100
AcDbLayout
  1
Layout2
 70
     1
 71
     2
 10
0.0
 20
0.0
 11
0.0
 21
0.0
 12
0.0
 22
0.0
 32
0.0
 14
0.0
 24
0.0
 34
0.0
 15
0.0
 25
0.0
 35
0.0
146
0.0
 13
0.0
 23
0.0
 33
0.0
 16
1.0
 26
0.0
 36
0.0
 17
0.0
 27
1.0
 37
0.0
 76
     0
330
23
  0
LAYOUT
  5
22
102
{ACAD_REACTORS
330
1A
102
}
330
1A
100
AcDbPlotSettings
  1

  2
none_device
  4

  6

 40
0.0
 41
0.0
 42
0.0
 43
0.0
 44
0.0
 45
0.0
 46
0.0
 47
0.0
 48
0.0
 49
0.0
140
0.0
141
0.0
142
1.0
143
1.0
 70
  1712
 72
     0
 73
     0
 74
     0
  7

 75
     0
 76
     0
 77
     2
 78
   300
147
1.0
148
0.0
149
0.0
100
AcDbLayout
  1
Model
 70
     1
 71
     0
 10
0.0
 20
0.0
 11
12.0
 21
9.0
 12
0.0
 22
0.0
 32
0.0
 14
-451.51547683519
 24
-206.5914164973
 34
-0.0000000000000284
 15
-26.50639999999999
 25
118.40861581631
 35
400.0
146
0.0
 13
0.0
 23
0.0
 33
0.0
 16
1.0
 26
0.0
 36
0.0
 17
0.0
 27
1.0
 37
0.0
 76
     0
330
1F
331
29
  0
MATERIAL
  5
3D
102
{ACAD_REACTORS
330
3B
102
}
102
{ACAD_XDICTIONARY
360
1A3
102
}
330
3B
100
AcDbMaterial
  1
ByBlock
  0
MATERIAL
  5
3C
102
{ACAD_REACTORS
330
3B
102
}
102
{ACAD_XDICTIONARY
360
1A1
102
}
330
3B
100
AcDbMaterial
  1
ByLayer
  0
MATERIAL
  5
3E
102
{ACAD_REACTORS
330
3B
102
}
102
{ACAD_XDICTIONARY
360
1A5
102
}
330
3B
100
AcDbMaterial
  1
Global
  0
MLINESTYLE
  5
18
102
{ACAD_REACTORS
330
17
102
}
330
17
100
AcDbMlineStyle
  2
Standard
 70
     0
  3

 62
   256
 51
90.0
 52
90.0
 71
     2
 49
0.5
 62
   256
  6
BYLAYER
 49
-0.5
 62
   256
  6
BYLAYER
  0
ACDBPLACEHOLDER
  5
F
102
{ACAD_REACTORS
330
E
102
}
330
E
  0
VISUALSTYLE
  5
2F
102
{ACAD_REACTORS
330
2A
102
}
102
{ACAD_XDICTIONARY
360
189
102
}
330
2A
100
AcDbVisualStyle
  2
2dWireframe
 70
     4
 71
     0
 72
     2
 73
     0
 90
        0
 40
-0.6
 41
-30.0
 62
     5
 63
     7
421
 16777215
 74
     1
 91
        4
 64
     7
 65
   257
 75
     1
175
     1
 42
1.0
 92
        0
 66
   257
 43
1.0
 76
     1
 77
     6
 78
     2
 67
     7
 79
     5
170
     0
171
     0
290
     0
174
     0
 93
        1
 44
0.0
173
     0
291
     0
 45
0.0
1001
ACAD
1000
AcDbSavedByObjectVersion
1070
     0
  0
VISUALSTYLE
  5
31
102
{ACAD_REACTORS
330
2A
102
}
102
{ACAD_XDICTIONARY
360
18D
102
}
330
2A
100
AcDbVisualStyle
  2
3D Hidden
 70
     6
 71
     1
 72
     2
 73
     2
 90
        0
 40
-0.6
 41
-30.0
 62
     5
 63
     7
421
 16777215
 74
     2
 91
        2
 64
     7
 65
   257
 75
     2
175
     1
 42
40.0
 92
        0
 66
   257
 43
1.0
 76
     1
 77
     6
 78
     2
 67
     7
 79
     3
170
     0
171
     0
290
     0
174
     0
 93
        1
 44
0.0
173
     0
291
     0
 45
0.0
1001
ACAD
1000
AcDbSavedByObjectVersion
1070
     0
  0
VISUALSTYLE
  5
30
102
{ACAD_REACTORS
330
2A
102
}
102
{ACAD_XDICTIONARY
360
18B
102
}
330
2A
100
AcDbVisualStyle
  2
3dWireframe
 70
     5
 71
     0
 72
     2
 73
     0
 90
        0
 40
-0.6
 41
-30.0
 62
     5
 63
     7
421
 16777215
 74
     1
 91
        4
 64
     7
 65
   257
 75
     1
175
     1
 42
1.0
 92
        0
 66
   257
 43
1.0
 76
     1
 77
     6
 78
     2
 67
     7
 79
     5
170
     0
171
     0
290
     0
174
     0
 93
        1
 44
0.0
173
     0
291
     0
 45
0.0
1001
ACAD
1000
AcDbSavedByObjectVersion
1070
     0
  0
VISUALSTYLE
  5
32
102
{ACAD_REACTORS
330
2A
102
}
102
{ACAD_XDICTIONARY
360
18F
102
}
330
2A
100
AcDbVisualStyle
  2
Basic
 70
     7
 71
     1
 72
     0
 73
     1
 90
        0
 40
-0.6
 41
-30.0
 62
     5
 63
     7
421
 16777215
 74
     0
 91
        4
 64
     7
 65
   257
 75
     1
175
     1
 42
1.0
 92
        8
 66
     7
 43
1.0
 76
     1
 77
     6
 78
     2
 67
     7
 79
     5
170
     0
171
     0
290
     0
174
     0
 93
        1
 44
0.0
173
     0
291
     1
 45
0.0
1001
ACAD
1000
AcDbSavedByObjectVersion
1070
     0
  0
VISUALSTYLE
  5
36
102
{ACAD_REACTORS
330
2A
102
}
102
{ACAD_XDICTIONARY
360
197
102
}
330
2A
100
AcDbVisualStyle
  2
Brighten
 70
    12
 71
     2
 72
     2
 73
     0
 90
        0
 40
-0.6
 41
-30.0
 62
     5
 63
     7
421
 16777215
 74
     1
 91
        4
 64
     7
 65
   257
 75
     1
175
     1
 42
1.0
 92
        8
 66
     7
 43
1.0
 76
     1
 77
     6
 78
     2
 67
     7
 79
     5
170
     0
171
     0
290
     0
174
     0
 93
        1
 44
50.0
173
     0
291
     1
 45
0.0
1001
ACAD
1000
AcDbSavedByObjectVersion
1070
     0
  0
VISUALSTYLE
  5
3A
102
{ACAD_REACTORS
330
2A
102
}
102
{ACAD_XDICTIONARY
360
19F
102
}
330
2A
100
AcDbVisualStyle
  2
ColorChange
 70
    16
 71
     2
 72
     2
 73
     3
 90
        0
 40
-0.6
 41
-30.0
 62
     5
 63
     8
421
  8421504
 74
     1
 91
        4
 64
     7
 65
   257
 75
     1
175
     1
 42
1.0
 92
        8
 66
     8
424
  8421504
 43
1.0
 76
     1
 77
     6
 78
     2
 67
     7
 79
     5
170
     0
171
     0
290
     0
174
     0
 93
        1
 44
0.0
173
     0
291
     1
 45
0.0
1001
ACAD
1000
AcDbSavedByObjectVersion
1070
     0
  0
VISUALSTYLE
  5
34
102
{ACAD_REACTORS
330
2A
102
}
102
{ACAD_XDICTIONARY
360
193
102
}
330
2A
100
AcDbVisualStyle
  2
Conceptual
 70
     9
 71
     3
 72
     2
 73
     0
 90
        0
 40
-0.6
 41
-30.0
 62
     5
 63
     7
421
 16777215
 74
     2
 91
        2
 64
     7
 65
   257
 75
     1
175
     1
 42
40.0
 92
        8
 66
     7
 43
1.0
 76
     1
 77
     6
 78
     2
 67
     7
 79
     3
170
     0
171
     0
290
     0
174
     0
 93
        1
 44
0.0
173
     0
291
     0
 45
0.0
1001
ACAD
1000
AcDbSavedByObjectVersion
1070
     0
  0
VISUALSTYLE
  5
35
102
{ACAD_REACTORS
330
2A
102
}
102
{ACAD_XDICTIONARY
360
195
102
}
330
2A
100
AcDbVisualStyle
  2
Dim
 70
    11
 71
     2
 72
     2
 73
     0
 90
        0
 40
-0.6
 41
-30.0
 62
     5
 63
     7
421
 16777215
 74
     1
 91
        4
 64
     7
 65
   257
 75
     1
175
     1
 42
1.0
 92
        8
 66
     7
 43
1.0
 76
     1
 77
     6
 78
     2
 67
     7
 79
     5
170
     0
171
     0
290
     0
174
     0
 93
        1
 44
-50.0
173
     0
291
     1
 45
0.0
1001
ACAD
1000
AcDbSavedByObjectVersion
1070
     0
  0
VISUALSTYLE
  5
39
102
{ACAD_REACTORS
330
2A
102
}
102
{ACAD_XDICTIONARY
360
19D
102
}
330
2A
100
AcDbVisualStyle
  2
Facepattern
 70
    15
 71
     2
 72
     2
 73
     0
 90
        0
 40
-0.6
 41
-30.0
 62
     5
 63
     7
421
 16777215
 74
     1
 91
        4
 64
     7
 65
   257
 75
     1
175
     1
 42
1.0
 92
        8
 66
     7
 43
1.0
 76
     1
 77
     6
 78
     2
 67
     7
 79
     5
170
     0
171
     0
290
     0
174
     0
 93
        1
 44
0.0
173
     0
291
     1
 45
0.0
1001
ACAD
1000
AcDbSavedByObjectVersion
1070
     0
  0
VISUALSTYLE
  5
2B
102
{ACAD_REACTORS
330
2A
102
}
102
{ACAD_XDICTIONARY
360
181
102
}
330
2A
100
AcDbVisualStyle
  2
Flat
 70
     0
 71
     2
 72
     1
 73
     1
 90
        2
 40
-0.6
 41
30.0
 62
     5
 63
     7
421
 16777215
 74
     0
 91
        4
 64
     7
 65
   257
 75
     1
175
     1
 42
1.0
 92
        8
 66
     7
 43
1.0
 76
     1
 77
     6
 78
     2
 67
     7
 79
     5
170
     0
171
     0
290
     0
174
     0
 93
       13
 44
0.0
173
     0
291
     1
 45
0.0
1001
ACAD
1000
AcDbSavedByObjectVersion
1070
     0
  0
VISUALSTYLE
  5
2C
102
{ACAD_REACTORS
330
2A
102
}
102
{ACAD_XDICTIONARY
360
183
102
}
330
2A
100
AcDbVisualStyle
  2
FlatWithEdges
 70
     1
 71
     2
 72
     1
 73
     1
 90
        2
 40
-0.6
 41
30.0
 62
     5
 63
     7
421
 16777215
 74
     1
 91
        4
 64
     7
 65
   257
 75
     1
175
     1
 42
1.0
 92
        0
 66
   257
 43
1.0
 76
     1
 77
     6
 78
     2
 67
     7
 79
     5
170
     0
171
     0
290
     0
174
     0
 93
       13
 44
0.0
173
     0
291
     1
 45
0.0
1001
ACAD
1000
AcDbSavedByObjectVersion
1070
     0
  0
VISUALSTYLE
  5
2D
102
{ACAD_REACTORS
330
2A
102
}
102
{ACAD_XDICTIONARY
360
185
102
}
330
2A
100
AcDbVisualStyle
  2
Gouraud
 70
     2
 71
     2
 72
     2
 73
     1
 90
        2
 40
-0.6
 41
30.0
 62
     5
 63
     7
421
 16777215
 74
     0
 91
        4
 64
     7
 65
   257
 75
     1
175
     1
 42
1.0
 92
        0
 66
     7
 43
1.0
 76
     1
 77
     6
 78
     2
 67
     7
 79
     5
170
     0
171
     0
290
     0
174
     0
 93
       13
 44
0.0
173
     0
291
     1
 45
0.0
1001
ACAD
1000
AcDbSavedByObjectVersion
1070
     0
  0
VISUALSTYLE
  5
2E
102
{ACAD_REACTORS
330
2A
102
}
102
{ACAD_XDICTIONARY
360
187
102
}
330
2A
100
AcDbVisualStyle
  2
GouraudWithEdges
 70
     3
 71
     2
 72
     2
 73
     1
 90
        2
 40
-0.6
 41
30.0
 62
     5
 63
     7
421
 16777215
 74
     1
 91
        4
 64
     7
 65
   257
 75
     1
175
     1
 42
1.0
 92
        0
 66
   257
 43
1.0
 76
     1
 77
     6
 78
     2
 67
     7
 79
     5
170
     0
171
     0
290
     0
174
     0
 93
       13
 44
0.0
173
     0
291
     1
 45
0.0
1001
ACAD
1000
AcDbSavedByObjectVersion
1070
     0
  0
VISUALSTYLE
  5
38
102
{ACAD_REACTORS
330
2A
102
}
102
{ACAD_XDICTIONARY
360
19B
102
}
330
2A
100
AcDbVisualStyle
  2
Linepattern
 70
    14
 71
     2
 72
     2
 73
     0
 90
        0
 40
-0.6
 41
-30.0
 62
     5
 63
     7
421
 16777215
 74
     1
 91
        4
 64
     7
 65
   257
 75
     7
175
     7
 42
1.0
 92
        8
 66
     7
 43
1.0
 76
     1
 77
     6
 78
     2
 67
     7
 79
     5
170
     0
171
     0
290
     0
174
     0
 93
        1
 44
0.0
173
     0
291
     1
 45
0.0
1001
ACAD
1000
AcDbSavedByObjectVersion
1070
     0
  0
VISUALSTYLE
  5
33
102
{ACAD_REACTORS
330
2A
102
}
102
{ACAD_XDICTIONARY
360
191
102
}
330
2A
100
AcDbVisualStyle
  2
Realistic
 70
     8
 71
     2
 72
     2
 73
     0
 90
        0
 40
-0.6
 41
-30.0
 62
     5
 63
     7
421
 16777215
 74
     1
 91
        0
 64
     7
 65
   257
 75
     1
175
     1
 42
1.0
 92
        8
 66
     8
424
  7895160
 43
1.0
 76
     1
 77
     6
 78
     2
 67
     7
 79
     5
170
     0
171
     0
290
     0
174
     0
 93
       13
 44
0.0
173
     0
291
     0
 45
0.0
1001
ACAD
1000
AcDbSavedByObjectVersion
1070
     0
  0
VISUALSTYLE
  5
37
102
{ACAD_REACTORS
330
2A
102
}
102
{ACAD_XDICTIONARY
360
199
102
}
330
2A
100
AcDbVisualStyle
  2
Thicken
 70
    13
 71
     2
 72
     2
 73
     0
 90
        0
 40
-0.6
 41
-30.0
 62
     5
 63
     7
421
 16777215
 74
     1
 91
        4
 64
     7
 65
   257
 75
     1
175
     1
 42
1.0
 92
       12
 66
     7
 43
1.0
 76
     1
 77
     6
 78
     2
 67
     7
 79
     5
170
     0
171
     0
290
     0
174
     0
 93
        1
 44
0.0
173
     0
291
     1
 45
0.0
1001
ACAD
1000
AcDbSavedByObjectVersion
1070
     0
  0
DICTIONARY
  5
1A3
330
3D
100
AcDbDictionary
280
     1
281
     1
  3
ACAD_XREC_ROUNDTRIP
360
1A4
  0
DICTIONARY
  5
1A1
330
3C
100
AcDbDictionary
280
     1
281
     1
  3
ACAD_XREC_ROUNDTRIP
360
1A2
  0
DICTIONARY
  5
1A5
330
3E
100
AcDbDictionary
280
     1
281
     1
  3
ACAD_XREC_ROUNDTRIP
360
1A6
  0
DICTIONARY
  5
189
330
2F
100
AcDbDictionary
280
     1
281
     1
  3
ACAD_XREC_ROUNDTRIP
360
18A
  0
DICTIONARY
  5
18D
330
31
100
AcDbDictionary
280
     1
281
     1
  3
ACAD_XREC_ROUNDTRIP
360
18E
  0
DICTIONARY
  5
18B
330
30
100
AcDbDictionary
280
     1
281
     1
  3
ACAD_XREC_ROUNDTRIP
360
18C
  0
DICTIONARY
  5
18F
330
32
100
AcDbDictionary
280
     1
281
     1
  3
ACAD_XREC_ROUNDTRIP
360
190
  0
DICTIONARY
  5
197
330
36
100
AcDbDictionary
280
     1
281
     1
  3
ACAD_XREC_ROUNDTRIP
360
198
  0
DICTIONARY
  5
19F
330
3A
100
AcDbDictionary
280
     1
281
     1
  3
ACAD_XREC_ROUNDTRIP
360
1A0
  0
DICTIONARY
  5
193
330
34
100
AcDbDictionary
280
     1
281
     1
  3
ACAD_XREC_ROUNDTRIP
360
194
  0
DICTIONARY
  5
195
330
35
100
AcDbDictionary
280
     1
281
     1
  3
ACAD_XREC_ROUNDTRIP
360
196
  0
DICTIONARY
  5
19D
330
39
100
AcDbDictionary
280
     1
281
     1
  3
ACAD_XREC_ROUNDTRIP
360
19E
  0
DICTIONARY
  5
181
330
2B
100
AcDbDictionary
280
     1
281
     1
  3
ACAD_XREC_ROUNDTRIP
360
182
  0
DICTIONARY
  5
183
330
2C
100
AcDbDictionary
280
     1
281
     1
  3
ACAD_XREC_ROUNDTRIP
360
184
  0
DICTIONARY
  5
185
330
2D
100
AcDbDictionary
280
     1
281
     1
  3
ACAD_XREC_ROUNDTRIP
360
186
  0
DICTIONARY
  5
187
330
2E
100
AcDbDictionary
280
     1
281
     1
  3
ACAD_XREC_ROUNDTRIP
360
188
  0
DICTIONARY
  5
19B
330
38
100
AcDbDictionary
280
     1
281
     1
  3
ACAD_XREC_ROUNDTRIP
360
19C
  0
DICTIONARY
  5
191
330
33
100
AcDbDictionary
280
     1
281
     1
  3
ACAD_XREC_ROUNDTRIP
360
192
  0
DICTIONARY
  5
199
330
37
100
AcDbDictionary
280
     1
281
     1
  3
ACAD_XREC_ROUNDTRIP
360
19A
  0
XRECORD
  5
1A4
102
{ACAD_REACTORS
330
1A3
102
}
330
1A3
100
AcDbXrecord
280
     1
102
MATERIAL
148
0.0
149
0.0
149
0.0
 93
        0
 94
      127
282
     0
 72
     1
 77
     1
171
     1
175
     1
179
     1
273
     0
  0
XRECORD
  5
1A2
102
{ACAD_REACTORS
330
1A1
102
}
330
1A1
100
AcDbXrecord
280
     1
102
MATERIAL
148
0.0
149
0.0
149
0.0
 93
        0
 94
      127
282
     0
 72
     1
 77
     1
171
     1
175
     1
179
     1
273
     0
  0
XRECORD
  5
1A6
102
{ACAD_REACTORS
330
1A5
102
}
330
1A5
100
AcDbXrecord
280
     1
102
MATERIAL
148
0.0
149
0.0
149
0.0
 93
        0
 94
      127
282
     0
 72
     1
 77
     1
171
     1
175
     1
179
     1
273
     0
  0
XRECORD
  5
18A
102
{ACAD_REACTORS
330
189
102
}
330
189
100
AcDbXrecord
280
     1
102
RTVSPropertyOp0
 70
     1
102
RTVSPropertyOp1
 70
     1
102
RTVSPropertyOp2
 70
     1
102
RTVSPropertyOp3
 70
     1
102
RTVSPropertyOp4
 70
     1
102
RTVSPropertyOp5
 70
     1
102
RTVSPropertyOp6
 70
     1
102
RTVSPropertyOp7
 70
     1
102
RTVSPropertyOp8
 70
     1
102
RTVSPropertyOp9
 70
     1
102
RTVSPropertyOp10
 70
     1
102
RTVSPropertyOp11
 70
     1
102
RTVSPropertyOp12
 70
     1
102
RTVSPropertyOp13
 70
     1
102
RTVSPropertyOp14
 70
     1
102
RTVSPropertyOp15
 70
     1
102
RTVSPropertyOp16
 70
     1
102
RTVSPropertyOp17
 70
     1
102
RTVSPropertyOp18
 70
     1
102
RTVSPropertyOp19
 70
     1
102
RTVSPropertyOp20
 70
     1
102
RTVSPropertyOp21
 70
     1
102
RTVSPropertyOp22
 70
     1
102
RTVSPropertyOp23
 70
     1
102
RTVSPropertyOp24
 70
     1
102
RTVSPropertyOp25
 70
     1
102
RTVSPropertyOp26
 70
     1
102
RTVSPropertyOp27
 70
     1
102
RTVSPropertyOp28
 70
     1
102
RTVSPropertyOp29
 70
     1
102
RTVSPropertyOp30
 70
     1
102
RTVSPropertyOp31
 70
     1
102
RTVSPropertyOp32
 70
     1
  0
XRECORD
  5
18E
102
{ACAD_REACTORS
330
18D
102
}
330
18D
100
AcDbXrecord
280
     1
102
RTVSPropertyOp0
 70
     1
102
RTVSPropertyOp1
 70
     1
102
RTVSPropertyOp2
 70
     1
102
RTVSPropertyOp3
 70
     1
102
RTVSPropertyOp4
 70
     1
102
RTVSPropertyOp5
 70
     1
102
RTVSPropertyOp6
 70
     1
102
RTVSPropertyOp7
 70
     1
102
RTVSPropertyOp8
 70
     1
102
RTVSPropertyOp9
 70
     1
102
RTVSPropertyOp10
 70
     1
102
RTVSPropertyOp11
 70
     1
102
RTVSPropertyOp12
 70
     1
102
RTVSPropertyOp13
 70
     1
102
RTVSPropertyOp14
 70
     1
102
RTVSPropertyOp15
 70
     1
102
RTVSPropertyOp16
 70
     1
102
RTVSPropertyOp17
 70
     1
102
RTVSPropertyOp18
 70
     1
102
RTVSPropertyOp19
 70
     1
102
RTVSPropertyOp20
 70
     1
102
RTVSPropertyOp21
 70
     1
102
RTVSPropertyOp22
 70
     1
102
RTVSPropertyOp23
 70
     1
102
RTVSPropertyOp24
 70
     1
102
RTVSPropertyOp25
 70
     1
102
RTVSPropertyOp26
 70
     1
102
RTVSPropertyOp27
 70
     1
102
RTVSPropertyOp28
 70
     1
102
RTVSPropertyOp29
 70
     1
102
RTVSPropertyOp30
 70
     1
102
RTVSPropertyOp31
 70
     1
102
RTVSPropertyOp32
 70
     1
  0
XRECORD
  5
18C
102
{ACAD_REACTORS
330
18B
102
}
330
18B
100
AcDbXrecord
280
     1
102
RTVSPropertyOp0
 70
     1
102
RTVSPropertyOp1
 70
     1
102
RTVSPropertyOp2
 70
     1
102
RTVSPropertyOp3
 70
     1
102
RTVSPropertyOp4
 70
     1
102
RTVSPropertyOp5
 70
     1
102
RTVSPropertyOp6
 70
     1
102
RTVSPropertyOp7
 70
     1
102
RTVSPropertyOp8
 70
     1
102
RTVSPropertyOp9
 70
     1
102
RTVSPropertyOp10
 70
     1
102
RTVSPropertyOp11
 70
     1
102
RTVSPropertyOp12
 70
     1
102
RTVSPropertyOp13
 70
     1
102
RTVSPropertyOp14
 70
     1
102
RTVSPropertyOp15
 70
     1
102
RTVSPropertyOp16
 70
     1
102
RTVSPropertyOp17
 70
     1
102
RTVSPropertyOp18
 70
     1
102
RTVSPropertyOp19
 70
     1
102
RTVSPropertyOp20
 70
     1
102
RTVSPropertyOp21
 70
     1
102
RTVSPropertyOp22
 70
     1
102
RTVSPropertyOp23
 70
     1
102
RTVSPropertyOp24
 70
     1
102
RTVSPropertyOp25
 70
     1
102
RTVSPropertyOp26
 70
     1
102
RTVSPropertyOp27
 70
     1
102
RTVSPropertyOp28
 70
     1
102
RTVSPropertyOp29
 70
     1
102
RTVSPropertyOp30
 70
     1
102
RTVSPropertyOp31
 70
     1
102
RTVSPropertyOp32
 70
     1
  0
XRECORD
  5
190
102
{ACAD_REACTORS
330
18F
102
}
330
18F
100
AcDbXrecord
280
     1
102
RTVSPropertyOp0
 70
     1
102
RTVSPropertyOp1
 70
     1
102
RTVSPropertyOp2
 70
     1
102
RTVSPropertyOp3
 70
     1
102
RTVSPropertyOp4
 70
     1
102
RTVSPropertyOp5
 70
     1
102
RTVSPropertyOp6
 70
     1
102
RTVSPropertyOp7
 70
     1
102
RTVSPropertyOp8
 70
     1
102
RTVSPropertyOp9
 70
     1
102
RTVSPropertyOp10
 70
     1
102
RTVSPropertyOp11
 70
     1
102
RTVSPropertyOp12
 70
     1
102
RTVSPropertyOp13
 70
     1
102
RTVSPropertyOp14
 70
     1
102
RTVSPropertyOp15
 70
     1
102
RTVSPropertyOp16
 70
     1
102
RTVSPropertyOp17
 70
     1
102
RTVSPropertyOp18
 70
     1
102
RTVSPropertyOp19
 70
     1
102
RTVSPropertyOp20
 70
     1
102
RTVSPropertyOp21
 70
     1
102
RTVSPropertyOp22
 70
     1
102
RTVSPropertyOp23
 70
     1
102
RTVSPropertyOp24
 70
     1
102
RTVSPropertyOp25
 70
     1
102
RTVSPropertyOp26
 70
     1
102
RTVSPropertyOp27
 70
     1
102
RTVSPropertyOp28
 70
     1
102
RTVSPropertyOp29
 70
     1
102
RTVSPropertyOp30
 70
     1
102
RTVSPropertyOp31
 70
     1
102
RTVSPropertyOp32
 70
     1
  0
XRECORD
  5
198
102
{ACAD_REACTORS
330
197
102
}
330
197
100
AcDbXrecord
280
     1
102
RTVSPropertyOp0
 70
     1
102
RTVSPropertyOp1
 70
     1
102
RTVSPropertyOp2
 70
     1
102
RTVSPropertyOp3
 70
     1
102
RTVSPropertyOp4
 70
     1
102
RTVSPropertyOp5
 70
     1
102
RTVSPropertyOp6
 70
     1
102
RTVSPropertyOp7
 70
     1
102
RTVSPropertyOp8
 70
     1
102
RTVSPropertyOp9
 70
     1
102
RTVSPropertyOp10
 70
     1
102
RTVSPropertyOp11
 70
     1
102
RTVSPropertyOp12
 70
     1
102
RTVSPropertyOp13
 70
     1
102
RTVSPropertyOp14
 70
     1
102
RTVSPropertyOp15
 70
     1
102
RTVSPropertyOp16
 70
     1
102
RTVSPropertyOp17
 70
     1
102
RTVSPropertyOp18
 70
     1
102
RTVSPropertyOp19
 70
     1
102
RTVSPropertyOp20
 70
     1
102
RTVSPropertyOp21
 70
     1
102
RTVSPropertyOp22
 70
     1
102
RTVSPropertyOp23
 70
     1
102
RTVSPropertyOp24
 70
     1
102
RTVSPropertyOp25
 70
     1
102
RTVSPropertyOp26
 70
     1
102
RTVSPropertyOp27
 70
     1
102
RTVSPropertyOp28
 70
     1
102
RTVSPropertyOp29
 70
     1
102
RTVSPropertyOp30
 70
     1
102
RTVSPropertyOp31
 70
     1
102
RTVSPropertyOp32
 70
     1
  0
XRECORD
  5
1A0
102
{ACAD_REACTORS
330
19F
102
}
330
19F
100
AcDbXrecord
280
     1
102
RTVSPropertyOp0
 70
     1
102
RTVSPropertyOp1
 70
     1
102
RTVSPropertyOp2
 70
     1
102
RTVSPropertyOp3
 70
     1
102
RTVSPropertyOp4
 70
     1
102
RTVSPropertyOp5
 70
     1
102
RTVSPropertyOp6
 70
     1
102
RTVSPropertyOp7
 70
     1
102
RTVSPropertyOp8
 70
     1
102
RTVSPropertyOp9
 70
     1
102
RTVSPropertyOp10
 70
     1
102
RTVSPropertyOp11
 70
     1
102
RTVSPropertyOp12
 70
     1
102
RTVSPropertyOp13
 70
     1
102
RTVSPropertyOp14
 70
     1
102
RTVSPropertyOp15
 70
     1
102
RTVSPropertyOp16
 70
     1
102
RTVSPropertyOp17
 70
     1
102
RTVSPropertyOp18
 70
     1
102
RTVSPropertyOp19
 70
     1
102
RTVSPropertyOp20
 70
     1
102
RTVSPropertyOp21
 70
     1
102
RTVSPropertyOp22
 70
     1
102
RTVSPropertyOp23
 70
     1
102
RTVSPropertyOp24
 70
     1
102
RTVSPropertyOp25
 70
     1
102
RTVSPropertyOp26
 70
     1
102
RTVSPropertyOp27
 70
     1
102
RTVSPropertyOp28
 70
     1
102
RTVSPropertyOp29
 70
     1
102
RTVSPropertyOp30
 70
     1
102
RTVSPropertyOp31
 70
     1
102
RTVSPropertyOp32
 70
     1
  0
XRECORD
  5
194
102
{ACAD_REACTORS
330
193
102
}
330
193
100
AcDbXrecord
280
     1
102
RTVSPropertyOp0
 70
     1
102
RTVSPropertyOp1
 70
     1
102
RTVSPropertyOp2
 70
     1
102
RTVSPropertyOp3
 70
     1
102
RTVSPropertyOp4
 70
     1
102
RTVSPropertyOp5
 70
     1
102
RTVSPropertyOp6
 70
     1
102
RTVSPropertyOp7
 70
     1
102
RTVSPropertyOp8
 70
     1
102
RTVSPropertyOp9
 70
     1
102
RTVSPropertyOp10
 70
     1
102
RTVSPropertyOp11
 70
     1
102
RTVSPropertyOp12
 70
     1
102
RTVSPropertyOp13
 70
     1
102
RTVSPropertyOp14
 70
     1
102
RTVSPropertyOp15
 70
     1
102
RTVSPropertyOp16
 70
     1
102
RTVSPropertyOp17
 70
     1
102
RTVSPropertyOp18
 70
     1
102
RTVSPropertyOp19
 70
     1
102
RTVSPropertyOp20
 70
     1
102
RTVSPropertyOp21
 70
     1
102
RTVSPropertyOp22
 70
     1
102
RTVSPropertyOp23
 70
     1
102
RTVSPropertyOp24
 70
     1
102
RTVSPropertyOp25
 70
     1
102
RTVSPropertyOp26
 70
     1
102
RTVSPropertyOp27
 70
     1
102
RTVSPropertyOp28
 70
     1
102
RTVSPropertyOp29
 70
     1
102
RTVSPropertyOp30
 70
     1
102
RTVSPropertyOp31
 70
     1
102
RTVSPropertyOp32
 70
     1
  0
XRECORD
  5
196
102
{ACAD_REACTORS
330
195
102
}
330
195
100
AcDbXrecord
280
     1
102
RTVSPropertyOp0
 70
     1
102
RTVSPropertyOp1
 70
     1
102
RTVSPropertyOp2
 70
     1
102
RTVSPropertyOp3
 70
     1
102
RTVSPropertyOp4
 70
     1
102
RTVSPropertyOp5
 70
     1
102
RTVSPropertyOp6
 70
     1
102
RTVSPropertyOp7
 70
     1
102
RTVSPropertyOp8
 70
     1
102
RTVSPropertyOp9
 70
     1
102
RTVSPropertyOp10
 70
     1
102
RTVSPropertyOp11
 70
     1
102
RTVSPropertyOp12
 70
     1
102
RTVSPropertyOp13
 70
     1
102
RTVSPropertyOp14
 70
     1
102
RTVSPropertyOp15
 70
     1
102
RTVSPropertyOp16
 70
     1
102
RTVSPropertyOp17
 70
     1
102
RTVSPropertyOp18
 70
     1
102
RTVSPropertyOp19
 70
     1
102
RTVSPropertyOp20
 70
     1
102
RTVSPropertyOp21
 70
     1
102
RTVSPropertyOp22
 70
     1
102
RTVSPropertyOp23
 70
     1
102
RTVSPropertyOp24
 70
     1
102
RTVSPropertyOp25
 70
     1
102
RTVSPropertyOp26
 70
     1
102
RTVSPropertyOp27
 70
     1
102
RTVSPropertyOp28
 70
     1
102
RTVSPropertyOp29
 70
     1
102
RTVSPropertyOp30
 70
     1
102
RTVSPropertyOp31
 70
     1
102
RTVSPropertyOp32
 70
     1
  0
XRECORD
  5
19E
102
{ACAD_REACTORS
330
19D
102
}
330
19D
100
AcDbXrecord
280
     1
102
RTVSPropertyOp0
 70
     1
102
RTVSPropertyOp1
 70
     1
102
RTVSPropertyOp2
 70
     1
102
RTVSPropertyOp3
 70
     1
102
RTVSPropertyOp4
 70
     1
102
RTVSPropertyOp5
 70
     1
102
RTVSPropertyOp6
 70
     1
102
RTVSPropertyOp7
 70
     1
102
RTVSPropertyOp8
 70
     1
102
RTVSPropertyOp9
 70
     1
102
RTVSPropertyOp10
 70
     1
102
RTVSPropertyOp11
 70
     1
102
RTVSPropertyOp12
 70
     1
102
RTVSPropertyOp13
 70
     1
102
RTVSPropertyOp14
 70
     1
102
RTVSPropertyOp15
 70
     1
102
RTVSPropertyOp16
 70
     1
102
RTVSPropertyOp17
 70
     1
102
RTVSPropertyOp18
 70
     1
102
RTVSPropertyOp19
 70
     1
102
RTVSPropertyOp20
 70
     1
102
RTVSPropertyOp21
 70
     1
102
RTVSPropertyOp22
 70
     1
102
RTVSPropertyOp23
 70
     1
102
RTVSPropertyOp24
 70
     1
102
RTVSPropertyOp25
 70
     1
102
RTVSPropertyOp26
 70
     1
102
RTVSPropertyOp27
 70
     1
102
RTVSPropertyOp28
 70
     1
102
RTVSPropertyOp29
 70
     1
102
RTVSPropertyOp30
 70
     1
102
RTVSPropertyOp31
 70
     1
102
RTVSPropertyOp32
 70
     1
  0
XRECORD
  5
182
102
{ACAD_REACTORS
330
181
102
}
330
181
100
AcDbXrecord
280
     1
102
RTVSPropertyOp0
 70
     1
102
RTVSPropertyOp1
 70
     1
102
RTVSPropertyOp2
 70
     1
102
RTVSPropertyOp3
 70
     1
102
RTVSPropertyOp4
 70
     1
102
RTVSPropertyOp5
 70
     1
102
RTVSPropertyOp6
 70
     1
102
RTVSPropertyOp7
 70
     1
102
RTVSPropertyOp8
 70
     1
102
RTVSPropertyOp9
 70
     1
102
RTVSPropertyOp10
 70
     1
102
RTVSPropertyOp11
 70
     1
102
RTVSPropertyOp12
 70
     1
102
RTVSPropertyOp13
 70
     1
102
RTVSPropertyOp14
 70
     1
102
RTVSPropertyOp15
 70
     1
102
RTVSPropertyOp16
 70
     1
102
RTVSPropertyOp17
 70
     1
102
RTVSPropertyOp18
 70
     1
102
RTVSPropertyOp19
 70
     1
102
RTVSPropertyOp20
 70
     1
102
RTVSPropertyOp21
 70
     1
102
RTVSPropertyOp22
 70
     1
102
RTVSPropertyOp23
 70
     1
102
RTVSPropertyOp24
 70
     1
102
RTVSPropertyOp25
 70
     1
102
RTVSPropertyOp26
 70
     1
102
RTVSPropertyOp27
 70
     1
102
RTVSPropertyOp28
 70
     1
102
RTVSPropertyOp29
 70
     1
102
RTVSPropertyOp30
 70
     1
102
RTVSPropertyOp31
 70
     1
102
RTVSPropertyOp32
 70
     1
  0
XRECORD
  5
184
102
{ACAD_REACTORS
330
183
102
}
330
183
100
AcDbXrecord
280
     1
102
RTVSPropertyOp0
 70
     1
102
RTVSPropertyOp1
 70
     1
102
RTVSPropertyOp2
 70
     1
102
RTVSPropertyOp3
 70
     1
102
RTVSPropertyOp4
 70
     1
102
RTVSPropertyOp5
 70
     1
102
RTVSPropertyOp6
 70
     1
102
RTVSPropertyOp7
 70
     1
102
RTVSPropertyOp8
 70
     1
102
RTVSPropertyOp9
 70
     1
102
RTVSPropertyOp10
 70
     1
102
RTVSPropertyOp11
 70
     1
102
RTVSPropertyOp12
 70
     1
102
RTVSPropertyOp13
 70
     1
102
RTVSPropertyOp14
 70
     1
102
RTVSPropertyOp15
 70
     1
102
RTVSPropertyOp16
 70
     1
102
RTVSPropertyOp17
 70
     1
102
RTVSPropertyOp18
 70
     1
102
RTVSPropertyOp19
 70
     1
102
RTVSPropertyOp20
 70
     1
102
RTVSPropertyOp21
 70
     1
102
RTVSPropertyOp22
 70
     1
102
RTVSPropertyOp23
 70
     1
102
RTVSPropertyOp24
 70
     1
102
RTVSPropertyOp25
 70
     1
102
RTVSPropertyOp26
 70
     1
102
RTVSPropertyOp27
 70
     1
102
RTVSPropertyOp28
 70
     1
102
RTVSPropertyOp29
 70
     1
102
RTVSPropertyOp30
 70
     1
102
RTVSPropertyOp31
 70
     1
102
RTVSPropertyOp32
 70
     1
  0
XRECORD
  5
186
102
{ACAD_REACTORS
330
185
102
}
330
185
100
AcDbXrecord
280
     1
102
RTVSPropertyOp0
 70
     1
102
RTVSPropertyOp1
 70
     1
102
RTVSPropertyOp2
 70
     1
102
RTVSPropertyOp3
 70
     1
102
RTVSPropertyOp4
 70
     1
102
RTVSPropertyOp5
 70
     1
102
RTVSPropertyOp6
 70
     1
102
RTVSPropertyOp7
 70
     1
102
RTVSPropertyOp8
 70
     1
102
RTVSPropertyOp9
 70
     1
102
RTVSPropertyOp10
 70
     1
102
RTVSPropertyOp11
 70
     1
102
RTVSPropertyOp12
 70
     1
102
RTVSPropertyOp13
 70
     1
102
RTVSPropertyOp14
 70
     1
102
RTVSPropertyOp15
 70
     1
102
RTVSPropertyOp16
 70
     1
102
RTVSPropertyOp17
 70
     1
102
RTVSPropertyOp18
 70
     1
102
RTVSPropertyOp19
 70
     1
102
RTVSPropertyOp20
 70
     1
102
RTVSPropertyOp21
 70
     1
102
RTVSPropertyOp22
 70
     1
102
RTVSPropertyOp23
 70
     1
102
RTVSPropertyOp24
 70
     1
102
RTVSPropertyOp25
 70
     1
102
RTVSPropertyOp26
 70
     1
102
RTVSPropertyOp27
 70
     1
102
RTVSPropertyOp28
 70
     1
102
RTVSPropertyOp29
 70
     1
102
RTVSPropertyOp30
 70
     1
102
RTVSPropertyOp31
 70
     1
102
RTVSPropertyOp32
 70
     1
  0
XRECORD
  5
188
102
{ACAD_REACTORS
330
187
102
}
330
187
100
AcDbXrecord
280
     1
102
RTVSPropertyOp0
 70
     1
102
RTVSPropertyOp1
 70
     1
102
RTVSPropertyOp2
 70
     1
102
RTVSPropertyOp3
 70
     1
102
RTVSPropertyOp4
 70
     1
102
RTVSPropertyOp5
 70
     1
102
RTVSPropertyOp6
 70
     1
102
RTVSPropertyOp7
 70
     1
102
RTVSPropertyOp8
 70
     1
102
RTVSPropertyOp9
 70
     1
102
RTVSPropertyOp10
 70
     1
102
RTVSPropertyOp11
 70
     1
102
RTVSPropertyOp12
 70
     1
102
RTVSPropertyOp13
 70
     1
102
RTVSPropertyOp14
 70
     1
102
RTVSPropertyOp15
 70
     1
102
RTVSPropertyOp16
 70
     1
102
RTVSPropertyOp17
 70
     1
102
RTVSPropertyOp18
 70
     1
102
RTVSPropertyOp19
 70
     1
102
RTVSPropertyOp20
 70
     1
102
RTVSPropertyOp21
 70
     1
102
RTVSPropertyOp22
 70
     1
102
RTVSPropertyOp23
 70
     1
102
RTVSPropertyOp24
 70
     1
102
RTVSPropertyOp25
 70
     1
102
RTVSPropertyOp26
 70
     1
102
RTVSPropertyOp27
 70
     1
102
RTVSPropertyOp28
 70
     1
102
RTVSPropertyOp29
 70
     1
102
RTVSPropertyOp30
 70
     1
102
RTVSPropertyOp31
 70
     1
102
RTVSPropertyOp32
 70
     1
  0
XRECORD
  5
19C
102
{ACAD_REACTORS
330
19B
102
}
330
19B
100
AcDbXrecord
280
     1
102
RTVSPropertyOp0
 70
     1
102
RTVSPropertyOp1
 70
     1
102
RTVSPropertyOp2
 70
     1
102
RTVSPropertyOp3
 70
     1
102
RTVSPropertyOp4
 70
     1
102
RTVSPropertyOp5
 70
     1
102
RTVSPropertyOp6
 70
     1
102
RTVSPropertyOp7
 70
     1
102
RTVSPropertyOp8
 70
     1
102
RTVSPropertyOp9
 70
     1
102
RTVSPropertyOp10
 70
     1
102
RTVSPropertyOp11
 70
     1
102
RTVSPropertyOp12
 70
     1
102
RTVSPropertyOp13
 70
     1
102
RTVSPropertyOp14
 70
     1
102
RTVSPropertyOp15
 70
     1
102
RTVSPropertyOp16
 70
     1
102
RTVSPropertyOp17
 70
     1
102
RTVSPropertyOp18
 70
     1
102
RTVSPropertyOp19
 70
     1
102
RTVSPropertyOp20
 70
     1
102
RTVSPropertyOp21
 70
     1
102
RTVSPropertyOp22
 70
     1
102
RTVSPropertyOp23
 70
     1
102
RTVSPropertyOp24
 70
     1
102
RTVSPropertyOp25
 70
     1
102
RTVSPropertyOp26
 70
     1
102
RTVSPropertyOp27
 70
     1
102
RTVSPropertyOp28
 70
     1
102
RTVSPropertyOp29
 70
     1
102
RTVSPropertyOp30
 70
     1
102
RTVSPropertyOp31
 70
     1
102
RTVSPropertyOp32
 70
     1
  0
XRECORD
  5
192
102
{ACAD_REACTORS
330
191
102
}
330
191
100
AcDbXrecord
280
     1
102
RTVSPropertyOp0
 70
     1
102
RTVSPropertyOp1
 70
     1
102
RTVSPropertyOp2
 70
     1
102
RTVSPropertyOp3
 70
     1
102
RTVSPropertyOp4
 70
     1
102
RTVSPropertyOp5
 70
     1
102
RTVSPropertyOp6
 70
     1
102
RTVSPropertyOp7
 70
     1
102
RTVSPropertyOp8
 70
     1
102
RTVSPropertyOp9
 70
     1
102
RTVSPropertyOp10
 70
     1
102
RTVSPropertyOp11
 70
     1
102
RTVSPropertyOp12
 70
     1
102
RTVSPropertyOp13
 70
     1
102
RTVSPropertyOp14
 70
     1
102
RTVSPropertyOp15
 70
     1
102
RTVSPropertyOp16
 70
     1
102
RTVSPropertyOp17
 70
     1
102
RTVSPropertyOp18
 70
     1
102
RTVSPropertyOp19
 70
     1
102
RTVSPropertyOp20
 70
     1
102
RTVSPropertyOp21
 70
     1
102
RTVSPropertyOp22
 70
     1
102
RTVSPropertyOp23
 70
     1
102
RTVSPropertyOp24
 70
     1
102
RTVSPropertyOp25
 70
     1
102
RTVSPropertyOp26
 70
     1
102
RTVSPropertyOp27
 70
     1
102
RTVSPropertyOp28
 70
     1
102
RTVSPropertyOp29
 70
     1
102
RTVSPropertyOp30
 70
     1
102
RTVSPropertyOp31
 70
     1
102
RTVSPropertyOp32
 70
     1
  0
XRECORD
  5
19A
102
{ACAD_REACTORS
330
199
102
}
330
199
100
AcDbXrecord
280
     1
102
RTVSPropertyOp0
 70
     1
102
RTVSPropertyOp1
 70
     1
102
RTVSPropertyOp2
 70
     1
102
RTVSPropertyOp3
 70
     1
102
RTVSPropertyOp4
 70
     1
102
RTVSPropertyOp5
 70
     1
102
RTVSPropertyOp6
 70
     1
102
RTVSPropertyOp7
 70
     1
102
RTVSPropertyOp8
 70
     1
102
RTVSPropertyOp9
 70
     1
102
RTVSPropertyOp10
 70
     1
102
RTVSPropertyOp11
 70
     1
102
RTVSPropertyOp12
 70
     1
102
RTVSPropertyOp13
 70
     1
102
RTVSPropertyOp14
 70
     1
102
RTVSPropertyOp15
 70
     1
102
RTVSPropertyOp16
 70
     1
102
RTVSPropertyOp17
 70
     1
102
RTVSPropertyOp18
 70
     1
102
RTVSPropertyOp19
 70
     1
102
RTVSPropertyOp20
 70
     1
102
RTVSPropertyOp21
 70
     1
102
RTVSPropertyOp22
 70
     1
102
RTVSPropertyOp23
 70
     1
102
RTVSPropertyOp24
 70
     1
102
RTVSPropertyOp25
 70
     1
102
RTVSPropertyOp26
 70
     1
102
RTVSPropertyOp27
 70
     1
102
RTVSPropertyOp28
 70
     1
102
RTVSPropertyOp29
 70
     1
102
RTVSPropertyOp30
 70
     1
102
RTVSPropertyOp31
 70
     1
102
RTVSPropertyOp32
 70
     1
  0
ENDSEC
  0
EOF
