0
SECTION
2
HEADER
9
$INSUNITS
70
4
9
$ACADVER
1
AC1014
9
$HANDSEED
5
FFFF
0
ENDSEC
0
SECTION
2
TABLES
0
TABLE
2
VPORT
5
8
100
AcDbSymbolTable
0
ENDTAB
0
TABLE
2
LTYPE
5
5
100
AcDbSymbolTable
0
LTYPE
5
14
100
AcDbSymbolTableRecord
100
AcDbLinetypeTableRecord
2
BYBLOCK
70
0
0
LTYPE
5
15
100
AcDbSymbolTableRecord
100
AcDbLinetypeTableRecord
2
BYLAYER
70
0
0
ENDTAB
0
TABLE
2
LAYER
5
2
100
AcDbSymbolTable
70
2
0
LAYER
5
50
100
AcDbSymbolTableRecord
100
AcDbLayerTableRecord
2
0
70
0
6
CONTINUOUS
0
ENDTAB
0
TABLE
2
STYLE
5
3
100
AcDbSymbolTable
70
1
0
STYLE
5
11
100
AcDbSymbolTableRecord
100
AcDbTextStyleTableRecord
2
STANDARD
70
0
0
ENDTAB
0
TABLE
2
VIEW
5
6
100
AcDbSymbolTable
70
0
0
ENDTAB
0
TABLE
2
UCS
5
7
100
AcDbSymbolTable
70
0
0
ENDTAB
0
TABLE
2
APPID
5
9
100
AcDbSymbolTable
70
2
0
APPID
5
12
100
AcDbSymbolTableRecord
100
AcDbRegAppTableRecord
2
ACAD
70
0
0
ENDTAB
0
TABLE
2
DIMSTYLE
5
A
100
AcDbSymbolTable
70
1
0
ENDTAB
0
TABLE
2
BLOCK_RECORD
5
1
100
AcDbSymbolTable
70
1
0
BLOCK_RECORD
5
1F
100
AcDbSymbolTableRecord
100
AcDbBlockTableRecord
2
*MODEL_SPACE
0
BLOCK_RECORD
5
1B
100
AcDbSymbolTableRecord
100
AcDbBlockTableRecord
2
*PAPER_SPACE
0
ENDTAB
0
ENDSEC
0
SECTION
2
BLOCKS
0
BLOCK
5
20
100
AcDbEntity
100
AcDbBlockBegin
2
*MODEL_SPACE
0
ENDBLK
5
21
100
AcDbEntity
100
AcDbBlockEnd
0
BLOCK
5
1C
100
AcDbEntity
100
AcDbBlockBegin
2
*PAPER_SPACE
0
ENDBLK
5
1D
100
AcDbEntity
100
AcDbBlockEnd
0
ENDSEC
0
SECTION
2
ENTITIES
0
LWPOLYLINE
5
100
100
AcDbEntity
8
0
100
AcDbPolyline
90
12
70
1
43
0.0
10
-807.40879403012309
20
-4.4408920985006262e-15
10
-62.241698891836208
20
4.4408920985006262e-15
42
0.63768942310285937
10
-50.768030920080434
20
24.662036186741663
10
-152.74983609445471
20
145.76542983131111
42
0.2212327757546928
10
-183.34628401913659
20
160
10
-207.4943272589644
20
159.99999999999997
42
0.1612460452648152
10
-231.36545400914918
20
152.09625067942682
42
-0.54265637387982735
10
-663.38626861081013
20
312.19718264865503
42
0.35072175611403317
10
-673.14190228620237
20
319.99999999999994
10
-688.62340669540936
20
319.99999999999994
42
0.30175757794216712
10
-697.83976044679002
20
313.88057000058143
10
-821.23332465719409
20
20.820855000871745
42
0.53638437285815443
0
LINE
5
101
100
AcDbEntity
8
0
100
AcDbLine
10
-807.40879403012309
20
-4.4408920985006262e-15
30
0
11
-670.00000044703484
21
0
31
0
0
LINE
5
102
100
AcDbEntity
8
0
100
AcDbLine
10
-190.00000044703484
20
160
30
0
11
-183.34628401913659
21
160
31
0
0
LWPOLYLINE
5
103
100
AcDbEntity
8
0
100
AcDbPolyline
90
12
70
1
43
0.0
10
-821.23332465719409
20
20.820855000871745
10
-697.83976044679002
20
313.88057000058143
42
-0.30175757794216712
10
-688.62340669540936
20
319.99999999999994
10
-673.14190228620237
20
319.99999999999989
42
-0.35072175611403317
10
-663.38626861081013
20
312.19718264865503
42
0.54265637387982735
10
-231.36545400914923
20
152.09625067942684
42
-0.16124604526481523
10
-207.4943272589644
20
159.99999999999997
10
-183.34628401913659
20
160
42
-0.22123277575469277
10
-152.74983609445471
20
145.76542983131111
10
-50.768030920080434
20
24.662036186741666
42
-0.63768942310285937
10
-62.241698891836279
20
5.5511151231257827e-15
10
-807.40879403012309
20
-4.4408920985006262e-15
42
-0.53638437285815443
0
LINE
5
104
100
AcDbEntity
8
0
100
AcDbLine
10
-190.00000044703484
20
160
30
0
11
-183.34628401913659
21
160
31
0
0
LINE
5
105
100
AcDbEntity
8
0
100
AcDbLine
10
-807.40879403012309
20
-4.4408920985006262e-15
30
0
11
-670.00000044703484
21
0
31
0
0
LINE
5
106
100
AcDbEntity
8
0
100
AcDbLine
10
-36.522930698684902
20
1350
30
0
11
-1179.8867756344398
21
1350
31
0
0
LINE
5
107
100
AcDbEntity
8
0
100
AcDbLine
10
-1179.8867756344398
20
1350
30
0
11
-800
21
1350
31
0
0
LINE
5
108
100
AcDbEntity
8
0
100
AcDbLine
10
-800
20
1350
30
0
11
-800
21
610
31
0
0
LINE
5
109
100
AcDbEntity
8
0
100
AcDbLine
10
-777.77049798378562
20
630.56228936499826
30
0
11
-27.865459221117739
21
1324.2244502204658
31
0
0
LINE
5
110
100
AcDbEntity
8
0
100
AcDbLine
10
-1186.6240974527464
20
1325.2545802875804
30
0
11
-816.17518614738276
21
639.92409437265815
31
0
0
LINE
5
111
100
AcDbEntity
8
0
100
AcDbLine
10
-800
20
1350
30
0
11
-800
21
1550
31
0
0
ARC
5
112
100
AcDbEntity
8
0
100
AcDbCircle
10
-755.72701149238856
20
961.45402298477688
30
0
40
590.208831323455
100
AcDbArc
50
94.301935516167021
51
130.06220371140026
0
ARC
5
113
100
AcDbEntity
8
0
100
AcDbCircle
10
-19.245341008445962
20
1510.1376535089471
30
0
40
1191.5643636839818
100
AcDbArc
50
191.73120664946464
51
224.53011694286025
0
ARC
5
114
100
AcDbEntity
8
0
100
AcDbCircle
10
-1118.9772727272727
20
1757.2727272727275
30
0
40
1190.7901625644761
100
AcDbArc
50
290.07314784737127
51
335.53685351017634
0
ARC
5
115
100
AcDbEntity
8
0
100
AcDbCircle
10
-731.71545737698125
20
123.13817049207529
30
0
40
1428.494822975546
100
AcDbArc
50
62.879810944396027
51
92.739882253890968
0
ARC
5
116
100
AcDbEntity
8
0
100
AcDbCircle
10
-1039.0537327221832
20
1298.3661542776915
30
0
40
150.00000000000222
100
AcDbArc
50
130.06220371140091
51
191.73120664946424
0
ARC
5
117
100
AcDbEntity
8
0
100
AcDbCircle
10
-126.10972144361534
20
1305.5679516112039
30
0
40
100.00000000000135
100
AcDbArc
50
-24.463146489822954
51
62.879810944395629
0
ARC
5
118
100
AcDbEntity
8
0
100
AcDbCircle
10
-761.75774941706197
20
779.7051466640969
30
0
40
150.00000000000125
100
AcDbArc
50
224.53011694286062
51
290.07314784737099
0
LINE
5
119
100
AcDbEntity
8
0
100
AcDbLine
10
-300
20
1350
30
0
11
-850.57457968980589
21
840.71851378692952
31
0
0
LINE
5
120
100
AcDbEntity
8
0
100
AcDbLine
10
-850.57457968980589
20
840.71851378692952
30
0
11
-842.42607591039678
21
831.9093205118927
31
0
0
LINE
5
121
100
AcDbEntity
8
0
100
AcDbLine
10
-842.42607591039678
20
831.9093205118927
30
0
11
-291.85149622059106
21
1341.1908067249628
31
0
0
LINE
5
122
100
AcDbEntity
8
0
100
AcDbLine
10
-291.85149622059106
20
1341.1908067249628
30
0
11
-300
21
1350
31
0
0
LINE
5
123
100
AcDbEntity
8
0
100
AcDbLine
10
-291.85149622059106
20
1341.1908067249628
30
0
11
-385.08212504806647
21
1254.9524750595515
31
0
0
LINE
5
124
100
AcDbEntity
8
0
100
AcDbLine
10
-385.08212504806647
20
1254.9524750595515
30
0
11
-258.08212504806647
21
1254.9524750595515
31
0
0
LINE
5
125
100
AcDbEntity
8
0
100
AcDbLine
10
-258.08212504806647
20
1254.9524750595515
30
0
11
-258.08212504806647
21
1266.9524750595515
31
0
0
LINE
5
126
100
AcDbEntity
8
0
100
AcDbLine
10
-258.08212504806647
20
1266.9524750595515
30
0
11
-1008.0821250480664
21
1266.9524750595515
31
0
0
LINE
5
127
100
AcDbEntity
8
0
100
AcDbLine
10
-1008.0821250480664
20
1266.9524750595515
30
0
11
-1008.0821250480664
21
1254.9524750595515
31
0
0
LINE
5
128
100
AcDbEntity
8
0
100
AcDbLine
10
-1008.0821250480664
20
1254.9524750595515
30
0
11
-385.08212504806647
21
1254.9524750595515
31
0
0
LINE
5
129
100
AcDbEntity
8
0
100
AcDbLine
10
-850.57457968980589
20
840.71851378692952
30
0
11
-749.63590674667648
21
934.08678625932748
31
0
0
LINE
5
130
100
AcDbEntity
8
0
100
AcDbLine
10
-747.3601984839587
20
919.84525713135145
30
0
11
-735.61460745057616
21
930.70992883723011
31
0
0
ARC
5
131
100
AcDbEntity
8
0
100
AcDbCircle
10
-739.68885934027981
20
935.11452547474755
30
0
40
5.9999999999987041
100
AcDbArc
50
-47.231174608031189
51
132.76882539196808
0
LINE
5
132
100
AcDbEntity
8
0
100
AcDbLine
10
-743.76311122998345
20
939.51912211226511
30
0
11
-755.50870226336599
21
928.65445040638645
31
0
0
ARC
5
133
100
AcDbEntity
8
0
100
AcDbCircle
10
-751.43445037366234
20
924.24985376886889
30
0
40
5.9999999999987041
100
AcDbArc
50
132.76882539196808
51
312.76882539196879
0
LWPOLYLINE
5
134
100
AcDbEntity
8
0
100
AcDbPolyline
90
4
70
1
43
0.0
10
-1200
20
600
10
0
20
600
10
0
20
1800
10
-1200
20
1800
0
LWPOLYLINE
5
135
100
AcDbEntity
8
0
100
AcDbPolyline
90
12
70
1
43
0.0
10
-231.36545400914918
20
-197.90374932057318
42
-0.54265637387982735
10
-663.38626861081013
20
-37.802817351344977
42
0.35072175611403317
10
-673.14190228620237
20
-30.000000000000036
10
-688.62340669540936
20
-30.000000000000036
42
0.30175757794216712
10
-697.83976044679002
20
-36.119429999418564
10
-821.23332465719409
20
-329.17914499912825
42
0.53638437285815521
10
-807.40879403012309
20
-350
10
-62.241698891836208
20
-350
42
0.6376894231028587
10
-50.768030920080434
20
-325.33796381325834
10
-152.74983609445471
20
-204.23457016868889
42
0.2212327757546928
10
-183.34628401913659
20
-190
10
-207.4943272589644
20
-190.00000000000003
42
0.16124604526481531
0
LWPOLYLINE
5
136
100
AcDbEntity
8
0
100
AcDbPolyline
90
12
70
1
43
0.0
10
-821.23332465719409
20
-329.17914499912825
10
-697.83976044679002
20
-36.119429999418571
42
-0.30175757794216712
10
-688.62340669540936
20
-30.000000000000036
10
-673.14190228620237
20
-30.000000000000114
42
-0.35072175611403317
10
-663.38626861081013
20
-37.80281735134497
42
0.54265637387982735
10
-231.36545400914926
20
-197.90374932057316
42
-0.16124604526481534
10
-207.4943272589644
20
-190.00000000000003
10
-183.34628401913659
20
-190
42
-0.22123277575469277
10
-152.74983609445471
20
-204.23457016868889
10
-50.768030920080406
20
-325.33796381325828
42
-0.6376894231028587
10
-62.241698891836279
20
-350
10
-807.40879403012309
20
-350
42
-0.53638437285815521
0
LINE
5
137
100
AcDbEntity
8
0
100
AcDbLine
10
-190.00000044703484
20
-190
30
0
11
-183.34628401913659
21
-190
31
0
0
LINE
5
138
100
AcDbEntity
8
0
100
AcDbLine
10
-807.40879403012309
20
-350
30
0
11
-670.00000044703484
21
-350
31
0
0
LINE
5
139
100
AcDbEntity
8
0
100
AcDbLine
10
-807.40879403012309
20
-350
30
0
11
-670.00000044703484
21
-350
31
0
0
LINE
5
140
100
AcDbEntity
8
0
100
AcDbLine
10
-190.00000044703484
20
-190
30
0
11
-183.34628401913659
21
-190
31
0
0
LWPOLYLINE
5
141
100
AcDbEntity
8
0
100
AcDbPolyline
90
4
70
1
43
0.0
10
-1200
20
500
10
0
20
500
10
0
20
-700
10
-1200
20
-700
0
LWPOLYLINE
5
142
100
AcDbEntity
8
0
100
AcDbPolyline
90
7
70
1
43
0.0
10
-1166.338320737344
20
1271.9344752956181
42
-0.2757698430769277
10
-1122.7241889670997
20
1397.8611529045986
42
-0.15719047961584826
10
-798.77024116928283
20
1530.0359359034371
42
-0.13098193633315305
10
-89.641036705983964
20
1376.7721300946848
42
-0.40069520309093759
10
-53.291495877706438
20
1272.4393231241597
42
-0.201016568807074
10
-717.13920890750887
20
657.60196962599616
42
-0.29404591850630685
10
-854.43239964386953
20
688.53821622690793
42
-0.14409734786462933
0
LWPOLYLINE
5
143
100
AcDbEntity
8
0
100
AcDbPolyline
90
7
70
1
43
0.0
10
-53.291495877706438
20
1272.4393231241597
42
-0.201016568807074
10
-717.13920890750887
20
657.60196962599616
42
-0.29404591850630685
10
-854.43239964386953
20
688.53821622690793
42
-0.14409734786462933
10
-1166.338320737344
20
1271.9344752956181
42
-0.2757698430769277
10
-1122.7241889670997
20
1397.8611529045986
42
-0.15719047961584826
10
-798.77024116928283
20
1530.0359359034371
42
-0.13098193633315305
10
-89.641036705983964
20
1376.7721300946848
42
-0.40069520309093759
0
ARC
5
144
100
AcDbEntity
8
0
100
AcDbCircle
10
-3064.4208600902848
20
742.14710789382252
30
0
40
1170.7901625644761
100
AcDbArc
50
10.073147847371201
51
55.536853510176321
0
ARC
5
145
100
AcDbEntity
8
0
100
AcDbCircle
10
-2447.1688540011414
20
1641.4930589751411
30
0
40
80.000000000000938
100
AcDbArc
50
55.536853510177401
51
142.87981094439559
0
ARC
5
146
100
AcDbEntity
8
0
100
AcDbCircle
10
-1387.8651705919649
20
839.76105824885485
30
0
40
1408.4948229755464
100
AcDbArc
50
142.87981094439604
51
172.72873481923122
0
ARC
5
147
100
AcDbEntity
8
0
100
AcDbCircle
10
-2217.6146842149074
20
961.68631368878664
30
0
40
570.20883132345557
100
AcDbArc
50
168.95211207617876
51
210.06220750875318
0
ARC
5
148
100
AcDbEntity
8
0
100
AcDbCircle
10
-2598.607532021937
20
741.16813961905166
30
0
40
130.00000000000819
100
AcDbArc
50
210.06222036743279
51
272.57401902632324
0
ARC
5
149
100
AcDbEntity
8
0
100
AcDbCircle
10
-2630.0738775413629
20
1782.2570852889526
30
0
40
1171.5643636839818
100
AcDbArc
50
271.73120664946464
51
304.53011694286027
0
ARC
5
150
100
AcDbEntity
8
0
100
AcDbCircle
10
-2039.6742083636511
20
924.18683505808474
30
0
40
130.00000000000153
100
AcDbArc
50
-55.469883057139235
51
10.073147847370727
0
ARC
5
151
100
AcDbEntity
8
0
100
AcDbCircle
10
-2188.890346962226
20
972.90700452889325
30
0
40
5.9999999999987041
100
AcDbArc
50
32.7688253919681
51
212.76882539197027
0
ARC
5
152
100
AcDbEntity
8
0
100
AcDbCircle
10
-2180.2303345109121
20
959.45322497283223
30
0
40
5.9999999999987041
100
AcDbArc
50
-147.2311746080297
51
32.768825391963915
0
LWPOLYLINE
5
153
100
AcDbEntity
8
0
100
AcDbPolyline
90
5
70
1
43
0.0
10
-2442.2924262226043
20
1377.6657428243334
10
-2550.475240909102
20
764.13051269772836
10
-2562.292933945248
20
766.21429082973179
10
-2432.0568006950507
20
1504.8201055888871
10
-2420.2391076589042
20
1502.7363274568843
0
ENDSEC
0
SECTION
2
OBJECTS
0
DICTIONARY
5
C
100
AcDbDictionary
3
ACAD_GROUP
350
D
3
ACAD_MLINESTYLE
350
17
0
DICTIONARY
5
D
100
AcDbDictionary
0
DICTIONARY
5
1A
330
C
100
AcDbDictionary
0
DICTIONARY
5
17
100
AcDbDictionary
0
ENDSEC
0
EOF
