999
dxfrw 0.6.3
  0
SECTION
  2
HEADER
  9
$ACADVER
  1
AC1021
  9
$DWGCODEPAGE
  3
ANSI_1252
  9
$INSBASE
 10
0
 20
0
 30
0
  9
$EXTMIN
 10
-60
 20
-260.0000000000001
 30
0
  9
$EXTMAX
 10
1000
 20
110
 30
0
  9
$LIMMIN
 10
0
 20
0
  9
$LIMMAX
 10
420
 20
297
  9
$ORTHOMODE
 70
    0
  9
$REGENMODE
 70
    1
  9
$FILLMODE
 70
    1
  9
$QTEXTMODE
 70
    0
  9
$MIRRTEXT
 70
    0
  9
$LTSCALE
 40
1
  9
$ATTMODE
 70
    0
  9
$TEXTSIZE
 40
2.5
  9
$TRACEWID
 40
15.68
  9
$TEXTSTYLE
  7
STANDARD
  9
$CLAYER
  8
boundary
  9
$CELTYPE
  6
BYLAYER
  9
$CECOLOR
 62
  256
  9
$CELTSCALE
 40
1
  9
$DISPSILH
 70
    0
  9
$DIMSCALE
 40
1
  9
$DIMASZ
 40
2.5
  9
$DIMEXO
 40
0.625
  9
$DIMDLI
 40
3.75
  9
$DIMRND
 40
0
  9
$DIMDLE
 40
0
  9
$DIMEXE
 40
1.25
  9
$DIMTP
 40
0
  9
$DIMTM
 40
0
  9
$DIMTXT
 40
2.5
  9
$DIMCEN
 40
2.5
  9
$DIMTSZ
 40
0
  9
$DIMTOL
 70
    0
  9
$DIMLIM
 70
    0
  9
$DIMTIH
 70
    0
  9
$DIMTOH
 70
    0
  9
$DIMSE1
 70
    0
  9
$DIMSE2
 70
    0
  9
$DIMTAD
 70
    1
  9
$DIMZIN
 70
    8
  9
$DIMBLK
  1

  9
$DIMASO
 70
    1
  9
$DIMSHO
 70
    1
  9
$DIMPOST
  1

  9
$DIMAPOST
  1

  9
$DIMALT
 70
    0
  9
$DIMALTD
 70
    3
  9
$DIMALTF
 40
0.03937
  9
$DIMLFAC
 40
1
  9
$DIMTOFL
 70
    1
  9
$DIMTVP
 40
0
  9
$DIMTIX
 70
    0
  9
$DIMSOXD
 70
    0
  9
$DIMSAH
 70
    0
  9
$DIMBLK1
  1

  9
$DIMBLK2
  1

  9
$DIMSTYLE
  2
STANDARD
  9
$DIMCLRD
 70
    0
  9
$DIMCLRE
 70
    0
  9
$DIMCLRT
 70
    0
  9
$DIMTFAC
 40
1
  9
$DIMGAP
 40
0.625
  9
$DIMJUST
 70
    0
  9
$DIMSD1
 70
    0
  9
$DIMSD2
 70
    0
  9
$DIMTOLJ
 70
    0
  9
$DIMTZIN
 70
    8
  9
$DIMALTZ
 70
    0
  9
$DIMALTTZ
 70
    0
  9
$DIMUPT
 70
    0
  9
$DIMDEC
 70
    2
  9
$DIMTDEC
 70
    2
  9
$DIMALTU
 70
    2
  9
$DIMALTTD
 70
    3
  9
$DIMTXSTY
  7
STANDARD
  9
$DIMAUNIT
 70
    0
  9
$DIMADEC
 70
    0
  9
$DIMALTRND
 40
0
  9
$DIMAZIN
 70
    0
  9
$DIMDSEP
 70
   44
  9
$DIMATFIT
 70
    3
  9
$DIMFRAC
 70
    0
  9
$DIMLDRBLK
  1
STANDARD
  9
$DIMLUNIT
 70
    2
  9
$DIMLWD
 70
   -2
  9
$DIMLWE
 70
   -2
  9
$DIMTMOVE
 70
    0
  9
$DIMFXL
 40
1
  9
$DIMFXLON
 70
    0
  9
$DIMJOGANG
 40
0.7854
  9
$DIMTFILL
 70
    0
  9
$DIMTFILLCLR
 70
    0
  9
$DIMARCSYM
 70
    0
  9
$DIMLTYPE
  6

  9
$DIMLTEX1
  6

  9
$DIMLTEX2
  6

  9
$LUNITS
 70
    2
  9
$LUPREC
 70
    4
  9
$SKETCHINC
 40
1
  9
$FILLETRAD
 40
0
  9
$AUNITS
 70
    0
  9
$AUPREC
 70
    2
  9
$MENU
  1
.
  9
$ELEVATION
 40
0
  9
$PELEVATION
 40
0
  9
$THICKNESS
 40
0
  9
$LIMCHECK
 70
    0
  9
$CHAMFERA
 40
0
  9
$CHAMFERB
 40
0
  9
$CHAMFERC
 40
0
  9
$CHAMFERD
 40
0
  9
$SKPOLY
 70
    0
  9
$USRTIMER
 70
    1
  9
$ANGBASE
 50
0
  9
$ANGDIR
 70
    0
  9
$PDMODE
 70
   34
  9
$PDSIZE
 40
0
  9
$PLINEWID
 40
0
  9
$SPLFRAME
 70
    0
  9
$SPLINETYPE
 70
    2
  9
$SPLINESEGS
 70
    8
  9
$HANDSEED
  5
20000
  9
$SURFTAB1
 70
    6
  9
$SURFTAB2
 70
    6
  9
$SURFTYPE
 70
    6
  9
$SURFU
 70
    6
  9
$SURFV
 70
    6
  9
$UCSBASE
  2

  9
$UCSNAME
  2

  9
$UCSORG
 10
0
 20
0
 30
0
  9
$UCSXDIR
 10
1
 20
0
 30
0
  9
$UCSYDIR
 10
0
 20
1
 30
0
  9
$UCSORTHOREF
  2

  9
$UCSORTHOVIEW
 70
    0
  9
$UCSORGTOP
 10
0
 20
0
 30
0
  9
$UCSORGBOTTOM
 10
0
 20
0
 30
0
  9
$UCSORGLEFT
 10
0
 20
0
 30
0
  9
$UCSORGRIGHT
 10
0
 20
0
 30
0
  9
$UCSORGFRONT
 10
0
 20
0
 30
0
  9
$UCSORGBACK
 10
0
 20
0
 30
0
  9
$PUCSBASE
  2

  9
$PUCSNAME
  2

  9
$PUCSORG
 10
0
 20
0
 30
0
  9
$PUCSXDIR
 10
1
 20
0
 30
0
  9
$PUCSYDIR
 10
0
 20
1
 30
0
  9
$PUCSORTHOREF
  2

  9
$PUCSORTHOVIEW
 70
    0
  9
$PUCSORGTOP
 10
0
 20
0
 30
0
  9
$PUCSORGBOTTOM
 10
0
 20
0
 30
0
  9
$PUCSORGLEFT
 10
0
 20
0
 30
0
  9
$PUCSORGRIGHT
 10
0
 20
0
 30
0
  9
$PUCSORGFRONT
 10
0
 20
0
 30
0
  9
$PUCSORGBACK
 10
0
 20
0
 30
0
  9
$USERI1
 70
    0
  9
$USERI2
 70
    0
  9
$USERI3
 70
    0
  9
$USERI4
 70
    0
  9
$USERI5
 70
    0
  9
$USERR1
 40
0
  9
$USERR2
 40
0
  9
$USERR3
 40
0
  9
$USERR4
 40
0
  9
$USERR5
 40
0
  9
$WORLDVIEW
 70
    1
  9
$SHADEDGE
 70
    3
  9
$SHADEDIF
 70
   70
  9
$TILEMODE
 70
    1
  9
$MAXACTVP
 70
   64
  9
$PINSBASE
 10
0
 20
0
 30
0
  9
$PLIMCHECK
 70
    0
  9
$PEXTMIN
 10
0
 20
0
 30
0
  9
$PEXTMAX
 10
0
 20
0
 30
0
  9
$GRIDMODE
 70
    1
  9
$SNAPSTYLE
 70
    0
  9
$PLIMMIN
 10
0
 20
0
  9
$PLIMMAX
 10
297
 20
210
  9
$UNITMODE
 70
    0
  9
$VISRETAIN
 70
    1
  9
$PLINEGEN
 70
    0
  9
$PSLTSCALE
 70
    1
  9
$TREEDEPTH
 70
 3020
  9
$CMLSTYLE
  2
Standard
  9
$CMLJUST
 70
    0
  9
$CMLSCALE
 40
20
  9
$PROXYGRAPHICS
 70
    1
  9
$MEASUREMENT
 70
    1
  9
$CELWEIGHT
370
   -1
  9
$ENDCAPS
280
    0
  9
$JOINSTYLE
280
    0
  9
$LWDISPLAY
290
    0
  9
$INSUNITS
 70
    4
  9
$HYPERLINKBASE
  1

  9
$STYLESHEET
  1

  9
$XEDIT
290
    1
  9
$CEPSNTYPE
380
    0
  9
$PSTYLEMODE
290
    1
  9
$EXTNAMES
290
    1
  9
$PSVPSCALE
 40
0
  9
$OLESTARTUP
290
    0
  9
$SORTENTS
280
  127
  9
$INDEXCTL
280
    0
  9
$HIDETEXT
280
    1
  9
$XCLIPFRAME
290
    0
  9
$HALOGAP
280
    0
  9
$OBSCOLOR
 70
  257
  9
$OBSLTYPE
280
    0
  9
$INTERSECTIONDISPLAY
280
    0
  9
$INTERSECTIONCOLOR
 70
  257
  9
$DIMASSOC
280
    1
  9
$PROJECTNAME
  1

  9
$CAMERADISPLAY
290
    0
  9
$LENSLENGTH
 40
50
  9
$CAMERAHEIGHT
 40
0
  9
$STEPSPERSEC
 40
2
  9
$STEPSIZE
 40
50
  9
$3DDWFPREC
 40
2
  9
$PSOLWIDTH
 40
5
  9
$PSOLHEIGHT
 40
80
  9
$LOFTANG1
 40
1.570796326794897
  9
$LOFTANG2
 40
1.570796326794897
  9
$LOFTMAG1
 40
0
  9
$LOFTMAG2
 40
0
  9
$LOFTPARAM
 70
    7
  9
$LOFTNORMALS
280
    1
  9
$LATITUDE
 40
1
  9
$LONGITUDE
 40
1
  9
$NORTHDIRECTION
 40
0
  9
$TIMEZONE
 70
-8000
  9
$LIGHTGLYPHDISPLAY
280
    1
  9
$TILEMODELIGHTSYNCH
280
    1
  9
$SOLIDHIST
280
    1
  9
$SHOWHIST
280
    1
  9
$DWFFRAME
280
    2
  9
$DGNFRAME
280
    0
  9
$REALWORLDSCALE
290
    1
  9
$INTERFERECOLOR
 62
    1
  9
$CSHADOW
280
    0
  9
$SHADOWPLANELOCATION
 40
0
  0
ENDSEC
  0
SECTION
  2
CLASSES
  0
ENDSEC
  0
SECTION
  2
TABLES
  0
TABLE
  2
VPORT
  5
8
330
0
100
AcDbSymbolTable
 70
    1
  0
VPORT
  5
31
330
2
100
AcDbSymbolTableRecord
100
AcDbViewportTableRecord
  2
*ACTIVE
 70
    0
 10
0
 20
0
 11
1
 21
1
 12
1043.735379315324
 22
362.3579575246974
 13
0
 23
0
 14
10
 24
10
 15
10
 25
10
 16
0
 26
0
 36
1
 17
0
 27
0
 37
0
 40
1569.816533595367
 41
1.935582822085889
 42
50
 43
0
 44
0
 50
0
 51
0
 71
    0
 72
  100
 73
    1
 74
    3
 75
    0
 76
    1
 77
    0
 78
    0
281
    0
 65
    1
110
0
120
0
130
0
111
1
121
0
131
0
112
0
122
1
132
0
 79
    0
146
0
348
10020
 60
    7
 61
    5
292
1
282
    1
141
0
142
0
 63
  250
421
3358443
  0
ENDTAB
  0
TABLE
  2
LTYPE
  5
5
330
0
100
AcDbSymbolTable
 70
    4
  0
LTYPE
  5
14
330
5
100
AcDbSymbolTableRecord
100
AcDbLinetypeTableRecord
  2
ByBlock
 70
    0
  3

 72
   65
 73
    0
 40
0
  0
LTYPE
  5
15
330
5
100
AcDbSymbolTableRecord
100
AcDbLinetypeTableRecord
  2
ByLayer
 70
    0
  3

 72
   65
 73
    0
 40
0
  0
LTYPE
  5
16
330
5
100
AcDbSymbolTableRecord
100
AcDbLinetypeTableRecord
  2
Continuous
 70
    0
  3
Solid line
 72
   65
 73
    0
 40
0
  0
LTYPE
  5
32
330
5
100
AcDbSymbolTableRecord
100
AcDbLinetypeTableRecord
  2
DOT
 70
    0
  3
Dot . . . . . . . . . . . . . . . . . . . . . .
 72
   65
 73
    2
 40
6.35
 49
0
 74
    0
 49
-6.35
 74
    0
  0
LTYPE
  5
33
330
5
100
AcDbSymbolTableRecord
100
AcDbLinetypeTableRecord
  2
DOTTINY
 70
    0
  3
Dot (.15x) .....................................
 72
   65
 73
    2
 40
0.9525
 49
0
 74
    0
 49
-0.9525
 74
    0
  0
LTYPE
  5
34
330
5
100
AcDbSymbolTableRecord
100
AcDbLinetypeTableRecord
  2
DOT2
 70
    0
  3
Dot (.5x) .....................................
 72
   65
 73
    2
 40
3.175
 49
0
 74
    0
 49
-3.175
 74
    0
  0
LTYPE
  5
35
330
5
100
AcDbSymbolTableRecord
100
AcDbLinetypeTableRecord
  2
DOTX2
 70
    0
  3
Dot (2x) .  .  .  .  .  .  .  .  .  .  .  .  .
 72
   65
 73
    2
 40
12.7
 49
0
 74
    0
 49
-12.7
 74
    0
  0
LTYPE
  5
36
330
5
100
AcDbSymbolTableRecord
100
AcDbLinetypeTableRecord
  2
DASHED
 70
    0
  3
Dashed _ _ _ _ _ _ _ _ _ _ _ _ _ _ _ _ _
 72
   65
 73
    2
 40
19.05
 49
12.7
 74
    0
 49
-6.35
 74
    0
  0
LTYPE
  5
37
330
5
100
AcDbSymbolTableRecord
100
AcDbLinetypeTableRecord
  2
DASHEDTINY
 70
    0
  3
Dashed (.15x) _ _ _ _ _ _ _ _ _ _ _ _ _ _ _ _ _
 72
   65
 73
    2
 40
2.8575
 49
1.905
 74
    0
 49
-0.9525
 74
    0
  0
LTYPE
  5
38
330
5
100
AcDbSymbolTableRecord
100
AcDbLinetypeTableRecord
  2
DASHED2
 70
    0
  3
Dashed (.5x) _ _ _ _ _ _ _ _ _ _ _ _ _ _ _ _ _
 72
   65
 73
    2
 40
9.524999999999999
 49
6.35
 74
    0
 49
-3.175
 74
    0
  0
LTYPE
  5
39
330
5
100
AcDbSymbolTableRecord
100
AcDbLinetypeTableRecord
  2
DASHEDX2
 70
    0
  3
Dashed (2x) ____  ____  ____  ____  ____  ___
 72
   65
 73
    2
 40
38.09999999999999
 49
25.4
 74
    0
 49
-12.7
 74
    0
  0
LTYPE
  5
3A
330
5
100
AcDbSymbolTableRecord
100
AcDbLinetypeTableRecord
  2
DASHDOT
 70
    0
  3
Dash dot __ . __ . __ . __ . __ . __ . __ . __
 72
   65
 73
    4
 40
25.4
 49
12.7
 74
    0
 49
-6.35
 74
    0
 49
0
 74
    0
 49
-6.35
 74
    0
  0
LTYPE
  5
3B
330
5
100
AcDbSymbolTableRecord
100
AcDbLinetypeTableRecord
  2
DASHDOTTINY
 70
    0
  3
Dash dot (.15x) _._._._._._._._._._._._._._._.
 72
   65
 73
    4
 40
3.81
 49
1.905
 74
    0
 49
-0.9525
 74
    0
 49
0
 74
    0
 49
-0.9525
 74
    0
  0
LTYPE
  5
3C
330
5
100
AcDbSymbolTableRecord
100
AcDbLinetypeTableRecord
  2
DASHDOT2
 70
    0
  3
Dash dot (.5x) _._._._._._._._._._._._._._._.
 72
   65
 73
    4
 40
12.7
 49
6.35
 74
    0
 49
-3.175
 74
    0
 49
0
 74
    0
 49
-3.175
 74
    0
  0
LTYPE
  5
3D
330
5
100
AcDbSymbolTableRecord
100
AcDbLinetypeTableRecord
  2
DASHDOTX2
 70
    0
  3
Dash dot (2x) ____  .  ____  .  ____  .  ___
 72
   65
 73
    4
 40
50.8
 49
25.4
 74
    0
 49
-12.7
 74
    0
 49
0
 74
    0
 49
-12.7
 74
    0
  0
LTYPE
  5
3E
330
5
100
AcDbSymbolTableRecord
100
AcDbLinetypeTableRecord
  2
DIVIDE
 70
    0
  3
Divide ____ . . ____ . . ____ . . ____ . . ____
 72
   65
 73
    6
 40
31.75
 49
12.7
 74
    0
 49
-6.35
 74
    0
 49
0
 74
    0
 49
-6.35
 74
    0
 49
0
 74
    0
 49
-6.35
 74
    0
  0
LTYPE
  5
3F
330
5
100
AcDbSymbolTableRecord
100
AcDbLinetypeTableRecord
  2
DIVIDETINY
 70
    0
  3
Divide (.15x) __..__..__..__..__..__..__..__.._
 72
   65
 73
    6
 40
4.7625
 49
1.905
 74
    0
 49
-0.9525
 74
    0
 49
0
 74
    0
 49
-0.9525
 74
    0
 49
0
 74
    0
 49
-0.9525
 74
    0
  0
LTYPE
  5
40
330
5
100
AcDbSymbolTableRecord
100
AcDbLinetypeTableRecord
  2
DIVIDE2
 70
    0
  3
Divide (.5x) __..__..__..__..__..__..__..__.._
 72
   65
 73
    6
 40
15.875
 49
6.35
 74
    0
 49
-3.175
 74
    0
 49
0
 74
    0
 49
-3.175
 74
    0
 49
0
 74
    0
 49
-3.175
 74
    0
  0
LTYPE
  5
41
330
5
100
AcDbSymbolTableRecord
100
AcDbLinetypeTableRecord
  2
DIVIDEX2
 70
    0
  3
Divide (2x) ________  .  .  ________  .  .  _
 72
   65
 73
    6
 40
63.5
 49
25.4
 74
    0
 49
-12.7
 74
    0
 49
0
 74
    0
 49
-12.7
 74
    0
 49
0
 74
    0
 49
-12.7
 74
    0
  0
LTYPE
  5
42
330
5
100
AcDbSymbolTableRecord
100
AcDbLinetypeTableRecord
  2
BORDER
 70
    0
  3
Border __ __ . __ __ . __ __ . __ __ . __ __ .
 72
   65
 73
    6
 40
44.45
 49
12.7
 74
    0
 49
-6.35
 74
    0
 49
12.7
 74
    0
 49
-6.35
 74
    0
 49
0
 74
    0
 49
-6.35
 74
    0
  0
LTYPE
  5
43
330
5
100
AcDbSymbolTableRecord
100
AcDbLinetypeTableRecord
  2
BORDERTINY
 70
    0
  3
Border (.15x) __.__.__.__.__.__.__.__.__.__.__.
 72
   65
 73
    6
 40
6.6675
 49
1.905
 74
    0
 49
-0.9525
 74
    0
 49
1.905
 74
    0
 49
-0.9525
 74
    0
 49
0
 74
    0
 49
-0.9525
 74
    0
  0
LTYPE
  5
44
330
5
100
AcDbSymbolTableRecord
100
AcDbLinetypeTableRecord
  2
BORDER2
 70
    0
  3
Border (.5x) __.__.__.__.__.__.__.__.__.__.__.
 72
   65
 73
    6
 40
22.225
 49
6.35
 74
    0
 49
-3.175
 74
    0
 49
6.35
 74
    0
 49
-3.175
 74
    0
 49
0
 74
    0
 49
-3.175
 74
    0
  0
LTYPE
  5
45
330
5
100
AcDbSymbolTableRecord
100
AcDbLinetypeTableRecord
  2
BORDERX2
 70
    0
  3
Border (2x) ____  ____  .  ____  ____  .  ___
 72
   65
 73
    6
 40
88.89999999999999
 49
25.4
 74
    0
 49
-12.7
 74
    0
 49
25.4
 74
    0
 49
-12.7
 74
    0
 49
0
 74
    0
 49
-12.7
 74
    0
  0
LTYPE
  5
46
330
5
100
AcDbSymbolTableRecord
100
AcDbLinetypeTableRecord
  2
CENTER
 70
    0
  3
Center ____ _ ____ _ ____ _ ____ _ ____ _ ____
 72
   65
 73
    4
 40
50.8
 49
31.75
 74
    0
 49
-6.35
 74
    0
 49
6.35
 74
    0
 49
-6.35
 74
    0
  0
LTYPE
  5
47
330
5
100
AcDbSymbolTableRecord
100
AcDbLinetypeTableRecord
  2
CENTERTINY
 70
    0
  3
Center (.15x) ___ _ ___ _ ___ _ ___ _ ___ _ ___
 72
   65
 73
    4
 40
7.619999999999999
 49
4.7625
 74
    0
 49
-0.9525
 74
    0
 49
0.9525
 74
    0
 49
-0.9525
 74
    0
  0
LTYPE
  5
48
330
5
100
AcDbSymbolTableRecord
100
AcDbLinetypeTableRecord
  2
CENTER2
 70
    0
  3
Center (.5x) ___ _ ___ _ ___ _ ___ _ ___ _ ___
 72
   65
 73
    4
 40
28.575
 49
19.05
 74
    0
 49
-3.175
 74
    0
 49
3.175
 74
    0
 49
-3.175
 74
    0
  0
LTYPE
  5
49
330
5
100
AcDbSymbolTableRecord
100
AcDbLinetypeTableRecord
  2
CENTERX2
 70
    0
  3
Center (2x) ________  __  ________  __  _____
 72
   65
 73
    4
 40
101.6
 49
63.5
 74
    0
 49
-12.7
 74
    0
 49
12.7
 74
    0
 49
-12.7
 74
    0
  0
ENDTAB
  0
TABLE
  2
LAYER
  5
2
330
0
100
AcDbSymbolTable
 70
    1
  0
LAYER
  5
10
330
2
100
AcDbSymbolTableRecord
100
AcDbLayerTableRecord
  2
0
 70
    0
 62
    7
  6
CONTINUOUS
370
    0
390
F
  0
LAYER
  5
4A
330
2
100
AcDbSymbolTableRecord
100
AcDbLayerTableRecord
  2
Construction
 70
    0
 62
    7
  6
DASHED2
370
    0
390
F
1001
LibreCad
1070
    1
  0
LAYER
  5
4B
330
2
100
AcDbSymbolTableRecord
100
AcDbLayerTableRecord
  2
Text
 70
    0
 62
  176
420
  128
  6
CONTINUOUS
370
    0
390
F
  0
LAYER
  5
4C
330
2
100
AcDbSymbolTableRecord
100
AcDbLayerTableRecord
  2
boundary
 70
    0
 62
    6
  6
CONTINUOUS
370
    0
390
F
  0
LAYER
  5
4D
330
2
100
AcDbSymbolTableRecord
100
AcDbLayerTableRecord
  2
misc
 70
    0
 62
    7
  6
CONTINUOUS
370
    0
390
F
  0
LAYER
  5
4E
330
2
100
AcDbSymbolTableRecord
100
AcDbLayerTableRecord
  2
s30p30
 70
    0
 62
    1
  6
CONTINUOUS
370
    0
390
F
  0
LAYER
  5
4F
330
2
100
AcDbSymbolTableRecord
100
AcDbLayerTableRecord
  2
s30p60
 70
    0
 62
   16
420
8388608
  6
CONTINUOUS
370
    0
390
F
  0
LAYER
  5
50
330
2
100
AcDbSymbolTableRecord
100
AcDbLayerTableRecord
  2
s30p90
 70
    0
 62
    2
  6
CONTINUOUS
370
    0
390
F
  0
LAYER
  5
51
330
2
100
AcDbSymbolTableRecord
100
AcDbLayerTableRecord
  2
s60p30
 70
    0
 62
   56
420
8421376
  6
CONTINUOUS
370
    0
390
F
  0
LAYER
  5
52
330
2
100
AcDbSymbolTableRecord
100
AcDbLayerTableRecord
  2
s60p60
 70
    0
 62
    3
  6
CONTINUOUS
370
    0
390
F
  0
LAYER
  5
53
330
2
100
AcDbSymbolTableRecord
100
AcDbLayerTableRecord
  2
s60p90
 70
    0
 62
   96
420
32768
  6
CONTINUOUS
370
    0
390
F
  0
LAYER
  5
54
330
2
100
AcDbSymbolTableRecord
100
AcDbLayerTableRecord
  2
s90p30
 70
    0
 62
    4
  6
CONTINUOUS
370
    0
390
F
  0
LAYER
  5
55
330
2
100
AcDbSymbolTableRecord
100
AcDbLayerTableRecord
  2
s90p60
 70
    0
 62
  136
420
32896
  6
CONTINUOUS
370
    0
390
F
  0
LAYER
  5
56
330
2
100
AcDbSymbolTableRecord
100
AcDbLayerTableRecord
  2
s90p90
 70
    0
 62
    5
  6
CONTINUOUS
370
    0
390
F
  0
ENDTAB
  0
TABLE
  2
STYLE
  5
3
330
0
100
AcDbSymbolTable
 70
    3
  0
STYLE
  5
57
330
2
100
AcDbSymbolTableRecord
100
AcDbTextStyleTableRecord
  2
amiri-regular
 70
    0
 40
0
 41
1
 50
0
 71
    0
 42
1
  3
amiri-regular
  4

  0
STYLE
  5
58
330
2
100
AcDbSymbolTableRecord
100
AcDbTextStyleTableRecord
  2
azomix
 70
    0
 40
0
 41
1
 50
0
 71
    0
 42
1
  3
azomix
  4

  0
STYLE
  5
59
330
2
100
AcDbSymbolTableRecord
100
AcDbTextStyleTableRecord
  2
cursive
 70
    0
 40
0
 41
1
 50
0
 71
    0
 42
1
  3
cursive
  4

  0
STYLE
  5
5A
330
2
100
AcDbSymbolTableRecord
100
AcDbTextStyleTableRecord
  2
azomix_i
 70
    0
 40
0
 41
1
 50
0
 71
    0
 42
1
  3
azomix_i
  4

  0
STYLE
  5
5B
330
2
100
AcDbSymbolTableRecord
100
AcDbTextStyleTableRecord
  2
Standard
 70
    0
 40
0
 41
1
 50
0
 71
    0
 42
1
  3
txt
  4

  0
ENDTAB
  0
TABLE
  2
VIEW
  5
6
330
0
100
AcDbSymbolTable
 70
    0
  0
ENDTAB
  0
TABLE
  2
UCS
  5
7
330
0
100
AcDbSymbolTable
 70
    0
  0
ENDTAB
  0
TABLE
  2
APPID
  5
9
330
0
100
AcDbSymbolTable
 70
    1
  0
APPID
  5
12
330
9
100
AcDbSymbolTableRecord
100
AcDbRegAppTableRecord
  2
ACAD
 70
    0
  0
APPID
  5
5C
330
9
100
AcDbSymbolTableRecord
100
AcDbRegAppTableRecord
  2
LibreCad
 70
    0
  0
ENDTAB
  0
TABLE
  2
DIMSTYLE
  5
A
330
0
100
AcDbSymbolTable
 70
    1
100
AcDbDimStyleTable
 71
    1
  0
DIMSTYLE
105
5D
330
A
100
AcDbSymbolTableRecord
100
AcDbDimStyleTableRecord
  2
Standard
 70
    0
 40
1
 41
2.5
 42
0.625
 43
0.38
 44
1.25
 45
0
 46
0
 47
0
 48
0
 49
1
140
2.5
141
0.09
142
0
143
25.4
144
1
145
0
146
1
147
0.625
148
0
 71
    0
 72
    0
 73
    0
 74
    1
 75
    0
 76
    0
 77
    0
 78
    8
 79
    0
170
    0
171
    2
172
    0
173
    0
174
    0
175
    0
176
    0
177
    0
178
    0
179
    0
271
    2
272
    4
273
    2
274
    2
275
    0
276
    0
277
    2
278
   44
279
    0
280
    0
281
    0
282
    0
283
    1
284
    0
285
    0
286
    0
288
    0
289
    3
340
STANDARD
341

371
   -2
372
   -2
  0
ENDTAB
  0
TABLE
  2
BLOCK_RECORD
  5
1
330
0
100
AcDbSymbolTable
 70
    2
  0
BLOCK_RECORD
  5
1F
330
1
100
AcDbSymbolTableRecord
100
AcDbBlockTableRecord
  2
*Model_Space
 70
    0
280
    1
281
    0
  0
BLOCK_RECORD
  5
1E
330
1
100
AcDbSymbolTableRecord
100
AcDbBlockTableRecord
  2
*Paper_Space
 70
    0
280
    1
281
    0
  0
ENDTAB
  0
ENDSEC
  0
SECTION
  2
BLOCKS
  0
BLOCK
  5
20
330
1F
100
AcDbEntity
  8
0
100
AcDbBlockBegin
  2
*Model_Space
 70
    0
 10
0
 20
0
 30
0
  3
*Model_Space
  1

  0
ENDBLK
  5
21
330
1F
100
AcDbEntity
  8
0
100
AcDbBlockEnd
  0
BLOCK
  5
1C
330
1B
100
AcDbEntity
  8
0
100
AcDbBlockBegin
  2
*Paper_Space
 70
    0
 10
0
 20
0
 30
0
  3
*Paper_Space
  1

  0
ENDBLK
  5
1D
330
1F
100
AcDbEntity
  8
0
100
AcDbBlockEnd
  0
ENDSEC
  0
SECTION
  2
ENTITIES
  0
LINE
  5
5E
100
AcDbEntity
  8
Construction
  6
ByLayer
 62
  256
370
   -1
100
AcDbLine
 10
7.019767761230469
 20
-13.05600000000018
 11
7.019767761230469
 21
2.980232238769529
  0
LINE
  5
5F
100
AcDbEntity
  8
Construction
  6
ByLayer
 62
  256
370
   -1
100
AcDbLine
 10
7.019767761230469
 20
2.980232238769529
 11
7.019767761230469
 21
-13.05600000000018
  0
LINE
  5
60
100
AcDbEntity
  8
Construction
  6
ByLayer
 62
  256
370
   -1
100
AcDbLine
 10
-12.98023223876953
 20
2.980232238769533
 11
-12.98023223876953
 21
-19
  0
LINE
  5
61
100
AcDbEntity
  8
0
  6
ByLayer
 62
  256
370
   -1
100
AcDbLine
 10
-30
 20
20
 11
230
 21
20
  0
LINE
  5
62
100
AcDbEntity
  8
boundary
  6
ByLayer
 62
  256
370
   -1
100
AcDbLine
 10
-7
 20
-260
 11
-7
 21
-250
  0
LINE
  5
63
100
AcDbEntity
  8
boundary
  6
ByLayer
 62
  256
370
   -1
100
AcDbLine
 10
-7
 20
-250
 11
-6
 21
-250
  0
LINE
  5
64
100
AcDbEntity
  8
boundary
  6
ByLayer
 62
  256
370
   -1
100
AcDbLine
 10
-6
 20
-250
 11
-6
 21
-260
  0
LINE
  5
65
100
AcDbEntity
  8
boundary
  6
ByLayer
 62
  256
370
   -1
100
AcDbLine
 10
-6
 20
-260
 11
1.110223024625157e-16
 21
-260
  0
LINE
  5
66
100
AcDbEntity
  8
boundary
  6
ByLayer
 62
  256
370
   -1
100
AcDbLine
 10
1.110223024625157e-16
 20
-260
 11
1.110223024625157e-16
 21
-250
  0
LINE
  5
67
100
AcDbEntity
  8
boundary
  6
ByLayer
 62
  256
370
   -1
100
AcDbLine
 10
1.110223024625157e-16
 20
-250
 11
1.2
 21
-250
  0
LINE
  5
68
100
AcDbEntity
  8
boundary
  6
ByLayer
 62
  256
370
   -1
100
AcDbLine
 10
1.2
 20
-250
 11
1.2
 21
-260.0000000000001
  0
LINE
  5
69
100
AcDbEntity
  8
boundary
  6
ByLayer
 62
  256
370
   -1
100
AcDbLine
 10
1.2
 20
-260.0000000000001
 11
7
 21
-260.0000000000001
  0
LINE
  5
6A
100
AcDbEntity
  8
boundary
  6
ByLayer
 62
  256
370
   -1
100
AcDbLine
 10
7
 20
-260.0000000000001
 11
7
 21
-249.6
  0
LINE
  5
6B
100
AcDbEntity
  8
boundary
  6
ByLayer
 62
  256
370
   -1
100
AcDbLine
 10
7
 20
-249.6
 11
8.4
 21
-249.6
  0
LINE
  5
6C
100
AcDbEntity
  8
boundary
  6
ByLayer
 62
  256
370
   -1
100
AcDbLine
 10
8.4
 20
-249.6
 11
8.4
 21
-260
  0
LINE
  5
6D
100
AcDbEntity
  8
boundary
  6
ByLayer
 62
  256
370
   -1
100
AcDbLine
 10
8.4
 20
-260
 11
15
 21
-260
  0
LINE
  5
6E
100
AcDbEntity
  8
boundary
  6
ByLayer
 62
  256
370
   -1
100
AcDbLine
 10
15
 20
-260
 11
15
 21
-249.4
  0
LINE
  5
6F
100
AcDbEntity
  8
boundary
  6
ByLayer
 62
  256
370
   -1
100
AcDbLine
 10
15
 20
-249.4
 11
16.5
 21
-249.4
  0
LINE
  5
70
100
AcDbEntity
  8
boundary
  6
ByLayer
 62
  256
370
   -1
100
AcDbLine
 10
16.5
 20
-249.4
 11
16.5
 21
-260
  0
LINE
  5
71
100
AcDbEntity
  8
boundary
  6
ByLayer
 62
  256
370
   -1
100
AcDbLine
 10
16.5
 20
-260
 11
23
 21
-260
  0
LINE
  5
72
100
AcDbEntity
  8
boundary
  6
ByLayer
 62
  256
370
   -1
100
AcDbLine
 10
23
 20
-260
 11
23
 21
-249.2
  0
LINE
  5
73
100
AcDbEntity
  8
boundary
  6
ByLayer
 62
  256
370
   -1
100
AcDbLine
 10
23
 20
-249.2
 11
24.8
 21
-249.2
  0
LINE
  5
74
100
AcDbEntity
  8
boundary
  6
ByLayer
 62
  256
370
   -1
100
AcDbLine
 10
24.8
 20
-249.2
 11
24.8
 21
-260
  0
LINE
  5
75
100
AcDbEntity
  8
boundary
  6
ByLayer
 62
  256
370
   -1
100
AcDbLine
 10
24.8
 20
-260
 11
40
 21
-260
  0
LINE
  5
76
100
AcDbEntity
  8
boundary
  6
ByLayer
 62
  256
370
   -1
100
AcDbLine
 10
40
 20
-260
 11
40
 21
-240
  0
LINE
  5
77
100
AcDbEntity
  8
boundary
  6
ByLayer
 62
  256
370
   -1
100
AcDbLine
 10
40
 20
-240
 11
42
 21
-240
  0
LINE
  5
78
100
AcDbEntity
  8
boundary
  6
ByLayer
 62
  256
370
   -1
100
AcDbLine
 10
42
 20
-240
 11
42
 21
-260
  0
LINE
  5
79
100
AcDbEntity
  8
boundary
  6
ByLayer
 62
  256
370
   -1
100
AcDbLine
 10
42
 20
-260
 11
50
 21
-260
  0
LINE
  5
7A
100
AcDbEntity
  8
boundary
  6
ByLayer
 62
  256
370
   -1
100
AcDbLine
 10
50
 20
-260
 11
50
 21
-239.6
  0
LINE
  5
7B
100
AcDbEntity
  8
boundary
  6
ByLayer
 62
  256
370
   -1
100
AcDbLine
 10
50
 20
-239.6
 11
52.40000000000001
 21
-239.6
  0
LINE
  5
7C
100
AcDbEntity
  8
boundary
  6
ByLayer
 62
  256
370
   -1
100
AcDbLine
 10
220
 20
-260
 11
220
 21
-237
  0
LINE
  5
7D
100
AcDbEntity
  8
boundary
  6
ByLayer
 62
  256
370
   -1
100
AcDbLine
 10
220
 20
-237
 11
225
 21
-237
  0
LINE
  5
7E
100
AcDbEntity
  8
boundary
  6
ByLayer
 62
  256
370
   -1
100
AcDbLine
 10
225
 20
-237
 11
225
 21
-260
  0
LINE
  5
7F
100
AcDbEntity
  8
boundary
  6
ByLayer
 62
  256
370
   -1
100
AcDbLine
 10
225
 20
-260
 11
230
 21
-260
  0
LINE
  5
80
100
AcDbEntity
  8
boundary
  6
ByLayer
 62
  256
370
   -1
100
AcDbLine
 10
230
 20
-260
 11
230
 21
-237
  0
MTEXT
  5
81
100
AcDbEntity
  8
Text
  6
ByLayer
 62
  256
370
   -1
100
AcDbMText
 10
-10
 20
30
 30
0
 40
6
 41
13.62666666666667
 71
    1
 72
    1
  1
S15
  7
azomix
210
0
220
0
230
1
 50
0
 73
    2
 44
1
  0
MTEXT
  5
82
100
AcDbEntity
  8
Text
  6
ByLayer
 62
  256
370
   -1
100
AcDbMText
 10
30
 20
30
 30
0
 40
6
 41
14.25333333333333
 71
    1
 72
    1
  1
S30\P
  7
azomix
210
0
220
0
230
1
 50
0
 73
    2
 44
1
  0
MTEXT
  5
83
100
AcDbEntity
  8
Text
  6
ByLayer
 62
  256
370
   -1
100
AcDbMText
 10
70
 20
30
 30
0
 40
6
 41
14.66666666666667
 71
    1
 72
    1
  1
S45
  7
azomix
210
0
220
0
230
1
 50
0
 73
    2
 44
1
  0
MTEXT
  5
84
100
AcDbEntity
  8
Text
  6
ByLayer
 62
  256
370
   -1
100
AcDbMText
 10
110
 20
30
 30
0
 40
6
 41
14.25333333333333
 71
    1
 72
    1
  1
S60
  7
azomix
210
0
220
0
230
1
 50
0
 73
    2
 44
1
  0
MTEXT
  5
85
100
AcDbEntity
  8
Text
  6
ByLayer
 62
  256
370
   -1
100
AcDbMText
 10
150
 20
30
 30
0
 40
6
 41
14.25333333333333
 71
    1
 72
    1
  1
S75
  7
azomix
210
0
220
0
230
1
 50
0
 73
    2
 44
1
  0
MTEXT
  5
86
100
AcDbEntity
  8
Text
  6
ByLayer
 62
  256
370
   -1
100
AcDbMText
 10
190
 20
30
 30
0
 40
6
 41
14.25333333333333
 71
    1
 72
    1
  1
S90
  7
azomix
210
0
220
0
230
1
 50
0
 73
    2
 44
1
  0
MTEXT
  5
87
100
AcDbEntity
  8
Text
  6
ByLayer
 62
  256
370
   -1
100
AcDbMText
 10
-55.85135019209446
 20
-197.8411472030605
 30
0
 40
6
 41
14.04666666666667
 71
    1
 72
    1
  1
P90
  7
azomix
210
0
220
0
230
1
 50
0
 73
    2
 44
1
  0
MTEXT
  5
88
100
AcDbEntity
  8
Text
  6
ByLayer
 62
  256
370
   -1
100
AcDbMText
 10
-55.85135019209446
 20
-117.6812778873642
 30
0
 40
6
 41
14.04666666666667
 71
    1
 72
    1
  1
P60
  7
azomix
210
0
220
0
230
1
 50
0
 73
    2
 44
1
  0
MTEXT
  5
89
100
AcDbEntity
  8
Text
  6
ByLayer
 62
  256
370
   -1
100
AcDbMText
 10
-56.26468352542779
 20
-78.39552951731962
 30
0
 40
6
 41
14.46
 71
    1
 72
    1
  1
P45
  7
azomix
210
0
220
0
230
1
 50
0
 73
    2
 44
1
  0
MTEXT
  5
8A
100
AcDbEntity
  8
Text
  6
ByLayer
 62
  256
370
   -1
100
AcDbMText
 10
-55.85135019209446
 20
-37.54788144792688
 30
0
 40
6
 41
14.04666666666667
 71
    1
 72
    1
  1
P30
  7
azomix
210
0
220
0
230
1
 50
0
 73
    2
 44
1
  0
MTEXT
  5
8B
100
AcDbEntity
  8
Text
  6
ByLayer
 62
  256
370
   -1
100
AcDbMText
 10
-55.22468352542779
 20
2.293797323580689
 30
0
 40
6
 41
13.42
 71
    1
 72
    1
  1
P15
  7
azomix
210
0
220
0
230
1
 50
0
 73
    2
 44
1
  0
MTEXT
  5
8C
100
AcDbEntity
  8
Text
  6
ByLayer
 62
  256
370
   -1
100
AcDbMText
 10
-55.85135019209446
 20
-158.2641971941563
 30
0
 40
6
 41
14.04666666666667
 71
    1
 72
    1
  1
P75
  7
azomix
210
0
220
0
230
1
 50
0
 73
    2
 44
1
  0
CIRCLE
  5
8D
100
AcDbEntity
  8
misc
  6
ByLayer
 62
    6
370
    0
100
AcDbCircle
 10
240
 20
0
 40
10
  0
LINE
  5
8E
100
AcDbEntity
  8
misc
  6
ByLayer
 62
    6
370
    0
100
AcDbLine
 10
229.9802322387695
 20
-10.98023223876953
 11
249.9802322387695
 21
-10.98023223876953
  0
LINE
  5
8F
100
AcDbEntity
  8
misc
  6
ByLayer
 62
    6
370
    0
100
AcDbLine
 10
227.8802322387695
 20
-13.98023223876953
 11
252.0802322387695
 21
-13.98023223876953
  0
CIRCLE
  5
90
100
AcDbEntity
  8
misc
  6
ByLayer
 62
    6
370
    0
100
AcDbCircle
 10
240
 20
-40
 40
10
  0
LINE
  5
91
100
AcDbEntity
  8
misc
  6
ByLayer
 62
    6
370
    0
100
AcDbLine
 10
229.9802322387695
 20
-50.98023223876953
 11
249.9802322387695
 21
-50.98023223876953
  0
LINE
  5
92
100
AcDbEntity
  8
misc
  6
ByLayer
 62
    6
370
    0
100
AcDbLine
 10
227.8802322387695
 20
-53.98023223876953
 11
252.0802322387695
 21
-53.98023223876953
  0
CIRCLE
  5
93
100
AcDbEntity
  8
misc
  6
ByLayer
 62
    6
370
    0
100
AcDbCircle
 10
240
 20
-80
 40
10
  0
LINE
  5
94
100
AcDbEntity
  8
misc
  6
ByLayer
 62
    6
370
    0
100
AcDbLine
 10
229.9802322387695
 20
-90.98023223876953
 11
249.9802322387695
 21
-90.98023223876953
  0
LINE
  5
95
100
AcDbEntity
  8
misc
  6
ByLayer
 62
    6
370
    0
100
AcDbLine
 10
227.8802322387695
 20
-93.98023223876953
 11
252.0802322387695
 21
-93.98023223876953
  0
CIRCLE
  5
96
100
AcDbEntity
  8
misc
  6
ByLayer
 62
    6
370
    0
100
AcDbCircle
 10
240
 20
-120
 40
10
  0
LINE
  5
97
100
AcDbEntity
  8
misc
  6
ByLayer
 62
    6
370
    0
100
AcDbLine
 10
229.9802322387695
 20
-130.9802322387695
 11
249.9802322387695
 21
-130.9802322387695
  0
LINE
  5
98
100
AcDbEntity
  8
misc
  6
ByLayer
 62
    6
370
    0
100
AcDbLine
 10
227.8802322387695
 20
-133.9802322387695
 11
252.0802322387695
 21
-133.9802322387695
  0
CIRCLE
  5
99
100
AcDbEntity
  8
misc
  6
ByLayer
 62
    6
370
    0
100
AcDbCircle
 10
240
 20
-160
 40
10
  0
LINE
  5
9A
100
AcDbEntity
  8
misc
  6
ByLayer
 62
    6
370
    0
100
AcDbLine
 10
229.9802322387695
 20
-170.9802322387695
 11
249.9802322387695
 21
-170.9802322387695
  0
LINE
  5
9B
100
AcDbEntity
  8
misc
  6
ByLayer
 62
    6
370
    0
100
AcDbLine
 10
227.8802322387695
 20
-173.9802322387695
 11
252.0802322387695
 21
-173.9802322387695
  0
CIRCLE
  5
9C
100
AcDbEntity
  8
misc
  6
ByLayer
 62
    6
370
    0
100
AcDbCircle
 10
240
 20
-200
 40
10
  0
LINE
  5
9D
100
AcDbEntity
  8
misc
  6
ByLayer
 62
    6
370
    0
100
AcDbLine
 10
229.9802322387695
 20
-210.9802322387695
 11
249.9802322387695
 21
-210.9802322387695
  0
LINE
  5
9E
100
AcDbEntity
  8
misc
  6
ByLayer
 62
    6
370
    0
100
AcDbLine
 10
227.8802322387695
 20
-213.9802322387695
 11
252.0802322387695
 21
-213.9802322387695
  0
LINE
  5
9F
100
AcDbEntity
  8
0
  6
ByLayer
 62
  256
370
   -1
100
AcDbLine
 10
-30
 20
20
 11
-30
 21
-220
  0
MTEXT
  5
A0
100
AcDbEntity
  8
Text
  6
ByLayer
 62
  256
370
   -1
100
AcDbMText
 10
155.1145093367968
 20
54.80712663233487
 30
0
 40
4
 41
83.00444444444443
 71
    1
 72
    1
  1
Material - MDF 3mm
  7
azomix_i
210
0
220
0
230
1
 50
0
 73
    2
 44
1
  0
MTEXT
  5
A1
100
AcDbEntity
  8
Text
  6
ByLayer
 62
  256
370
   -1
100
AcDbMText
 10
155.3428378945406
 20
47.43939425818282
 30
0
 40
4
 41
83.49333333333334
 71
    1
 72
    1
  1
Frequency - 2500hz
  7
azomix_i
210
0
220
0
230
1
 50
0
 73
    2
 44
1
  0
MTEXT
  5
A2
100
AcDbEntity
  8
Text
  6
ByLayer
 62
  256
370
   -1
100
AcDbMText
 10
155.3957836470618
 20
40.7682294406261
 30
0
 40
4
 41
94.47111111111111
 71
    1
 72
    1
  1
Cut with cleaned lens
  7
azomix_i
210
0
220
0
230
1
 50
0
 73
    2
 44
1
  0
MTEXT
  5
A3
100
AcDbEntity
  8
Text
  6
ByLayer
 62
  256
370
   -1
100
AcDbMText
 10
231.5871516547122
 20
3.932229436774024
 30
0
 40
4
 41
5.862222222222221
 71
    1
 72
    1
  1
S-
  7
azomix
210
0
220
0
230
1
 50
0
 73
    2
 44
1
  0
MTEXT
  5
A4
100
AcDbEntity
  8
Text
  6
ByLayer
 62
  256
370
   -1
100
AcDbMText
 10
232.2670939382978
 20
-1.963809563885918
 30
0
 40
4
 41
5.724444444444444
 71
    1
 72
    1
  1
P-
  7
azomix
210
0
220
0
230
1
 50
0
 73
    2
 44
1
  0
MTEXT
  5
A5
100
AcDbEntity
  8
Text
  6
ByLayer
 62
  256
370
   -1
100
AcDbMText
 10
231.5871516547122
 20
-36.06777056322598
 30
0
 40
4
 41
5.862222222222221
 71
    1
 72
    1
  1
S-
  7
azomix
210
0
220
0
230
1
 50
0
 73
    2
 44
1
  0
MTEXT
  5
A6
100
AcDbEntity
  8
Text
  6
ByLayer
 62
  256
370
   -1
100
AcDbMText
 10
232.2670939382978
 20
-41.96380956388592
 30
0
 40
4
 41
5.724444444444444
 71
    1
 72
    1
  1
P-
  7
azomix
210
0
220
0
230
1
 50
0
 73
    2
 44
1
  0
MTEXT
  5
A7
100
AcDbEntity
  8
Text
  6
ByLayer
 62
  256
370
   -1
100
AcDbMText
 10
231.5871516547122
 20
-76.06777056322598
 30
0
 40
4
 41
5.862222222222221
 71
    1
 72
    1
  1
S-
  7
azomix
210
0
220
0
230
1
 50
0
 73
    2
 44
1
  0
MTEXT
  5
A8
100
AcDbEntity
  8
Text
  6
ByLayer
 62
  256
370
   -1
100
AcDbMText
 10
232.2670939382978
 20
-81.96380956388592
 30
0
 40
4
 41
5.724444444444444
 71
    1
 72
    1
  1
P-
  7
azomix
210
0
220
0
230
1
 50
0
 73
    2
 44
1
  0
MTEXT
  5
A9
100
AcDbEntity
  8
Text
  6
ByLayer
 62
  256
370
   -1
100
AcDbMText
 10
231.5871516547122
 20
-116.067770563226
 30
0
 40
4
 41
5.862222222222221
 71
    1
 72
    1
  1
S-
  7
azomix
210
0
220
0
230
1
 50
0
 73
    2
 44
1
  0
MTEXT
  5
AA
100
AcDbEntity
  8
Text
  6
ByLayer
 62
  256
370
   -1
100
AcDbMText
 10
232.2670939382978
 20
-121.9638095638859
 30
0
 40
4
 41
5.724444444444444
 71
    1
 72
    1
  1
P-
  7
azomix
210
0
220
0
230
1
 50
0
 73
    2
 44
1
  0
MTEXT
  5
AB
100
AcDbEntity
  8
Text
  6
ByLayer
 62
  256
370
   -1
100
AcDbMText
 10
231.5871516547122
 20
-156.067770563226
 30
0
 40
4
 41
5.862222222222221
 71
    1
 72
    1
  1
S-
  7
azomix
210
0
220
0
230
1
 50
0
 73
    2
 44
1
  0
MTEXT
  5
AC
100
AcDbEntity
  8
Text
  6
ByLayer
 62
  256
370
   -1
100
AcDbMText
 10
232.2670939382978
 20
-161.9638095638859
 30
0
 40
4
 41
5.724444444444444
 71
    1
 72
    1
  1
P-
  7
azomix
210
0
220
0
230
1
 50
0
 73
    2
 44
1
  0
MTEXT
  5
AD
100
AcDbEntity
  8
Text
  6
ByLayer
 62
  256
370
   -1
100
AcDbMText
 10
231.5871516547122
 20
-196.067770563226
 30
0
 40
4
 41
5.862222222222221
 71
    1
 72
    1
  1
S-
  7
azomix
210
0
220
0
230
1
 50
0
 73
    2
 44
1
  0
MTEXT
  5
AE
100
AcDbEntity
  8
Text
  6
ByLayer
 62
  256
370
   -1
100
AcDbMText
 10
232.2670939382978
 20
-201.9638095638859
 30
0
 40
4
 41
5.724444444444444
 71
    1
 72
    1
  1
P-
  7
azomix
210
0
220
0
230
1
 50
0
 73
    2
 44
1
  0
MTEXT
  5
AF
100
AcDbEntity
  8
Text
  6
ByLayer
 62
  256
370
   -1
100
AcDbMText
 10
-8.441701206138838
 20
-246.4824189925307
 30
0
 40
3
 41
0.8453233333333332
 71
    1
 72
    1
  1
1
  7
cursive
210
0
220
0
230
1
 50
0
 73
    2
 44
1
  0
MTEXT
  5
B0
100
AcDbEntity
  8
Text
  6
ByLayer
 62
  256
370
   -1
100
AcDbMText
 10
22.40745917432672
 20
-245.3113436599864
 30
0
 40
3
 41
4.714881361933484
 71
    1
 72
    1
  1
1.8
  7
cursive
210
0
220
0
230
1
 50
0
 73
    2
 44
1
  0
LINE
  5
B1
100
AcDbEntity
  8
boundary
  6
ByLayer
 62
  256
370
   -1
100
AcDbLine
 10
100
 20
-260
 11
100
 21
-237
  0
LINE
  5
B2
100
AcDbEntity
  8
boundary
  6
ByLayer
 62
  256
370
   -1
100
AcDbLine
 10
100
 20
-237
 11
103
 21
-237
  0
LINE
  5
B3
100
AcDbEntity
  8
boundary
  6
ByLayer
 62
  256
370
   -1
100
AcDbLine
 10
103
 20
-237
 11
103
 21
-260
  0
LINE
  5
B4
100
AcDbEntity
  8
boundary
  6
ByLayer
 62
  256
370
   -1
100
AcDbLine
 10
103
 20
-260
 11
110
 21
-260
  0
LINE
  5
B5
100
AcDbEntity
  8
boundary
  6
ByLayer
 62
  256
370
   -1
100
AcDbLine
 10
110
 20
-260
 11
110
 21
-237
  0
LINE
  5
B6
100
AcDbEntity
  8
boundary
  6
ByLayer
 62
  256
370
   -1
100
AcDbLine
 10
110
 20
-237
 11
113
 21
-237
  0
LINE
  5
B7
100
AcDbEntity
  8
boundary
  6
ByLayer
 62
  256
370
   -1
100
AcDbLine
 10
113
 20
-237
 11
113
 21
-260
  0
LINE
  5
B8
100
AcDbEntity
  8
boundary
  6
ByLayer
 62
  256
370
   -1
100
AcDbLine
 10
113
 20
-260
 11
120
 21
-260
  0
LINE
  5
B9
100
AcDbEntity
  8
boundary
  6
ByLayer
 62
  256
370
   -1
100
AcDbLine
 10
120
 20
-260
 11
120
 21
-237
  0
LINE
  5
BA
100
AcDbEntity
  8
boundary
  6
ByLayer
 62
  256
370
   -1
100
AcDbLine
 10
120
 20
-237
 11
123
 21
-237
  0
LINE
  5
BB
100
AcDbEntity
  8
boundary
  6
ByLayer
 62
  256
370
   -1
100
AcDbLine
 10
123
 20
-237
 11
123
 21
-260
  0
LINE
  5
BC
100
AcDbEntity
  8
boundary
  6
ByLayer
 62
  256
370
   -1
100
AcDbLine
 10
123
 20
-260
 11
130
 21
-260
  0
LINE
  5
BD
100
AcDbEntity
  8
boundary
  6
ByLayer
 62
  256
370
   -1
100
AcDbLine
 10
130
 20
-260
 11
130
 21
-237
  0
LINE
  5
BE
100
AcDbEntity
  8
boundary
  6
ByLayer
 62
  256
370
   -1
100
AcDbLine
 10
130
 20
-237
 11
133
 21
-237
  0
LINE
  5
BF
100
AcDbEntity
  8
boundary
  6
ByLayer
 62
  256
370
   -1
100
AcDbLine
 10
133
 20
-237
 11
133
 21
-260
  0
LINE
  5
C0
100
AcDbEntity
  8
boundary
  6
ByLayer
 62
  256
370
   -1
100
AcDbLine
 10
133
 20
-260
 11
140
 21
-260
  0
LINE
  5
C1
100
AcDbEntity
  8
boundary
  6
ByLayer
 62
  256
370
   -1
100
AcDbLine
 10
140
 20
-260
 11
140
 21
-237
  0
LINE
  5
C2
100
AcDbEntity
  8
boundary
  6
ByLayer
 62
  256
370
   -1
100
AcDbLine
 10
140
 20
-237
 11
143
 21
-237
  0
LINE
  5
C3
100
AcDbEntity
  8
boundary
  6
ByLayer
 62
  256
370
   -1
100
AcDbLine
 10
143
 20
-237
 11
143
 21
-260
  0
LINE
  5
C4
100
AcDbEntity
  8
boundary
  6
ByLayer
 62
  256
370
   -1
100
AcDbLine
 10
160
 20
-260
 11
160
 21
-237
  0
LINE
  5
C5
100
AcDbEntity
  8
boundary
  6
ByLayer
 62
  256
370
   -1
100
AcDbLine
 10
160
 20
-237
 11
164
 21
-237
  0
LINE
  5
C6
100
AcDbEntity
  8
boundary
  6
ByLayer
 62
  256
370
   -1
100
AcDbLine
 10
164
 20
-237
 11
164
 21
-260
  0
LINE
  5
C7
100
AcDbEntity
  8
boundary
  6
ByLayer
 62
  256
370
   -1
100
AcDbLine
 10
164
 20
-260
 11
170
 21
-260
  0
LINE
  5
C8
100
AcDbEntity
  8
boundary
  6
ByLayer
 62
  256
370
   -1
100
AcDbLine
 10
170
 20
-260
 11
170
 21
-237
  0
LINE
  5
C9
100
AcDbEntity
  8
boundary
  6
ByLayer
 62
  256
370
   -1
100
AcDbLine
 10
170
 20
-237
 11
174
 21
-237
  0
LINE
  5
CA
100
AcDbEntity
  8
boundary
  6
ByLayer
 62
  256
370
   -1
100
AcDbLine
 10
174
 20
-237
 11
174
 21
-260
  0
LINE
  5
CB
100
AcDbEntity
  8
boundary
  6
ByLayer
 62
  256
370
   -1
100
AcDbLine
 10
174
 20
-260
 11
180
 21
-260
  0
LINE
  5
CC
100
AcDbEntity
  8
boundary
  6
ByLayer
 62
  256
370
   -1
100
AcDbLine
 10
180
 20
-260
 11
180
 21
-237
  0
LINE
  5
CD
100
AcDbEntity
  8
boundary
  6
ByLayer
 62
  256
370
   -1
100
AcDbLine
 10
180
 20
-237
 11
184
 21
-237
  0
LINE
  5
CE
100
AcDbEntity
  8
boundary
  6
ByLayer
 62
  256
370
   -1
100
AcDbLine
 10
184
 20
-237
 11
184
 21
-260
  0
LINE
  5
CF
100
AcDbEntity
  8
boundary
  6
ByLayer
 62
  256
370
   -1
100
AcDbLine
 10
184
 20
-260
 11
190
 21
-260
  0
LINE
  5
D0
100
AcDbEntity
  8
boundary
  6
ByLayer
 62
  256
370
   -1
100
AcDbLine
 10
190
 20
-260
 11
190
 21
-237
  0
LINE
  5
D1
100
AcDbEntity
  8
boundary
  6
ByLayer
 62
  256
370
   -1
100
AcDbLine
 10
190
 20
-237
 11
194
 21
-237
  0
LINE
  5
D2
100
AcDbEntity
  8
boundary
  6
ByLayer
 62
  256
370
   -1
100
AcDbLine
 10
194
 20
-237
 11
194
 21
-260
  0
LINE
  5
D3
100
AcDbEntity
  8
boundary
  6
ByLayer
 62
  256
370
   -1
100
AcDbLine
 10
194
 20
-260
 11
200
 21
-260
  0
LINE
  5
D4
100
AcDbEntity
  8
boundary
  6
ByLayer
 62
  256
370
   -1
100
AcDbLine
 10
200
 20
-260
 11
200
 21
-237
  0
LINE
  5
D5
100
AcDbEntity
  8
boundary
  6
ByLayer
 62
  256
370
   -1
100
AcDbLine
 10
200
 20
-237
 11
204
 21
-237
  0
LINE
  5
D6
100
AcDbEntity
  8
boundary
  6
ByLayer
 62
  256
370
   -1
100
AcDbLine
 10
204
 20
-237
 11
204
 21
-260
  0
LINE
  5
D7
100
AcDbEntity
  8
boundary
  6
ByLayer
 62
  256
370
   -1
100
AcDbLine
 10
143
 20
-260
 11
160
 21
-260
  0
MTEXT
  5
D8
100
AcDbEntity
  8
Text
  6
ByLayer
 62
  256
370
   -1
100
AcDbMText
 10
39.37469723429819
 20
-235.6382483367553
 30
0
 40
3
 41
1.985696735930796
 71
    1
 72
    1
  1
2
  7
cursive
210
0
220
0
230
1
 50
0
 73
    2
 44
1
  0
MTEXT
  5
D9
100
AcDbEntity
  8
Text
  6
ByLayer
 62
  256
370
   -1
100
AcDbMText
 10
79.96926460666413
 20
-235.8415600264332
 30
0
 40
3
 41
5.855254764530947
 71
    1
 72
    1
  1
2.8
  7
cursive
210
0
220
0
230
1
 50
0
 73
    2
 44
1
  0
MTEXT
  5
DA
100
AcDbEntity
  8
Text
  6
ByLayer
 62
  256
370
   -1
100
AcDbMText
 10
99.75826906865221
 20
-232.3174907386819
 30
0
 40
3
 41
1.980176318992897
 71
    1
 72
    1
  1
3
  7
cursive
210
0
220
0
230
1
 50
0
 73
    2
 44
1
  0
MTEXT
  5
DB
100
AcDbEntity
  8
Text
  6
ByLayer
 62
  256
370
   -1
100
AcDbMText
 10
139.9462130616622
 20
-232.1819496122299
 30
0
 40
3
 41
5.849734347593047
 71
    1
 72
    1
  1
3.8
  7
cursive
210
0
220
0
230
1
 50
0
 73
    2
 44
1
  0
MTEXT
  5
DC
100
AcDbEntity
  8
Text
  6
ByLayer
 62
  256
370
   -1
100
AcDbMText
 10
160.0740703397802
 20
-232.046408485778
 30
0
 40
3
 41
1.666666666666667
 71
    1
 72
    1
  1
4
  7
cursive
210
0
220
0
230
1
 50
0
 73
    2
 44
1
  0
MTEXT
  5
DD
100
AcDbEntity
  8
Text
  6
ByLayer
 62
  256
370
   -1
100
AcDbMText
 10
200.0587026431123
 20
-232.2497201754559
 30
0
 40
3
 41
5.536224695266817
 71
    1
 72
    1
  1
4.8
  7
cursive
210
0
220
0
230
1
 50
0
 73
    2
 44
1
  0
LINE
  5
DE
100
AcDbEntity
  8
boundary
  6
ByLayer
 62
  256
370
   -1
100
AcDbLine
 10
204
 20
-260
 11
220
 21
-260
  0
MTEXT
  5
DF
100
AcDbEntity
  8
Text
  6
ByLayer
 62
  256
370
   -1
100
AcDbMText
 10
220.3221010476823
 20
-232.2497201754559
 30
0
 40
3
 41
2.137666666666667
 71
    1
 72
    1
  1
5
  7
cursive
210
0
220
0
230
1
 50
0
 73
    2
 44
1
  0
LINE
  5
E0
100
AcDbEntity
  8
boundary
  6
ByLayer
 62
  256
370
   -1
100
AcDbLine
 10
230
 20
-237
 11
235.2
 21
-237
  0
LINE
  5
E1
100
AcDbEntity
  8
boundary
  6
ByLayer
 62
  256
370
   -1
100
AcDbLine
 10
240
 20
-237
 11
245.5
 21
-237
  0
LINE
  5
E2
100
AcDbEntity
  8
boundary
  6
ByLayer
 62
  256
370
   -1
100
AcDbLine
 10
250
 20
-237
 11
255.6
 21
-237
  0
LINE
  5
E3
100
AcDbEntity
  8
boundary
  6
ByLayer
 62
  256
370
   -1
100
AcDbLine
 10
240
 20
-260
 11
240
 21
-237
  0
LINE
  5
E4
100
AcDbEntity
  8
boundary
  6
ByLayer
 62
  256
370
   -1
100
AcDbLine
 10
250
 20
-260
 11
250
 21
-237
  0
LINE
  5
E5
100
AcDbEntity
  8
boundary
  6
ByLayer
 62
  256
370
   -1
100
AcDbLine
 10
235.2
 20
-260
 11
240
 21
-260
  0
LINE
  5
E6
100
AcDbEntity
  8
boundary
  6
ByLayer
 62
  256
370
   -1
100
AcDbLine
 10
235.2
 20
-237
 11
235.2
 21
-260
  0
LINE
  5
E7
100
AcDbEntity
  8
boundary
  6
ByLayer
 62
  256
370
   -1
100
AcDbLine
 10
255.6
 20
-260
 11
260
 21
-260
  0
LINE
  5
E8
100
AcDbEntity
  8
boundary
  6
ByLayer
 62
  256
370
   -1
100
AcDbLine
 10
255.6
 20
-237
 11
255.6
 21
-260
  0
LINE
  5
E9
100
AcDbEntity
  8
boundary
  6
ByLayer
 62
  256
370
   -1
100
AcDbLine
 10
245.4
 20
-260.0000000000001
 11
250
 21
-260
  0
LINE
  5
EA
100
AcDbEntity
  8
boundary
  6
ByLayer
 62
  256
370
   -1
100
AcDbLine
 10
245.5
 20
-237
 11
245.4
 21
-260.0000000000001
  0
LINE
  5
EB
100
AcDbEntity
  8
boundary
  6
ByLayer
 62
  256
370
   -1
100
AcDbLine
 10
52.40000000000001
 20
-239.6
 11
52.40000000000001
 21
-260
  0
LINE
  5
EC
100
AcDbEntity
  8
boundary
  6
ByLayer
 62
  256
370
   -1
100
AcDbLine
 10
52.40000000000001
 20
-260
 11
70
 21
-260
  0
LWPOLYLINE
  5
ED
100
AcDbEntity
  8
boundary
  6
ByLayer
 62
  256
370
   -1
100
AcDbPolyline
 90
   13
 70
    0
 43
0
 10
52.40000000000001
 20
-260
 10
60
 20
-260
 10
60
 20
-240
 10
62.40000000000001
 20
-240
 10
62.40000000000001
 20
-260
 10
70
 20
-260
 10
70
 20
-240
 10
72.60000000000001
 20
-240
 10
72.60000000000001
 20
-260
 10
80
 20
-260
 10
80
 20
-240
 10
82.80000000000001
 20
-240
 10
82.80000000000001
 20
-260
  0
LINE
  5
EE
100
AcDbEntity
  8
boundary
  6
ByLayer
 62
  256
370
   -1
100
AcDbLine
 10
82.80000000000001
 20
-260
 11
100
 21
-260
  0
MTEXT
  5
EF
100
AcDbEntity
  8
Text
  6
ByLayer
 62
  256
370
   -1
100
AcDbMText
 10
250.3221010476823
 20
-232.2497201754559
 30
0
 40
3
 41
5.797756666666666
 71
    1
 72
    1
  1
5.6
  7
cursive
210
0
220
0
230
1
 50
0
 73
    2
 44
1
  0
LINE
  5
F0
100
AcDbEntity
  8
boundary
  6
ByLayer
 62
  256
370
   -1
100
AcDbLine
 10
-60
 20
-260
 11
-7
 21
-260
  0
LWPOLYLINE
  5
F1
100
AcDbEntity
  8
boundary
  6
ByLayer
 62
  256
370
   -1
100
AcDbPolyline
 90
    4
 70
    0
 43
0
 10
-60
 20
-260
 10
-60
 20
60
 10
260
 20
60
 10
260
 20
-260
  0
LINE
  5
F2
100
AcDbEntity
  8
0
  6
ByLayer
 62
  256
370
   -1
100
AcDbLine
 10
-30
 20
20
 11
-60
 21
60
  0
MTEXT
  5
F3
100
AcDbEntity
  8
Text
  6
ByLayer
 62
  256
370
   -1
100
AcDbMText
 10
-51.56916295480548
 20
33.94341873496374
 30
0
 40
8
 41
5.749623111111111
 71
    1
 72
    1
  1
P
  7
amiri-regular
210
0
220
0
230
1
 50
0
 73
    2
 44
1
  0
MTEXT
  5
F4
100
AcDbEntity
  8
Text
  6
ByLayer
 62
  256
370
   -1
100
AcDbMText
 10
-39.07396536000661
 20
48.87412094569797
 30
0
 40
8
 41
4.947209777777777
 71
    1
 72
    1
  1
S
  7
amiri-regular
210
0
220
0
230
1
 50
0
 73
    2
 44
1
  0
LINE
  5
F5
100
AcDbEntity
  8
boundary
  6
ByLayer
 62
  256
370
   -1
100
AcDbLine
 10
960
 20
0
 11
960
 21
23
  0
LINE
  5
F6
100
AcDbEntity
  8
boundary
  6
ByLayer
 62
  256
370
   -1
100
AcDbLine
 10
960
 20
23
 11
965
 21
23
  0
LINE
  5
F7
100
AcDbEntity
  8
boundary
  6
ByLayer
 62
  256
370
   -1
100
AcDbLine
 10
965
 20
23
 11
965
 21
0
  0
LINE
  5
F8
100
AcDbEntity
  8
boundary
  6
ByLayer
 62
  256
370
   -1
100
AcDbLine
 10
965
 20
0
 11
970
 21
0
  0
LINE
  5
F9
100
AcDbEntity
  8
boundary
  6
ByLayer
 62
  256
370
   -1
100
AcDbLine
 10
970
 20
0
 11
970
 21
23
  0
LINE
  5
FA
100
AcDbEntity
  8
boundary
  6
ByLayer
 62
  256
370
   -1
100
AcDbLine
 10
900
 20
0
 11
900
 21
23
  0
LINE
  5
FB
100
AcDbEntity
  8
boundary
  6
ByLayer
 62
  256
370
   -1
100
AcDbLine
 10
900
 20
23
 11
904
 21
23
  0
LINE
  5
FC
100
AcDbEntity
  8
boundary
  6
ByLayer
 62
  256
370
   -1
100
AcDbLine
 10
904
 20
23
 11
904
 21
0
  0
LINE
  5
FD
100
AcDbEntity
  8
boundary
  6
ByLayer
 62
  256
370
   -1
100
AcDbLine
 10
904
 20
0
 11
910
 21
0
  0
LINE
  5
FE
100
AcDbEntity
  8
boundary
  6
ByLayer
 62
  256
370
   -1
100
AcDbLine
 10
910
 20
0
 11
910
 21
23
  0
LINE
  5
FF
100
AcDbEntity
  8
boundary
  6
ByLayer
 62
  256
370
   -1
100
AcDbLine
 10
910
 20
23
 11
914
 21
23
  0
LINE
  5
100
100
AcDbEntity
  8
boundary
  6
ByLayer
 62
  256
370
   -1
100
AcDbLine
 10
914
 20
23
 11
914
 21
0
  0
LINE
  5
101
100
AcDbEntity
  8
boundary
  6
ByLayer
 62
  256
370
   -1
100
AcDbLine
 10
914
 20
0
 11
920
 21
0
  0
LINE
  5
102
100
AcDbEntity
  8
boundary
  6
ByLayer
 62
  256
370
   -1
100
AcDbLine
 10
920
 20
0
 11
920
 21
23
  0
LINE
  5
103
100
AcDbEntity
  8
boundary
  6
ByLayer
 62
  256
370
   -1
100
AcDbLine
 10
920
 20
23
 11
924
 21
23
  0
LINE
  5
104
100
AcDbEntity
  8
boundary
  6
ByLayer
 62
  256
370
   -1
100
AcDbLine
 10
924
 20
23
 11
924
 21
0
  0
LINE
  5
105
100
AcDbEntity
  8
boundary
  6
ByLayer
 62
  256
370
   -1
100
AcDbLine
 10
924
 20
0
 11
930
 21
0
  0
LINE
  5
106
100
AcDbEntity
  8
boundary
  6
ByLayer
 62
  256
370
   -1
100
AcDbLine
 10
930
 20
0
 11
930
 21
23
  0
LINE
  5
107
100
AcDbEntity
  8
boundary
  6
ByLayer
 62
  256
370
   -1
100
AcDbLine
 10
930
 20
23
 11
934
 21
23
  0
LINE
  5
108
100
AcDbEntity
  8
boundary
  6
ByLayer
 62
  256
370
   -1
100
AcDbLine
 10
934
 20
23
 11
934
 21
0
  0
LINE
  5
109
100
AcDbEntity
  8
boundary
  6
ByLayer
 62
  256
370
   -1
100
AcDbLine
 10
934
 20
0
 11
940
 21
0
  0
LINE
  5
10A
100
AcDbEntity
  8
boundary
  6
ByLayer
 62
  256
370
   -1
100
AcDbLine
 10
940
 20
0
 11
940
 21
23
  0
LINE
  5
10B
100
AcDbEntity
  8
boundary
  6
ByLayer
 62
  256
370
   -1
100
AcDbLine
 10
940
 20
23
 11
944
 21
23
  0
LINE
  5
10C
100
AcDbEntity
  8
boundary
  6
ByLayer
 62
  256
370
   -1
100
AcDbLine
 10
944
 20
23
 11
944
 21
0
  0
MTEXT
  5
10D
100
AcDbEntity
  8
Text
  6
ByLayer
 62
  256
370
   -1
100
AcDbMText
 10
900.0740703397803
 20
27.95359151422204
 30
0
 40
3
 41
1.666666666666667
 71
    1
 72
    1
  1
4
  7
cursive
210
0
220
0
230
1
 50
0
 73
    2
 44
1
  0
MTEXT
  5
10E
100
AcDbEntity
  8
Text
  6
ByLayer
 62
  256
370
   -1
100
AcDbMText
 10
940.0587026431123
 20
27.75027982454409
 30
0
 40
3
 41
5.536224695266817
 71
    1
 72
    1
  1
4.8
  7
cursive
210
0
220
0
230
1
 50
0
 73
    2
 44
1
  0
LINE
  5
10F
100
AcDbEntity
  8
boundary
  6
ByLayer
 62
  256
370
   -1
100
AcDbLine
 10
944
 20
0
 11
960
 21
0
  0
MTEXT
  5
110
100
AcDbEntity
  8
Text
  6
ByLayer
 62
  256
370
   -1
100
AcDbMText
 10
960.3221010476823
 20
27.75027982454409
 30
0
 40
3
 41
2.137666666666667
 71
    1
 72
    1
  1
5
  7
cursive
210
0
220
0
230
1
 50
0
 73
    2
 44
1
  0
LINE
  5
111
100
AcDbEntity
  8
boundary
  6
ByLayer
 62
  256
370
   -1
100
AcDbLine
 10
970
 20
23
 11
975.2
 21
23
  0
LINE
  5
112
100
AcDbEntity
  8
boundary
  6
ByLayer
 62
  256
370
   -1
100
AcDbLine
 10
980
 20
23
 11
985.5
 21
23
  0
LINE
  5
113
100
AcDbEntity
  8
boundary
  6
ByLayer
 62
  256
370
   -1
100
AcDbLine
 10
990
 20
23
 11
995.6
 21
23
  0
LINE
  5
114
100
AcDbEntity
  8
boundary
  6
ByLayer
 62
  256
370
   -1
100
AcDbLine
 10
980
 20
0
 11
980
 21
23
  0
LINE
  5
115
100
AcDbEntity
  8
boundary
  6
ByLayer
 62
  256
370
   -1
100
AcDbLine
 10
990
 20
0
 11
990
 21
23
  0
LINE
  5
116
100
AcDbEntity
  8
boundary
  6
ByLayer
 62
  256
370
   -1
100
AcDbLine
 10
975.2
 20
0
 11
980
 21
0
  0
LINE
  5
117
100
AcDbEntity
  8
boundary
  6
ByLayer
 62
  256
370
   -1
100
AcDbLine
 10
975.2
 20
23
 11
975.2
 21
0
  0
LINE
  5
118
100
AcDbEntity
  8
boundary
  6
ByLayer
 62
  256
370
   -1
100
AcDbLine
 10
995.6
 20
0
 11
1000
 21
0
  0
LINE
  5
119
100
AcDbEntity
  8
boundary
  6
ByLayer
 62
  256
370
   -1
100
AcDbLine
 10
995.6
 20
23
 11
995.6
 21
0
  0
LINE
  5
11A
100
AcDbEntity
  8
boundary
  6
ByLayer
 62
  256
370
   -1
100
AcDbLine
 10
985.4000000000001
 20
-5.684341886080801e-14
 11
990
 21
0
  0
LINE
  5
11B
100
AcDbEntity
  8
boundary
  6
ByLayer
 62
  256
370
   -1
100
AcDbLine
 10
985.5
 20
23
 11
985.4000000000001
 21
-5.684341886080801e-14
  0
MTEXT
  5
11C
100
AcDbEntity
  8
Text
  6
ByLayer
 62
  256
370
   -1
100
AcDbMText
 10
990.3221010476823
 20
27.75027982454409
 30
0
 40
3
 41
5.797756666666666
 71
    1
 72
    1
  1
5.6
  7
cursive
210
0
220
0
230
1
 50
0
 73
    2
 44
1
  0
LINE
  5
11D
100
AcDbEntity
  8
boundary
  6
ByLayer
 62
  256
370
   -1
100
AcDbLine
 10
872.5173713905053
 20
92.74463935106473
 11
872.5173713905053
 21
-227.2553606489353
  0
MTEXT
  5
11E
100
AcDbEntity
  8
Text
  6
ByLayer
 62
  256
370
   -1
100
AcDbMText
 10
560.9482084356998
 20
66.68805808602848
 30
0
 40
8
 41
5.749623111111111
 71
    1
 72
    1
  1
P
  7
amiri-regular
210
0
220
0
230
1
 50
0
 73
    2
 44
1
  0
MTEXT
  5
11F
100
AcDbEntity
  8
Text
  6
ByLayer
 62
  256
370
   -1
100
AcDbMText
 10
573.4434060304987
 20
81.6187602967627
 30
0
 40
8
 41
4.947209777777777
 71
    1
 72
    1
  1
S
  7
amiri-regular
210
0
220
0
230
1
 50
0
 73
    2
 44
1
  0
MTEXT
  5
120
100
AcDbEntity
  8
Text
  6
ByLayer
 62
  256
370
   -1
100
AcDbMText
 10
598.5088607400127
 20
90.21760795375231
 30
0
 40
4
 41
83.00444444444443
 71
    1
 72
    1
  1
Material - MDF 3mm
  7
azomix_i
210
0
220
0
230
1
 50
0
 73
    2
 44
1
  0
MTEXT
  5
121
100
AcDbEntity
  8
Text
  6
ByLayer
 62
  256
370
   -1
100
AcDbMText
 10
598.7371892977565
 20
82.84987557960027
 30
0
 40
4
 41
83.49333333333334
 71
    1
 72
    1
  1
Frequency - 2500hz
  7
azomix_i
210
0
220
0
230
1
 50
0
 73
    2
 44
1
  0
MTEXT
  5
122
100
AcDbEntity
  8
Text
  6
ByLayer
 62
  256
370
   -1
100
AcDbMText
 10
598.7901350502776
 20
76.17871076204354
 30
0
 40
4
 41
94.47111111111111
 71
    1
 72
    1
  1
Cut with cleaned lens
  7
azomix_i
210
0
220
0
230
1
 50
0
 73
    2
 44
1
  0
MTEXT
  5
123
100
AcDbEntity
  8
Text
  6
ByLayer
 62
  256
370
   -1
100
AcDbMText
 10
602.5173713905053
 20
62.74463935106473
 30
0
 40
6
 41
14.25333333333333
 71
    1
 72
    1
  1
S30
  7
azomix
210
0
220
0
230
1
 50
0
 73
    2
 44
1
  0
MTEXT
  5
124
100
AcDbEntity
  8
Text
  6
ByLayer
 62
  256
370
   -1
100
AcDbMText
 10
642.5173713905053
 20
62.74463935106473
 30
0
 40
6
 41
14.25333333333333
 71
    1
 72
    1
  1
S60\P
  7
azomix
210
0
220
0
230
1
 50
0
 73
    2
 44
1
  0
MTEXT
  5
125
100
AcDbEntity
  8
Text
  6
ByLayer
 62
  256
370
   -1
100
AcDbMText
 10
682.5173713905053
 20
62.74463935106473
 30
0
 40
6
 41
14.25333333333333
 71
    1
 72
    1
  1
S90
  7
azomix
210
0
220
0
230
1
 50
0
 73
    2
 44
1
  0
MTEXT
  5
126
100
AcDbEntity
  8
Text
  6
ByLayer
 62
  256
370
   -1
100
AcDbMText
 10
557.2926878650776
 20
35.03843667464542
 30
0
 40
6
 41
14.04666666666667
 71
    1
 72
    1
  1
P30
  7
azomix
210
0
220
0
230
1
 50
0
 73
    2
 44
1
  0
MTEXT
  5
127
100
AcDbEntity
  8
Text
  6
ByLayer
 62
  256
370
   -1
100
AcDbMText
 10
556.6660211984108
 20
-4.803242096862142
 30
0
 40
6
 41
14.04666666666667
 71
    1
 72
    1
  1
P60
  7
azomix
210
0
220
0
230
1
 50
0
 73
    2
 44
1
  0
MTEXT
  5
128
100
AcDbEntity
  8
Text
  6
ByLayer
 62
  256
370
   -1
100
AcDbMText
 10
556.2526878650775
 20
-45.65089016625488
 30
0
 40
6
 41
14.04666666666667
 71
    1
 72
    1
  1
P90
  7
azomix
210
0
220
0
230
1
 50
0
 73
    2
 44
1
  0
MTEXT
  5
129
100
AcDbEntity
  8
Text
  6
ByLayer
 62
  256
370
   -1
100
AcDbMText
 10
561.5582987938611
 20
-116.4824189925307
 30
0
 40
3
 41
0.8453233333333332
 71
    1
 72
    1
  1
1
  7
cursive
210
0
220
0
230
1
 50
0
 73
    2
 44
1
  0
MTEXT
  5
12A
100
AcDbEntity
  8
Text
  6
ByLayer
 62
  256
370
   -1
100
AcDbMText
 10
592.4074591743267
 20
-115.3113436599864
 30
0
 40
3
 41
4.714881361933484
 71
    1
 72
    1
  1
1.8
  7
cursive
210
0
220
0
230
1
 50
0
 73
    2
 44
1
  0
MTEXT
  5
12B
100
AcDbEntity
  8
Text
  6
ByLayer
 62
  256
370
   -1
100
AcDbMText
 10
609.3746972342982
 20
-105.6382483367553
 30
0
 40
3
 41
1.985696735930796
 71
    1
 72
    1
  1
2
  7
cursive
210
0
220
0
230
1
 50
0
 73
    2
 44
1
  0
MTEXT
  5
12C
100
AcDbEntity
  8
Text
  6
ByLayer
 62
  256
370
   -1
100
AcDbMText
 10
649.9692646066642
 20
-105.8415600264332
 30
0
 40
3
 41
5.855254764530947
 71
    1
 72
    1
  1
2.8
  7
cursive
210
0
220
0
230
1
 50
0
 73
    2
 44
1
  0
MTEXT
  5
12D
100
AcDbEntity
  8
Text
  6
ByLayer
 62
  256
370
   -1
100
AcDbMText
 10
669.7582690686522
 20
-102.3174907386819
 30
0
 40
3
 41
1.980176318992897
 71
    1
 72
    1
  1
3
  7
cursive
210
0
220
0
230
1
 50
0
 73
    2
 44
1
  0
MTEXT
  5
12E
100
AcDbEntity
  8
Text
  6
ByLayer
 62
  256
370
   -1
100
AcDbMText
 10
709.9462130616622
 20
-102.1819496122299
 30
0
 40
3
 41
5.849734347593047
 71
    1
 72
    1
  1
3.8
  7
cursive
210
0
220
0
230
1
 50
0
 73
    2
 44
1
  0
MTEXT
  5
12F
100
AcDbEntity
  8
Text
  6
ByLayer
 62
  256
370
   -1
100
AcDbMText
 10
722.046408485778
 20
-89.92592966021971
 30
0
 40
3
 41
1.666666666666667
 71
    1
 72
    1
  1
4
  7
cursive
210
0
220
0
230
1
 50
90
 73
    2
 44
1
  0
MTEXT
  5
130
100
AcDbEntity
  8
Text
  6
ByLayer
 62
  256
370
   -1
100
AcDbMText
 10
722.2497201754559
 20
-49.94129735688773
 30
0
 40
3
 41
5.536224695266817
 71
    1
 72
    1
  1
4.8
  7
cursive
210
0
220
0
230
1
 50
90
 73
    2
 44
1
  0
MTEXT
  5
131
100
AcDbEntity
  8
Text
  6
ByLayer
 62
  256
370
   -1
100
AcDbMText
 10
722.2497201754559
 20
-29.67789895231772
 30
0
 40
3
 41
2.137666666666667
 71
    1
 72
    1
  1
5
  7
cursive
210
0
220
0
230
1
 50
90
 73
    2
 44
1
  0
MTEXT
  5
132
100
AcDbEntity
  8
Text
  6
ByLayer
 62
  256
370
   -1
100
AcDbMText
 10
722.2497201754559
 20
0.322101047682283
 30
0
 40
3
 41
5.797756666666666
 71
    1
 72
    1
  1
5.6
  7
cursive
210
0
220
0
230
1
 50
90
 73
    2
 44
1
  0
LINE
  5
133
100
AcDbEntity
  8
boundary
  6
ByLayer
 62
  256
370
   -1
100
AcDbLine
 10
563
 20
-130
 11
563
 21
-120
  0
LINE
  5
134
100
AcDbEntity
  8
boundary
  6
ByLayer
 62
  256
370
   -1
100
AcDbLine
 10
563
 20
-120
 11
564
 21
-120
  0
LINE
  5
135
100
AcDbEntity
  8
boundary
  6
ByLayer
 62
  256
370
   -1
100
AcDbLine
 10
564
 20
-120
 11
564
 21
-130
  0
LINE
  5
136
100
AcDbEntity
  8
boundary
  6
ByLayer
 62
  256
370
   -1
100
AcDbLine
 10
564
 20
-130
 11
570
 21
-130
  0
LINE
  5
137
100
AcDbEntity
  8
boundary
  6
ByLayer
 62
  256
370
   -1
100
AcDbLine
 10
570
 20
-130
 11
570
 21
-120
  0
LINE
  5
138
100
AcDbEntity
  8
boundary
  6
ByLayer
 62
  256
370
   -1
100
AcDbLine
 10
570
 20
-120
 11
571.2
 21
-120
  0
LINE
  5
139
100
AcDbEntity
  8
boundary
  6
ByLayer
 62
  256
370
   -1
100
AcDbLine
 10
571.2
 20
-120
 11
571.2
 21
-130.0000000000001
  0
LINE
  5
13A
100
AcDbEntity
  8
boundary
  6
ByLayer
 62
  256
370
   -1
100
AcDbLine
 10
571.2
 20
-130.0000000000001
 11
577
 21
-130.0000000000001
  0
LINE
  5
13B
100
AcDbEntity
  8
boundary
  6
ByLayer
 62
  256
370
   -1
100
AcDbLine
 10
577
 20
-130.0000000000001
 11
577
 21
-119.6
  0
LINE
  5
13C
100
AcDbEntity
  8
boundary
  6
ByLayer
 62
  256
370
   -1
100
AcDbLine
 10
577
 20
-119.6
 11
578.4
 21
-119.6
  0
LINE
  5
13D
100
AcDbEntity
  8
boundary
  6
ByLayer
 62
  256
370
   -1
100
AcDbLine
 10
578.4
 20
-119.6
 11
578.4
 21
-130
  0
LINE
  5
13E
100
AcDbEntity
  8
boundary
  6
ByLayer
 62
  256
370
   -1
100
AcDbLine
 10
578.4
 20
-130
 11
585
 21
-130
  0
LINE
  5
13F
100
AcDbEntity
  8
boundary
  6
ByLayer
 62
  256
370
   -1
100
AcDbLine
 10
585
 20
-130
 11
585
 21
-119.4
  0
LINE
  5
140
100
AcDbEntity
  8
boundary
  6
ByLayer
 62
  256
370
   -1
100
AcDbLine
 10
585
 20
-119.4
 11
586.5
 21
-119.4
  0
LINE
  5
141
100
AcDbEntity
  8
boundary
  6
ByLayer
 62
  256
370
   -1
100
AcDbLine
 10
586.5
 20
-119.4
 11
586.5
 21
-130
  0
LINE
  5
142
100
AcDbEntity
  8
boundary
  6
ByLayer
 62
  256
370
   -1
100
AcDbLine
 10
586.5
 20
-130
 11
593
 21
-130
  0
LINE
  5
143
100
AcDbEntity
  8
boundary
  6
ByLayer
 62
  256
370
   -1
100
AcDbLine
 10
593
 20
-130
 11
593
 21
-119.2
  0
LINE
  5
144
100
AcDbEntity
  8
boundary
  6
ByLayer
 62
  256
370
   -1
100
AcDbLine
 10
593
 20
-119.2
 11
594.8
 21
-119.2
  0
LINE
  5
145
100
AcDbEntity
  8
boundary
  6
ByLayer
 62
  256
370
   -1
100
AcDbLine
 10
594.8
 20
-119.2
 11
594.8
 21
-130
  0
LINE
  5
146
100
AcDbEntity
  8
boundary
  6
ByLayer
 62
  256
370
   -1
100
AcDbLine
 10
594.8
 20
-130
 11
610
 21
-130
  0
LINE
  5
147
100
AcDbEntity
  8
boundary
  6
ByLayer
 62
  256
370
   -1
100
AcDbLine
 10
610
 20
-130
 11
610
 21
-110
  0
LINE
  5
148
100
AcDbEntity
  8
boundary
  6
ByLayer
 62
  256
370
   -1
100
AcDbLine
 10
610
 20
-110
 11
612
 21
-110
  0
LINE
  5
149
100
AcDbEntity
  8
boundary
  6
ByLayer
 62
  256
370
   -1
100
AcDbLine
 10
612
 20
-110
 11
612
 21
-130
  0
LINE
  5
14A
100
AcDbEntity
  8
boundary
  6
ByLayer
 62
  256
370
   -1
100
AcDbLine
 10
612
 20
-130
 11
620
 21
-130
  0
LINE
  5
14B
100
AcDbEntity
  8
boundary
  6
ByLayer
 62
  256
370
   -1
100
AcDbLine
 10
620
 20
-130
 11
620
 21
-109.6
  0
LINE
  5
14C
100
AcDbEntity
  8
boundary
  6
ByLayer
 62
  256
370
   -1
100
AcDbLine
 10
620
 20
-109.6
 11
622.4
 21
-109.6
  0
LINE
  5
14D
100
AcDbEntity
  8
boundary
  6
ByLayer
 62
  256
370
   -1
100
AcDbLine
 10
670
 20
-130
 11
670
 21
-107
  0
LINE
  5
14E
100
AcDbEntity
  8
boundary
  6
ByLayer
 62
  256
370
   -1
100
AcDbLine
 10
670
 20
-107
 11
673
 21
-107
  0
LINE
  5
14F
100
AcDbEntity
  8
boundary
  6
ByLayer
 62
  256
370
   -1
100
AcDbLine
 10
673
 20
-107
 11
673
 21
-130
  0
LINE
  5
150
100
AcDbEntity
  8
boundary
  6
ByLayer
 62
  256
370
   -1
100
AcDbLine
 10
673
 20
-130
 11
680
 21
-130
  0
LINE
  5
151
100
AcDbEntity
  8
boundary
  6
ByLayer
 62
  256
370
   -1
100
AcDbLine
 10
680
 20
-130
 11
680
 21
-107
  0
LINE
  5
152
100
AcDbEntity
  8
boundary
  6
ByLayer
 62
  256
370
   -1
100
AcDbLine
 10
680
 20
-107
 11
683
 21
-107
  0
LINE
  5
153
100
AcDbEntity
  8
boundary
  6
ByLayer
 62
  256
370
   -1
100
AcDbLine
 10
683
 20
-107
 11
683
 21
-130
  0
LINE
  5
154
100
AcDbEntity
  8
boundary
  6
ByLayer
 62
  256
370
   -1
100
AcDbLine
 10
683
 20
-130
 11
690
 21
-130
  0
LINE
  5
155
100
AcDbEntity
  8
boundary
  6
ByLayer
 62
  256
370
   -1
100
AcDbLine
 10
690
 20
-130
 11
690
 21
-107
  0
LINE
  5
156
100
AcDbEntity
  8
boundary
  6
ByLayer
 62
  256
370
   -1
100
AcDbLine
 10
690
 20
-107
 11
693
 21
-107
  0
LINE
  5
157
100
AcDbEntity
  8
boundary
  6
ByLayer
 62
  256
370
   -1
100
AcDbLine
 10
693
 20
-107
 11
693
 21
-130
  0
LINE
  5
158
100
AcDbEntity
  8
boundary
  6
ByLayer
 62
  256
370
   -1
100
AcDbLine
 10
693
 20
-130
 11
700
 21
-130
  0
LINE
  5
159
100
AcDbEntity
  8
boundary
  6
ByLayer
 62
  256
370
   -1
100
AcDbLine
 10
700
 20
-130
 11
700
 21
-107
  0
LINE
  5
15A
100
AcDbEntity
  8
boundary
  6
ByLayer
 62
  256
370
   -1
100
AcDbLine
 10
700
 20
-107
 11
703
 21
-107
  0
LINE
  5
15B
100
AcDbEntity
  8
boundary
  6
ByLayer
 62
  256
370
   -1
100
AcDbLine
 10
703
 20
-107
 11
703
 21
-130
  0
LINE
  5
15C
100
AcDbEntity
  8
boundary
  6
ByLayer
 62
  256
370
   -1
100
AcDbLine
 10
703
 20
-130
 11
710
 21
-130
  0
LINE
  5
15D
100
AcDbEntity
  8
boundary
  6
ByLayer
 62
  256
370
   -1
100
AcDbLine
 10
710
 20
-130
 11
710
 21
-107
  0
LINE
  5
15E
100
AcDbEntity
  8
boundary
  6
ByLayer
 62
  256
370
   -1
100
AcDbLine
 10
710
 20
-107
 11
713
 21
-107
  0
LINE
  5
15F
100
AcDbEntity
  8
boundary
  6
ByLayer
 62
  256
370
   -1
100
AcDbLine
 10
713
 20
-107
 11
713
 21
-130
  0
LINE
  5
160
100
AcDbEntity
  8
boundary
  6
ByLayer
 62
  256
370
   -1
100
AcDbLine
 10
622.4
 20
-109.6
 11
622.4
 21
-130
  0
LINE
  5
161
100
AcDbEntity
  8
boundary
  6
ByLayer
 62
  256
370
   -1
100
AcDbLine
 10
622.4
 20
-130
 11
640
 21
-130
  0
LWPOLYLINE
  5
162
100
AcDbEntity
  8
boundary
  6
ByLayer
 62
  256
370
   -1
100
AcDbPolyline
 90
   13
 70
    0
 43
0
 10
622.4
 20
-130
 10
630
 20
-130
 10
630
 20
-110
 10
632.4
 20
-110
 10
632.4
 20
-130
 10
640
 20
-130
 10
640
 20
-110
 10
642.6
 20
-110
 10
642.6
 20
-130
 10
650
 20
-130
 10
650
 20
-110
 10
652.8
 20
-110
 10
652.8
 20
-130
  0
LINE
  5
163
100
AcDbEntity
  8
boundary
  6
ByLayer
 62
  256
370
   -1
100
AcDbLine
 10
652.8
 20
-130
 11
670
 21
-130
  0
LINE
  5
164
100
AcDbEntity
  8
boundary
  6
ByLayer
 62
  256
370
   -1
100
AcDbLine
 10
750
 20
-30
 11
727
 21
-30
  0
LINE
  5
165
100
AcDbEntity
  8
boundary
  6
ByLayer
 62
  256
370
   -1
100
AcDbLine
 10
727
 20
-30
 11
727
 21
-25
  0
LINE
  5
166
100
AcDbEntity
  8
boundary
  6
ByLayer
 62
  256
370
   -1
100
AcDbLine
 10
727
 20
-25
 11
750
 21
-25
  0
LINE
  5
167
100
AcDbEntity
  8
boundary
  6
ByLayer
 62
  256
370
   -1
100
AcDbLine
 10
750
 20
-25
 11
750
 21
-20
  0
LINE
  5
168
100
AcDbEntity
  8
boundary
  6
ByLayer
 62
  256
370
   -1
100
AcDbLine
 10
750
 20
-20
 11
727
 21
-20
  0
LINE
  5
169
100
AcDbEntity
  8
boundary
  6
ByLayer
 62
  256
370
   -1
100
AcDbLine
 10
750
 20
-90
 11
727
 21
-90
  0
LINE
  5
16A
100
AcDbEntity
  8
boundary
  6
ByLayer
 62
  256
370
   -1
100
AcDbLine
 10
727
 20
-90
 11
727
 21
-86
  0
LINE
  5
16B
100
AcDbEntity
  8
boundary
  6
ByLayer
 62
  256
370
   -1
100
AcDbLine
 10
727
 20
-86
 11
750
 21
-86
  0
LINE
  5
16C
100
AcDbEntity
  8
boundary
  6
ByLayer
 62
  256
370
   -1
100
AcDbLine
 10
750
 20
-86
 11
750
 21
-80
  0
LINE
  5
16D
100
AcDbEntity
  8
boundary
  6
ByLayer
 62
  256
370
   -1
100
AcDbLine
 10
750
 20
-80
 11
727
 21
-80
  0
LINE
  5
16E
100
AcDbEntity
  8
boundary
  6
ByLayer
 62
  256
370
   -1
100
AcDbLine
 10
727
 20
-80
 11
727
 21
-76
  0
LINE
  5
16F
100
AcDbEntity
  8
boundary
  6
ByLayer
 62
  256
370
   -1
100
AcDbLine
 10
727
 20
-76
 11
750
 21
-76
  0
LINE
  5
170
100
AcDbEntity
  8
boundary
  6
ByLayer
 62
  256
370
   -1
100
AcDbLine
 10
750
 20
-76
 11
750
 21
-70
  0
LINE
  5
171
100
AcDbEntity
  8
boundary
  6
ByLayer
 62
  256
370
   -1
100
AcDbLine
 10
750
 20
-70
 11
727
 21
-70
  0
LINE
  5
172
100
AcDbEntity
  8
boundary
  6
ByLayer
 62
  256
370
   -1
100
AcDbLine
 10
727
 20
-70
 11
727
 21
-66
  0
LINE
  5
173
100
AcDbEntity
  8
boundary
  6
ByLayer
 62
  256
370
   -1
100
AcDbLine
 10
727
 20
-66
 11
750
 21
-66
  0
LINE
  5
174
100
AcDbEntity
  8
boundary
  6
ByLayer
 62
  256
370
   -1
100
AcDbLine
 10
750
 20
-66
 11
750
 21
-60
  0
LINE
  5
175
100
AcDbEntity
  8
boundary
  6
ByLayer
 62
  256
370
   -1
100
AcDbLine
 10
750
 20
-60
 11
727
 21
-60
  0
LINE
  5
176
100
AcDbEntity
  8
boundary
  6
ByLayer
 62
  256
370
   -1
100
AcDbLine
 10
727
 20
-60
 11
727
 21
-56
  0
LINE
  5
177
100
AcDbEntity
  8
boundary
  6
ByLayer
 62
  256
370
   -1
100
AcDbLine
 10
727
 20
-56
 11
750
 21
-56
  0
LINE
  5
178
100
AcDbEntity
  8
boundary
  6
ByLayer
 62
  256
370
   -1
100
AcDbLine
 10
750
 20
-56
 11
750
 21
-50
  0
LINE
  5
179
100
AcDbEntity
  8
boundary
  6
ByLayer
 62
  256
370
   -1
100
AcDbLine
 10
750
 20
-50
 11
727
 21
-50
  0
LINE
  5
17A
100
AcDbEntity
  8
boundary
  6
ByLayer
 62
  256
370
   -1
100
AcDbLine
 10
727
 20
-50
 11
727
 21
-46
  0
LINE
  5
17B
100
AcDbEntity
  8
boundary
  6
ByLayer
 62
  256
370
   -1
100
AcDbLine
 10
727
 20
-46
 11
750
 21
-46
  0
LINE
  5
17C
100
AcDbEntity
  8
boundary
  6
ByLayer
 62
  256
370
   -1
100
AcDbLine
 10
750
 20
-46
 11
750
 21
-30
  0
LINE
  5
17D
100
AcDbEntity
  8
boundary
  6
ByLayer
 62
  256
370
   -1
100
AcDbLine
 10
727
 20
-20
 11
727
 21
-14.79999999999995
  0
LINE
  5
17E
100
AcDbEntity
  8
boundary
  6
ByLayer
 62
  256
370
   -1
100
AcDbLine
 10
727
 20
-10
 11
727
 21
-4.499999999999998
  0
LINE
  5
17F
100
AcDbEntity
  8
boundary
  6
ByLayer
 62
  256
370
   -1
100
AcDbLine
 10
727
 20
1.77635683940025e-15
 11
727
 21
5.600000000000025
  0
LINE
  5
180
100
AcDbEntity
  8
boundary
  6
ByLayer
 62
  256
370
   -1
100
AcDbLine
 10
750
 20
-10
 11
727
 21
-10
  0
LINE
  5
181
100
AcDbEntity
  8
boundary
  6
ByLayer
 62
  256
370
   -1
100
AcDbLine
 10
750
 20
0
 11
727
 21
1.77635683940025e-15
  0
LINE
  5
182
100
AcDbEntity
  8
boundary
  6
ByLayer
 62
  256
370
   -1
100
AcDbLine
 10
750
 20
-14.79999999999995
 11
750
 21
-10
  0
LINE
  5
183
100
AcDbEntity
  8
boundary
  6
ByLayer
 62
  256
370
   -1
100
AcDbLine
 10
727
 20
-14.79999999999995
 11
750
 21
-14.79999999999995
  0
LINE
  5
184
100
AcDbEntity
  8
boundary
  6
ByLayer
 62
  256
370
   -1
100
AcDbLine
 10
750
 20
5.600000000000023
 11
750
 21
10
  0
LINE
  5
185
100
AcDbEntity
  8
boundary
  6
ByLayer
 62
  256
370
   -1
100
AcDbLine
 10
727
 20
5.600000000000025
 11
750
 21
5.600000000000023
  0
LINE
  5
186
100
AcDbEntity
  8
boundary
  6
ByLayer
 62
  256
370
   -1
100
AcDbLine
 10
750
 20
-4.599999999999909
 11
750
 21
0
  0
LINE
  5
187
100
AcDbEntity
  8
boundary
  6
ByLayer
 62
  256
370
   -1
100
AcDbLine
 10
727
 20
-4.499999999999998
 11
750
 21
-4.599999999999909
  0
LINE
  5
188
100
AcDbEntity
  8
boundary
  6
ByLayer
 62
  256
370
   -1
100
AcDbLine
 10
582.5173713905053
 20
52.74463935106473
 11
552.5173713905053
 21
92.74463935106473
  0
LINE
  5
189
100
AcDbEntity
  8
boundary
  6
ByLayer
 62
  256
370
   -1
100
AcDbLine
 10
750
 20
-90
 11
750
 21
-130
  0
LINE
  5
18A
100
AcDbEntity
  8
boundary
  6
ByLayer
 62
  256
370
   -1
100
AcDbLine
 10
713
 20
-130
 11
750
 21
-130
  0
LINE
  5
18B
100
AcDbEntity
  8
boundary
  6
ByLayer
 62
  256
370
   -1
100
AcDbLine
 10
750
 20
10
 11
750
 21
92.74463935106473
  0
LINE
  5
18C
100
AcDbEntity
  8
boundary
  6
ByLayer
 62
  256
370
   -1
100
AcDbLine
 10
552.5173713905053
 20
92.74463935106473
 11
750
 21
92.74463935106473
  0
LINE
  5
18D
100
AcDbEntity
  8
boundary
  6
ByLayer
 62
  256
370
   -1
100
AcDbLine
 10
552.5173713905053
 20
-130
 11
552.5173713905053
 21
92.74463935106473
  0
LINE
  5
18E
100
AcDbEntity
  8
boundary
  6
ByLayer
 62
  256
370
   -1
100
AcDbLine
 10
563
 20
-130
 11
552.5173713905053
 21
-130
  0
LINE
  5
18F
100
AcDbEntity
  8
s30p30
  6
ByLayer
 62
  256
370
    0
100
AcDbLine
 10
594.0976036292749
 20
9.764407112295203
 11
630.8976036292748
 21
9.764407112295203
  0
CIRCLE
  5
190
100
AcDbEntity
  8
s30p30
  6
ByLayer
 62
  256
370
    0
100
AcDbCircle
 10
612.5173713905053
 20
32.74463935106473
 40
10
  0
LINE
  5
191
100
AcDbEntity
  8
s30p30
  6
ByLayer
 62
  256
370
    0
100
AcDbLine
 10
597.5976036292749
 20
14.7644071122952
 11
627.3976036292748
 21
14.7644071122952
  0
LINE
  5
192
100
AcDbEntity
  8
s30p30
  6
ByLayer
 62
  256
370
    0
100
AcDbLine
 10
600.3976036292748
 20
18.7644071122952
 11
624.5976036292749
 21
18.7644071122952
  0
LWPOLYLINE
  5
193
100
AcDbEntity
  8
s30p30
  6
ByLayer
 62
  256
370
   -1
100
AcDbPolyline
 90
    5
 70
    0
 43
0
 10
605.4463035786398
 20
25.67357153919926
 10
605.4463035786399
 20
39.81570716293021
 10
619.5884392023709
 20
39.81570716293021
 10
619.5884392023708
 20
25.67357153919926
 10
605.4463035786398
 20
25.67357153919926
  0
LINE
  5
194
100
AcDbEntity
  8
s30p30
  6
ByLayer
 62
  256
370
    0
100
AcDbLine
 10
602.4975713905053
 20
21.76443935106473
 11
622.4976013905053
 21
21.76443935106473
  0
CIRCLE
  5
195
100
AcDbEntity
  8
s30p60
  6
ByLayer
 62
  256
370
    0
100
AcDbCircle
 10
652.5173713905053
 20
32.74463935106473
 40
10
  0
LINE
  5
196
100
AcDbEntity
  8
s30p60
  6
ByLayer
 62
  256
370
    0
100
AcDbLine
 10
642.4976036292749
 20
21.7644071122952
 11
662.4976036292749
 21
21.7644071122952
  0
LINE
  5
197
100
AcDbEntity
  8
s30p60
  6
ByLayer
 62
  256
370
    0
100
AcDbLine
 10
634.0976036292749
 20
9.764407112295203
 11
670.8976036292748
 21
9.764407112295203
  0
LINE
  5
198
100
AcDbEntity
  8
s30p60
  6
ByLayer
 62
  256
370
    0
100
AcDbLine
 10
637.5976036292749
 20
14.7644071122952
 11
667.3976036292748
 21
14.7644071122952
  0
LINE
  5
199
100
AcDbEntity
  8
s30p60
  6
ByLayer
 62
  256
370
    0
100
AcDbLine
 10
640.3976036292748
 20
18.7644071122952
 11
664.5976036292749
 21
18.7644071122952
  0
LWPOLYLINE
  5
19A
100
AcDbEntity
  8
s30p60
  6
ByLayer
 62
  256
370
   -1
100
AcDbPolyline
 90
    4
 70
    0
 43
0
 10
652.5173713905053
 20
42.74463935106473
 10
645.4463035786398
 20
25.67357153919926
 10
659.5884392023709
 20
25.67357153919926
 10
652.5173713905053
 20
42.74463935106473
  0
LINE
  5
19B
100
AcDbEntity
  8
s30p90
  6
ByLayer
 62
  256
370
    0
100
AcDbLine
 10
674.0976036292749
 20
9.764407112295203
 11
710.8976036292748
 21
9.764407112295203
  0
CIRCLE
  5
19C
100
AcDbEntity
  8
s30p90
  6
ByLayer
 62
  256
370
    0
100
AcDbCircle
 10
692.5173713905053
 20
32.74463935106473
 40
10
  0
LINE
  5
19D
100
AcDbEntity
  8
s30p90
  6
ByLayer
 62
  256
370
    0
100
AcDbLine
 10
682.4976036292749
 20
21.7644071122952
 11
702.4976036292749
 21
21.7644071122952
  0
LINE
  5
19E
100
AcDbEntity
  8
s30p90
  6
ByLayer
 62
  256
370
    0
100
AcDbLine
 10
677.5976036292749
 20
14.7644071122952
 11
707.3976036292748
 21
14.7644071122952
  0
LINE
  5
19F
100
AcDbEntity
  8
s30p90
  6
ByLayer
 62
  256
370
    0
100
AcDbLine
 10
680.3976036292748
 20
18.7644071122952
 11
704.5976036292749
 21
18.7644071122952
  0
LWPOLYLINE
  5
1A0
100
AcDbEntity
  8
s30p90
  6
ByLayer
 62
  256
370
   -1
100
AcDbPolyline
 90
    7
 70
    0
 43
0
 10
682.5173713905053
 20
32.74463935106473
 10
692.5173713905053
 20
42.74463935106473
 10
702.5173713905053
 20
32.74463935106473
 10
699.5884392023709
 20
25.67357153919926
 10
692.5173713905053
 20
22.74463935106473
 10
685.4463035786398
 20
25.67357153919926
 10
682.5173713905053
 20
32.74463935106473
  0
LINE
  5
1A1
100
AcDbEntity
  8
s60p30
  6
ByLayer
 62
  256
370
    0
100
AcDbLine
 10
594.0976036292749
 20
-30.2355928877048
 11
630.8976036292748
 21
-30.2355928877048
  0
CIRCLE
  5
1A2
100
AcDbEntity
  8
s60p30
  6
ByLayer
 62
  256
370
    0
100
AcDbCircle
 10
612.5173713905053
 20
-7.255360648935266
 40
10
  0
LINE
  5
1A3
100
AcDbEntity
  8
s60p30
  6
ByLayer
 62
  256
370
    0
100
AcDbLine
 10
602.4976036292749
 20
-18.2355928877048
 11
622.4976036292749
 21
-18.2355928877048
  0
LINE
  5
1A4
100
AcDbEntity
  8
s60p30
  6
ByLayer
 62
  256
370
    0
100
AcDbLine
 10
597.5976036292749
 20
-25.2355928877048
 11
627.3976036292748
 21
-25.2355928877048
  0
LINE
  5
1A5
100
AcDbEntity
  8
s60p30
  6
ByLayer
 62
  256
370
    0
100
AcDbLine
 10
600.3976036292748
 20
-21.2355928877048
 11
624.5976036292749
 21
-21.2355928877048
  0
LWPOLYLINE
  5
1A6
100
AcDbEntity
  8
s60p30
  6
ByLayer
 62
  256
370
   -1
100
AcDbPolyline
 90
    5
 70
    0
 43
0
 10
605.4463035786398
 20
-14.32642846080074
 10
605.4463035786399
 20
-0.1842928370697905
 10
619.5884392023709
 20
-0.1842928370697905
 10
619.5884392023708
 20
-14.32642846080074
 10
605.4463035786398
 20
-14.32642846080074
  0
CIRCLE
  5
1A7
100
AcDbEntity
  8
s60p60
  6
ByLayer
 62
  256
370
    0
100
AcDbCircle
 10
652.5173713905053
 20
-7.255360648935266
 40
10
  0
LINE
  5
1A8
100
AcDbEntity
  8
s60p60
  6
ByLayer
 62
  256
370
    0
100
AcDbLine
 10
642.4976036292749
 20
-18.2355928877048
 11
662.4976036292749
 21
-18.2355928877048
  0
LINE
  5
1A9
100
AcDbEntity
  8
s60p60
  6
ByLayer
 62
  256
370
    0
100
AcDbLine
 10
634.0976036292749
 20
-30.2355928877048
 11
670.8976036292748
 21
-30.2355928877048
  0
LINE
  5
1AA
100
AcDbEntity
  8
s60p60
  6
ByLayer
 62
  256
370
    0
100
AcDbLine
 10
637.5976036292749
 20
-25.2355928877048
 11
667.3976036292748
 21
-25.2355928877048
  0
LINE
  5
1AB
100
AcDbEntity
  8
s60p60
  6
ByLayer
 62
  256
370
    0
100
AcDbLine
 10
640.3976036292748
 20
-21.2355928877048
 11
664.5976036292749
 21
-21.2355928877048
  0
LWPOLYLINE
  5
1AC
100
AcDbEntity
  8
s60p60
  6
ByLayer
 62
  256
370
   -1
100
AcDbPolyline
 90
    4
 70
    0
 43
0
 10
652.5173713905053
 20
2.744639351064734
 10
645.4463035786398
 20
-14.32642846080074
 10
659.5884392023709
 20
-14.32642846080074
 10
652.5173713905053
 20
2.744639351064734
  0
LINE
  5
1AD
100
AcDbEntity
  8
s60p90
  6
ByLayer
 62
  256
370
    0
100
AcDbLine
 10
674.0976036292749
 20
-30.2355928877048
 11
710.8976036292748
 21
-30.2355928877048
  0
CIRCLE
  5
1AE
100
AcDbEntity
  8
s60p90
  6
ByLayer
 62
  256
370
    0
100
AcDbCircle
 10
692.5173713905053
 20
-7.255360648935266
 40
10
  0
LINE
  5
1AF
100
AcDbEntity
  8
s60p90
  6
ByLayer
 62
  256
370
    0
100
AcDbLine
 10
682.4976036292749
 20
-18.2355928877048
 11
702.4976036292749
 21
-18.2355928877048
  0
LINE
  5
1B0
100
AcDbEntity
  8
s60p90
  6
ByLayer
 62
  256
370
    0
100
AcDbLine
 10
677.5976036292749
 20
-25.2355928877048
 11
707.3976036292748
 21
-25.2355928877048
  0
LINE
  5
1B1
100
AcDbEntity
  8
s60p90
  6
ByLayer
 62
  256
370
    0
100
AcDbLine
 10
680.3976036292748
 20
-21.2355928877048
 11
704.5976036292749
 21
-21.2355928877048
  0
LWPOLYLINE
  5
1B2
100
AcDbEntity
  8
s60p90
  6
ByLayer
 62
  256
370
   -1
100
AcDbPolyline
 90
    7
 70
    0
 43
0
 10
682.5173713905053
 20
-7.255360648935266
 10
692.5173713905053
 20
2.744639351064734
 10
702.5173713905053
 20
-7.255360648935266
 10
699.5884392023709
 20
-14.32642846080074
 10
692.5173713905053
 20
-17.25536064893527
 10
685.4463035786398
 20
-14.32642846080074
 10
682.5173713905053
 20
-7.255360648935266
  0
LINE
  5
1B3
100
AcDbEntity
  8
s90p30
  6
ByLayer
 62
  256
370
    0
100
AcDbLine
 10
594.0976036292749
 20
-70.23559288770477
 11
630.8976036292748
 21
-70.23559288770477
  0
CIRCLE
  5
1B4
100
AcDbEntity
  8
s90p30
  6
ByLayer
 62
  256
370
    0
100
AcDbCircle
 10
612.5173713905053
 20
-47.25536064893527
 40
10
  0
LINE
  5
1B5
100
AcDbEntity
  8
s90p30
  6
ByLayer
 62
  256
370
    0
100
AcDbLine
 10
602.4976036292749
 20
-58.2355928877048
 11
622.4976036292749
 21
-58.2355928877048
  0
LINE
  5
1B6
100
AcDbEntity
  8
s90p30
  6
ByLayer
 62
  256
370
    0
100
AcDbLine
 10
597.5976036292749
 20
-65.2355928877048
 11
627.3976036292748
 21
-65.2355928877048
  0
LINE
  5
1B7
100
AcDbEntity
  8
s90p30
  6
ByLayer
 62
  256
370
    0
100
AcDbLine
 10
600.3976036292748
 20
-61.2355928877048
 11
624.5976036292749
 21
-61.2355928877048
  0
LWPOLYLINE
  5
1B8
100
AcDbEntity
  8
s90p30
  6
ByLayer
 62
  256
370
   -1
100
AcDbPolyline
 90
    5
 70
    0
 43
0
 10
605.4463035786398
 20
-54.32642846080074
 10
605.4463035786399
 20
-40.18429283706979
 10
619.5884392023709
 20
-40.18429283706979
 10
619.5884392023708
 20
-54.32642846080074
 10
605.4463035786398
 20
-54.32642846080074
  0
CIRCLE
  5
1B9
100
AcDbEntity
  8
s90p60
  6
ByLayer
 62
  256
370
    0
100
AcDbCircle
 10
652.5173713905053
 20
-47.25536064893527
 40
10
  0
LINE
  5
1BA
100
AcDbEntity
  8
s90p60
  6
ByLayer
 62
  256
370
    0
100
AcDbLine
 10
642.4976036292749
 20
-58.2355928877048
 11
662.4976036292749
 21
-58.2355928877048
  0
LINE
  5
1BB
100
AcDbEntity
  8
s90p60
  6
ByLayer
 62
  256
370
    0
100
AcDbLine
 10
634.0976036292749
 20
-70.23559288770477
 11
670.8976036292748
 21
-70.23559288770477
  0
LINE
  5
1BC
100
AcDbEntity
  8
s90p60
  6
ByLayer
 62
  256
370
    0
100
AcDbLine
 10
637.5976036292749
 20
-65.2355928877048
 11
667.3976036292748
 21
-65.2355928877048
  0
LINE
  5
1BD
100
AcDbEntity
  8
s90p60
  6
ByLayer
 62
  256
370
    0
100
AcDbLine
 10
640.3976036292748
 20
-61.2355928877048
 11
664.5976036292749
 21
-61.2355928877048
  0
LWPOLYLINE
  5
1BE
100
AcDbEntity
  8
s90p60
  6
ByLayer
 62
  256
370
   -1
100
AcDbPolyline
 90
    4
 70
    0
 43
0
 10
652.5173713905053
 20
-37.25536064893527
 10
645.4463035786398
 20
-54.32642846080074
 10
659.5884392023709
 20
-54.32642846080074
 10
652.5173713905053
 20
-37.25536064893527
  0
LINE
  5
1BF
100
AcDbEntity
  8
s90p90
  6
ByLayer
 62
  256
370
    0
100
AcDbLine
 10
674.0976036292749
 20
-70.23559288770477
 11
710.8976036292748
 21
-70.23559288770477
  0
CIRCLE
  5
1C0
100
AcDbEntity
  8
s90p90
  6
ByLayer
 62
  256
370
    0
100
AcDbCircle
 10
692.5173713905053
 20
-47.25536064893527
 40
10
  0
LINE
  5
1C1
100
AcDbEntity
  8
s90p90
  6
ByLayer
 62
  256
370
    0
100
AcDbLine
 10
682.4976036292749
 20
-58.2355928877048
 11
702.4976036292749
 21
-58.2355928877048
  0
LINE
  5
1C2
100
AcDbEntity
  8
s90p90
  6
ByLayer
 62
  256
370
    0
100
AcDbLine
 10
677.5976036292749
 20
-65.2355928877048
 11
707.3976036292748
 21
-65.2355928877048
  0
LINE
  5
1C3
100
AcDbEntity
  8
s90p90
  6
ByLayer
 62
  256
370
    0
100
AcDbLine
 10
680.3976036292748
 20
-61.2355928877048
 11
704.5976036292749
 21
-61.2355928877048
  0
LWPOLYLINE
  5
1C4
100
AcDbEntity
  8
s90p90
  6
ByLayer
 62
  256
370
   -1
100
AcDbPolyline
 90
    7
 70
    0
 43
0
 10
682.5173713905053
 20
-47.25536064893527
 10
692.5173713905053
 20
-37.25536064893527
 10
702.5173713905053
 20
-47.25536064893527
 10
699.5884392023709
 20
-54.32642846080074
 10
692.5173713905053
 20
-57.25536064893527
 10
685.4463035786398
 20
-54.32642846080074
 10
682.5173713905053
 20
-47.25536064893527
  0
ENDSEC
  0
SECTION
  2
OBJECTS
  0
DICTIONARY
  5
C
330
0
100
AcDbDictionary
281
    1
  3
ACAD_GROUP
350
D
  0
DICTIONARY
  5
D
330
C
100
AcDbDictionary
281
    1
  0
ENDSEC
  0
EOF
