0
SECTION
2
HEADER
9
$INSUNITS
70
5
9
$ACADVER
1
AC1014
9
$HANDSEED
5
FFFF
0
ENDSEC
0
SECTION
2
TABLES
0
TABLE
2
VPORT
5
8
100
AcDbSymbolTable
0
ENDTAB
0
TABLE
2
LTYPE
5
5
100
AcDbSymbolTable
0
LTYPE
5
14
100
AcDbSymbolTableRecord
100
AcDbLinetypeTableRecord
2
BYBLOCK
70
0
0
LTYPE
5
15
100
AcDbSymbolTableRecord
100
AcDbLinetypeTableRecord
2
BYLAYER
70
0
0
ENDTAB
0
TABLE
2
LAYER
5
2
100
AcDbSymbolTable
70
2
0
LAYER
5
50
100
AcDbSymbolTableRecord
100
AcDbLayerTableRecord
2
0
70
0
6
CONTINUOUS
0
ENDTAB
0
TABLE
2
STYLE
5
3
100
AcDbSymbolTable
70
1
0
STYLE
5
11
100
AcDbSymbolTableRecord
100
AcDbTextStyleTableRecord
2
STANDARD
70
0
0
ENDTAB
0
TABLE
2
VIEW
5
6
100
AcDbSymbolTable
70
0
0
ENDTAB
0
TABLE
2
UCS
5
7
100
AcDbSymbolTable
70
0
0
ENDTAB
0
TABLE
2
APPID
5
9
100
AcDbSymbolTable
70
2
0
APPID
5
12
100
AcDbSymbolTableRecord
100
AcDbRegAppTableRecord
2
ACAD
70
0
0
ENDTAB
0
TABLE
2
DIMSTYLE
5
A
100
AcDbSymbolTable
70
1
0
ENDTAB
0
TABLE
2
BLOCK_RECORD
5
1
100
AcDbSymbolTable
70
1
0
BLOCK_RECORD
5
1F
100
AcDbSymbolTableRecord
100
AcDbBlockTableRecord
2
*MODEL_SPACE
0
BLOCK_RECORD
5
1B
100
AcDbSymbolTableRecord
100
AcDbBlockTableRecord
2
*PAPER_SPACE
0
ENDTAB
0
ENDSEC
0
SECTION
2
BLOCKS
0
BLOCK
5
20
100
AcDbEntity
100
AcDbBlockBegin
2
*MODEL_SPACE
0
ENDBLK
5
21
100
AcDbEntity
100
AcDbBlockEnd
0
BLOCK
5
1C
100
AcDbEntity
100
AcDbBlockBegin
2
*PAPER_SPACE
0
ENDBLK
5
1D
100
AcDbEntity
100
AcDbBlockEnd
0
ENDSEC
0
SECTION
2
ENTITIES
0
ARC
5
100
100
AcDbEntity
8
0
100
AcDbCircle
10
-22.221225217496087
20
-9.0990888328084996
30
0
40
24.012002576920246
100
AcDbArc
50
22.267989183599234
51
157.73201081640076
0
LINE
5
101
100
AcDbEntity
8
0
100
AcDbLine
10
-22.418509230064814
20
-32.273918646813861
30
0
11
-19.116612385279321
21
-30.020681822054421
31
0
0
LINE
5
102
100
AcDbEntity
8
0
100
AcDbLine
10
-19.116612385279321
20
-30.020681822054421
30
0
11
-18.919328372710599
21
-30.30978212942972
31
0
0
LINE
5
103
100
AcDbEntity
8
0
100
AcDbLine
10
-22.221225217496091
20
-32.56301895418914
30
0
11
-18.919328372710599
21
-30.30978212942972
31
0
0
LINE
5
104
100
AcDbEntity
8
0
100
AcDbLine
10
-22.221225217496091
20
14.912913744111737
30
0
11
-22.221225217496034
21
10.912913744111737
31
0
0
LINE
5
105
100
AcDbEntity
8
0
100
AcDbLine
10
-22.221225217496034
20
10.912913744111737
30
0
11
-21.871225217496033
21
10.912913744111737
31
0
0
LINE
5
106
100
AcDbEntity
8
0
100
AcDbLine
10
-21.871225217496033
20
10.912913744111737
30
0
11
-21.871225217496093
21
14.910362800954907
31
0
0
LINE
5
107
100
AcDbEntity
8
0
100
AcDbLine
10
0
20
-65.126037908378294
30
0
11
-44.442450434992168
21
0
31
0
0
LWPOLYLINE
5
108
100
AcDbEntity
8
0
100
AcDbPolyline
90
4
70
1
43
0.0
10
-17.649999999999999
20
-7
10
-18
20
-7
10
-18
20
-15
10
-17.649999999999999
20
-15
0
LINE
5
109
100
AcDbEntity
8
0
100
AcDbLine
10
0
20
20
30
0
11
0
21
-85
31
0
0
LWPOLYLINE
5
110
100
AcDbEntity
8
0
100
AcDbPolyline
90
4
70
1
43
0.0
10
-13
20
-7
10
-13
20
-15
10
-12.649999999999999
20
-15
10
-12.649999999999999
20
-7
0
LWPOLYLINE
5
111
100
AcDbEntity
8
0
100
AcDbPolyline
90
4
70
1
43
0.0
10
-8
20
-7
10
-8
20
-15
10
-7.6499999999999986
20
-15
10
-7.6499999999999986
20
-7
0
ENDSEC
0
SECTION
2
OBJECTS
0
DICTIONARY
5
C
100
AcDbDictionary
3
ACAD_GROUP
350
D
3
ACAD_MLINESTYLE
350
17
0
DICTIONARY
5
D
100
AcDbDictionary
0
DICTIONARY
5
1A
330
C
100
AcDbDictionary
0
DICTIONARY
5
17
100
AcDbDictionary
0
ENDSEC
0
EOF
