  0
SECTION
  2
HEADER
  9
$ACADVER
  1
AC1014
  9
$HANDSEED
  5
FFFF
  9
$MEASUREMENT
 70
     1
  0
ENDSEC
  0
SECTION
  2
TABLES
  0
TABLE
  2
VPORT
  5
8
330
0
100
AcDbSymbolTable
 70
     4
  0
VPORT
  5
2E
330
8
100
AcDbSymbolTableRecord
100
AcDbViewportTableRecord
  2
*ACTIVE
 70
     0
 10
0.0
 20
0.0
 11
1.0
 21
1.0
 12
210.0
 22
148.5
 13
0.0
 23
0.0
 14
10.0
 24
10.0
 15
10.0
 25
10.0
 16
0.0
 26
0.0
 36
1.0
 17
0.0
 27
0.0
 37
0.0
 40
341.0
 41
1.24
 42
50.0
 43
0.0
 44
0.0
 50
0.0
 51
0.0
 71
     0
 72
   100
 73
     1
 74
     3
 75
     0
 76
     0
 77
     0
 78
     0
  0
ENDTAB
  0
TABLE
  2
LTYPE
  5
5
330
0
100
AcDbSymbolTable
 70
     1
  0
LTYPE
  5
14
330
5
100
AcDbSymbolTableRecord
100
AcDbLinetypeTableRecord
  2
BYBLOCK
 70
     0
  3

 72
    65
 73
     0
 40
0.0
  0
LTYPE
  5
15
330
5
100
AcDbSymbolTableRecord
100
AcDbLinetypeTableRecord
  2
BYLAYER
 70
     0
  3

 72
    65
 73
     0
 40
0.0
  0
LTYPE
  5
16
330
5
100
AcDbSymbolTableRecord
100
AcDbLinetypeTableRecord
  2
CONTINUOUS
 70
     0
  3
Solid line
 72
    65
 73
     0
 40
0.0
  0
ENDTAB
  0
TABLE
  2
LAYER
  5
2
100
AcDbSymbolTable
 70
3
  0
LAYER
  5
50
100
AcDbSymbolTableRecord
100
AcDbLayerTableRecord
  2
0
 70
0
  6
CONTINUOUS
  0
LAYER
  5
51
100
AcDbSymbolTableRecord
100
AcDbLayerTableRecord
  2
ink_ext_XXXXXX
 70
0
  6
CONTINUOUS
  0
LAYER
  5
52
100
AcDbSymbolTableRecord
100
AcDbLayerTableRecord
  2
design
 70
0
  6
CONTINUOUS
  0
ENDTAB
  0
TABLE
  2
STYLE
  5
3
330
0
100
AcDbSymbolTable
 70
     1
  0
STYLE
  5
11
330
3
100
AcDbSymbolTableRecord
100
AcDbTextStyleTableRecord
  2
STANDARD
 70
     0
 40
0.0
 41
1.0
 50
0.0
 71
     0
 42
2.5
  3
txt
  4

  0
ENDTAB
  0
TABLE
  2
VIEW
  5
6
330
0
100
AcDbSymbolTable
 70
     0
  0
ENDTAB
  0
TABLE
  2
UCS
  5
7
330
0
100
AcDbSymbolTable
 70
     0
  0
ENDTAB
  0
TABLE
  2
APPID
  5
9
330
0
100
AcDbSymbolTable
 70
     2
  0
APPID
  5
12
330
9
100
AcDbSymbolTableRecord
100
AcDbRegAppTableRecord
  2
ACAD
 70
     0
  0
ENDTAB
  0
TABLE
  2
DIMSTYLE
  5
A
330
0
100
AcDbSymbolTable
 70
     1
  0
DIMSTYLE
105
27
330
A
100
AcDbSymbolTableRecord
100
AcDbDimStyleTableRecord
  2
ISO-25
 70
     0
  3

  4

  5

  6

  7

 40
1.0
 41
2.5
 42
0.625
 43
3.75
 44
1.25
 45
0.0
 46
0.0
 47
0.0
 48
0.0
140
2.5
141
2.5
142
0.0
143
0.03937007874016
144
1.0
145
0.0
146
1.0
147
0.625
 71
     0
 72
     0
 73
     0
 74
     0
 75
     0
 76
     0
 77
     1
 78
     8
170
     0
171
     3
172
     1
173
     0
174
     0
175
     0
176
     0
177
     0
178
     0
270
     2
271
     2
272
     2
273
     2
274
     3
340
11
275
     0
280
     0
281
     0
282
     0
283
     0
284
     8
285
     0
286
     0
287
     3
288
     0
  0
ENDTAB
  0
TABLE
  2
BLOCK_RECORD
  5
1
330
0
100
AcDbSymbolTable
 70
     1
  0
BLOCK_RECORD
  5
1F
330
1
100
AcDbSymbolTableRecord
100
AcDbBlockTableRecord
  2
*MODEL_SPACE
  0
BLOCK_RECORD
  5
1B
330
1
100
AcDbSymbolTableRecord
100
AcDbBlockTableRecord
  2
*PAPER_SPACE
  0
ENDTAB
  0
ENDSEC
  0
SECTION
  2
BLOCKS
  0
BLOCK
  5
20
330
1F
100
AcDbEntity
  8
0
100
AcDbBlockBegin
  2
*MODEL_SPACE
 70
     0
 10
0.0
 20
0.0
 30
0.0
  3
*MODEL_SPACE
  1

  0
ENDBLK
  5
21
330
1F
100
AcDbEntity
  8
0
100
AcDbBlockEnd
  0
BLOCK
  5
1C
330
1B
100
AcDbEntity
 67
     1
  8
0
100
AcDbBlockBegin
  2
*PAPER_SPACE
  1

  0
ENDBLK
  5
1D
330
1B
100
AcDbEntity
 67
     1
  8
0
100
AcDbBlockEnd
  0
ENDSEC
  0
SECTION
  2
ENTITIES
  0
SPLINE
  5
100
100
AcDbEntity
  8
design
 62
1
100
AcDbSpline
 70
8
 71
3
 72
8
 73
4
 74
0
 40
0
 40
0
 40
0
 40
0
 40
1
 40
1
 40
1
 40
1
 10
226.126837
 20
89.268955
 30
0.0
 10
226.025898
 20
88.029154
 30
0.0
 10
225.676041
 20
86.657950
 30
0.0
 10
225.070525
 20
85.066782
 30
0.0
  0
LWPOLYLINE
  5
101
100
AcDbEntity
  8
design
 62
1
100
AcDbPolyline
 90
3
 70
0
 10
224.736716
 20
90.333125
 30
0.0
 10
224.559837
 20
89.878144
 30
0.0
 10
226.126837
 20
89.268955
 30
0.0
  0
SPLINE
  5
102
100
AcDbEntity
  8
design
 62
1
100
AcDbSpline
 70
8
 71
3
 72
8
 73
4
 74
0
 40
0
 40
0
 40
0
 40
0
 40
1
 40
1
 40
1
 40
1
 10
220.196757
 20
84.162978
 30
0.0
 10
224.171750
 20
87.971668
 30
0.0
 10
223.992674
 20
91.561414
 30
0.0
 10
222.323636
 20
93.898077
 30
0.0
  0
SPLINE
  5
103
100
AcDbEntity
  8
design
 62
1
100
AcDbSpline
 70
8
 71
3
 72
8
 73
4
 74
0
 40
0
 40
0
 40
0
 40
0
 40
1
 40
1
 40
1
 40
1
 10
222.323636
 20
93.898077
 30
0.0
 10
221.567767
 20
94.956110
 30
0.0
 10
220.435023
 20
95.951589
 30
0.0
 10
219.051493
 20
97.062341
 30
0.0
  0
SPLINE
  5
104
100
AcDbEntity
  8
design
 62
1
100
AcDbSpline
 70
8
 71
3
 72
8
 73
4
 74
0
 40
0
 40
0
 40
0
 40
0
 40
1
 40
1
 40
1
 40
1
 10
219.051493
 20
97.062341
 30
0.0
 10
217.052481
 20
98.667170
 30
0.0
 10
215.085174
 20
100.346191
 30
0.0
 10
213.472777
 20
102.306179
 30
0.0
  0
LWPOLYLINE
  5
105
100
AcDbEntity
  8
design
 62
1
100
AcDbPolyline
 90
2
 70
0
 10
225.070525
 20
85.066782
 30
0.0
 10
220.196757
 20
84.162978
 30
0.0
  0
SPLINE
  5
106
100
AcDbEntity
  8
design
 62
1
100
AcDbSpline
 70
8
 71
3
 72
8
 73
4
 74
0
 40
0
 40
0
 40
0
 40
0
 40
1
 40
1
 40
1
 40
1
 10
212.881586
 20
103.059755
 30
0.0
 10
212.637708
 20
103.386373
 30
0.0
 10
212.401876
 20
103.724258
 30
0.0
 10
212.177749
 20
104.071437
 30
0.0
  0
SPLINE
  5
107
100
AcDbEntity
  8
design
 62
1
100
AcDbSpline
 70
8
 71
3
 72
8
 73
4
 74
0
 40
0
 40
0
 40
0
 40
0
 40
1
 40
1
 40
1
 40
1
 10
212.177749
 20
104.071437
 30
0.0
 10
210.565972
 20
106.566163
 30
0.0
 10
209.382087
 20
109.312440
 30
0.0
 10
208.674777
 20
112.196999
 30
0.0
  0
LWPOLYLINE
  5
108
100
AcDbEntity
  8
design
 62
1
100
AcDbPolyline
 90
4
 70
0
 10
213.472777
 20
102.306179
 30
0.0
 10
215.390783
 20
101.560532
 30
0.0
 10
215.567661
 20
102.015512
 30
0.0
 10
212.881586
 20
103.059755
 30
0.0
  0
SPLINE
  5
109
100
AcDbEntity
  8
design
 62
1
100
AcDbSpline
 70
8
 71
3
 72
8
 73
4
 74
0
 40
0
 40
0
 40
0
 40
0
 40
1
 40
1
 40
1
 40
1
 10
208.540366
 20
112.773265
 30
0.0
 10
207.978599
 20
115.305642
 30
0.0
 10
207.789163
 20
117.906556
 30
0.0
 10
207.977931
 20
120.493719
 30
0.0
  0
LWPOLYLINE
  5
10a
100
AcDbEntity
  8
design
 62
1
100
AcDbPolyline
 90
4
 70
0
 10
208.674777
 20
112.196999
 30
0.0
 10
209.675690
 20
111.807883
 30
0.0
 10
209.852659
 20
112.263096
 30
0.0
 10
208.540366
 20
112.773265
 30
0.0
  0
SPLINE
  5
10b
100
AcDbEntity
  8
design
 62
1
100
AcDbSpline
 70
8
 71
3
 72
8
 73
4
 74
0
 40
0
 40
0
 40
0
 40
0
 40
1
 40
1
 40
1
 40
1
 10
208.019831
 20
121.001173
 30
0.0
 10
208.237062
 20
123.357473
 30
0.0
 10
208.766683
 20
125.674390
 30
0.0
 10
209.594712
 20
127.890974
 30
0.0
  0
LWPOLYLINE
  5
10c
100
AcDbEntity
  8
design
 62
1
100
AcDbPolyline
 90
4
 70
0
 10
207.977931
 20
120.493719
 30
0.0
 10
209.069291
 20
120.069440
 30
0.0
 10
209.246169
 20
120.524420
 30
0.0
 10
208.019831
 20
121.001173
 30
0.0
  0
SPLINE
  5
10d
100
AcDbEntity
  8
design
 62
1
100
AcDbSpline
 70
8
 71
3
 72
8
 73
4
 74
0
 40
0
 40
0
 40
0
 40
0
 40
1
 40
1
 40
1
 40
1
 10
209.769732
 20
128.346692
 30
0.0
 10
210.637231
 20
130.545056
 30
0.0
 10
211.792900
 20
132.618589
 30
0.0
 10
213.206352
 20
134.512468
 30
0.0
  0
LWPOLYLINE
  5
10e
100
AcDbEntity
  8
design
 62
1
100
AcDbPolyline
 90
4
 70
0
 10
209.594712
 20
127.890974
 30
0.0
 10
211.004042
 20
127.343081
 30
0.0
 10
211.180926
 20
127.798075
 30
0.0
 10
209.769732
 20
128.346692
 30
0.0
  0
SPLINE
  5
10f
100
AcDbEntity
  8
design
 62
1
100
AcDbSpline
 70
8
 71
3
 72
8
 73
4
 74
0
 40
0
 40
0
 40
0
 40
0
 40
1
 40
1
 40
1
 40
1
 10
213.513937
 20
134.916634
 30
0.0
 10
215.054143
 20
136.900519
 30
0.0
 10
216.866631
 20
138.657030
 30
0.0
 10
218.897690
 20
140.134134
 30
0.0
  0
LWPOLYLINE
  5
110
100
AcDbEntity
  8
design
 62
1
100
AcDbPolyline
 90
4
 70
0
 10
213.206352
 20
134.512468
 30
0.0
 10
215.030001
 20
133.803503
 30
0.0
 10
215.206880
 20
134.258484
 30
0.0
 10
213.513937
 20
134.916634
 30
0.0
  0
SPLINE
  5
111
100
AcDbEntity
  8
design
 62
1
100
AcDbSpline
 70
8
 71
3
 72
8
 73
4
 74
0
 40
0
 40
0
 40
0
 40
0
 40
1
 40
1
 40
1
 40
1
 10
224.723733
 20
138.060768
 30
0.0
 10
221.906212
 20
137.084903
 30
0.0
 10
219.322314
 20
135.534989
 30
0.0
 10
217.134840
 20
133.508967
 30
0.0
  0
SPLINE
  5
112
100
AcDbEntity
  8
design
 62
1
100
AcDbSpline
 70
8
 71
3
 72
8
 73
4
 74
0
 40
0
 40
0
 40
0
 40
0
 40
1
 40
1
 40
1
 40
1
 10
217.134840
 20
133.508967
 30
0.0
 10
217.002872
 20
133.386728
 30
0.0
 10
216.872446
 20
133.262861
 30
0.0
 10
216.743591
 20
133.137326
 30
0.0
  0
SPLINE
  5
113
100
AcDbEntity
  8
design
 62
1
100
AcDbSpline
 70
8
 71
3
 72
8
 73
4
 74
0
 40
0
 40
0
 40
0
 40
0
 40
1
 40
1
 40
1
 40
1
 10
216.743591
 20
133.137326
 30
0.0
 10
215.003764
 20
131.442990
 30
0.0
 10
213.562920
 20
129.466731
 30
0.0
 10
212.481944
 20
127.292289
 30
0.0
  0
SPLINE
  5
114
100
AcDbEntity
  8
design
 62
1
100
AcDbSpline
 70
8
 71
3
 72
8
 73
4
 74
0
 40
0
 40
0
 40
0
 40
0
 40
1
 40
1
 40
1
 40
1
 10
212.481944
 20
127.292289
 30
0.0
 10
212.409248
 20
127.145964
 30
0.0
 10
212.338209
 20
126.998995
 30
0.0
 10
212.268956
 20
126.851332
 30
0.0
  0
SPLINE
  5
115
100
AcDbEntity
  8
design
 62
1
100
AcDbSpline
 70
8
 71
3
 72
8
 73
4
 74
0
 40
0
 40
0
 40
0
 40
0
 40
1
 40
1
 40
1
 40
1
 10
212.268956
 20
126.851332
 30
0.0
 10
211.267895
 20
124.717171
 30
0.0
 10
210.623864
 20
122.433228
 30
0.0
 10
210.362461
 20
120.090449
 30
0.0
  0
SPLINE
  5
116
100
AcDbEntity
  8
design
 62
1
100
AcDbSpline
 70
8
 71
3
 72
8
 73
4
 74
0
 40
0
 40
0
 40
0
 40
0
 40
1
 40
1
 40
1
 40
1
 10
210.362461
 20
120.090449
 30
0.0
 10
210.343790
 20
119.922600
 30
0.0
 10
210.327030
 20
119.754530
 30
0.0
 10
210.312250
 20
119.586226
 30
0.0
  0
SPLINE
  5
117
100
AcDbEntity
  8
design
 62
1
100
AcDbSpline
 70
8
 71
3
 72
8
 73
4
 74
0
 40
0
 40
0
 40
0
 40
0
 40
1
 40
1
 40
1
 40
1
 10
210.312250
 20
119.586226
 30
0.0
 10
210.082048
 20
116.965772
 30
0.0
 10
210.333785
 20
114.325484
 30
0.0
 10
211.054725
 20
111.795780
 30
0.0
  0
SPLINE
  5
118
100
AcDbEntity
  8
design
 62
1
100
AcDbSpline
 70
8
 71
3
 72
8
 73
4
 74
0
 40
0
 40
0
 40
0
 40
0
 40
1
 40
1
 40
1
 40
1
 10
211.054725
 20
111.795780
 30
0.0
 10
211.111306
 20
111.597111
 30
0.0
 10
211.170857
 20
111.399373
 30
0.0
 10
211.233072
 20
111.202433
 30
0.0
  0
SPLINE
  5
119
100
AcDbEntity
  8
design
 62
1
100
AcDbSpline
 70
8
 71
3
 72
8
 73
4
 74
0
 40
0
 40
0
 40
0
 40
0
 40
1
 40
1
 40
1
 40
1
 10
211.233072
 20
111.202433
 30
0.0
 10
212.192245
 20
108.170561
 30
0.0
 10
213.810741
 20
105.388618
 30
0.0
 10
215.972172
 20
103.056024
 30
0.0
  0
SPLINE
  5
11a
100
AcDbEntity
  8
design
 62
1
100
AcDbSpline
 70
8
 71
3
 72
8
 73
4
 74
0
 40
0
 40
0
 40
0
 40
0
 40
1
 40
1
 40
1
 40
1
 10
215.972172
 20
103.056024
 30
0.0
 10
216.536299
 20
102.447292
 30
0.0
 10
217.135296
 20
101.871794
 30
0.0
 10
217.765761
 20
101.332165
 30
0.0
  0
SPLINE
  5
11b
100
AcDbEntity
  8
design
 62
1
100
AcDbSpline
 70
8
 71
3
 72
8
 73
4
 74
0
 40
0
 40
0
 40
0
 40
0
 40
1
 40
1
 40
1
 40
1
 10
217.765761
 20
101.332165
 30
0.0
 10
223.378235
 20
96.617500
 30
0.0
 10
226.259139
 20
93.940649
 30
0.0
 10
226.154330
 20
89.782011
 30
0.0
  0
LWPOLYLINE
  5
11c
100
AcDbEntity
  8
design
 62
1
100
AcDbPolyline
 90
9
 70
0
 10
218.897690
 20
140.134134
 30
0.0
 10
218.881520
 20
140.331994
 30
0.0
 10
218.837129
 20
140.872995
 30
0.0
 10
218.587032
 20
143.925569
 30
0.0
 10
224.779628
 20
141.518127
 30
0.0
 10
224.916508
 20
138.509568
 30
0.0
 10
221.821757
 20
139.712688
 30
0.0
 10
221.644878
 20
139.257707
 30
0.0
 10
224.723733
 20
138.060768
 30
0.0
  0
LWPOLYLINE
  5
11d
100
AcDbEntity
  8
design
 62
1
100
AcDbPolyline
 90
2
 70
0
 10
226.154330
 20
89.782011
 30
0.0
 10
224.736716
 20
90.333125
 30
0.0
  0
SPLINE
  5
11e
100
AcDbEntity
  8
design
 62
1
100
AcDbSpline
 70
8
 71
3
 72
8
 73
4
 74
0
 40
0
 40
0
 40
0
 40
0
 40
1
 40
1
 40
1
 40
1
 10
171.750962
 20
88.780848
 30
0.0
 10
171.650018
 20
87.541033
 30
0.0
 10
171.300166
 20
86.169842
 30
0.0
 10
170.694735
 20
84.578894
 30
0.0
  0
LWPOLYLINE
  5
11f
100
AcDbEntity
  8
design
 62
1
100
AcDbPolyline
 90
3
 70
0
 10
170.360828
 20
89.845022
 30
0.0
 10
170.183949
 20
89.390042
 30
0.0
 10
171.750962
 20
88.780848
 30
0.0
  0
SPLINE
  5
120
100
AcDbEntity
  8
design
 62
1
100
AcDbSpline
 70
8
 71
3
 72
8
 73
4
 74
0
 40
0
 40
0
 40
0
 40
0
 40
1
 40
1
 40
1
 40
1
 10
165.820864
 20
83.674863
 30
0.0
 10
169.795870
 20
87.483548
 30
0.0
 10
169.616786
 20
91.073311
 30
0.0
 10
167.947756
 20
93.409957
 30
0.0
  0
SPLINE
  5
121
100
AcDbEntity
  8
design
 62
1
100
AcDbSpline
 70
8
 71
3
 72
8
 73
4
 74
0
 40
0
 40
0
 40
0
 40
0
 40
1
 40
1
 40
1
 40
1
 10
167.947756
 20
93.409957
 30
0.0
 10
167.191659
 20
94.468093
 30
0.0
 10
166.059136
 20
95.463486
 30
0.0
 10
164.675613
 20
96.574220
 30
0.0
  0
SPLINE
  5
122
100
AcDbEntity
  8
design
 62
1
100
AcDbSpline
 70
8
 71
3
 72
8
 73
4
 74
0
 40
0
 40
0
 40
0
 40
0
 40
1
 40
1
 40
1
 40
1
 10
164.675613
 20
96.574220
 30
0.0
 10
162.676601
 20
98.179049
 30
0.0
 10
160.709294
 20
99.858070
 30
0.0
 10
159.096664
 20
101.818149
 30
0.0
  0
LWPOLYLINE
  5
123
100
AcDbEntity
  8
design
 62
1
100
AcDbPolyline
 90
2
 70
0
 10
170.694735
 20
84.578894
 30
0.0
 10
165.820864
 20
83.674863
 30
0.0
  0
SPLINE
  5
124
100
AcDbEntity
  8
design
 62
1
100
AcDbSpline
 70
8
 71
3
 72
8
 73
4
 74
0
 40
0
 40
0
 40
0
 40
0
 40
1
 40
1
 40
1
 40
1
 10
158.505706
 20
102.571634
 30
0.0
 10
158.261919
 20
102.898485
 30
0.0
 10
158.025854
 20
103.236461
 30
0.0
 10
157.801856
 20
103.583321
 30
0.0
  0
SPLINE
  5
125
100
AcDbEntity
  8
design
 62
1
100
AcDbSpline
 70
8
 71
3
 72
8
 73
4
 74
0
 40
0
 40
0
 40
0
 40
0
 40
1
 40
1
 40
1
 40
1
 10
157.801856
 20
103.583321
 30
0.0
 10
156.190092
 20
106.078042
 30
0.0
 10
155.006298
 20
108.824552
 30
0.0
 10
154.299053
 20
111.709087
 30
0.0
  0
LWPOLYLINE
  5
126
100
AcDbEntity
  8
design
 62
1
100
AcDbPolyline
 90
4
 70
0
 10
159.096664
 20
101.818149
 30
0.0
 10
161.014903
 20
101.072412
 30
0.0
 10
161.191782
 20
101.527392
 30
0.0
 10
158.505706
 20
102.571634
 30
0.0
  0
SPLINE
  5
127
100
AcDbEntity
  8
design
 62
1
100
AcDbSpline
 70
8
 71
3
 72
8
 73
4
 74
0
 40
0
 40
0
 40
0
 40
0
 40
1
 40
1
 40
1
 40
1
 10
154.164473
 20
112.285150
 30
0.0
 10
153.602724
 20
114.817534
 30
0.0
 10
153.413257
 20
117.418446
 30
0.0
 10
153.602012
 20
120.005613
 30
0.0
  0
LWPOLYLINE
  5
128
100
AcDbEntity
  8
design
 62
1
100
AcDbPolyline
 90
4
 70
0
 10
154.299053
 20
111.709087
 30
0.0
 10
155.299875
 20
111.320006
 30
0.0
 10
155.476753
 20
111.774986
 30
0.0
 10
154.164473
 20
112.285150
 30
0.0
  0
SPLINE
  5
129
100
AcDbEntity
  8
design
 62
1
100
AcDbSpline
 70
8
 71
3
 72
8
 73
4
 74
0
 40
0
 40
0
 40
0
 40
0
 40
1
 40
1
 40
1
 40
1
 10
153.644016
 20
120.513296
 30
0.0
 10
153.861156
 20
122.869362
 30
0.0
 10
154.390790
 20
125.186275
 30
0.0
 10
155.218837
 20
127.402866
 30
0.0
  0
LWPOLYLINE
  5
12a
100
AcDbEntity
  8
design
 62
1
100
AcDbPolyline
 90
4
 70
0
 10
153.602012
 20
120.005613
 30
0.0
 10
154.693411
 20
119.581320
 30
0.0
 10
154.870380
 20
120.036533
 30
0.0
 10
153.644016
 20
120.513296
 30
0.0
  0
SPLINE
  5
12b
100
AcDbEntity
  8
design
 62
1
100
AcDbSpline
 70
8
 71
3
 72
8
 73
4
 74
0
 40
0
 40
0
 40
0
 40
0
 40
1
 40
1
 40
1
 40
1
 10
155.393826
 20
127.858581
 30
0.0
 10
156.261351
 20
130.056935
 30
0.0
 10
157.417025
 20
132.130482
 30
0.0
 10
158.830536
 20
134.024590
 30
0.0
  0
LWPOLYLINE
  5
12c
100
AcDbEntity
  8
design
 62
1
100
AcDbPolyline
 90
4
 70
0
 10
155.218837
 20
127.402866
 30
0.0
 10
156.628141
 20
126.854984
 30
0.0
 10
156.805020
 20
127.309964
 30
0.0
 10
155.393826
 20
127.858581
 30
0.0
  0
SPLINE
  5
12d
100
AcDbEntity
  8
design
 62
1
100
AcDbSpline
 70
8
 71
3
 72
8
 73
4
 74
0
 40
0
 40
0
 40
0
 40
0
 40
1
 40
1
 40
1
 40
1
 10
159.138147
 20
134.428747
 30
0.0
 10
160.678255
 20
136.412417
 30
0.0
 10
162.490731
 20
138.168932
 30
0.0
 10
164.521784
 20
139.646023
 30
0.0
  0
LWPOLYLINE
  5
12e
100
AcDbEntity
  8
design
 62
1
100
AcDbPolyline
 90
4
 70
0
 10
158.830536
 20
134.024590
 30
0.0
 10
160.654186
 20
133.315626
 30
0.0
 10
160.831064
 20
133.770606
 30
0.0
 10
159.138147
 20
134.428747
 30
0.0
  0
SPLINE
  5
12f
100
AcDbEntity
  8
design
 62
1
100
AcDbSpline
 70
8
 71
3
 72
8
 73
4
 74
0
 40
0
 40
0
 40
0
 40
0
 40
1
 40
1
 40
1
 40
1
 10
170.347853
 20
137.572647
 30
0.0
 10
167.530643
 20
136.596930
 30
0.0
 10
164.946434
 20
135.046868
 30
0.0
 10
162.759116
 20
133.021054
 30
0.0
  0
SPLINE
  5
130
100
AcDbEntity
  8
design
 62
1
100
AcDbSpline
 70
8
 71
3
 72
8
 73
4
 74
0
 40
0
 40
0
 40
0
 40
0
 40
1
 40
1
 40
1
 40
1
 10
162.759116
 20
133.021054
 30
0.0
 10
162.627082
 20
132.898841
 30
0.0
 10
162.496540
 20
132.774751
 30
0.0
 10
162.367789
 20
132.649443
 30
0.0
  0
SPLINE
  5
131
100
AcDbEntity
  8
design
 62
1
100
AcDbSpline
 70
8
 71
3
 72
8
 73
4
 74
0
 40
0
 40
0
 40
0
 40
0
 40
1
 40
1
 40
1
 40
1
 10
162.367789
 20
132.649443
 30
0.0
 10
160.627949
 20
130.955112
 30
0.0
 10
159.187105
 20
128.978853
 30
0.0
 10
158.106038
 20
126.804179
 30
0.0
  0
SPLINE
  5
132
100
AcDbEntity
  8
design
 62
1
100
AcDbSpline
 70
8
 71
3
 72
8
 73
4
 74
0
 40
0
 40
0
 40
0
 40
0
 40
1
 40
1
 40
1
 40
1
 10
158.106038
 20
126.804179
 30
0.0
 10
158.033432
 20
126.658087
 30
0.0
 10
157.962419
 20
126.511108
 30
0.0
 10
157.893081
 20
126.363224
 30
0.0
  0
SPLINE
  5
133
100
AcDbEntity
  8
design
 62
1
100
AcDbSpline
 70
8
 71
3
 72
8
 73
4
 74
0
 40
0
 40
0
 40
0
 40
0
 40
1
 40
1
 40
1
 40
1
 10
157.893081
 20
126.363224
 30
0.0
 10
156.891994
 20
124.229073
 30
0.0
 10
156.247963
 20
121.945130
 30
0.0
 10
155.986672
 20
119.602562
 30
0.0
  0
SPLINE
  5
134
100
AcDbEntity
  8
design
 62
1
100
AcDbSpline
 70
8
 71
3
 72
8
 73
4
 74
0
 40
0
 40
0
 40
0
 40
0
 40
1
 40
1
 40
1
 40
1
 10
155.986672
 20
119.602562
 30
0.0
 10
155.967884
 20
119.434490
 30
0.0
 10
155.951129
 20
119.266432
 30
0.0
 10
155.936344
 20
119.098115
 30
0.0
  0
SPLINE
  5
135
100
AcDbEntity
  8
design
 62
1
100
AcDbSpline
 70
8
 71
3
 72
8
 73
4
 74
0
 40
0
 40
0
 40
0
 40
0
 40
1
 40
1
 40
1
 40
1
 10
155.936344
 20
119.098115
 30
0.0
 10
155.706246
 20
116.477890
 30
0.0
 10
155.957884
 20
113.837386
 30
0.0
 10
156.678910
 20
111.307634
 30
0.0
  0
SPLINE
  5
136
100
AcDbEntity
  8
design
 62
1
100
AcDbSpline
 70
8
 71
3
 72
8
 73
4
 74
0
 40
0
 40
0
 40
0
 40
0
 40
1
 40
1
 40
1
 40
1
 10
156.678910
 20
111.307634
 30
0.0
 10
156.735602
 20
111.109175
 30
0.0
 10
156.794951
 20
110.911263
 30
0.0
 10
156.857218
 20
110.714571
 30
0.0
  0
SPLINE
  5
137
100
AcDbEntity
  8
design
 62
1
100
AcDbSpline
 70
8
 71
3
 72
8
 73
4
 74
0
 40
0
 40
0
 40
0
 40
0
 40
1
 40
1
 40
1
 40
1
 10
156.857218
 20
110.714571
 30
0.0
 10
157.816455
 20
107.682673
 30
0.0
 10
159.434861
 20
104.900498
 30
0.0
 10
161.596383
 20
102.568136
 30
0.0
  0
SPLINE
  5
138
100
AcDbEntity
  8
design
 62
1
100
AcDbSpline
 70
8
 71
3
 72
8
 73
4
 74
0
 40
0
 40
0
 40
0
 40
0
 40
1
 40
1
 40
1
 40
1
 10
161.596383
 20
102.568136
 30
0.0
 10
162.160509
 20
101.959404
 30
0.0
 10
162.759421
 20
101.383687
 30
0.0
 10
163.389868
 20
100.844050
 30
0.0
  0
SPLINE
  5
139
100
AcDbEntity
  8
design
 62
1
100
AcDbSpline
 70
8
 71
3
 72
8
 73
4
 74
0
 40
0
 40
0
 40
0
 40
0
 40
1
 40
1
 40
1
 40
1
 10
163.389868
 20
100.844050
 30
0.0
 10
169.002433
 20
96.129617
 30
0.0
 10
171.883246
 20
93.452534
 30
0.0
 10
171.778455
 20
89.293903
 30
0.0
  0
LWPOLYLINE
  5
13a
100
AcDbEntity
  8
design
 62
1
100
AcDbPolyline
 90
9
 70
0
 10
164.521784
 20
139.646023
 30
0.0
 10
164.505615
 20
139.843883
 30
0.0
 10
164.461223
 20
140.384885
 30
0.0
 10
164.211126
 20
143.437458
 30
0.0
 10
170.403735
 20
141.030011
 30
0.0
 10
170.540615
 20
138.021453
 30
0.0
 10
167.445877
 20
139.224567
 30
0.0
 10
167.268998
 20
138.769587
 30
0.0
 10
170.347853
 20
137.572647
 30
0.0
  0
LWPOLYLINE
  5
13b
100
AcDbEntity
  8
design
 62
1
100
AcDbPolyline
 90
2
 70
0
 10
171.778455
 20
89.293903
 30
0.0
 10
170.360828
 20
89.845022
 30
0.0
  0
SPLINE
  5
13c
100
AcDbEntity
  8
design
 62
1
100
AcDbSpline
 70
8
 71
3
 72
8
 73
4
 74
0
 40
0
 40
0
 40
0
 40
0
 40
1
 40
1
 40
1
 40
1
 10
206.688560
 20
88.724204
 30
0.0
 10
206.587620
 20
87.484402
 30
0.0
 10
206.237678
 20
86.112978
 30
0.0
 10
205.632468
 20
84.521945
 30
0.0
  0
LWPOLYLINE
  5
13d
100
AcDbEntity
  8
design
 62
1
100
AcDbPolyline
 90
3
 70
0
 10
205.298658
 20
89.788287
 30
0.0
 10
205.121780
 20
89.333307
 30
0.0
 10
206.688560
 20
88.724204
 30
0.0
  0
SPLINE
  5
13e
100
AcDbEntity
  8
design
 62
1
100
AcDbSpline
 70
8
 71
3
 72
8
 73
4
 74
0
 40
0
 40
0
 40
0
 40
0
 40
1
 40
1
 40
1
 40
1
 10
200.758466
 20
83.618232
 30
0.0
 10
204.733607
 20
87.426611
 30
0.0
 10
204.554384
 20
91.016667
 30
0.0
 10
202.885269
 20
93.353093
 30
0.0
  0
SPLINE
  5
13f
100
AcDbEntity
  8
design
 62
1
100
AcDbSpline
 70
8
 71
3
 72
8
 73
4
 74
0
 40
0
 40
0
 40
0
 40
0
 40
1
 40
1
 40
1
 40
1
 10
202.885269
 20
93.353093
 30
0.0
 10
202.129469
 20
94.411381
 30
0.0
 10
200.996668
 20
95.406867
 30
0.0
 10
199.613125
 20
96.517625
 30
0.0
  0
SPLINE
  5
140
100
AcDbEntity
  8
design
 62
1
100
AcDbSpline
 70
8
 71
3
 72
8
 73
4
 74
0
 40
0
 40
0
 40
0
 40
0
 40
1
 40
1
 40
1
 40
1
 10
199.613125
 20
96.517625
 30
0.0
 10
197.614222
 20
98.122158
 30
0.0
 10
195.646832
 20
99.801196
 30
0.0
 10
194.034474
 20
101.761437
 30
0.0
  0
LWPOLYLINE
  5
141
100
AcDbEntity
  8
design
 62
1
100
AcDbPolyline
 90
2
 70
0
 10
205.632468
 20
84.521945
 30
0.0
 10
200.758466
 20
83.618232
 30
0.0
  0
SPLINE
  5
142
100
AcDbEntity
  8
design
 62
1
100
AcDbSpline
 70
8
 71
3
 72
8
 73
4
 74
0
 40
0
 40
0
 40
0
 40
0
 40
1
 40
1
 40
1
 40
1
 10
193.443334
 20
102.514993
 30
0.0
 10
193.199496
 20
102.841596
 30
0.0
 10
192.963573
 20
103.179517
 30
0.0
 10
192.739368
 20
103.526457
 30
0.0
  0
SPLINE
  5
143
100
AcDbEntity
  8
design
 62
1
100
AcDbSpline
 70
8
 71
3
 72
8
 73
4
 74
0
 40
0
 40
0
 40
0
 40
0
 40
1
 40
1
 40
1
 40
1
 10
192.739368
 20
103.526457
 30
0.0
 10
191.127760
 20
106.021386
 30
0.0
 10
189.943927
 20
108.767643
 30
0.0
 10
189.236591
 20
111.652212
 30
0.0
  0
LWPOLYLINE
  5
144
100
AcDbEntity
  8
design
 62
1
100
AcDbPolyline
 90
4
 70
0
 10
194.034474
 20
101.761437
 30
0.0
 10
195.952661
 20
101.015720
 30
0.0
 10
196.129539
 20
101.470700
 30
0.0
 10
193.443334
 20
102.514993
 30
0.0
  0
SPLINE
  5
145
100
AcDbEntity
  8
design
 62
1
100
AcDbSpline
 70
8
 71
3
 72
8
 73
4
 74
0
 40
0
 40
0
 40
0
 40
0
 40
1
 40
1
 40
1
 40
1
 10
189.102089
 20
112.228245
 30
0.0
 10
188.540418
 20
114.760868
 30
0.0
 10
188.350963
 20
117.361774
 30
0.0
 10
188.539731
 20
119.948937
 30
0.0
  0
LWPOLYLINE
  5
146
100
AcDbEntity
  8
design
 62
1
100
AcDbPolyline
 90
4
 70
0
 10
189.236591
 20
111.652212
 30
0.0
 10
190.237503
 20
111.263096
 30
0.0
 10
190.414382
 20
111.718077
 30
0.0
 10
189.102089
 20
112.228245
 30
0.0
  0
SPLINE
  5
147
100
AcDbEntity
  8
design
 62
1
100
AcDbSpline
 70
8
 71
3
 72
8
 73
4
 74
0
 40
0
 40
0
 40
0
 40
0
 40
1
 40
1
 40
1
 40
1
 10
188.581632
 20
120.456391
 30
0.0
 10
188.798863
 20
122.812691
 30
0.0
 10
189.328320
 20
125.129419
 30
0.0
 10
190.156440
 20
127.345967
 30
0.0
  0
LWPOLYLINE
  5
148
100
AcDbEntity
  8
design
 62
1
100
AcDbPolyline
 90
4
 70
0
 10
188.539731
 20
119.948937
 30
0.0
 10
189.631104
 20
119.524653
 30
0.0
 10
189.807983
 20
119.979634
 30
0.0
 10
188.581632
 20
120.456391
 30
0.0
  0
SPLINE
  5
149
100
AcDbEntity
  8
design
 62
1
100
AcDbSpline
 70
8
 71
3
 72
8
 73
4
 74
0
 40
0
 40
0
 40
0
 40
0
 40
1
 40
1
 40
1
 40
1
 10
190.331545
 20
127.801905
 30
0.0
 10
191.198953
 20
130.000304
 30
0.0
 10
192.354537
 20
132.073618
 30
0.0
 10
193.768139
 20
133.967691
 30
0.0
  0
LWPOLYLINE
  5
14a
100
AcDbEntity
  8
design
 62
1
100
AcDbPolyline
 90
4
 70
0
 10
190.156440
 20
127.345967
 30
0.0
 10
191.565666
 20
126.798115
 30
0.0
 10
191.742635
 20
127.253328
 30
0.0
 10
190.331545
 20
127.801905
 30
0.0
  0
SPLINE
  5
14b
100
AcDbEntity
  8
design
 62
1
100
AcDbSpline
 70
8
 71
3
 72
8
 73
4
 74
0
 40
0
 40
0
 40
0
 40
0
 40
1
 40
1
 40
1
 40
1
 10
194.075750
 20
134.371847
 30
0.0
 10
195.615943
 20
136.355738
 30
0.0
 10
197.428359
 20
138.112023
 30
0.0
 10
199.459413
 20
139.589114
 30
0.0
  0
LWPOLYLINE
  5
14c
100
AcDbEntity
  8
design
 62
1
100
AcDbPolyline
 90
4
 70
0
 10
193.768139
 20
133.967691
 30
0.0
 10
195.591814
 20
133.258716
 30
0.0
 10
195.768693
 20
133.713697
 30
0.0
 10
194.075750
 20
134.371847
 30
0.0
  0
SPLINE
  5
14d
100
AcDbEntity
  8
design
 62
1
100
AcDbSpline
 70
8
 71
3
 72
8
 73
4
 74
0
 40
0
 40
0
 40
0
 40
0
 40
1
 40
1
 40
1
 40
1
 10
205.285456
 20
137.516016
 30
0.0
 10
202.468116
 20
136.540081
 30
0.0
 10
199.884127
 20
134.990202
 30
0.0
 10
197.696641
 20
132.964185
 30
0.0
  0
SPLINE
  5
14e
100
AcDbEntity
  8
design
 62
1
100
AcDbSpline
 70
8
 71
3
 72
8
 73
4
 74
0
 40
0
 40
0
 40
0
 40
0
 40
1
 40
1
 40
1
 40
1
 10
197.696641
 20
132.964185
 30
0.0
 10
197.564685
 20
132.841941
 30
0.0
 10
197.434259
 20
132.718074
 30
0.0
 10
197.305301
 20
132.592579
 30
0.0
  0
SPLINE
  5
14f
100
AcDbEntity
  8
design
 62
1
100
AcDbSpline
 70
8
 71
3
 72
8
 73
4
 74
0
 40
0
 40
0
 40
0
 40
0
 40
1
 40
1
 40
1
 40
1
 10
197.305301
 20
132.592579
 30
0.0
 10
195.565486
 20
130.898238
 30
0.0
 10
194.124715
 20
128.922204
 30
0.0
 10
193.043757
 20
126.747502
 30
0.0
  0
SPLINE
  5
150
100
AcDbEntity
  8
design
 62
1
100
AcDbSpline
 70
8
 71
3
 72
8
 73
4
 74
0
 40
0
 40
0
 40
0
 40
0
 40
1
 40
1
 40
1
 40
1
 10
193.043757
 20
126.747502
 30
0.0
 10
192.971035
 20
126.601187
 30
0.0
 10
192.900022
 20
126.454208
 30
0.0
 10
192.830684
 20
126.306325
 30
0.0
  0
SPLINE
  5
151
100
AcDbEntity
  8
design
 62
1
100
AcDbSpline
 70
8
 71
3
 72
8
 73
4
 74
0
 40
0
 40
0
 40
0
 40
0
 40
1
 40
1
 40
1
 40
1
 10
192.830684
 20
126.306325
 30
0.0
 10
191.829695
 20
124.172389
 30
0.0
 10
191.185677
 20
121.888441
 30
0.0
 10
190.924275
 20
119.545662
 30
0.0
  0
SPLINE
  5
152
100
AcDbEntity
  8
design
 62
1
100
AcDbSpline
 70
8
 71
3
 72
8
 73
4
 74
0
 40
0
 40
0
 40
0
 40
0
 40
1
 40
1
 40
1
 40
1
 10
190.924275
 20
119.545662
 30
0.0
 10
190.905500
 20
119.377854
 30
0.0
 10
190.888753
 20
119.209778
 30
0.0
 10
190.873947
 20
119.041484
 30
0.0
  0
SPLINE
  5
153
100
AcDbEntity
  8
design
 62
1
100
AcDbSpline
 70
8
 71
3
 72
8
 73
4
 74
0
 40
0
 40
0
 40
0
 40
0
 40
1
 40
1
 40
1
 40
1
 10
190.873947
 20
119.041484
 30
0.0
 10
190.643849
 20
116.420991
 30
0.0
 10
190.895577
 20
113.780720
 30
0.0
 10
191.616513
 20
111.250735
 30
0.0
  0
SPLINE
  5
154
100
AcDbEntity
  8
design
 62
1
100
AcDbSpline
 70
8
 71
3
 72
8
 73
4
 74
0
 40
0
 40
0
 40
0
 40
0
 40
1
 40
1
 40
1
 40
1
 10
191.616513
 20
111.250735
 30
0.0
 10
191.673120
 20
111.052324
 30
0.0
 10
191.732644
 20
110.854597
 30
0.0
 10
191.794834
 20
110.657666
 30
0.0
  0
SPLINE
  5
155
100
AcDbEntity
  8
design
 62
1
100
AcDbSpline
 70
8
 71
3
 72
8
 73
4
 74
0
 40
0
 40
0
 40
0
 40
0
 40
1
 40
1
 40
1
 40
1
 10
191.794834
 20
110.657666
 30
0.0
 10
192.754032
 20
107.625784
 30
0.0
 10
194.372489
 20
104.843588
 30
0.0
 10
196.534050
 20
102.511212
 30
0.0
  0
SPLINE
  5
156
100
AcDbEntity
  8
design
 62
1
100
AcDbSpline
 70
8
 71
3
 72
8
 73
4
 74
0
 40
0
 40
0
 40
0
 40
0
 40
1
 40
1
 40
1
 40
1
 10
196.534050
 20
102.511212
 30
0.0
 10
197.098203
 20
101.902470
 30
0.0
 10
197.697044
 20
101.327033
 30
0.0
 10
198.327548
 20
100.787388
 30
0.0
  0
SPLINE
  5
157
100
AcDbEntity
  8
design
 62
1
100
AcDbSpline
 70
8
 71
3
 72
8
 73
4
 74
0
 40
0
 40
0
 40
0
 40
0
 40
1
 40
1
 40
1
 40
1
 10
198.327548
 20
100.787388
 30
0.0
 10
203.939906
 20
96.072768
 30
0.0
 10
206.820849
 20
93.395903
 30
0.0
 10
206.716053
 20
89.237259
 30
0.0
  0
LWPOLYLINE
  5
158
100
AcDbEntity
  8
design
 62
1
100
AcDbPolyline
 90
9
 70
0
 10
199.459413
 20
139.589114
 30
0.0
 10
199.443308
 20
139.787217
 30
0.0
 10
199.398917
 20
140.328219
 30
0.0
 10
199.148832
 20
143.380787
 30
0.0
 10
205.341364
 20
140.973370
 30
0.0
 10
205.478205
 20
137.964827
 30
0.0
 10
202.383570
 20
139.167901
 30
0.0
 10
202.206691
 20
138.712921
 30
0.0
 10
205.285456
 20
137.516016
 30
0.0
  0
LWPOLYLINE
  5
159
100
AcDbEntity
  8
design
 62
1
100
AcDbPolyline
 90
2
 70
0
 10
206.716053
 20
89.237259
 30
0.0
 10
205.298658
 20
89.788287
 30
0.0
  0
SPLINE
  5
15a
100
AcDbEntity
  8
design
 62
1
100
AcDbSpline
 70
8
 71
3
 72
8
 73
4
 74
0
 40
0
 40
0
 40
0
 40
0
 40
1
 40
1
 40
1
 40
1
 10
261.722601
 20
90.163823
 30
0.0
 10
261.621661
 20
88.924022
 30
0.0
 10
261.271791
 20
87.552823
 30
0.0
 10
260.666361
 20
85.961875
 30
0.0
  0
LWPOLYLINE
  5
15b
100
AcDbEntity
  8
design
 62
1
100
AcDbPolyline
 90
3
 70
0
 10
260.332466
 20
91.227997
 30
0.0
 10
260.155588
 20
90.773017
 30
0.0
 10
261.722601
 20
90.163823
 30
0.0
  0
SPLINE
  5
15c
100
AcDbEntity
  8
design
 62
1
100
AcDbSpline
 70
8
 71
3
 72
8
 73
4
 74
0
 40
0
 40
0
 40
0
 40
0
 40
1
 40
1
 40
1
 40
1
 10
255.792502
 20
85.057838
 30
0.0
 10
259.767733
 20
88.866451
 30
0.0
 10
259.588425
 20
92.456286
 30
0.0
 10
257.919167
 20
94.793036
 30
0.0
  0
SPLINE
  5
15d
100
AcDbEntity
  8
design
 62
1
100
AcDbSpline
 70
8
 71
3
 72
8
 73
4
 74
0
 40
0
 40
0
 40
0
 40
0
 40
1
 40
1
 40
1
 40
1
 10
257.919167
 20
94.793036
 30
0.0
 10
257.163298
 20
95.851068
 30
0.0
 10
256.030865
 20
96.846694
 30
0.0
 10
254.647018
 20
97.957286
 30
0.0
  0
SPLINE
  5
15e
100
AcDbEntity
  8
design
 62
1
100
AcDbSpline
 70
8
 71
3
 72
8
 73
4
 74
0
 40
0
 40
0
 40
0
 40
0
 40
1
 40
1
 40
1
 40
1
 10
254.647018
 20
97.957286
 30
0.0
 10
252.648232
 20
99.562042
 30
0.0
 10
250.680932
 20
101.241046
 30
0.0
 10
249.068522
 20
103.201038
 30
0.0
  0
LWPOLYLINE
  5
15f
100
AcDbEntity
  8
design
 62
1
100
AcDbPolyline
 90
2
 70
0
 10
260.666361
 20
85.961875
 30
0.0
 10
255.792502
 20
85.057838
 30
0.0
  0
SPLINE
  5
160
100
AcDbEntity
  8
design
 62
1
100
AcDbSpline
 70
8
 71
3
 72
8
 73
4
 74
0
 40
0
 40
0
 40
0
 40
0
 40
1
 40
1
 40
1
 40
1
 10
248.477349
 20
103.954622
 30
0.0
 10
248.233472
 20
104.281241
 30
0.0
 10
247.997713
 20
104.619351
 30
0.0
 10
247.773495
 20
104.966297
 30
0.0
  0
SPLINE
  5
161
100
AcDbEntity
  8
design
 62
1
100
AcDbSpline
 70
8
 71
3
 72
8
 73
4
 74
0
 40
0
 40
0
 40
0
 40
0
 40
1
 40
1
 40
1
 40
1
 10
247.773495
 20
104.966297
 30
0.0
 10
246.161731
 20
107.461018
 30
0.0
 10
244.977851
 20
110.207307
 30
0.0
 10
244.270665
 20
113.092072
 30
0.0
  0
LWPOLYLINE
  5
162
100
AcDbEntity
  8
design
 62
1
100
AcDbPolyline
 90
4
 70
0
 10
249.068522
 20
103.201038
 30
0.0
 10
250.986761
 20
102.455301
 30
0.0
 10
251.163645
 20
102.910295
 30
0.0
 10
248.477349
 20
103.954622
 30
0.0
  0
SPLINE
  5
163
100
AcDbEntity
  8
design
 62
1
100
AcDbSpline
 70
8
 71
3
 72
8
 73
4
 74
0
 40
0
 40
0
 40
0
 40
0
 40
1
 40
1
 40
1
 40
1
 10
244.136267
 20
113.668065
 30
0.0
 10
243.574466
 20
116.200738
 30
0.0
 10
243.384960
 20
118.801664
 30
0.0
 10
243.573767
 20
121.388811
 30
0.0
  0
LWPOLYLINE
  5
164
100
AcDbEntity
  8
design
 62
1
100
AcDbPolyline
 90
4
 70
0
 10
244.270665
 20
113.092072
 30
0.0
 10
245.271669
 20
112.702921
 30
0.0
 10
245.448547
 20
113.157901
 30
0.0
 10
244.136267
 20
113.668065
 30
0.0
  0
SPLINE
  5
165
100
AcDbEntity
  8
design
 62
1
100
AcDbSpline
 70
8
 71
3
 72
8
 73
4
 74
0
 40
0
 40
0
 40
0
 40
0
 40
1
 40
1
 40
1
 40
1
 10
243.615784
 20
121.896221
 30
0.0
 10
243.832671
 20
124.252401
 30
0.0
 10
244.362498
 20
126.569238
 30
0.0
 10
245.190515
 20
128.785827
 30
0.0
  0
LWPOLYLINE
  5
166
100
AcDbEntity
  8
design
 62
1
100
AcDbPolyline
 90
4
 70
0
 10
243.573767
 20
121.388811
 30
0.0
 10
244.665127
 20
120.964533
 30
0.0
 10
244.842006
 20
121.419513
 30
0.0
 10
243.615784
 20
121.896221
 30
0.0
  0
SPLINE
  5
167
100
AcDbEntity
  8
design
 62
1
100
AcDbSpline
 70
8
 71
3
 72
8
 73
4
 74
0
 40
0
 40
0
 40
0
 40
0
 40
1
 40
1
 40
1
 40
1
 10
245.365581
 20
129.241512
 30
0.0
 10
246.233033
 20
131.439908
 30
0.0
 10
247.388586
 20
133.513487
 30
0.0
 10
248.802097
 20
135.407596
 30
0.0
  0
LWPOLYLINE
  5
168
100
AcDbEntity
  8
design
 62
1
100
AcDbPolyline
 90
4
 70
0
 10
245.190515
 20
128.785827
 30
0.0
 10
246.599741
 20
128.237974
 30
0.0
 10
246.776619
 20
128.692954
 30
0.0
 10
245.365581
 20
129.241512
 30
0.0
  0
SPLINE
  5
169
100
AcDbEntity
  8
design
 62
1
100
AcDbSpline
 70
8
 71
3
 72
8
 73
4
 74
0
 40
0
 40
0
 40
0
 40
0
 40
1
 40
1
 40
1
 40
1
 10
249.109747
 20
135.811737
 30
0.0
 10
250.650049
 20
137.795332
 30
0.0
 10
252.462253
 20
139.551953
 30
0.0
 10
254.493492
 20
141.028986
 30
0.0
  0
LWPOLYLINE
  5
16a
100
AcDbEntity
  8
design
 62
1
100
AcDbPolyline
 90
4
 70
0
 10
248.802097
 20
135.407596
 30
0.0
 10
250.625889
 20
134.698576
 30
0.0
 10
250.802768
 20
135.153556
 30
0.0
 10
249.109747
 20
135.811737
 30
0.0
  0
SPLINE
  5
16b
100
AcDbEntity
  8
design
 62
1
100
AcDbSpline
 70
8
 71
3
 72
8
 73
4
 74
0
 40
0
 40
0
 40
0
 40
0
 40
1
 40
1
 40
1
 40
1
 10
260.319479
 20
138.955628
 30
0.0
 10
257.502281
 20
137.979905
 30
0.0
 10
254.918202
 20
136.430061
 30
0.0
 10
252.730767
 20
134.404025
 30
0.0
  0
SPLINE
  5
16c
100
AcDbEntity
  8
design
 62
1
100
AcDbSpline
 70
8
 71
3
 72
8
 73
4
 74
0
 40
0
 40
0
 40
0
 40
0
 40
1
 40
1
 40
1
 40
1
 10
252.730767
 20
134.404025
 30
0.0
 10
252.598830
 20
134.281789
 30
0.0
 10
252.468347
 20
134.157929
 30
0.0
 10
252.339337
 20
134.032454
 30
0.0
  0
SPLINE
  5
16d
100
AcDbEntity
  8
design
 62
1
100
AcDbSpline
 70
8
 71
3
 72
8
 73
4
 74
0
 40
0
 40
0
 40
0
 40
0
 40
1
 40
1
 40
1
 40
1
 10
252.339337
 20
134.032454
 30
0.0
 10
250.599678
 20
132.338052
 30
0.0
 10
249.158692
 20
130.361849
 30
0.0
 10
248.077767
 20
128.187119
 30
0.0
  0
SPLINE
  5
16e
100
AcDbEntity
  8
design
 62
1
100
AcDbSpline
 70
8
 71
3
 72
8
 73
4
 74
0
 40
0
 40
0
 40
0
 40
0
 40
1
 40
1
 40
1
 40
1
 10
248.077767
 20
128.187119
 30
0.0
 10
248.005045
 20
128.041072
 30
0.0
 10
247.934045
 20
127.894088
 30
0.0
 10
247.864784
 20
127.746174
 30
0.0
  0
SPLINE
  5
16f
100
AcDbEntity
  8
design
 62
1
100
AcDbSpline
 70
8
 71
3
 72
8
 73
4
 74
0
 40
0
 40
0
 40
0
 40
0
 40
1
 40
1
 40
1
 40
1
 10
247.864784
 20
127.746174
 30
0.0
 10
246.863671
 20
125.612033
 30
0.0
 10
246.219602
 20
123.328105
 30
0.0
 10
245.958349
 20
120.985522
 30
0.0
  0
SPLINE
  5
170
100
AcDbEntity
  8
design
 62
1
100
AcDbSpline
 70
8
 71
3
 72
8
 73
4
 74
0
 40
0
 40
0
 40
0
 40
0
 40
1
 40
1
 40
1
 40
1
 10
245.958349
 20
120.985522
 30
0.0
 10
245.939626
 20
120.817693
 30
0.0
 10
245.922806
 20
120.649392
 30
0.0
 10
245.907931
 20
120.481379
 30
0.0
  0
SPLINE
  5
171
100
AcDbEntity
  8
design
 62
1
100
AcDbSpline
 70
8
 71
3
 72
8
 73
4
 74
0
 40
0
 40
0
 40
0
 40
0
 40
1
 40
1
 40
1
 40
1
 10
245.907931
 20
120.481379
 30
0.0
 10
245.677936
 20
117.860845
 30
0.0
 10
245.929652
 20
115.220311
 30
0.0
 10
246.650704
 20
112.690549
 30
0.0
  0
SPLINE
  5
172
100
AcDbEntity
  8
design
 62
1
100
AcDbSpline
 70
8
 71
3
 72
8
 73
4
 74
0
 40
0
 40
0
 40
0
 40
0
 40
1
 40
1
 40
1
 40
1
 10
246.650704
 20
112.690549
 30
0.0
 10
246.707143
 20
112.492204
 30
0.0
 10
246.766706
 20
112.294461
 30
0.0
 10
246.828921
 20
112.097521
 30
0.0
  0
SPLINE
  5
173
100
AcDbEntity
  8
design
 62
1
100
AcDbSpline
 70
8
 71
3
 72
8
 73
4
 74
0
 40
0
 40
0
 40
0
 40
0
 40
1
 40
1
 40
1
 40
1
 10
246.828921
 20
112.097521
 30
0.0
 10
247.788008
 20
109.065428
 30
0.0
 10
249.406499
 20
106.283473
 30
0.0
 10
251.568241
 20
103.951026
 30
0.0
  0
SPLINE
  5
174
100
AcDbEntity
  8
design
 62
1
100
AcDbSpline
 70
8
 71
3
 72
8
 73
4
 74
0
 40
0
 40
0
 40
0
 40
0
 40
1
 40
1
 40
1
 40
1
 10
251.568241
 20
103.951026
 30
0.0
 10
252.132153
 20
103.342393
 30
0.0
 10
252.731059
 20
102.766662
 30
0.0
 10
253.361507
 20
102.227025
 30
0.0
  0
SPLINE
  5
175
100
AcDbEntity
  8
design
 62
1
100
AcDbSpline
 70
8
 71
3
 72
8
 73
4
 74
0
 40
0
 40
0
 40
0
 40
0
 40
1
 40
1
 40
1
 40
1
 10
253.361507
 20
102.227025
 30
0.0
 10
258.974071
 20
97.512593
 30
0.0
 10
261.854890
 20
94.835522
 30
0.0
 10
261.750081
 20
90.676884
 30
0.0
  0
LWPOLYLINE
  5
176
100
AcDbEntity
  8
design
 62
1
100
AcDbPolyline
 90
9
 70
0
 10
254.493492
 20
141.028986
 30
0.0
 10
254.477137
 20
141.226904
 30
0.0
 10
254.432875
 20
141.767855
 30
0.0
 10
254.182717
 20
144.820467
 30
0.0
 10
260.375379
 20
142.412999
 30
0.0
 10
260.512254
 20
139.404428
 30
0.0
 10
257.417516
 20
140.607542
 30
0.0
 10
257.240637
 20
140.152562
 30
0.0
 10
260.319479
 20
138.955628
 30
0.0
  0
LWPOLYLINE
  5
177
100
AcDbEntity
  8
design
 62
1
100
AcDbPolyline
 90
2
 70
0
 10
261.750081
 20
90.676884
 30
0.0
 10
260.332466
 20
91.227997
 30
0.0
  0
SPLINE
  5
178
100
AcDbEntity
  8
design
 62
1
100
AcDbSpline
 70
8
 71
3
 72
8
 73
4
 74
0
 40
0
 40
0
 40
0
 40
0
 40
1
 40
1
 40
1
 40
1
 10
242.284311
 20
89.619076
 30
0.0
 10
242.183384
 20
88.379270
 30
0.0
 10
241.833514
 20
87.008071
 30
0.0
 10
241.228084
 20
85.417123
 30
0.0
  0
LWPOLYLINE
  5
179
100
AcDbEntity
  8
design
 62
1
100
AcDbPolyline
 90
3
 70
0
 10
240.894189
 20
90.683246
 30
0.0
 10
240.717310
 20
90.228265
 30
0.0
 10
242.284311
 20
89.619076
 30
0.0
  0
SPLINE
  5
17a
100
AcDbEntity
  8
design
 62
1
100
AcDbSpline
 70
8
 71
3
 72
8
 73
4
 74
0
 40
0
 40
0
 40
0
 40
0
 40
1
 40
1
 40
1
 40
1
 10
236.354445
 20
84.513001
 30
0.0
 10
240.329456
 20
88.321699
 30
0.0
 10
240.150148
 20
91.911535
 30
0.0
 10
238.481110
 20
94.248198
 30
0.0
  0
SPLINE
  5
17b
100
AcDbEntity
  8
design
 62
1
100
AcDbSpline
 70
8
 71
3
 72
8
 73
4
 74
0
 40
0
 40
0
 40
0
 40
0
 40
1
 40
1
 40
1
 40
1
 10
238.481110
 20
94.248198
 30
0.0
 10
237.725240
 20
95.306231
 30
0.0
 10
236.592497
 20
96.301710
 30
0.0
 10
235.208961
 20
97.412449
 30
0.0
  0
SPLINE
  5
17c
100
AcDbEntity
  8
design
 62
1
100
AcDbSpline
 70
8
 71
3
 72
8
 73
4
 74
0
 40
0
 40
0
 40
0
 40
0
 40
1
 40
1
 40
1
 40
1
 10
235.208961
 20
97.412449
 30
0.0
 10
233.209954
 20
99.017291
 30
0.0
 10
231.242647
 20
100.696312
 30
0.0
 10
229.630245
 20
102.656287
 30
0.0
  0
LWPOLYLINE
  5
17d
100
AcDbEntity
  8
design
 62
1
100
AcDbPolyline
 90
2
 70
0
 10
241.228084
 20
85.417123
 30
0.0
 10
236.354445
 20
84.513001
 30
0.0
  0
SPLINE
  5
17e
100
AcDbEntity
  8
design
 62
1
100
AcDbSpline
 70
8
 71
3
 72
8
 73
4
 74
0
 40
0
 40
0
 40
0
 40
0
 40
1
 40
1
 40
1
 40
1
 10
229.039059
 20
103.409876
 30
0.0
 10
228.795181
 20
103.736494
 30
0.0
 10
228.559435
 20
104.074599
 30
0.0
 10
228.335217
 20
104.421545
 30
0.0
  0
SPLINE
  5
17f
100
AcDbEntity
  8
design
 62
1
100
AcDbSpline
 70
8
 71
3
 72
8
 73
4
 74
0
 40
0
 40
0
 40
0
 40
0
 40
1
 40
1
 40
1
 40
1
 10
228.335217
 20
104.421545
 30
0.0
 10
226.723674
 20
106.916181
 30
0.0
 10
225.539561
 20
109.662561
 30
0.0
 10
224.832375
 20
112.547325
 30
0.0
  0
LWPOLYLINE
  5
180
100
AcDbEntity
  8
design
 62
1
100
AcDbPolyline
 90
4
 70
0
 10
229.630245
 20
102.656287
 30
0.0
 10
231.548484
 20
101.910550
 30
0.0
 10
231.725368
 20
102.365543
 30
0.0
 10
229.039059
 20
103.409876
 30
0.0
  0
SPLINE
  5
181
100
AcDbEntity
  8
design
 62
1
100
AcDbSpline
 70
8
 71
3
 72
8
 73
4
 74
0
 40
0
 40
0
 40
0
 40
0
 40
1
 40
1
 40
1
 40
1
 10
224.697990
 20
113.123313
 30
0.0
 10
224.136319
 20
115.655667
 30
0.0
 10
223.946597
 20
118.256692
 30
0.0
 10
224.135399
 20
120.843827
 30
0.0
  0
LWPOLYLINE
  5
182
100
AcDbEntity
  8
design
 62
1
100
AcDbPolyline
 90
4
 70
0
 10
224.832375
 20
112.547325
 30
0.0
 10
225.833391
 20
112.158169
 30
0.0
 10
226.010270
 20
112.613149
 30
0.0
 10
224.697990
 20
113.123313
 30
0.0
  0
SPLINE
  5
183
100
AcDbEntity
  8
design
 62
1
100
AcDbSpline
 70
8
 71
3
 72
8
 73
4
 74
0
 40
0
 40
0
 40
0
 40
0
 40
1
 40
1
 40
1
 40
1
 10
224.177421
 20
121.351249
 30
0.0
 10
224.394613
 20
123.707564
 30
0.0
 10
224.924221
 20
126.024486
 30
0.0
 10
225.752237
 20
128.241075
 30
0.0
  0
LWPOLYLINE
  5
184
100
AcDbEntity
  8
design
 62
1
100
AcDbPolyline
 90
4
 70
0
 10
224.135399
 20
120.843827
 30
0.0
 10
225.226759
 20
120.419548
 30
0.0
 10
225.403643
 20
120.874542
 30
0.0
 10
224.177421
 20
121.351249
 30
0.0
  0
SPLINE
  5
185
100
AcDbEntity
  8
design
 62
1
100
AcDbSpline
 70
8
 71
3
 72
8
 73
4
 74
0
 40
0
 40
0
 40
0
 40
0
 40
1
 40
1
 40
1
 40
1
 10
225.927291
 20
128.696765
 30
0.0
 10
226.794756
 20
130.895157
 30
0.0
 10
227.950529
 20
132.968650
 30
0.0
 10
229.364053
 20
134.862753
 30
0.0
  0
LWPOLYLINE
  5
186
100
AcDbEntity
  8
design
 62
1
100
AcDbPolyline
 90
4
 70
0
 10
225.752237
 20
128.241075
 30
0.0
 10
227.161450
 20
127.693228
 30
0.0
 10
227.338329
 20
128.148208
 30
0.0
 10
225.927291
 20
128.696765
 30
0.0
  0
SPLINE
  5
187
100
AcDbEntity
  8
design
 62
1
100
AcDbSpline
 70
8
 71
3
 72
8
 73
4
 74
0
 40
0
 40
0
 40
0
 40
0
 40
1
 40
1
 40
1
 40
1
 10
229.671703
 20
135.266895
 30
0.0
 10
231.211772
 20
137.250580
 30
0.0
 10
233.024195
 20
139.007116
 30
0.0
 10
235.055215
 20
140.484235
 30
0.0
  0
LWPOLYLINE
  5
188
100
AcDbEntity
  8
design
 62
1
100
AcDbPolyline
 90
4
 70
0
 10
229.364053
 20
134.862753
 30
0.0
 10
231.187612
 20
134.153824
 30
0.0
 10
231.364490
 20
134.608805
 30
0.0
 10
229.671703
 20
135.266895
 30
0.0
  0
SPLINE
  5
189
100
AcDbEntity
  8
design
 62
1
100
AcDbSpline
 70
8
 71
3
 72
8
 73
4
 74
0
 40
0
 40
0
 40
0
 40
0
 40
1
 40
1
 40
1
 40
1
 10
240.881201
 20
138.410876
 30
0.0
 10
238.064004
 20
137.435154
 30
0.0
 10
235.479834
 20
135.885077
 30
0.0
 10
233.292490
 20
133.859273
 30
0.0
  0
SPLINE
  5
18a
100
AcDbEntity
  8
design
 62
1
100
AcDbSpline
 70
8
 71
3
 72
8
 73
4
 74
0
 40
0
 40
0
 40
0
 40
0
 40
1
 40
1
 40
1
 40
1
 10
233.292490
 20
133.859273
 30
0.0
 10
233.160462
 20
133.736804
 30
0.0
 10
233.029979
 20
133.612944
 30
0.0
 10
232.901280
 20
133.487616
 30
0.0
  0
SPLINE
  5
18b
100
AcDbEntity
  8
design
 62
1
100
AcDbSpline
 70
8
 71
3
 72
8
 73
4
 74
0
 40
0
 40
0
 40
0
 40
0
 40
1
 40
1
 40
1
 40
1
 10
232.901280
 20
133.487616
 30
0.0
 10
231.161400
 20
131.793301
 30
0.0
 10
229.720401
 20
129.817102
 30
0.0
 10
228.639477
 20
127.642372
 30
0.0
  0
SPLINE
  5
18c
100
AcDbEntity
  8
design
 62
1
100
AcDbSpline
 70
8
 71
3
 72
8
 73
4
 74
0
 40
0
 40
0
 40
0
 40
0
 40
1
 40
1
 40
1
 40
1
 10
228.639477
 20
127.642372
 30
0.0
 10
228.566755
 20
127.496325
 30
0.0
 10
228.495682
 20
127.349116
 30
0.0
 10
228.426507
 20
127.201422
 30
0.0
  0
SPLINE
  5
18d
100
AcDbEntity
  8
design
 62
1
100
AcDbSpline
 70
8
 71
3
 72
8
 73
4
 74
0
 40
0
 40
0
 40
0
 40
0
 40
1
 40
1
 40
1
 40
1
 10
228.426507
 20
127.201422
 30
0.0
 10
227.425381
 20
125.067287
 30
0.0
 10
226.781325
 20
122.783354
 30
0.0
 10
226.519986
 20
120.440550
 30
0.0
  0
SPLINE
  5
18e
100
AcDbEntity
  8
design
 62
1
100
AcDbSpline
 70
8
 71
3
 72
8
 73
4
 74
0
 40
0
 40
0
 40
0
 40
0
 40
1
 40
1
 40
1
 40
1
 10
226.519986
 20
120.440550
 30
0.0
 10
226.501264
 20
120.272721
 30
0.0
 10
226.484529
 20
120.104641
 30
0.0
 10
226.469796
 20
119.936304
 30
0.0
  0
SPLINE
  5
18f
100
AcDbEntity
  8
design
 62
1
100
AcDbSpline
 70
8
 71
3
 72
8
 73
4
 74
0
 40
0
 40
0
 40
0
 40
0
 40
1
 40
1
 40
1
 40
1
 10
226.469796
 20
119.936304
 30
0.0
 10
226.239646
 20
117.316099
 30
0.0
 10
226.491374
 20
114.675559
 30
0.0
 10
227.212427
 20
112.145797
 30
0.0
  0
SPLINE
  5
190
100
AcDbEntity
  8
design
 62
1
100
AcDbSpline
 70
8
 71
3
 72
8
 73
4
 74
0
 40
0
 40
0
 40
0
 40
0
 40
1
 40
1
 40
1
 40
1
 10
227.212427
 20
112.145797
 30
0.0
 10
227.269008
 20
111.947128
 30
0.0
 10
227.328330
 20
111.749495
 30
0.0
 10
227.390631
 20
111.552774
 30
0.0
  0
SPLINE
  5
191
100
AcDbEntity
  8
design
 62
1
100
AcDbSpline
 70
8
 71
3
 72
8
 73
4
 74
0
 40
0
 40
0
 40
0
 40
0
 40
1
 40
1
 40
1
 40
1
 10
227.390631
 20
111.552774
 30
0.0
 10
228.349718
 20
108.520682
 30
0.0
 10
229.968222
 20
105.738721
 30
0.0
 10
232.129964
 20
103.406275
 30
0.0
  0
SPLINE
  5
192
100
AcDbEntity
  8
design
 62
1
100
AcDbSpline
 70
8
 71
3
 72
8
 73
4
 74
0
 40
0
 40
0
 40
0
 40
0
 40
1
 40
1
 40
1
 40
1
 10
232.129964
 20
103.406275
 30
0.0
 10
232.694005
 20
102.797322
 30
0.0
 10
233.292782
 20
102.221910
 30
0.0
 10
233.923229
 20
101.682273
 30
0.0
  0
SPLINE
  5
193
100
AcDbEntity
  8
design
 62
1
100
AcDbSpline
 70
8
 71
3
 72
8
 73
4
 74
0
 40
0
 40
0
 40
0
 40
0
 40
1
 40
1
 40
1
 40
1
 10
233.923229
 20
101.682273
 30
0.0
 10
239.535794
 20
96.967841
 30
0.0
 10
242.416612
 20
94.290770
 30
0.0
 10
242.311803
 20
90.132132
 30
0.0
  0
LWPOLYLINE
  5
194
100
AcDbEntity
  8
design
 62
1
100
AcDbPolyline
 90
9
 70
0
 10
235.055215
 20
140.484235
 30
0.0
 10
235.039079
 20
140.682067
 30
0.0
 10
234.994830
 20
141.223013
 30
0.0
 10
234.744660
 20
144.275629
 30
0.0
 10
240.937102
 20
141.868248
 30
0.0
 10
241.073977
 20
138.859676
 30
0.0
 10
237.979225
 20
140.062796
 30
0.0
 10
237.802346
 20
139.607816
 30
0.0
 10
240.881201
 20
138.410876
 30
0.0
  0
LWPOLYLINE
  5
195
100
AcDbEntity
  8
design
 62
1
100
AcDbPolyline
 90
2
 70
0
 10
242.311803
 20
90.132132
 30
0.0
 10
240.894189
 20
90.683246
 30
0.0
  0
SPLINE
  5
196
100
AcDbEntity
  8
design
 62
1
100
AcDbSpline
 70
8
 71
3
 72
8
 73
4
 74
0
 40
0
 40
0
 40
0
 40
0
 40
1
 40
1
 40
1
 40
1
 10
191.189240
 20
89.325599
 30
0.0
 10
191.088386
 20
88.086018
 30
0.0
 10
190.738210
 20
86.714685
 30
0.0
 10
190.133013
 20
85.123646
 30
0.0
  0
LWPOLYLINE
  5
197
100
AcDbEntity
  8
design
 62
1
100
AcDbPolyline
 90
3
 70
0
 10
189.799118
 20
90.389769
 30
0.0
 10
189.622239
 20
89.934788
 30
0.0
 10
191.189240
 20
89.325599
 30
0.0
  0
SPLINE
  5
198
100
AcDbEntity
  8
design
 62
1
100
AcDbSpline
 70
8
 71
3
 72
8
 73
4
 74
0
 40
0
 40
0
 40
0
 40
0
 40
1
 40
1
 40
1
 40
1
 10
185.259240
 20
84.219829
 30
0.0
 10
189.234147
 20
88.028299
 30
0.0
 10
189.055077
 20
91.618058
 30
0.0
 10
187.385801
 20
93.954799
 30
0.0
  0
SPLINE
  5
199
100
AcDbEntity
  8
design
 62
1
100
AcDbSpline
 70
8
 71
3
 72
8
 73
4
 74
0
 40
0
 40
0
 40
0
 40
0
 40
1
 40
1
 40
1
 40
1
 10
187.385801
 20
93.954799
 30
0.0
 10
186.629936
 20
95.012845
 30
0.0
 10
185.497278
 20
96.008543
 30
0.0
 10
184.113670
 20
97.119058
 30
0.0
  0
SPLINE
  5
19a
100
AcDbEntity
  8
design
 62
1
100
AcDbSpline
 70
8
 71
3
 72
8
 73
4
 74
0
 40
0
 40
0
 40
0
 40
0
 40
1
 40
1
 40
1
 40
1
 10
184.113670
 20
97.119058
 30
0.0
 10
182.114878
 20
98.723801
 30
0.0
 10
180.147571
 20
100.402822
 30
0.0
 10
178.534954
 20
102.362895
 30
0.0
  0
LWPOLYLINE
  5
19b
100
AcDbEntity
  8
design
 62
1
100
AcDbPolyline
 90
2
 70
0
 10
190.133013
 20
85.123646
 30
0.0
 10
185.259240
 20
84.219829
 30
0.0
  0
SPLINE
  5
19c
100
AcDbEntity
  8
design
 62
1
100
AcDbSpline
 70
8
 71
3
 72
8
 73
4
 74
0
 40
0
 40
0
 40
0
 40
0
 40
1
 40
1
 40
1
 40
1
 10
177.944074
 20
103.116619
 30
0.0
 10
177.700196
 20
103.443237
 30
0.0
 10
177.464126
 20
103.781200
 30
0.0
 10
177.240146
 20
104.128068
 30
0.0
  0
SPLINE
  5
19d
100
AcDbEntity
  8
design
 62
1
100
AcDbSpline
 70
8
 71
3
 72
8
 73
4
 74
0
 40
0
 40
0
 40
0
 40
0
 40
1
 40
1
 40
1
 40
1
 10
177.240146
 20
104.128068
 30
0.0
 10
175.628455
 20
106.623014
 30
0.0
 10
174.444575
 20
109.369304
 30
0.0
 10
173.737304
 20
112.253848
 30
0.0
  0
LWPOLYLINE
  5
19e
100
AcDbEntity
  8
design
 62
1
100
AcDbPolyline
 90
4
 70
0
 10
178.534954
 20
102.362895
 30
0.0
 10
180.453180
 20
101.617163
 30
0.0
 10
180.630149
 20
102.072376
 30
0.0
 10
177.944074
 20
103.116619
 30
0.0
  0
SPLINE
  5
19f
100
AcDbEntity
  8
design
 62
1
100
AcDbSpline
 70
8
 71
3
 72
8
 73
4
 74
0
 40
0
 40
0
 40
0
 40
0
 40
1
 40
1
 40
1
 40
1
 10
173.602699
 20
112.829922
 30
0.0
 10
173.041113
 20
115.362496
 30
0.0
 10
172.851521
 20
117.963202
 30
0.0
 10
173.040414
 20
120.550570
 30
0.0
  0
LWPOLYLINE
  5
1a0
100
AcDbEntity
  8
design
 62
1
100
AcDbPolyline
 90
4
 70
0
 10
173.737304
 20
112.253848
 30
0.0
 10
174.738087
 20
111.864782
 30
0.0
 10
174.914966
 20
112.319763
 30
0.0
 10
173.602699
 20
112.829922
 30
0.0
  0
SPLINE
  5
1a1
100
AcDbEntity
  8
design
 62
1
100
AcDbSpline
 70
8
 71
3
 72
8
 73
4
 74
0
 40
0
 40
0
 40
0
 40
0
 40
1
 40
1
 40
1
 40
1
 10
173.082203
 20
121.058083
 30
0.0
 10
173.299395
 20
123.414397
 30
0.0
 10
173.828925
 20
125.731082
 30
0.0
 10
174.657166
 20
127.947598
 30
0.0
  0
LWPOLYLINE
  5
1a2
100
AcDbEntity
  8
design
 62
1
100
AcDbPolyline
 90
4
 70
0
 10
173.040414
 20
120.550570
 30
0.0
 10
174.131774
 20
120.126291
 30
0.0
 10
174.308657
 20
120.581285
 30
0.0
 10
173.082203
 20
121.058083
 30
0.0
  0
SPLINE
  5
1a3
100
AcDbEntity
  8
design
 62
1
100
AcDbSpline
 70
8
 71
3
 72
8
 73
4
 74
0
 40
0
 40
0
 40
0
 40
0
 40
1
 40
1
 40
1
 40
1
 10
174.832220
 20
128.403288
 30
0.0
 10
175.699447
 20
130.601757
 30
0.0
 10
176.855238
 20
132.675259
 30
0.0
 10
178.268749
 20
134.569367
 30
0.0
  0
LWPOLYLINE
  5
1a4
100
AcDbEntity
  8
design
 62
1
100
AcDbPolyline
 90
4
 70
0
 10
174.657166
 20
127.947598
 30
0.0
 10
176.066379
 20
127.399750
 30
0.0
 10
176.243258
 20
127.854731
 30
0.0
 10
174.832220
 20
128.403288
 30
0.0
  0
SPLINE
  5
1a5
100
AcDbEntity
  8
design
 62
1
100
AcDbSpline
 70
8
 71
3
 72
8
 73
4
 74
0
 40
0
 40
0
 40
0
 40
0
 40
1
 40
1
 40
1
 40
1
 10
178.576399
 20
134.973508
 30
0.0
 10
180.116468
 20
136.957194
 30
0.0
 10
181.928904
 20
138.713724
 30
0.0
 10
183.960139
 20
140.190745
 30
0.0
  0
LWPOLYLINE
  5
1a6
100
AcDbEntity
  8
design
 62
1
100
AcDbPolyline
 90
4
 70
0
 10
178.268749
 20
134.569367
 30
0.0
 10
180.092308
 20
133.860438
 30
0.0
 10
180.269186
 20
134.315418
 30
0.0
 10
178.576399
 20
134.973508
 30
0.0
  0
SPLINE
  5
1a7
100
AcDbEntity
  8
design
 62
1
100
AcDbSpline
 70
8
 71
3
 72
8
 73
4
 74
0
 40
0
 40
0
 40
0
 40
0
 40
1
 40
1
 40
1
 40
1
 10
189.786130
 20
138.117399
 30
0.0
 10
186.968700
 20
137.141767
 30
0.0
 10
184.384615
 20
135.591910
 30
0.0
 10
182.197419
 20
133.565796
 30
0.0
  0
SPLINE
  5
1a8
100
AcDbEntity
  8
design
 62
1
100
AcDbSpline
 70
8
 71
3
 72
8
 73
4
 74
0
 40
0
 40
0
 40
0
 40
0
 40
1
 40
1
 40
1
 40
1
 10
182.197419
 20
133.565796
 30
0.0
 10
182.065243
 20
133.443637
 30
0.0
 10
181.934773
 20
133.319773
 30
0.0
 10
181.805989
 20
133.194225
 30
0.0
  0
SPLINE
  5
1a9
100
AcDbEntity
  8
design
 62
1
100
AcDbSpline
 70
8
 71
3
 72
8
 73
4
 74
0
 40
0
 40
0
 40
0
 40
0
 40
1
 40
1
 40
1
 40
1
 10
181.805989
 20
133.194225
 30
0.0
 10
180.066096
 20
131.499914
 30
0.0
 10
178.625330
 20
129.523625
 30
0.0
 10
177.544186
 20
127.348980
 30
0.0
  0
SPLINE
  5
1aa
100
AcDbEntity
  8
design
 62
1
100
AcDbSpline
 70
8
 71
3
 72
8
 73
4
 74
0
 40
0
 40
0
 40
0
 40
0
 40
1
 40
1
 40
1
 40
1
 10
177.544186
 20
127.348980
 30
0.0
 10
177.471684
 20
127.202848
 30
0.0
 10
177.400697
 20
127.055859
 30
0.0
 10
177.331203
 20
126.908036
 30
0.0
  0
SPLINE
  5
1ab
100
AcDbEntity
  8
design
 62
1
100
AcDbSpline
 70
8
 71
3
 72
8
 73
4
 74
0
 40
0
 40
0
 40
0
 40
0
 40
1
 40
1
 40
1
 40
1
 10
177.331203
 20
126.908036
 30
0.0
 10
176.330310
 20
124.773810
 30
0.0
 10
175.686339
 20
122.490097
 30
0.0
 10
175.424768
 20
120.147384
 30
0.0
  0
SPLINE
  5
1ac
100
AcDbEntity
  8
design
 62
1
100
AcDbSpline
 70
8
 71
3
 72
8
 73
4
 74
0
 40
0
 40
0
 40
0
 40
0
 40
1
 40
1
 40
1
 40
1
 10
175.424768
 20
120.147384
 30
0.0
 10
175.406278
 20
119.979464
 30
0.0
 10
175.389311
 20
119.811474
 30
0.0
 10
175.374578
 20
119.643137
 30
0.0
  0
SPLINE
  5
1ad
100
AcDbEntity
  8
design
 62
1
100
AcDbSpline
 70
8
 71
3
 72
8
 73
4
 74
0
 40
0
 40
0
 40
0
 40
0
 40
1
 40
1
 40
1
 40
1
 10
175.374578
 20
119.643137
 30
0.0
 10
175.144575
 20
117.022621
 30
0.0
 10
175.396070
 20
114.382173
 30
0.0
 10
176.117123
 20
111.852411
 30
0.0
  0
SPLINE
  5
1ae
100
AcDbEntity
  8
design
 62
1
100
AcDbSpline
 70
8
 71
3
 72
8
 73
4
 74
0
 40
0
 40
0
 40
0
 40
0
 40
1
 40
1
 40
1
 40
1
 10
176.117123
 20
111.852411
 30
0.0
 10
176.173789
 20
111.653962
 30
0.0
 10
176.233125
 20
111.456323
 30
0.0
 10
176.295560
 20
111.259297
 30
0.0
  0
SPLINE
  5
1af
100
AcDbEntity
  8
design
 62
1
100
AcDbSpline
 70
8
 71
3
 72
8
 73
4
 74
0
 40
0
 40
0
 40
0
 40
0
 40
1
 40
1
 40
1
 40
1
 10
176.295560
 20
111.259297
 30
0.0
 10
177.254733
 20
108.227425
 30
0.0
 10
178.873138
 20
105.445249
 30
0.0
 10
181.034660
 20
103.112888
 30
0.0
  0
SPLINE
  5
1b0
100
AcDbEntity
  8
design
 62
1
100
AcDbSpline
 70
8
 71
3
 72
8
 73
4
 74
0
 40
0
 40
0
 40
0
 40
0
 40
1
 40
1
 40
1
 40
1
 10
181.034660
 20
103.112888
 30
0.0
 10
181.598787
 20
102.504156
 30
0.0
 10
182.197698
 20
101.928438
 30
0.0
 10
182.827925
 20
101.388887
 30
0.0
  0
SPLINE
  5
1b1
100
AcDbEntity
  8
design
 62
1
100
AcDbSpline
 70
8
 71
3
 72
8
 73
4
 74
0
 40
0
 40
0
 40
0
 40
0
 40
1
 40
1
 40
1
 40
1
 10
182.827925
 20
101.388887
 30
0.0
 10
188.440490
 20
96.674455
 30
0.0
 10
191.321536
 20
93.997280
 30
0.0
 10
191.216732
 20
89.838655
 30
0.0
  0
LWPOLYLINE
  5
1b2
100
AcDbEntity
  8
design
 62
1
100
AcDbPolyline
 90
9
 70
0
 10
183.960139
 20
140.190745
 30
0.0
 10
183.943788
 20
140.388675
 30
0.0
 10
183.899612
 20
140.929847
 30
0.0
 10
183.649351
 20
143.982230
 30
0.0
 10
189.842026
 20
141.574758
 30
0.0
 10
189.978758
 20
138.566510
 30
0.0
 10
186.884240
 20
139.769539
 30
0.0
 10
186.707276
 20
139.314338
 30
0.0
 10
189.786130
 20
138.117399
 30
0.0
  0
SPLINE
  5
1b3
100
AcDbEntity
  8
design
 62
1
100
AcDbSpline
 70
8
 71
3
 72
8
 73
4
 74
0
 40
0
 40
0
 40
0
 40
0
 40
1
 40
1
 40
1
 40
1
 10
140.119360
 20
114.347915
 30
0.0
 10
139.191277
 20
115.797762
 30
0.0
 10
137.595763
 20
116.779429
 30
0.0
 10
135.766402
 20
116.860068
 30
0.0
  0
LWPOLYLINE
  5
1b4
100
AcDbEntity
  8
design
 62
1
100
AcDbPolyline
 90
2
 70
0
 10
191.216732
 20
89.838655
 30
0.0
 10
189.799118
 20
90.389769
 30
0.0
  0
SPLINE
  5
1b5
100
AcDbEntity
  8
design
 62
1
100
AcDbSpline
 70
8
 71
3
 72
8
 73
4
 74
0
 40
0
 40
0
 40
0
 40
0
 40
1
 40
1
 40
1
 40
1
 10
135.766402
 20
115.401443
 30
0.0
 10
135.605624
 20
115.411193
 30
0.0
 10
135.442416
 20
115.411193
 30
0.0
 10
135.279221
 20
115.401443
 30
0.0
  0
LWPOLYLINE
  5
1b6
100
AcDbEntity
  8
design
 62
1
100
AcDbPolyline
 90
2
 70
0
 10
135.766402
 20
116.860068
 30
0.0
 10
135.766402
 20
115.401443
 30
0.0
  0
SPLINE
  5
1b7
100
AcDbEntity
  8
design
 62
1
100
AcDbSpline
 70
8
 71
3
 72
8
 73
4
 74
0
 40
0
 40
0
 40
0
 40
0
 40
1
 40
1
 40
1
 40
1
 10
135.279221
 20
116.860068
 30
0.0
 10
133.449846
 20
116.779429
 30
0.0
 10
131.854332
 20
115.797762
 30
0.0
 10
130.926263
 20
114.347915
 30
0.0
  0
LWPOLYLINE
  5
1b8
100
AcDbEntity
  8
design
 62
1
100
AcDbPolyline
 90
2
 70
0
 10
135.279221
 20
115.401443
 30
0.0
 10
135.279221
 20
116.860068
 30
0.0
  0
SPLINE
  5
1b9
100
AcDbEntity
  8
design
 62
1
100
AcDbSpline
 70
8
 71
3
 72
8
 73
4
 74
0
 40
0
 40
0
 40
0
 40
0
 40
1
 40
1
 40
1
 40
1
 10
132.190485
 20
113.618609
 30
0.0
 10
132.100360
 20
113.482929
 30
0.0
 10
132.019971
 20
113.341651
 30
0.0
 10
131.946902
 20
113.195971
 30
0.0
  0
LWPOLYLINE
  5
1ba
100
AcDbEntity
  8
design
 62
1
100
AcDbPolyline
 90
2
 70
0
 10
130.926263
 20
114.347915
 30
0.0
 10
132.190485
 20
113.618609
 30
0.0
  0
SPLINE
  5
1bb
100
AcDbEntity
  8
design
 62
1
100
AcDbSpline
 70
8
 71
3
 72
8
 73
4
 74
0
 40
0
 40
0
 40
0
 40
0
 40
1
 40
1
 40
1
 40
1
 10
130.682666
 20
113.925290
 30
0.0
 10
130.292929
 20
113.173804
 30
0.0
 10
130.071249
 20
112.319054
 30
0.0
 10
130.071249
 20
111.412651
 30
0.0
  0
SPLINE
  5
1bc
100
AcDbEntity
  8
design
 62
1
100
AcDbSpline
 70
8
 71
3
 72
8
 73
4
 74
0
 40
0
 40
0
 40
0
 40
0
 40
1
 40
1
 40
1
 40
1
 10
130.071249
 20
111.412651
 30
0.0
 10
130.071249
 20
110.506498
 30
0.0
 10
130.292929
 20
109.651734
 30
0.0
 10
130.682666
 20
108.899776
 30
0.0
  0
LWPOLYLINE
  5
1bd
100
AcDbEntity
  8
design
 62
1
100
AcDbPolyline
 90
2
 70
0
 10
131.946902
 20
113.195971
 30
0.0
 10
130.682666
 20
113.925290
 30
0.0
  0
SPLINE
  5
1be
100
AcDbEntity
  8
design
 62
1
100
AcDbSpline
 70
8
 71
3
 72
8
 73
4
 74
0
 40
0
 40
0
 40
0
 40
0
 40
1
 40
1
 40
1
 40
1
 10
131.946902
 20
109.629082
 30
0.0
 10
132.019971
 20
109.483415
 30
0.0
 10
132.100360
 20
109.342387
 30
0.0
 10
132.190485
 20
109.206707
 30
0.0
  0
LWPOLYLINE
  5
1bf
100
AcDbEntity
  8
design
 62
1
100
AcDbPolyline
 90
2
 70
0
 10
130.682666
 20
108.899776
 30
0.0
 10
131.946902
 20
109.629082
 30
0.0
  0
SPLINE
  5
1c0
100
AcDbEntity
  8
design
 62
1
100
AcDbSpline
 70
8
 71
3
 72
8
 73
4
 74
0
 40
0
 40
0
 40
0
 40
0
 40
1
 40
1
 40
1
 40
1
 10
130.926263
 20
108.477151
 30
0.0
 10
131.854332
 20
107.027540
 30
0.0
 10
133.449846
 20
106.045623
 30
0.0
 10
135.279221
 20
105.965248
 30
0.0
  0
LWPOLYLINE
  5
1c1
100
AcDbEntity
  8
design
 62
1
100
AcDbPolyline
 90
2
 70
0
 10
132.190485
 20
109.206707
 30
0.0
 10
130.926263
 20
108.477151
 30
0.0
  0
SPLINE
  5
1c2
100
AcDbEntity
  8
design
 62
1
100
AcDbSpline
 70
8
 71
3
 72
8
 73
4
 74
0
 40
0
 40
0
 40
0
 40
0
 40
1
 40
1
 40
1
 40
1
 10
135.279221
 20
107.423859
 30
0.0
 10
135.442416
 20
107.413873
 30
0.0
 10
135.605624
 20
107.414123
 30
0.0
 10
135.766402
 20
107.423859
 30
0.0
  0
LWPOLYLINE
  5
1c3
100
AcDbEntity
  8
design
 62
1
100
AcDbPolyline
 90
2
 70
0
 10
135.279221
 20
105.965248
 30
0.0
 10
135.279221
 20
107.423859
 30
0.0
  0
SPLINE
  5
1c4
100
AcDbEntity
  8
design
 62
1
100
AcDbSpline
 70
8
 71
3
 72
8
 73
4
 74
0
 40
0
 40
0
 40
0
 40
0
 40
1
 40
1
 40
1
 40
1
 10
135.766402
 20
105.965248
 30
0.0
 10
137.595763
 20
106.045623
 30
0.0
 10
139.191277
 20
107.027540
 30
0.0
 10
140.119360
 20
108.477151
 30
0.0
  0
LWPOLYLINE
  5
1c5
100
AcDbEntity
  8
design
 62
1
100
AcDbPolyline
 90
2
 70
0
 10
135.766402
 20
107.423859
 30
0.0
 10
135.766402
 20
105.965248
 30
0.0
  0
SPLINE
  5
1c6
100
AcDbEntity
  8
design
 62
1
100
AcDbSpline
 70
8
 71
3
 72
8
 73
4
 74
0
 40
0
 40
0
 40
0
 40
0
 40
1
 40
1
 40
1
 40
1
 10
138.855124
 20
109.206707
 30
0.0
 10
138.945249
 20
109.342387
 30
0.0
 10
139.028068
 20
109.483415
 30
0.0
 10
139.101152
 20
109.629082
 30
0.0
  0
LWPOLYLINE
  5
1c7
100
AcDbEntity
  8
design
 62
1
100
AcDbPolyline
 90
2
 70
0
 10
140.119360
 20
108.477151
 30
0.0
 10
138.855124
 20
109.206707
 30
0.0
  0
SPLINE
  5
1c8
100
AcDbEntity
  8
design
 62
1
100
AcDbSpline
 70
8
 71
3
 72
8
 73
4
 74
0
 40
0
 40
0
 40
0
 40
0
 40
1
 40
1
 40
1
 40
1
 10
140.362943
 20
108.899776
 30
0.0
 10
140.755124
 20
109.651248
 30
0.0
 10
140.976791
 20
110.506012
 30
0.0
 10
140.976791
 20
111.412651
 30
0.0
  0
SPLINE
  5
1c9
100
AcDbEntity
  8
design
 62
1
100
AcDbSpline
 70
8
 71
3
 72
8
 73
4
 74
0
 40
0
 40
0
 40
0
 40
0
 40
1
 40
1
 40
1
 40
1
 10
140.976791
 20
111.412651
 30
0.0
 10
140.976791
 20
112.318804
 30
0.0
 10
140.755124
 20
113.173318
 30
0.0
 10
140.362943
 20
113.925290
 30
0.0
  0
LWPOLYLINE
  5
1ca
100
AcDbEntity
  8
design
 62
1
100
AcDbPolyline
 90
2
 70
0
 10
139.101152
 20
109.629082
 30
0.0
 10
140.362943
 20
108.899776
 30
0.0
  0
SPLINE
  5
1cb
100
AcDbEntity
  8
design
 62
1
100
AcDbSpline
 70
8
 71
3
 72
8
 73
4
 74
0
 40
0
 40
0
 40
0
 40
0
 40
1
 40
1
 40
1
 40
1
 10
139.101152
 20
113.195971
 30
0.0
 10
139.035374
 20
113.328248
 30
0.0
 10
138.962304
 20
113.456373
 30
0.0
 10
138.881916
 20
113.580123
 30
0.0
  0
SPLINE
  5
1cc
100
AcDbEntity
  8
design
 62
1
100
AcDbSpline
 70
8
 71
3
 72
8
 73
4
 74
0
 40
0
 40
0
 40
0
 40
0
 40
1
 40
1
 40
1
 40
1
 10
138.881916
 20
113.580123
 30
0.0
 10
138.872166
 20
113.593026
 30
0.0
 10
138.864860
 20
113.605693
 30
0.0
 10
138.855124
 20
113.618609
 30
0.0
  0
LWPOLYLINE
  5
1cd
100
AcDbEntity
  8
design
 62
1
100
AcDbPolyline
 90
2
 70
0
 10
140.362943
 20
113.925290
 30
0.0
 10
139.101152
 20
113.195971
 30
0.0
  0
SPLINE
  5
1ce
100
AcDbEntity
  8
design
 62
1
100
AcDbSpline
 70
8
 71
3
 72
8
 73
4
 74
0
 40
0
 40
0
 40
0
 40
0
 40
1
 40
1
 40
1
 40
1
 10
133.211138
 20
110.359373
 30
0.0
 10
133.242804
 20
110.287998
 30
0.0
 10
133.279346
 20
110.217846
 30
0.0
 10
133.318318
 20
110.149637
 30
0.0
  0
SPLINE
  5
1cf
100
AcDbEntity
  8
design
 62
1
100
AcDbSpline
 70
8
 71
3
 72
8
 73
4
 74
0
 40
0
 40
0
 40
0
 40
0
 40
1
 40
1
 40
1
 40
1
 10
133.318318
 20
110.149637
 30
0.0
 10
133.362166
 20
110.076568
 30
0.0
 10
133.406013
 20
110.005679
 30
0.0
 10
133.457166
 20
109.937234
 30
0.0
  0
SPLINE
  5
1d0
100
AcDbEntity
  8
design
 62
1
100
AcDbSpline
 70
8
 71
3
 72
8
 73
4
 74
0
 40
0
 40
0
 40
0
 40
0
 40
1
 40
1
 40
1
 40
1
 10
133.457166
 20
109.937234
 30
0.0
 10
133.571652
 20
109.777429
 30
0.0
 10
133.703193
 20
109.631276
 30
0.0
 10
133.851777
 20
109.501929
 30
0.0
  0
SPLINE
  5
1d1
100
AcDbEntity
  8
design
 62
1
100
AcDbSpline
 70
8
 71
3
 72
8
 73
4
 74
0
 40
0
 40
0
 40
0
 40
0
 40
1
 40
1
 40
1
 40
1
 10
133.851777
 20
109.501929
 30
0.0
 10
134.032027
 20
109.343359
 30
0.0
 10
134.234207
 20
109.211082
 30
0.0
 10
134.451013
 20
109.109262
 30
0.0
  0
SPLINE
  5
1d2
100
AcDbEntity
  8
design
 62
1
100
AcDbSpline
 70
8
 71
3
 72
8
 73
4
 74
0
 40
0
 40
0
 40
0
 40
0
 40
1
 40
1
 40
1
 40
1
 10
134.451013
 20
109.109262
 30
0.0
 10
134.699471
 20
108.993068
 30
0.0
 10
134.967416
 20
108.918540
 30
0.0
 10
135.240235
 20
108.888818
 30
0.0
  0
SPLINE
  5
1d3
100
AcDbEntity
  8
design
 62
1
100
AcDbSpline
 70
8
 71
3
 72
8
 73
4
 74
0
 40
0
 40
0
 40
0
 40
0
 40
1
 40
1
 40
1
 40
1
 10
135.240235
 20
108.888818
 30
0.0
 10
135.252416
 20
108.887109
 30
0.0
 10
135.267041
 20
108.885887
 30
0.0
 10
135.279221
 20
108.884679
 30
0.0
  0
SPLINE
  5
1d4
100
AcDbEntity
  8
design
 62
1
100
AcDbSpline
 70
8
 71
3
 72
8
 73
4
 74
0
 40
0
 40
0
 40
0
 40
0
 40
1
 40
1
 40
1
 40
1
 10
135.279221
 20
108.884679
 30
0.0
 10
135.442416
 20
108.869332
 30
0.0
 10
135.605624
 20
108.869332
 30
0.0
 10
135.766402
 20
108.884679
 30
0.0
  0
SPLINE
  5
1d5
100
AcDbEntity
  8
design
 62
1
100
AcDbSpline
 70
8
 71
3
 72
8
 73
4
 74
0
 40
0
 40
0
 40
0
 40
0
 40
1
 40
1
 40
1
 40
1
 10
135.766402
 20
108.884679
 30
0.0
 10
135.785888
 20
108.886373
 30
0.0
 10
135.802929
 20
108.888082
 30
0.0
 10
135.819985
 20
108.890040
 30
0.0
  0
SPLINE
  5
1d6
100
AcDbEntity
  8
design
 62
1
100
AcDbSpline
 70
8
 71
3
 72
8
 73
4
 74
0
 40
0
 40
0
 40
0
 40
0
 40
1
 40
1
 40
1
 40
1
 10
135.819985
 20
108.890040
 30
0.0
 10
136.141527
 20
108.927054
 30
0.0
 10
136.453318
 20
109.025707
 30
0.0
 10
136.735888
 20
109.180873
 30
0.0
  0
SPLINE
  5
1d7
100
AcDbEntity
  8
design
 62
1
100
AcDbSpline
 70
8
 71
3
 72
8
 73
4
 74
0
 40
0
 40
0
 40
0
 40
0
 40
1
 40
1
 40
1
 40
1
 10
136.735888
 20
109.180873
 30
0.0
 10
136.928318
 20
109.284887
 30
0.0
 10
137.103707
 20
109.413262
 30
0.0
 10
137.262041
 20
109.562096
 30
0.0
  0
SPLINE
  5
1d8
100
AcDbEntity
  8
design
 62
1
100
AcDbSpline
 70
8
 71
3
 72
8
 73
4
 74
0
 40
0
 40
0
 40
0
 40
0
 40
1
 40
1
 40
1
 40
1
 10
137.262041
 20
109.562096
 30
0.0
 10
137.383832
 20
109.676096
 30
0.0
 10
137.493457
 20
109.801790
 30
0.0
 10
137.590888
 20
109.937221
 30
0.0
  0
SPLINE
  5
1d9
100
AcDbEntity
  8
design
 62
1
100
AcDbSpline
 70
8
 71
3
 72
8
 73
4
 74
0
 40
0
 40
0
 40
0
 40
0
 40
1
 40
1
 40
1
 40
1
 10
137.590888
 20
109.937221
 30
0.0
 10
137.646916
 20
110.016387
 30
0.0
 10
137.700499
 20
110.098721
 30
0.0
 10
137.746791
 20
110.183984
 30
0.0
  0
SPLINE
  5
1da
100
AcDbEntity
  8
design
 62
1
100
AcDbSpline
 70
8
 71
3
 72
8
 73
4
 74
0
 40
0
 40
0
 40
0
 40
0
 40
1
 40
1
 40
1
 40
1
 10
137.746791
 20
110.183984
 30
0.0
 10
137.778457
 20
110.241221
 30
0.0
 10
137.807679
 20
110.299693
 30
0.0
 10
137.834471
 20
110.359373
 30
0.0
  0
SPLINE
  5
1db
100
AcDbEntity
  8
design
 62
1
100
AcDbSpline
 70
8
 71
3
 72
8
 73
4
 74
0
 40
0
 40
0
 40
0
 40
0
 40
1
 40
1
 40
1
 40
1
 10
137.834471
 20
110.359373
 30
0.0
 10
137.946527
 20
110.602957
 30
0.0
 10
138.017166
 20
110.862387
 30
0.0
 10
138.046402
 20
111.128387
 30
0.0
  0
SPLINE
  5
1dc
100
AcDbEntity
  8
design
 62
1
100
AcDbSpline
 70
8
 71
3
 72
8
 73
4
 74
0
 40
0
 40
0
 40
0
 40
0
 40
1
 40
1
 40
1
 40
1
 10
138.046402
 20
111.128387
 30
0.0
 10
138.068318
 20
111.321554
 30
0.0
 10
138.068318
 20
111.516665
 30
0.0
 10
138.046402
 20
111.709832
 30
0.0
  0
SPLINE
  5
1dd
100
AcDbEntity
  8
design
 62
1
100
AcDbSpline
 70
8
 71
3
 72
8
 73
4
 74
0
 40
0
 40
0
 40
0
 40
0
 40
1
 40
1
 40
1
 40
1
 10
138.046402
 20
111.709832
 30
0.0
 10
138.014735
 20
111.971207
 30
0.0
 10
137.944096
 20
112.226248
 30
0.0
 10
137.834471
 20
112.465693
 30
0.0
  0
SPLINE
  5
1de
100
AcDbEntity
  8
design
 62
1
100
AcDbSpline
 70
8
 71
3
 72
8
 73
4
 74
0
 40
0
 40
0
 40
0
 40
0
 40
1
 40
1
 40
1
 40
1
 10
137.834471
 20
112.465693
 30
0.0
 10
137.810124
 20
112.520012
 30
0.0
 10
137.783318
 20
112.573609
 30
0.0
 10
137.754096
 20
112.626221
 30
0.0
  0
SPLINE
  5
1df
100
AcDbEntity
  8
design
 62
1
100
AcDbSpline
 70
8
 71
3
 72
8
 73
4
 74
0
 40
0
 40
0
 40
0
 40
0
 40
1
 40
1
 40
1
 40
1
 10
137.754096
 20
112.626221
 30
0.0
 10
137.705374
 20
112.716596
 30
0.0
 10
137.651791
 20
112.804040
 30
0.0
 10
137.590888
 20
112.887832
 30
0.0
  0
SPLINE
  5
1e0
100
AcDbEntity
  8
design
 62
1
100
AcDbSpline
 70
8
 71
3
 72
8
 73
4
 74
0
 40
0
 40
0
 40
0
 40
0
 40
1
 40
1
 40
1
 40
1
 10
137.590888
 20
112.887832
 30
0.0
 10
137.525124
 20
112.980637
 30
0.0
 10
137.452041
 20
113.068582
 30
0.0
 10
137.374096
 20
113.151637
 30
0.0
  0
SPLINE
  5
1e1
100
AcDbEntity
  8
design
 62
1
100
AcDbSpline
 70
8
 71
3
 72
8
 73
4
 74
0
 40
0
 40
0
 40
0
 40
0
 40
1
 40
1
 40
1
 40
1
 10
137.374096
 20
113.151637
 30
0.0
 10
137.193832
 20
113.344318
 30
0.0
 10
136.984346
 20
113.507526
 30
0.0
 10
136.752943
 20
113.636151
 30
0.0
  0
SPLINE
  5
1e2
100
AcDbEntity
  8
design
 62
1
100
AcDbSpline
 70
8
 71
3
 72
8
 73
4
 74
0
 40
0
 40
0
 40
0
 40
0
 40
1
 40
1
 40
1
 40
1
 10
136.752943
 20
113.636151
 30
0.0
 10
136.460624
 20
113.798137
 30
0.0
 10
136.139096
 20
113.900193
 30
0.0
 10
135.807804
 20
113.936498
 30
0.0
  0
SPLINE
  5
1e3
100
AcDbEntity
  8
design
 62
1
100
AcDbSpline
 70
8
 71
3
 72
8
 73
4
 74
0
 40
0
 40
0
 40
0
 40
0
 40
1
 40
1
 40
1
 40
1
 10
135.807804
 20
113.936498
 30
0.0
 10
135.793193
 20
113.937957
 30
0.0
 10
135.781013
 20
113.939415
 30
0.0
 10
135.766402
 20
113.940637
 30
0.0
  0
SPLINE
  5
1e4
100
AcDbEntity
  8
design
 62
1
100
AcDbSpline
 70
8
 71
3
 72
8
 73
4
 74
0
 40
0
 40
0
 40
0
 40
0
 40
1
 40
1
 40
1
 40
1
 10
135.766402
 20
113.940637
 30
0.0
 10
135.605624
 20
113.955734
 30
0.0
 10
135.442416
 20
113.955734
 30
0.0
 10
135.279221
 20
113.940637
 30
0.0
  0
SPLINE
  5
1e5
100
AcDbEntity
  8
design
 62
1
100
AcDbSpline
 70
8
 71
3
 72
8
 73
4
 74
0
 40
0
 40
0
 40
0
 40
0
 40
1
 40
1
 40
1
 40
1
 10
135.279221
 20
113.940637
 30
0.0
 10
135.262166
 20
113.938929
 30
0.0
 10
135.245110
 20
113.936984
 30
0.0
 10
135.225624
 20
113.935026
 30
0.0
  0
SPLINE
  5
1e6
100
AcDbEntity
  8
design
 62
1
100
AcDbSpline
 70
8
 71
3
 72
8
 73
4
 74
0
 40
0
 40
0
 40
0
 40
0
 40
1
 40
1
 40
1
 40
1
 10
135.225624
 20
113.935026
 30
0.0
 10
134.906527
 20
113.898248
 30
0.0
 10
134.594721
 20
113.800082
 30
0.0
 10
134.312166
 20
113.645651
 30
0.0
  0
SPLINE
  5
1e7
100
AcDbEntity
  8
design
 62
1
100
AcDbSpline
 70
8
 71
3
 72
8
 73
4
 74
0
 40
0
 40
0
 40
0
 40
0
 40
1
 40
1
 40
1
 40
1
 10
134.312166
 20
113.645651
 30
0.0
 10
134.119721
 20
113.540901
 30
0.0
 10
133.941902
 20
113.411554
 30
0.0
 10
133.783568
 20
113.261262
 30
0.0
  0
SPLINE
  5
1e8
100
AcDbEntity
  8
design
 62
1
100
AcDbSpline
 70
8
 71
3
 72
8
 73
4
 74
0
 40
0
 40
0
 40
0
 40
0
 40
1
 40
1
 40
1
 40
1
 10
133.783568
 20
113.261262
 30
0.0
 10
133.661777
 20
113.147748
 30
0.0
 10
133.552166
 20
113.022790
 30
0.0
 10
133.457166
 20
112.887832
 30
0.0
  0
SPLINE
  5
1e9
100
AcDbEntity
  8
design
 62
1
100
AcDbSpline
 70
8
 71
3
 72
8
 73
4
 74
0
 40
0
 40
0
 40
0
 40
0
 40
1
 40
1
 40
1
 40
1
 10
133.457166
 20
112.887832
 30
0.0
 10
133.393832
 20
112.802332
 30
0.0
 10
133.337804
 20
112.713179
 30
0.0
 10
133.289082
 20
112.620623
 30
0.0
  0
SPLINE
  5
1ea
100
AcDbEntity
  8
design
 62
1
100
AcDbSpline
 70
8
 71
3
 72
8
 73
4
 74
0
 40
0
 40
0
 40
0
 40
0
 40
1
 40
1
 40
1
 40
1
 10
133.289082
 20
112.620623
 30
0.0
 10
133.262291
 20
112.569957
 30
0.0
 10
133.235499
 20
112.518304
 30
0.0
 10
133.211138
 20
112.465693
 30
0.0
  0
SPLINE
  5
1eb
100
AcDbEntity
  8
design
 62
1
100
AcDbSpline
 70
8
 71
3
 72
8
 73
4
 74
0
 40
0
 40
0
 40
0
 40
0
 40
1
 40
1
 40
1
 40
1
 10
133.211138
 20
112.465693
 30
0.0
 10
133.094207
 20
112.210415
 30
0.0
 10
133.021138
 20
111.937596
 30
0.0
 10
132.996777
 20
111.658193
 30
0.0
  0
SPLINE
  5
1ec
100
AcDbEntity
  8
design
 62
1
100
AcDbSpline
 70
8
 71
3
 72
8
 73
4
 74
0
 40
0
 40
0
 40
0
 40
0
 40
1
 40
1
 40
1
 40
1
 10
132.996777
 20
111.658193
 30
0.0
 10
132.987027
 20
111.576596
 30
0.0
 10
132.984596
 20
111.494498
 30
0.0
 10
132.984596
 20
111.412415
 30
0.0
  0
SPLINE
  5
1ed
100
AcDbEntity
  8
design
 62
1
100
AcDbSpline
 70
8
 71
3
 72
8
 73
4
 74
0
 40
0
 40
0
 40
0
 40
0
 40
1
 40
1
 40
1
 40
1
 10
132.984596
 20
111.412415
 30
0.0
 10
132.984596
 20
111.254804
 30
0.0
 10
132.999207
 20
111.097443
 30
0.0
 10
133.025999
 20
110.942276
 30
0.0
  0
SPLINE
  5
1ee
100
AcDbEntity
  8
design
 62
1
100
AcDbSpline
 70
8
 71
3
 72
8
 73
4
 74
0
 40
0
 40
0
 40
0
 40
0
 40
1
 40
1
 40
1
 40
1
 10
133.025999
 20
110.942276
 30
0.0
 10
133.064985
 20
110.741318
 30
0.0
 10
133.125874
 20
110.545471
 30
0.0
 10
133.211138
 20
110.359373
 30
0.0
  0
SPLINE
  5
1ef
100
AcDbEntity
  8
design
 62
1
100
AcDbSpline
 70
8
 71
3
 72
8
 73
4
 74
0
 40
0
 40
0
 40
0
 40
0
 40
1
 40
1
 40
1
 40
1
 10
208.152736
 20
40.353165
 30
0.0
 10
208.152736
 20
34.840971
 30
0.0
 10
209.604542
 20
29.668332
 30
0.0
 10
212.140319
 20
25.207943
 30
0.0
  0
SPLINE
  5
1f0
100
AcDbEntity
  8
design
 62
1
100
AcDbSpline
 70
8
 71
3
 72
8
 73
4
 74
0
 40
0
 40
0
 40
0
 40
0
 40
1
 40
1
 40
1
 40
1
 10
212.140319
 20
25.207943
 30
0.0
 10
212.220694
 20
25.066415
 30
0.0
 10
212.303528
 20
24.925623
 30
0.0
 10
212.386347
 20
24.785554
 30
0.0
  0
SPLINE
  5
1f1
100
AcDbEntity
  8
design
 62
1
100
AcDbSpline
 70
8
 71
3
 72
8
 73
4
 74
0
 40
0
 40
0
 40
0
 40
0
 40
1
 40
1
 40
1
 40
1
 10
212.386347
 20
24.785554
 30
0.0
 10
217.686861
 20
15.789776
 30
0.0
 10
227.440222
 20
9.732415
 30
0.0
 10
238.616139
 20
9.645443
 30
0.0
  0
SPLINE
  5
1f2
100
AcDbEntity
  8
design
 62
1
100
AcDbSpline
 70
8
 71
3
 72
8
 73
4
 74
0
 40
0
 40
0
 40
0
 40
0
 40
1
 40
1
 40
1
 40
1
 10
238.616139
 20
9.645443
 30
0.0
 10
238.698958
 20
9.644748
 30
0.0
 10
238.779347
 20
9.644471
 30
0.0
 10
238.862167
 20
9.644471
 30
0.0
  0
SPLINE
  5
1f3
100
AcDbEntity
  8
design
 62
1
100
AcDbSpline
 70
8
 71
3
 72
8
 73
4
 74
0
 40
0
 40
0
 40
0
 40
0
 40
1
 40
1
 40
1
 40
1
 10
238.862167
 20
9.644471
 30
0.0
 10
238.944986
 20
9.644471
 30
0.0
 10
239.030250
 20
9.644748
 30
0.0
 10
239.105764
 20
9.645443
 30
0.0
  0
SPLINE
  5
1f4
100
AcDbEntity
  8
design
 62
1
100
AcDbSpline
 70
8
 71
3
 72
8
 73
4
 74
0
 40
0
 40
0
 40
0
 40
0
 40
1
 40
1
 40
1
 40
1
 10
239.105764
 20
9.645443
 30
0.0
 10
250.281681
 20
9.732415
 30
0.0
 10
260.035042
 20
15.789776
 30
0.0
 10
265.338000
 20
24.785554
 30
0.0
  0
SPLINE
  5
1f5
100
AcDbEntity
  8
design
 62
1
100
AcDbSpline
 70
8
 71
3
 72
8
 73
4
 74
0
 40
0
 40
0
 40
0
 40
0
 40
1
 40
1
 40
1
 40
1
 10
265.338000
 20
24.785554
 30
0.0
 10
265.418375
 20
24.925623
 30
0.0
 10
265.501208
 20
25.066415
 30
0.0
 10
265.581583
 20
25.207943
 30
0.0
  0
SPLINE
  5
1f6
100
AcDbEntity
  8
design
 62
1
100
AcDbSpline
 70
8
 71
3
 72
8
 73
4
 74
0
 40
0
 40
0
 40
0
 40
0
 40
1
 40
1
 40
1
 40
1
 10
265.581583
 20
25.207943
 30
0.0
 10
268.119792
 20
29.677332
 30
0.0
 10
269.569153
 20
34.845832
 30
0.0
 10
269.569153
 20
40.353165
 30
0.0
  0
LWPOLYLINE
  5
1f7
100
AcDbEntity
  8
design
 62
1
100
AcDbPolyline
 90
2
 70
0
 10
138.855124
 20
113.618609
 30
0.0
 10
140.119360
 20
114.347915
 30
0.0
  0
SPLINE
  5
1f8
100
AcDbEntity
  8
design
 62
1
100
AcDbSpline
 70
8
 71
3
 72
8
 73
4
 74
0
 40
0
 40
0
 40
0
 40
0
 40
1
 40
1
 40
1
 40
1
 10
267.050431
 20
40.353165
 30
0.0
 10
267.050431
 20
39.703276
 30
0.0
 10
267.028514
 20
39.053609
 30
0.0
 10
266.984667
 20
38.405415
 30
0.0
  0
SPLINE
  5
1f9
100
AcDbEntity
  8
design
 62
1
100
AcDbSpline
 70
8
 71
3
 72
8
 73
4
 74
0
 40
0
 40
0
 40
0
 40
0
 40
1
 40
1
 40
1
 40
1
 10
266.984667
 20
38.405415
 30
0.0
 10
266.921333
 20
37.472221
 30
0.0
 10
266.811722
 20
36.542929
 30
0.0
 10
266.655819
 20
35.620693
 30
0.0
  0
SPLINE
  5
1fa
100
AcDbEntity
  8
design
 62
1
100
AcDbSpline
 70
8
 71
3
 72
8
 73
4
 74
0
 40
0
 40
0
 40
0
 40
0
 40
1
 40
1
 40
1
 40
1
 10
266.655819
 20
35.620693
 30
0.0
 10
266.402486
 20
34.129443
 30
0.0
 10
266.029792
 20
32.660832
 30
0.0
 10
265.542611
 20
31.229734
 30
0.0
  0
SPLINE
  5
1fb
100
AcDbEntity
  8
design
 62
1
100
AcDbSpline
 70
8
 71
3
 72
8
 73
4
 74
0
 40
0
 40
0
 40
0
 40
0
 40
1
 40
1
 40
1
 40
1
 10
265.542611
 20
31.229734
 30
0.0
 10
265.074917
 20
29.863443
 30
0.0
 10
264.502486
 20
28.535137
 30
0.0
 10
263.830167
 20
27.256776
 30
0.0
  0
SPLINE
  5
1fc
100
AcDbEntity
  8
design
 62
1
100
AcDbSpline
 70
8
 71
3
 72
8
 73
4
 74
0
 40
0
 40
0
 40
0
 40
0
 40
1
 40
1
 40
1
 40
1
 10
263.830167
 20
27.256776
 30
0.0
 10
263.691319
 20
26.991512
 30
0.0
 10
263.547611
 20
26.728429
 30
0.0
 10
263.399014
 20
26.467790
 30
0.0
  0
LWPOLYLINE
  5
1fd
100
AcDbEntity
  8
design
 62
1
100
AcDbPolyline
 90
2
 70
0
 10
269.569153
 20
40.353165
 30
0.0
 10
267.050431
 20
40.353165
 30
0.0
  0
SPLINE
  5
1fe
100
AcDbEntity
  8
design
 62
1
100
AcDbSpline
 70
8
 71
3
 72
8
 73
4
 74
0
 40
0
 40
0
 40
0
 40
0
 40
1
 40
1
 40
1
 40
1
 10
264.490306
 20
25.837873
 30
0.0
 10
264.480556
 20
25.819846
 30
0.0
 10
264.470819
 20
25.802054
 30
0.0
 10
264.458639
 20
25.784276
 30
0.0
  0
SPLINE
  5
1ff
100
AcDbEntity
  8
design
 62
1
100
AcDbSpline
 70
8
 71
3
 72
8
 73
4
 74
0
 40
0
 40
0
 40
0
 40
0
 40
1
 40
1
 40
1
 40
1
 10
264.458639
 20
25.784276
 30
0.0
 10
264.390431
 20
25.660776
 30
0.0
 10
264.317347
 20
25.537762
 30
0.0
 10
264.246708
 20
25.415234
 30
0.0
  0
LWPOLYLINE
  5
200
100
AcDbEntity
  8
design
 62
1
100
AcDbPolyline
 90
2
 70
0
 10
263.399014
 20
26.467790
 30
0.0
 10
264.490306
 20
25.837873
 30
0.0
  0
SPLINE
  5
201
100
AcDbEntity
  8
design
 62
1
100
AcDbSpline
 70
8
 71
3
 72
8
 73
4
 74
0
 40
0
 40
0
 40
0
 40
0
 40
1
 40
1
 40
1
 40
1
 10
263.155431
 20
26.045401
 30
0.0
 10
262.712097
 20
25.296609
 30
0.0
 10
262.237097
 20
24.569012
 30
0.0
 10
261.727986
 20
23.864304
 30
0.0
  0
SPLINE
  5
202
100
AcDbEntity
  8
design
 62
1
100
AcDbSpline
 70
8
 71
3
 72
8
 73
4
 74
0
 40
0
 40
0
 40
0
 40
0
 40
1
 40
1
 40
1
 40
1
 10
261.727986
 20
23.864304
 30
0.0
 10
260.619653
 20
22.330901
 30
0.0
 10
259.360292
 20
20.912234
 30
0.0
 10
257.969389
 20
19.629484
 30
0.0
  0
LWPOLYLINE
  5
203
100
AcDbEntity
  8
design
 62
1
100
AcDbPolyline
 90
2
 70
0
 10
264.246708
 20
25.415234
 30
0.0
 10
263.155431
 20
26.045401
 30
0.0
  0
SPLINE
  5
204
100
AcDbEntity
  8
design
 62
1
100
AcDbSpline
 70
8
 71
3
 72
8
 73
4
 74
0
 40
0
 40
0
 40
0
 40
0
 40
1
 40
1
 40
1
 40
1
 10
257.969389
 20
19.629207
 30
0.0
 10
256.839125
 20
18.585179
 30
0.0
 10
255.623611
 20
17.634943
 30
0.0
 10
254.337458
 20
16.788457
 30
0.0
  0
SPLINE
  5
205
100
AcDbEntity
  8
design
 62
1
100
AcDbSpline
 70
8
 71
3
 72
8
 73
4
 74
0
 40
0
 40
0
 40
0
 40
0
 40
1
 40
1
 40
1
 40
1
 10
254.337458
 20
16.788457
 30
0.0
 10
253.234000
 20
16.062318
 30
0.0
 10
252.081819
 20
15.414609
 30
0.0
 10
250.888222
 20
14.850457
 30
0.0
  0
SPLINE
  5
206
100
AcDbEntity
  8
design
 62
1
100
AcDbSpline
 70
8
 71
3
 72
8
 73
4
 74
0
 40
0
 40
0
 40
0
 40
0
 40
1
 40
1
 40
1
 40
1
 10
250.888222
 20
14.850457
 30
0.0
 10
248.985778
 20
13.951123
 30
0.0
 10
246.985903
 20
13.269554
 30
0.0
 10
244.930000
 20
12.818665
 30
0.0
  0
SPLINE
  5
207
100
AcDbEntity
  8
design
 62
1
100
AcDbSpline
 70
8
 71
3
 72
8
 73
4
 74
0
 40
0
 40
0
 40
0
 40
0
 40
1
 40
1
 40
1
 40
1
 10
244.930000
 20
12.818665
 30
0.0
 10
243.909361
 20
12.594568
 30
0.0
 10
242.876542
 20
12.427707
 30
0.0
 10
241.836403
 20
12.318818
 30
0.0
  0
SPLINE
  5
208
100
AcDbEntity
  8
design
 62
1
100
AcDbSpline
 70
8
 71
3
 72
8
 73
4
 74
0
 40
0
 40
0
 40
0
 40
0
 40
1
 40
1
 40
1
 40
1
 10
241.836403
 20
12.318818
 30
0.0
 10
240.998458
 20
12.231373
 30
0.0
 10
240.158069
 20
12.180957
 30
0.0
 10
239.317681
 20
12.167804
 30
0.0
  0
LWPOLYLINE
  5
209
100
AcDbEntity
  8
design
 62
1
100
AcDbPolyline
 90
2
 70
0
 10
257.969389
 20
19.629484
 30
0.0
 10
257.969389
 20
19.629207
 30
0.0
  0
SPLINE
  5
20a
100
AcDbEntity
  8
design
 62
1
100
AcDbSpline
 70
8
 71
3
 72
8
 73
4
 74
0
 40
0
 40
0
 40
0
 40
0
 40
1
 40
1
 40
1
 40
1
 10
239.317681
 20
12.167804
 30
0.0
 10
239.247042
 20
12.166554
 30
0.0
 10
239.176403
 20
12.165846
 30
0.0
 10
239.105764
 20
12.165123
 30
0.0
  0
LWPOLYLINE
  5
20b
100
AcDbEntity
  8
design
 62
1
100
AcDbPolyline
 90
2
 70
0
 10
239.317681
 20
12.167804
 30
0.0
 10
239.317681
 20
12.167804
 30
0.0
  0
SPLINE
  5
20c
100
AcDbEntity
  8
design
 62
1
100
AcDbSpline
 70
8
 71
3
 72
8
 73
4
 74
0
 40
0
 40
0
 40
0
 40
0
 40
1
 40
1
 40
1
 40
1
 10
239.105764
 20
10.905276
 30
0.0
 10
239.074097
 20
10.904998
 30
0.0
 10
239.042431
 20
10.904721
 30
0.0
 10
239.010764
 20
10.904582
 30
0.0
  0
SPLINE
  5
20d
100
AcDbEntity
  8
design
 62
1
100
AcDbSpline
 70
8
 71
3
 72
8
 73
4
 74
0
 40
0
 40
0
 40
0
 40
0
 40
1
 40
1
 40
1
 40
1
 10
239.010764
 20
10.904582
 30
0.0
 10
238.879222
 20
10.903887
 30
0.0
 10
238.747681
 20
10.904165
 30
0.0
 10
238.616139
 20
10.905276
 30
0.0
  0
LWPOLYLINE
  5
20e
100
AcDbEntity
  8
design
 62
1
100
AcDbPolyline
 90
2
 70
0
 10
239.105764
 20
12.165123
 30
0.0
 10
239.105764
 20
10.905276
 30
0.0
  0
SPLINE
  5
20f
100
AcDbEntity
  8
design
 62
1
100
AcDbSpline
 70
8
 71
3
 72
8
 73
4
 74
0
 40
0
 40
0
 40
0
 40
0
 40
1
 40
1
 40
1
 40
1
 10
238.616139
 20
12.165123
 30
0.0
 10
238.033958
 20
12.169984
 30
0.0
 10
237.449347
 20
12.192887
 30
0.0
 10
236.869597
 20
12.233318
 30
0.0
  0
SPLINE
  5
210
100
AcDbEntity
  8
design
 62
1
100
AcDbSpline
 70
8
 71
3
 72
8
 73
4
 74
0
 40
0
 40
0
 40
0
 40
0
 40
1
 40
1
 40
1
 40
1
 10
236.869597
 20
12.233318
 30
0.0
 10
235.936653
 20
12.298359
 30
0.0
 10
235.006139
 20
12.409443
 30
0.0
 10
234.085361
 20
12.566554
 30
0.0
  0
SPLINE
  5
211
100
AcDbEntity
  8
design
 62
1
100
AcDbSpline
 70
8
 71
3
 72
8
 73
4
 74
0
 40
0
 40
0
 40
0
 40
0
 40
1
 40
1
 40
1
 40
1
 10
234.085361
 20
12.566554
 30
0.0
 10
232.550750
 20
12.827929
 30
0.0
 10
231.042917
 20
13.216693
 30
0.0
 10
229.574069
 20
13.728721
 30
0.0
  0
SPLINE
  5
212
100
AcDbEntity
  8
design
 62
1
100
AcDbSpline
 70
8
 71
3
 72
8
 73
4
 74
0
 40
0
 40
0
 40
0
 40
0
 40
1
 40
1
 40
1
 40
1
 10
229.574069
 20
13.728721
 30
0.0
 10
228.224583
 20
14.199582
 30
0.0
 10
226.914069
 20
14.772748
 30
0.0
 10
225.652264
 20
15.443846
 30
0.0
  0
SPLINE
  5
213
100
AcDbEntity
  8
design
 62
1
100
AcDbSpline
 70
8
 71
3
 72
8
 73
4
 74
0
 40
0
 40
0
 40
0
 40
0
 40
1
 40
1
 40
1
 40
1
 10
225.652264
 20
15.443846
 30
0.0
 10
224.475722
 20
16.068901
 30
0.0
 10
223.345472
 20
16.776526
 30
0.0
 10
222.268806
 20
17.561373
 30
0.0
  0
SPLINE
  5
214
100
AcDbEntity
  8
design
 62
1
100
AcDbSpline
 70
8
 71
3
 72
8
 73
4
 74
0
 40
0
 40
0
 40
0
 40
0
 40
1
 40
1
 40
1
 40
1
 10
222.268806
 20
17.561373
 30
0.0
 10
220.683028
 20
18.717943
 30
0.0
 10
219.223917
 20
20.035762
 30
0.0
 10
217.908528
 20
21.493901
 30
0.0
  0
LWPOLYLINE
  5
215
100
AcDbEntity
  8
design
 62
1
100
AcDbPolyline
 90
2
 70
0
 10
238.616139
 20
10.905276
 30
0.0
 10
238.616139
 20
12.165123
 30
0.0
  0
SPLINE
  5
216
100
AcDbEntity
  8
design
 62
1
100
AcDbSpline
 70
8
 71
3
 72
8
 73
4
 74
0
 40
0
 40
0
 40
0
 40
0
 40
1
 40
1
 40
1
 40
1
 10
217.908528
 20
21.494179
 30
0.0
 10
216.907375
 20
22.606901
 30
0.0
 10
215.993917
 20
23.797332
 30
0.0
 10
215.180319
 20
25.054498
 30
0.0
  0
SPLINE
  5
217
100
AcDbEntity
  8
design
 62
1
100
AcDbSpline
 70
8
 71
3
 72
8
 73
4
 74
0
 40
0
 40
0
 40
0
 40
0
 40
1
 40
1
 40
1
 40
1
 10
215.180319
 20
25.054498
 30
0.0
 10
214.968403
 20
25.380415
 30
0.0
 10
214.763778
 20
25.710734
 30
0.0
 10
214.566472
 20
26.045179
 30
0.0
  0
LWPOLYLINE
  5
218
100
AcDbEntity
  8
design
 62
1
100
AcDbPolyline
 90
2
 70
0
 10
217.908528
 20
21.493901
 30
0.0
 10
217.908528
 20
21.494179
 30
0.0
  0
SPLINE
  5
219
100
AcDbEntity
  8
design
 62
1
100
AcDbSpline
 70
8
 71
3
 72
8
 73
4
 74
0
 40
0
 40
0
 40
0
 40
0
 40
1
 40
1
 40
1
 40
1
 10
213.475194
 20
25.415248
 30
0.0
 10
213.419167
 20
25.511721
 30
0.0
 10
213.363139
 20
25.608415
 30
0.0
 10
213.307111
 20
25.705609
 30
0.0
  0
SPLINE
  5
21a
100
AcDbEntity
  8
design
 62
1
100
AcDbSpline
 70
8
 71
3
 72
8
 73
4
 74
0
 40
0
 40
0
 40
0
 40
0
 40
1
 40
1
 40
1
 40
1
 10
213.307111
 20
25.705609
 30
0.0
 10
213.282750
 20
25.749707
 30
0.0
 10
213.255958
 20
25.793790
 30
0.0
 10
213.231597
 20
25.837887
 30
0.0
  0
LWPOLYLINE
  5
21b
100
AcDbEntity
  8
design
 62
1
100
AcDbPolyline
 90
2
 70
0
 10
214.566472
 20
26.045179
 30
0.0
 10
213.475194
 20
25.415248
 30
0.0
  0
SPLINE
  5
21c
100
AcDbEntity
  8
design
 62
1
100
AcDbSpline
 70
8
 71
3
 72
8
 73
4
 74
0
 40
0
 40
0
 40
0
 40
0
 40
1
 40
1
 40
1
 40
1
 10
214.322889
 20
26.467804
 30
0.0
 10
213.942889
 20
27.137193
 30
0.0
 10
213.592111
 20
27.821929
 30
0.0
 10
213.268139
 20
28.520054
 30
0.0
  0
SPLINE
  5
21d
100
AcDbEntity
  8
design
 62
1
100
AcDbSpline
 70
8
 71
3
 72
8
 73
4
 74
0
 40
0
 40
0
 40
0
 40
0
 40
1
 40
1
 40
1
 40
1
 10
213.268139
 20
28.520054
 30
0.0
 10
212.315694
 20
30.577901
 30
0.0
 10
211.614167
 20
32.743915
 30
0.0
 10
211.185444
 20
34.970818
 30
0.0
  0
SPLINE
  5
21e
100
AcDbEntity
  8
design
 62
1
100
AcDbSpline
 70
8
 71
3
 72
8
 73
4
 74
0
 40
0
 40
0
 40
0
 40
0
 40
1
 40
1
 40
1
 40
1
 10
211.185444
 20
34.970818
 30
0.0
 10
210.997875
 20
35.943707
 30
0.0
 10
210.861472
 20
36.925873
 30
0.0
 10
210.776208
 20
37.912901
 30
0.0
  0
SPLINE
  5
21f
100
AcDbEntity
  8
design
 62
1
100
AcDbSpline
 70
8
 71
3
 72
8
 73
4
 74
0
 40
0
 40
0
 40
0
 40
0
 40
1
 40
1
 40
1
 40
1
 10
210.776208
 20
37.912901
 30
0.0
 10
210.705569
 20
38.724540
 30
0.0
 10
210.671472
 20
39.538373
 30
0.0
 10
210.671472
 20
40.352693
 30
0.0
  0
LWPOLYLINE
  5
220
100
AcDbEntity
  8
design
 62
1
100
AcDbPolyline
 90
2
 70
0
 10
213.231597
 20
25.837887
 30
0.0
 10
214.322889
 20
26.467804
 30
0.0
  0
SPLINE
  5
221
100
AcDbEntity
  8
design
 62
1
100
AcDbSpline
 70
8
 71
3
 72
8
 73
4
 74
0
 40
0
 40
0
 40
0
 40
0
 40
1
 40
1
 40
1
 40
1
 10
208.152736
 20
43.614109
 30
0.0
 10
208.152736
 20
49.126068
 30
0.0
 10
209.604542
 20
54.297734
 30
0.0
 10
212.140319
 20
58.760318
 30
0.0
  0
SPLINE
  5
222
100
AcDbEntity
  8
design
 62
1
100
AcDbSpline
 70
8
 71
3
 72
8
 73
4
 74
0
 40
0
 40
0
 40
0
 40
0
 40
1
 40
1
 40
1
 40
1
 10
212.140319
 20
58.760318
 30
0.0
 10
212.220694
 20
58.901596
 30
0.0
 10
212.303528
 20
59.040443
 30
0.0
 10
212.386347
 20
59.181721
 30
0.0
  0
SPLINE
  5
223
100
AcDbEntity
  8
design
 62
1
100
AcDbSpline
 70
8
 71
3
 72
8
 73
4
 74
0
 40
0
 40
0
 40
0
 40
0
 40
1
 40
1
 40
1
 40
1
 10
212.386347
 20
59.181721
 30
0.0
 10
217.686861
 20
68.177512
 30
0.0
 10
227.440222
 20
74.235596
 30
0.0
 10
238.616139
 20
74.320859
 30
0.0
  0
SPLINE
  5
224
100
AcDbEntity
  8
design
 62
1
100
AcDbSpline
 70
8
 71
3
 72
8
 73
4
 74
0
 40
0
 40
0
 40
0
 40
0
 40
1
 40
1
 40
1
 40
1
 10
238.616139
 20
74.320859
 30
0.0
 10
238.698958
 20
74.323290
 30
0.0
 10
238.779347
 20
74.323290
 30
0.0
 10
238.862167
 20
74.323290
 30
0.0
  0
SPLINE
  5
225
100
AcDbEntity
  8
design
 62
1
100
AcDbSpline
 70
8
 71
3
 72
8
 73
4
 74
0
 40
0
 40
0
 40
0
 40
0
 40
1
 40
1
 40
1
 40
1
 10
238.862167
 20
74.323290
 30
0.0
 10
238.944986
 20
74.323290
 30
0.0
 10
239.030250
 20
74.323290
 30
0.0
 10
239.105764
 20
74.320859
 30
0.0
  0
SPLINE
  5
226
100
AcDbEntity
  8
design
 62
1
100
AcDbSpline
 70
8
 71
3
 72
8
 73
4
 74
0
 40
0
 40
0
 40
0
 40
0
 40
1
 40
1
 40
1
 40
1
 10
239.105764
 20
74.320859
 30
0.0
 10
250.281681
 20
74.235596
 30
0.0
 10
260.035042
 20
68.177512
 30
0.0
 10
265.338000
 20
59.181721
 30
0.0
  0
SPLINE
  5
227
100
AcDbEntity
  8
design
 62
1
100
AcDbSpline
 70
8
 71
3
 72
8
 73
4
 74
0
 40
0
 40
0
 40
0
 40
0
 40
1
 40
1
 40
1
 40
1
 10
265.338000
 20
59.181721
 30
0.0
 10
265.418375
 20
59.040443
 30
0.0
 10
265.501208
 20
58.901596
 30
0.0
 10
265.581583
 20
58.760318
 30
0.0
  0
SPLINE
  5
228
100
AcDbEntity
  8
design
 62
1
100
AcDbSpline
 70
8
 71
3
 72
8
 73
4
 74
0
 40
0
 40
0
 40
0
 40
0
 40
1
 40
1
 40
1
 40
1
 10
265.581583
 20
58.760318
 30
0.0
 10
268.119792
 20
54.290429
 30
0.0
 10
269.569153
 20
49.121207
 30
0.0
 10
269.569153
 20
43.614109
 30
0.0
  0
LWPOLYLINE
  5
229
100
AcDbEntity
  8
design
 62
1
100
AcDbPolyline
 90
3
 70
0
 10
210.671472
 20
40.352693
 30
0.0
 10
210.671472
 20
40.353109
 30
0.0
 10
208.152736
 20
40.353109
 30
0.0
  0
SPLINE
  5
22a
100
AcDbEntity
  8
design
 62
1
100
AcDbSpline
 70
8
 71
3
 72
8
 73
4
 74
0
 40
0
 40
0
 40
0
 40
0
 40
1
 40
1
 40
1
 40
1
 10
267.050431
 20
43.614109
 30
0.0
 10
267.050431
 20
44.264012
 30
0.0
 10
267.028514
 20
44.913429
 30
0.0
 10
266.984667
 20
45.561859
 30
0.0
  0
SPLINE
  5
22b
100
AcDbEntity
  8
design
 62
1
100
AcDbSpline
 70
8
 71
3
 72
8
 73
4
 74
0
 40
0
 40
0
 40
0
 40
0
 40
1
 40
1
 40
1
 40
1
 10
266.984667
 20
45.561859
 30
0.0
 10
266.921333
 20
46.495054
 30
0.0
 10
266.811722
 20
47.424346
 30
0.0
 10
266.655819
 20
48.346582
 30
0.0
  0
SPLINE
  5
22c
100
AcDbEntity
  8
design
 62
1
100
AcDbSpline
 70
8
 71
3
 72
8
 73
4
 74
0
 40
0
 40
0
 40
0
 40
0
 40
1
 40
1
 40
1
 40
1
 10
266.655819
 20
48.346582
 30
0.0
 10
266.402486
 20
49.837596
 30
0.0
 10
266.029792
 20
51.306443
 30
0.0
 10
265.542611
 20
52.736318
 30
0.0
  0
SPLINE
  5
22d
100
AcDbEntity
  8
design
 62
1
100
AcDbSpline
 70
8
 71
3
 72
8
 73
4
 74
0
 40
0
 40
0
 40
0
 40
0
 40
1
 40
1
 40
1
 40
1
 10
265.542611
 20
52.736318
 30
0.0
 10
265.074917
 20
54.102859
 30
0.0
 10
264.502486
 20
55.432873
 30
0.0
 10
263.830167
 20
56.709276
 30
0.0
  0
SPLINE
  5
22e
100
AcDbEntity
  8
design
 62
1
100
AcDbSpline
 70
8
 71
3
 72
8
 73
4
 74
0
 40
0
 40
0
 40
0
 40
0
 40
1
 40
1
 40
1
 40
1
 10
263.830167
 20
56.709276
 30
0.0
 10
263.691319
 20
56.974790
 30
0.0
 10
263.547611
 20
57.237873
 30
0.0
 10
263.399014
 20
57.498512
 30
0.0
  0
LWPOLYLINE
  5
22f
100
AcDbEntity
  8
design
 62
1
100
AcDbPolyline
 90
2
 70
0
 10
269.569153
 20
43.614109
 30
0.0
 10
267.050431
 20
43.614109
 30
0.0
  0
SPLINE
  5
230
100
AcDbEntity
  8
design
 62
1
100
AcDbSpline
 70
8
 71
3
 72
8
 73
4
 74
0
 40
0
 40
0
 40
0
 40
0
 40
1
 40
1
 40
1
 40
1
 10
264.490306
 20
58.129415
 30
0.0
 10
264.480556
 20
58.146471
 30
0.0
 10
264.470819
 20
58.165957
 30
0.0
 10
264.458639
 20
58.182998
 30
0.0
  0
SPLINE
  5
231
100
AcDbEntity
  8
design
 62
1
100
AcDbSpline
 70
8
 71
3
 72
8
 73
4
 74
0
 40
0
 40
0
 40
0
 40
0
 40
1
 40
1
 40
1
 40
1
 10
264.458639
 20
58.182998
 30
0.0
 10
264.390431
 20
58.307234
 30
0.0
 10
264.317347
 20
58.429026
 30
0.0
 10
264.246708
 20
58.550818
 30
0.0
  0
LWPOLYLINE
  5
232
100
AcDbEntity
  8
design
 62
1
100
AcDbPolyline
 90
2
 70
0
 10
263.399014
 20
57.498512
 30
0.0
 10
264.490306
 20
58.129415
 30
0.0
  0
SPLINE
  5
233
100
AcDbEntity
  8
design
 62
1
100
AcDbSpline
 70
8
 71
3
 72
8
 73
4
 74
0
 40
0
 40
0
 40
0
 40
0
 40
1
 40
1
 40
1
 40
1
 10
263.155431
 20
57.922359
 30
0.0
 10
262.712097
 20
58.670179
 30
0.0
 10
262.237097
 20
59.398512
 30
0.0
 10
261.727986
 20
60.102498
 30
0.0
  0
SPLINE
  5
234
100
AcDbEntity
  8
design
 62
1
100
AcDbSpline
 70
8
 71
3
 72
8
 73
4
 74
0
 40
0
 40
0
 40
0
 40
0
 40
1
 40
1
 40
1
 40
1
 10
261.727986
 20
60.102498
 30
0.0
 10
260.619653
 20
61.637109
 30
0.0
 10
259.360292
 20
63.054804
 30
0.0
 10
257.969389
 20
64.338526
 30
0.0
  0
LWPOLYLINE
  5
235
100
AcDbEntity
  8
design
 62
1
100
AcDbPolyline
 90
2
 70
0
 10
264.246708
 20
58.550818
 30
0.0
 10
263.155431
 20
57.922359
 30
0.0
  0
SPLINE
  5
236
100
AcDbEntity
  8
design
 62
1
100
AcDbSpline
 70
8
 71
3
 72
8
 73
4
 74
0
 40
0
 40
0
 40
0
 40
0
 40
1
 40
1
 40
1
 40
1
 10
257.969389
 20
64.338526
 30
0.0
 10
256.839125
 20
65.381096
 30
0.0
 10
255.623611
 20
66.331096
 30
0.0
 10
254.337458
 20
67.178790
 30
0.0
  0
SPLINE
  5
237
100
AcDbEntity
  8
design
 62
1
100
AcDbSpline
 70
8
 71
3
 72
8
 73
4
 74
0
 40
0
 40
0
 40
0
 40
0
 40
1
 40
1
 40
1
 40
1
 10
254.337458
 20
67.178790
 30
0.0
 10
253.234000
 20
67.904693
 30
0.0
 10
252.081819
 20
68.552637
 30
0.0
 10
250.888222
 20
69.117776
 30
0.0
  0
SPLINE
  5
238
100
AcDbEntity
  8
design
 62
1
100
AcDbSpline
 70
8
 71
3
 72
8
 73
4
 74
0
 40
0
 40
0
 40
0
 40
0
 40
1
 40
1
 40
1
 40
1
 10
250.888222
 20
69.117776
 30
0.0
 10
248.985778
 20
70.016623
 30
0.0
 10
246.985903
 20
70.698665
 30
0.0
 10
244.930000
 20
71.149318
 30
0.0
  0
SPLINE
  5
239
100
AcDbEntity
  8
design
 62
1
100
AcDbSpline
 70
8
 71
3
 72
8
 73
4
 74
0
 40
0
 40
0
 40
0
 40
0
 40
1
 40
1
 40
1
 40
1
 10
244.930000
 20
71.149318
 30
0.0
 10
243.909361
 20
71.373415
 30
0.0
 10
242.876542
 20
71.539054
 30
0.0
 10
241.836403
 20
71.648679
 30
0.0
  0
SPLINE
  5
23a
100
AcDbEntity
  8
design
 62
1
100
AcDbSpline
 70
8
 71
3
 72
8
 73
4
 74
0
 40
0
 40
0
 40
0
 40
0
 40
1
 40
1
 40
1
 40
1
 10
241.836403
 20
71.648679
 30
0.0
 10
240.998458
 20
71.736359
 30
0.0
 10
240.158069
 20
71.785082
 30
0.0
 10
239.317681
 20
71.799693
 30
0.0
  0
LWPOLYLINE
  5
23b
100
AcDbEntity
  8
design
 62
1
100
AcDbPolyline
 90
2
 70
0
 10
257.969389
 20
64.338526
 30
0.0
 10
257.969389
 20
64.338526
 30
0.0
  0
SPLINE
  5
23c
100
AcDbEntity
  8
design
 62
1
100
AcDbSpline
 70
8
 71
3
 72
8
 73
4
 74
0
 40
0
 40
0
 40
0
 40
0
 40
1
 40
1
 40
1
 40
1
 10
239.317681
 20
71.799693
 30
0.0
 10
239.247042
 20
71.799693
 30
0.0
 10
239.176403
 20
71.802137
 30
0.0
 10
239.105764
 20
71.802137
 30
0.0
  0
LWPOLYLINE
  5
23d
100
AcDbEntity
  8
design
 62
1
100
AcDbPolyline
 90
2
 70
0
 10
239.317681
 20
71.799693
 30
0.0
 10
239.317681
 20
71.799693
 30
0.0
  0
SPLINE
  5
23e
100
AcDbEntity
  8
design
 62
1
100
AcDbSpline
 70
8
 71
3
 72
8
 73
4
 74
0
 40
0
 40
0
 40
0
 40
0
 40
1
 40
1
 40
1
 40
1
 10
239.105764
 20
73.061498
 30
0.0
 10
239.074097
 20
73.061498
 30
0.0
 10
239.042431
 20
73.061498
 30
0.0
 10
239.010764
 20
73.061498
 30
0.0
  0
SPLINE
  5
23f
100
AcDbEntity
  8
design
 62
1
100
AcDbSpline
 70
8
 71
3
 72
8
 73
4
 74
0
 40
0
 40
0
 40
0
 40
0
 40
1
 40
1
 40
1
 40
1
 10
239.010764
 20
73.061498
 30
0.0
 10
238.879222
 20
73.063929
 30
0.0
 10
238.747681
 20
73.063929
 30
0.0
 10
238.616139
 20
73.061498
 30
0.0
  0
LWPOLYLINE
  5
240
100
AcDbEntity
  8
design
 62
1
100
AcDbPolyline
 90
2
 70
0
 10
239.105764
 20
71.802137
 30
0.0
 10
239.105764
 20
73.061498
 30
0.0
  0
SPLINE
  5
241
100
AcDbEntity
  8
design
 62
1
100
AcDbSpline
 70
8
 71
3
 72
8
 73
4
 74
0
 40
0
 40
0
 40
0
 40
0
 40
1
 40
1
 40
1
 40
1
 10
238.616139
 20
71.802137
 30
0.0
 10
238.033958
 20
71.797262
 30
0.0
 10
237.449347
 20
71.775346
 30
0.0
 10
236.869597
 20
71.733929
 30
0.0
  0
SPLINE
  5
242
100
AcDbEntity
  8
design
 62
1
100
AcDbSpline
 70
8
 71
3
 72
8
 73
4
 74
0
 40
0
 40
0
 40
0
 40
0
 40
1
 40
1
 40
1
 40
1
 10
236.869597
 20
71.733929
 30
0.0
 10
235.936653
 20
71.668165
 30
0.0
 10
235.006139
 20
71.558540
 30
0.0
 10
234.085361
 20
71.400207
 30
0.0
  0
SPLINE
  5
243
100
AcDbEntity
  8
design
 62
1
100
AcDbSpline
 70
8
 71
3
 72
8
 73
4
 74
0
 40
0
 40
0
 40
0
 40
0
 40
1
 40
1
 40
1
 40
1
 10
234.085361
 20
71.400207
 30
0.0
 10
232.550750
 20
71.139568
 30
0.0
 10
231.042917
 20
70.749832
 30
0.0
 10
229.574069
 20
70.238290
 30
0.0
  0
SPLINE
  5
244
100
AcDbEntity
  8
design
 62
1
100
AcDbSpline
 70
8
 71
3
 72
8
 73
4
 74
0
 40
0
 40
0
 40
0
 40
0
 40
1
 40
1
 40
1
 40
1
 10
229.574069
 20
70.238290
 30
0.0
 10
228.224583
 20
69.768151
 30
0.0
 10
226.914069
 20
69.193290
 30
0.0
 10
225.652264
 20
68.523415
 30
0.0
  0
SPLINE
  5
245
100
AcDbEntity
  8
design
 62
1
100
AcDbSpline
 70
8
 71
3
 72
8
 73
4
 74
0
 40
0
 40
0
 40
0
 40
0
 40
1
 40
1
 40
1
 40
1
 10
225.652264
 20
68.523415
 30
0.0
 10
224.475722
 20
67.897387
 30
0.0
 10
223.345472
 20
67.190971
 30
0.0
 10
222.268806
 20
66.406609
 30
0.0
  0
SPLINE
  5
246
100
AcDbEntity
  8
design
 62
1
100
AcDbSpline
 70
8
 71
3
 72
8
 73
4
 74
0
 40
0
 40
0
 40
0
 40
0
 40
1
 40
1
 40
1
 40
1
 10
222.268806
 20
66.406609
 30
0.0
 10
220.683028
 20
65.249554
 30
0.0
 10
219.223917
 20
63.931734
 30
0.0
 10
217.908528
 20
62.472623
 30
0.0
  0
LWPOLYLINE
  5
247
100
AcDbEntity
  8
design
 62
1
100
AcDbPolyline
 90
2
 70
0
 10
238.616139
 20
73.061498
 30
0.0
 10
238.616139
 20
71.802137
 30
0.0
  0
SPLINE
  5
248
100
AcDbEntity
  8
design
 62
1
100
AcDbSpline
 70
8
 71
3
 72
8
 73
4
 74
0
 40
0
 40
0
 40
0
 40
0
 40
1
 40
1
 40
1
 40
1
 10
217.908528
 20
62.472623
 30
0.0
 10
216.907375
 20
61.359415
 30
0.0
 10
215.993917
 20
60.170707
 30
0.0
 10
215.180319
 20
58.913776
 30
0.0
  0
SPLINE
  5
249
100
AcDbEntity
  8
design
 62
1
100
AcDbSpline
 70
8
 71
3
 72
8
 73
4
 74
0
 40
0
 40
0
 40
0
 40
0
 40
1
 40
1
 40
1
 40
1
 10
215.180319
 20
58.913776
 30
0.0
 10
214.968403
 20
58.587359
 30
0.0
 10
214.763778
 20
58.256082
 30
0.0
 10
214.566472
 20
57.922359
 30
0.0
  0
LWPOLYLINE
  5
24a
100
AcDbEntity
  8
design
 62
1
100
AcDbPolyline
 90
2
 70
0
 10
217.908528
 20
62.472623
 30
0.0
 10
217.908528
 20
62.472623
 30
0.0
  0
SPLINE
  5
24b
100
AcDbEntity
  8
design
 62
1
100
AcDbSpline
 70
8
 71
3
 72
8
 73
4
 74
0
 40
0
 40
0
 40
0
 40
0
 40
1
 40
1
 40
1
 40
1
 10
213.475194
 20
58.550818
 30
0.0
 10
213.419167
 20
58.455818
 30
0.0
 10
213.363139
 20
58.358387
 30
0.0
 10
213.307111
 20
58.260957
 30
0.0
  0
SPLINE
  5
24c
100
AcDbEntity
  8
design
 62
1
100
AcDbSpline
 70
8
 71
3
 72
8
 73
4
 74
0
 40
0
 40
0
 40
0
 40
0
 40
1
 40
1
 40
1
 40
1
 10
213.307111
 20
58.260957
 30
0.0
 10
213.282750
 20
58.217109
 30
0.0
 10
213.255958
 20
58.173262
 30
0.0
 10
213.231597
 20
58.129415
 30
0.0
  0
LWPOLYLINE
  5
24d
100
AcDbEntity
  8
design
 62
1
100
AcDbPolyline
 90
2
 70
0
 10
214.566472
 20
57.922359
 30
0.0
 10
213.475194
 20
58.550818
 30
0.0
  0
SPLINE
  5
24e
100
AcDbEntity
  8
design
 62
1
100
AcDbSpline
 70
8
 71
3
 72
8
 73
4
 74
0
 40
0
 40
0
 40
0
 40
0
 40
1
 40
1
 40
1
 40
1
 10
214.322889
 20
57.498512
 30
0.0
 10
213.942889
 20
56.831082
 30
0.0
 10
213.592111
 20
56.144151
 30
0.0
 10
213.268139
 20
55.447484
 30
0.0
  0
SPLINE
  5
24f
100
AcDbEntity
  8
design
 62
1
100
AcDbSpline
 70
8
 71
3
 72
8
 73
4
 74
0
 40
0
 40
0
 40
0
 40
0
 40
1
 40
1
 40
1
 40
1
 10
213.268139
 20
55.447484
 30
0.0
 10
212.315694
 20
53.389151
 30
0.0
 10
211.614167
 20
51.223623
 30
0.0
 10
211.185444
 20
48.996484
 30
0.0
  0
SPLINE
  5
250
100
AcDbEntity
  8
design
 62
1
100
AcDbSpline
 70
8
 71
3
 72
8
 73
4
 74
0
 40
0
 40
0
 40
0
 40
0
 40
1
 40
1
 40
1
 40
1
 10
211.185444
 20
48.996484
 30
0.0
 10
210.997875
 20
48.023582
 30
0.0
 10
210.861472
 20
47.041429
 30
0.0
 10
210.776208
 20
46.054151
 30
0.0
  0
SPLINE
  5
251
100
AcDbEntity
  8
design
 62
1
100
AcDbSpline
 70
8
 71
3
 72
8
 73
4
 74
0
 40
0
 40
0
 40
0
 40
0
 40
1
 40
1
 40
1
 40
1
 10
210.776208
 20
46.054151
 30
0.0
 10
210.705569
 20
45.242762
 30
0.0
 10
210.671472
 20
44.428679
 30
0.0
 10
210.671472
 20
43.614359
 30
0.0
  0
LWPOLYLINE
  5
252
100
AcDbEntity
  8
design
 62
1
100
AcDbPolyline
 90
2
 70
0
 10
213.231597
 20
58.129415
 30
0.0
 10
214.322889
 20
57.498512
 30
0.0
  0
LWPOLYLINE
  5
253
100
AcDbEntity
  8
design
 62
1
100
AcDbPolyline
 90
3
 70
0
 10
210.671472
 20
43.614359
 30
0.0
 10
210.671472
 20
43.614082
 30
0.0
 10
208.152736
 20
43.614082
 30
0.0
  0
LWPOLYLINE
  5
254
100
AcDbEntity
  8
design
 62
1
100
AcDbPolyline
 90
12
 70
0
 10
242.308972
 20
28.250387
 30
0.0
 10
242.308972
 20
31.123540
 30
0.0
 10
237.103444
 20
31.123540
 30
0.0
 10
237.103444
 20
32.474248
 30
0.0
 10
242.579361
 20
40.250373
 30
0.0
 10
243.782694
 20
40.250373
 30
0.0
 10
243.782694
 20
32.474248
 30
0.0
 10
245.405000
 20
32.474248
 30
0.0
 10
245.405000
 20
31.123540
 30
0.0
 10
243.782694
 20
31.123540
 30
0.0
 10
243.782694
 20
28.250387
 30
0.0
 10
242.308972
 20
28.250387
 30
0.0
  0
SPLINE
  5
255
100
AcDbEntity
  8
design
 62
1
100
AcDbSpline
 70
8
 71
3
 72
8
 73
4
 74
0
 40
0
 40
0
 40
0
 40
0
 40
1
 40
1
 40
1
 40
1
 10
74.391638
 20
114.301832
 30
0.0
 10
74.391638
 20
117.802221
 30
0.0
 10
75.305582
 20
121.088262
 30
0.0
 10
76.906221
 20
123.933387
 30
0.0
  0
SPLINE
  5
256
100
AcDbEntity
  8
design
 62
1
100
AcDbSpline
 70
8
 71
3
 72
8
 73
4
 74
0
 40
0
 40
0
 40
0
 40
0
 40
1
 40
1
 40
1
 40
1
 10
76.906221
 20
123.933387
 30
0.0
 10
76.984166
 20
124.074679
 30
0.0
 10
77.066985
 20
124.215957
 30
0.0
 10
77.149804
 20
124.354804
 30
0.0
  0
SPLINE
  5
257
100
AcDbEntity
  8
design
 62
1
100
AcDbSpline
 70
8
 71
3
 72
8
 73
4
 74
0
 40
0
 40
0
 40
0
 40
0
 40
1
 40
1
 40
1
 40
1
 10
77.149804
 20
124.354804
 30
0.0
 10
80.543027
 20
130.057248
 30
0.0
 10
86.735082
 20
133.898665
 30
0.0
 10
93.833304
 20
133.983929
 30
0.0
  0
SPLINE
  5
258
100
AcDbEntity
  8
design
 62
1
100
AcDbSpline
 70
8
 71
3
 72
8
 73
4
 74
0
 40
0
 40
0
 40
0
 40
0
 40
1
 40
1
 40
1
 40
1
 10
93.833304
 20
133.983929
 30
0.0
 10
93.913693
 20
133.986359
 30
0.0
 10
93.994082
 20
133.986359
 30
0.0
 10
94.076902
 20
133.986359
 30
0.0
  0
SPLINE
  5
259
100
AcDbEntity
  8
design
 62
1
100
AcDbSpline
 70
8
 71
3
 72
8
 73
4
 74
0
 40
0
 40
0
 40
0
 40
0
 40
1
 40
1
 40
1
 40
1
 10
94.076902
 20
133.986359
 30
0.0
 10
94.152416
 20
133.986359
 30
0.0
 10
94.227929
 20
133.986359
 30
0.0
 10
94.320485
 20
133.983929
 30
0.0
  0
SPLINE
  5
25a
100
AcDbEntity
  8
design
 62
1
100
AcDbSpline
 70
8
 71
3
 72
8
 73
4
 74
0
 40
0
 40
0
 40
0
 40
0
 40
1
 40
1
 40
1
 40
1
 10
94.320485
 20
133.983929
 30
0.0
 10
101.416277
 20
133.898665
 30
0.0
 10
107.610777
 20
130.057248
 30
0.0
 10
111.003985
 20
124.354804
 30
0.0
  0
SPLINE
  5
25b
100
AcDbEntity
  8
design
 62
1
100
AcDbSpline
 70
8
 71
3
 72
8
 73
4
 74
0
 40
0
 40
0
 40
0
 40
0
 40
1
 40
1
 40
1
 40
1
 10
111.003985
 20
124.354804
 30
0.0
 10
111.086804
 20
124.215957
 30
0.0
 10
111.167193
 20
124.074679
 30
0.0
 10
111.247582
 20
123.933387
 30
0.0
  0
SPLINE
  5
25c
100
AcDbEntity
  8
design
 62
1
100
AcDbSpline
 70
8
 71
3
 72
8
 73
4
 74
0
 40
0
 40
0
 40
0
 40
0
 40
1
 40
1
 40
1
 40
1
 10
111.247582
 20
123.933387
 30
0.0
 10
112.847971
 20
121.085818
 30
0.0
 10
113.761429
 20
117.799790
 30
0.0
 10
113.761429
 20
114.301832
 30
0.0
  0
LWPOLYLINE
  5
25d
100
AcDbEntity
  8
design
 62
1
100
AcDbPolyline
 90
4
 70
0
 10
242.308972
 20
32.474248
 30
0.0
 10
242.308972
 20
37.884873
 30
0.0
 10
238.552806
 20
32.474248
 30
0.0
 10
242.308972
 20
32.474248
 30
0.0
  0
SPLINE
  5
25e
100
AcDbEntity
  8
design
 62
1
100
AcDbSpline
 70
8
 71
3
 72
8
 73
4
 74
0
 40
0
 40
0
 40
0
 40
0
 40
1
 40
1
 40
1
 40
1
 10
107.540138
 20
114.301832
 30
0.0
 10
107.540138
 20
114.672082
 30
0.0
 10
107.525513
 20
115.042346
 30
0.0
 10
107.496291
 20
115.412609
 30
0.0
  0
SPLINE
  5
25f
100
AcDbEntity
  8
design
 62
1
100
AcDbSpline
 70
8
 71
3
 72
8
 73
4
 74
0
 40
0
 40
0
 40
0
 40
0
 40
1
 40
1
 40
1
 40
1
 10
107.496291
 20
115.412609
 30
0.0
 10
107.445138
 20
116.053248
 30
0.0
 10
107.347693
 20
116.686582
 30
0.0
 10
107.203971
 20
117.312609
 30
0.0
  0
SPLINE
  5
260
100
AcDbEntity
  8
design
 62
1
100
AcDbSpline
 70
8
 71
3
 72
8
 73
4
 74
0
 40
0
 40
0
 40
0
 40
0
 40
1
 40
1
 40
1
 40
1
 10
107.203971
 20
117.312609
 30
0.0
 10
106.970138
 20
118.342998
 30
0.0
 10
106.612054
 20
119.341721
 30
0.0
 10
106.141929
 20
120.289276
 30
0.0
  0
SPLINE
  5
261
100
AcDbEntity
  8
design
 62
1
100
AcDbSpline
 70
8
 71
3
 72
8
 73
4
 74
0
 40
0
 40
0
 40
0
 40
0
 40
1
 40
1
 40
1
 40
1
 10
106.141929
 20
120.289276
 30
0.0
 10
106.051791
 20
120.469540
 30
0.0
 10
105.959235
 20
120.647359
 30
0.0
 10
105.861791
 20
120.822748
 30
0.0
  0
LWPOLYLINE
  5
262
100
AcDbEntity
  8
design
 62
1
100
AcDbPolyline
 90
2
 70
0
 10
113.761429
 20
114.301832
 30
0.0
 10
107.540138
 20
114.301832
 30
0.0
  0
SPLINE
  5
263
100
AcDbEntity
  8
design
 62
1
100
AcDbSpline
 70
8
 71
3
 72
8
 73
4
 74
0
 40
0
 40
0
 40
0
 40
0
 40
1
 40
1
 40
1
 40
1
 10
108.553471
 20
122.376846
 30
0.0
 10
108.475513
 20
122.520568
 30
0.0
 10
108.392693
 20
122.659415
 30
0.0
 10
108.309874
 20
122.800693
 30
0.0
  0
LWPOLYLINE
  5
264
100
AcDbEntity
  8
design
 62
1
100
AcDbPolyline
 90
2
 70
0
 10
105.861791
 20
120.822748
 30
0.0
 10
108.553471
 20
122.376846
 30
0.0
  0
SPLINE
  5
265
100
AcDbEntity
  8
design
 62
1
100
AcDbSpline
 70
8
 71
3
 72
8
 73
4
 74
0
 40
0
 40
0
 40
0
 40
0
 40
1
 40
1
 40
1
 40
1
 10
105.615763
 20
121.244151
 30
0.0
 10
105.367304
 20
121.658262
 30
0.0
 10
105.096916
 20
122.055304
 30
0.0
 10
104.804610
 20
122.440179
 30
0.0
  0
SPLINE
  5
266
100
AcDbEntity
  8
design
 62
1
100
AcDbSpline
 70
8
 71
3
 72
8
 73
4
 74
0
 40
0
 40
0
 40
0
 40
0
 40
1
 40
1
 40
1
 40
1
 10
104.804610
 20
122.440179
 30
0.0
 10
103.959360
 20
123.550957
 30
0.0
 10
102.948457
 20
124.525318
 30
0.0
 10
101.803582
 20
125.329165
 30
0.0
  0
SPLINE
  5
267
100
AcDbEntity
  8
design
 62
1
100
AcDbSpline
 70
8
 71
3
 72
8
 73
4
 74
0
 40
0
 40
0
 40
0
 40
0
 40
1
 40
1
 40
1
 40
1
 10
101.803582
 20
125.329165
 30
0.0
 10
101.106916
 20
125.818776
 30
0.0
 10
100.363957
 20
126.242623
 30
0.0
 10
99.584471
 20
126.593401
 30
0.0
  0
SPLINE
  5
268
100
AcDbEntity
  8
design
 62
1
100
AcDbSpline
 70
8
 71
3
 72
8
 73
4
 74
0
 40
0
 40
0
 40
0
 40
0
 40
1
 40
1
 40
1
 40
1
 10
99.584471
 20
126.593401
 30
0.0
 10
98.471263
 20
127.092762
 30
0.0
 10
97.297166
 20
127.436221
 30
0.0
 10
96.091388
 20
127.616471
 30
0.0
  0
SPLINE
  5
269
100
AcDbEntity
  8
design
 62
1
100
AcDbSpline
 70
8
 71
3
 72
8
 73
4
 74
0
 40
0
 40
0
 40
0
 40
0
 40
1
 40
1
 40
1
 40
1
 10
96.091388
 20
127.616471
 30
0.0
 10
95.587152
 20
127.691984
 30
0.0
 10
95.080485
 20
127.738276
 30
0.0
 10
94.571388
 20
127.755318
 30
0.0
  0
SPLINE
  5
26a
100
AcDbEntity
  8
design
 62
1
100
AcDbSpline
 70
8
 71
3
 72
8
 73
4
 74
0
 40
0
 40
0
 40
0
 40
0
 40
1
 40
1
 40
1
 40
1
 10
94.571388
 20
127.755318
 30
0.0
 10
94.486124
 20
127.760193
 30
0.0
 10
94.403304
 20
127.762623
 30
0.0
 10
94.320485
 20
127.762623
 30
0.0
  0
LWPOLYLINE
  5
26b
100
AcDbEntity
  8
design
 62
1
100
AcDbPolyline
 90
2
 70
0
 10
108.309874
 20
122.800693
 30
0.0
 10
105.615763
 20
121.244151
 30
0.0
  0
SPLINE
  5
26c
100
AcDbEntity
  8
design
 62
1
100
AcDbSpline
 70
8
 71
3
 72
8
 73
4
 74
0
 40
0
 40
0
 40
0
 40
0
 40
1
 40
1
 40
1
 40
1
 10
94.320485
 20
130.873276
 30
0.0
 10
94.157277
 20
130.875707
 30
0.0
 10
93.996513
 20
130.875707
 30
0.0
 10
93.833304
 20
130.873276
 30
0.0
  0
LWPOLYLINE
  5
26d
100
AcDbEntity
  8
design
 62
1
100
AcDbPolyline
 90
2
 70
0
 10
94.320485
 20
127.762623
 30
0.0
 10
94.320485
 20
130.873276
 30
0.0
  0
SPLINE
  5
26e
100
AcDbEntity
  8
design
 62
1
100
AcDbSpline
 70
8
 71
3
 72
8
 73
4
 74
0
 40
0
 40
0
 40
0
 40
0
 40
1
 40
1
 40
1
 40
1
 10
93.833304
 20
127.762623
 30
0.0
 10
93.543429
 20
127.757762
 30
0.0
 10
93.253568
 20
127.743137
 30
0.0
 10
92.963693
 20
127.721221
 30
0.0
  0
SPLINE
  5
26f
100
AcDbEntity
  8
design
 62
1
100
AcDbSpline
 70
8
 71
3
 72
8
 73
4
 74
0
 40
0
 40
0
 40
0
 40
0
 40
1
 40
1
 40
1
 40
1
 10
92.963693
 20
127.721221
 30
0.0
 10
92.325485
 20
127.667623
 30
0.0
 10
91.692152
 20
127.570193
 30
0.0
 10
91.066124
 20
127.428915
 30
0.0
  0
SPLINE
  5
270
100
AcDbEntity
  8
design
 62
1
100
AcDbSpline
 70
8
 71
3
 72
8
 73
4
 74
0
 40
0
 40
0
 40
0
 40
0
 40
1
 40
1
 40
1
 40
1
 10
91.066124
 20
127.428915
 30
0.0
 10
90.018679
 20
127.190193
 30
0.0
 10
89.005346
 20
126.824804
 30
0.0
 10
88.045596
 20
126.342498
 30
0.0
  0
SPLINE
  5
271
100
AcDbEntity
  8
design
 62
1
100
AcDbSpline
 70
8
 71
3
 72
8
 73
4
 74
0
 40
0
 40
0
 40
0
 40
0
 40
1
 40
1
 40
1
 40
1
 10
88.045596
 20
126.342498
 30
0.0
 10
87.258804
 20
125.947887
 30
0.0
 10
86.513416
 20
125.477748
 30
0.0
 10
85.816749
 20
124.936984
 30
0.0
  0
SPLINE
  5
272
100
AcDbEntity
  8
design
 62
1
100
AcDbSpline
 70
8
 71
3
 72
8
 73
4
 74
0
 40
0
 40
0
 40
0
 40
0
 40
1
 40
1
 40
1
 40
1
 10
85.816749
 20
124.936984
 30
0.0
 10
84.720596
 20
124.081984
 30
0.0
 10
83.760846
 20
123.066207
 30
0.0
 10
82.974054
 20
121.921332
 30
0.0
  0
SPLINE
  5
273
100
AcDbEntity
  8
design
 62
1
100
AcDbSpline
 70
8
 71
3
 72
8
 73
4
 74
0
 40
0
 40
0
 40
0
 40
0
 40
1
 40
1
 40
1
 40
1
 10
82.974054
 20
121.921332
 30
0.0
 10
82.820596
 20
121.699665
 30
0.0
 10
82.676874
 20
121.475568
 30
0.0
 10
82.538027
 20
121.244151
 30
0.0
  0
LWPOLYLINE
  5
274
100
AcDbEntity
  8
design
 62
1
100
AcDbPolyline
 90
2
 70
0
 10
93.833304
 20
130.873276
 30
0.0
 10
93.833304
 20
127.762623
 30
0.0
  0
SPLINE
  5
275
100
AcDbEntity
  8
design
 62
1
100
AcDbSpline
 70
8
 71
3
 72
8
 73
4
 74
0
 40
0
 40
0
 40
0
 40
0
 40
1
 40
1
 40
1
 40
1
 10
79.843916
 20
122.800693
 30
0.0
 10
79.761096
 20
122.659415
 30
0.0
 10
79.678277
 20
122.520568
 30
0.0
 10
79.597888
 20
122.376846
 30
0.0
  0
LWPOLYLINE
  5
276
100
AcDbEntity
  8
design
 62
1
100
AcDbPolyline
 90
2
 70
0
 10
82.538027
 20
121.244151
 30
0.0
 10
79.843916
 20
122.800693
 30
0.0
  0
SPLINE
  5
277
100
AcDbEntity
  8
design
 62
1
100
AcDbSpline
 70
8
 71
3
 72
8
 73
4
 74
0
 40
0
 40
0
 40
0
 40
0
 40
1
 40
1
 40
1
 40
1
 10
82.291999
 20
120.822748
 30
0.0
 10
82.101999
 20
120.479276
 30
0.0
 10
81.929054
 20
120.130943
 30
0.0
 10
81.768277
 20
119.772873
 30
0.0
  0
SPLINE
  5
278
100
AcDbEntity
  8
design
 62
1
100
AcDbSpline
 70
8
 71
3
 72
8
 73
4
 74
0
 40
0
 40
0
 40
0
 40
0
 40
1
 40
1
 40
1
 40
1
 10
81.768277
 20
119.772873
 30
0.0
 10
81.298152
 20
118.713248
 30
0.0
 10
80.964429
 20
117.597609
 30
0.0
 10
80.781735
 20
116.452734
 30
0.0
  0
SPLINE
  5
279
100
AcDbEntity
  8
design
 62
1
100
AcDbSpline
 70
8
 71
3
 72
8
 73
4
 74
0
 40
0
 40
0
 40
0
 40
0
 40
1
 40
1
 40
1
 40
1
 10
80.781735
 20
116.452734
 30
0.0
 10
80.701360
 20
115.946068
 30
0.0
 10
80.647763
 20
115.432096
 30
0.0
 10
80.625846
 20
114.918109
 30
0.0
  0
SPLINE
  5
27a
100
AcDbEntity
  8
design
 62
1
100
AcDbSpline
 70
8
 71
3
 72
8
 73
4
 74
0
 40
0
 40
0
 40
0
 40
0
 40
1
 40
1
 40
1
 40
1
 10
80.625846
 20
114.918109
 30
0.0
 10
80.616096
 20
114.713498
 30
0.0
 10
80.611221
 20
114.506443
 30
0.0
 10
80.611221
 20
114.301832
 30
0.0
  0
LWPOLYLINE
  5
27b
100
AcDbEntity
  8
design
 62
1
100
AcDbPolyline
 90
2
 70
0
 10
79.597888
 20
122.376846
 30
0.0
 10
82.291999
 20
120.822748
 30
0.0
  0
SPLINE
  5
27c
100
AcDbEntity
  8
design
 62
1
100
AcDbSpline
 70
8
 71
3
 72
8
 73
4
 74
0
 40
0
 40
0
 40
0
 40
0
 40
1
 40
1
 40
1
 40
1
 10
74.391638
 20
110.630929
 30
0.0
 10
74.391638
 20
107.130540
 30
0.0
 10
75.305582
 20
103.844498
 30
0.0
 10
76.906221
 20
100.999359
 30
0.0
  0
SPLINE
  5
27d
100
AcDbEntity
  8
design
 62
1
100
AcDbSpline
 70
8
 71
3
 72
8
 73
4
 74
0
 40
0
 40
0
 40
0
 40
0
 40
1
 40
1
 40
1
 40
1
 10
76.906221
 20
100.999359
 30
0.0
 10
76.984166
 20
100.858082
 30
0.0
 10
77.066985
 20
100.716804
 30
0.0
 10
77.149804
 20
100.577957
 30
0.0
  0
SPLINE
  5
27e
100
AcDbEntity
  8
design
 62
1
100
AcDbSpline
 70
8
 71
3
 72
8
 73
4
 74
0
 40
0
 40
0
 40
0
 40
0
 40
1
 40
1
 40
1
 40
1
 10
77.149804
 20
100.577957
 30
0.0
 10
80.543027
 20
94.875512
 30
0.0
 10
86.735082
 20
91.034082
 30
0.0
 10
93.833304
 20
90.948832
 30
0.0
  0
SPLINE
  5
27f
100
AcDbEntity
  8
design
 62
1
100
AcDbSpline
 70
8
 71
3
 72
8
 73
4
 74
0
 40
0
 40
0
 40
0
 40
0
 40
1
 40
1
 40
1
 40
1
 10
93.833304
 20
90.948832
 30
0.0
 10
93.913693
 20
90.946401
 30
0.0
 10
93.994082
 20
90.946401
 30
0.0
 10
94.076902
 20
90.946401
 30
0.0
  0
SPLINE
  5
280
100
AcDbEntity
  8
design
 62
1
100
AcDbSpline
 70
8
 71
3
 72
8
 73
4
 74
0
 40
0
 40
0
 40
0
 40
0
 40
1
 40
1
 40
1
 40
1
 10
94.076902
 20
90.946401
 30
0.0
 10
94.152416
 20
90.946401
 30
0.0
 10
94.227929
 20
90.946401
 30
0.0
 10
94.320485
 20
90.948832
 30
0.0
  0
SPLINE
  5
281
100
AcDbEntity
  8
design
 62
1
100
AcDbSpline
 70
8
 71
3
 72
8
 73
4
 74
0
 40
0
 40
0
 40
0
 40
0
 40
1
 40
1
 40
1
 40
1
 10
94.320485
 20
90.948832
 30
0.0
 10
101.416277
 20
91.034082
 30
0.0
 10
107.610777
 20
94.875512
 30
0.0
 10
111.003985
 20
100.577957
 30
0.0
  0
SPLINE
  5
282
100
AcDbEntity
  8
design
 62
1
100
AcDbSpline
 70
8
 71
3
 72
8
 73
4
 74
0
 40
0
 40
0
 40
0
 40
0
 40
1
 40
1
 40
1
 40
1
 10
111.003985
 20
100.577957
 30
0.0
 10
111.086804
 20
100.716804
 30
0.0
 10
111.167193
 20
100.858082
 30
0.0
 10
111.247582
 20
100.999359
 30
0.0
  0
SPLINE
  5
283
100
AcDbEntity
  8
design
 62
1
100
AcDbSpline
 70
8
 71
3
 72
8
 73
4
 74
0
 40
0
 40
0
 40
0
 40
0
 40
1
 40
1
 40
1
 40
1
 10
111.247582
 20
100.999359
 30
0.0
 10
112.847971
 20
103.846943
 30
0.0
 10
113.761429
 20
107.132971
 30
0.0
 10
113.761429
 20
110.630929
 30
0.0
  0
LWPOLYLINE
  5
284
100
AcDbEntity
  8
design
 62
1
100
AcDbPolyline
 90
2
 70
0
 10
80.611221
 20
114.301832
 30
0.0
 10
74.391638
 20
114.301832
 30
0.0
  0
SPLINE
  5
285
100
AcDbEntity
  8
design
 62
1
100
AcDbSpline
 70
8
 71
3
 72
8
 73
4
 74
0
 40
0
 40
0
 40
0
 40
0
 40
1
 40
1
 40
1
 40
1
 10
107.540138
 20
110.630929
 30
0.0
 10
107.540138
 20
110.260665
 30
0.0
 10
107.525513
 20
109.890415
 30
0.0
 10
107.496291
 20
109.520151
 30
0.0
  0
SPLINE
  5
286
100
AcDbEntity
  8
design
 62
1
100
AcDbSpline
 70
8
 71
3
 72
8
 73
4
 74
0
 40
0
 40
0
 40
0
 40
0
 40
1
 40
1
 40
1
 40
1
 10
107.496291
 20
109.520151
 30
0.0
 10
107.445138
 20
108.879512
 30
0.0
 10
107.347693
 20
108.246179
 30
0.0
 10
107.203971
 20
107.620151
 30
0.0
  0
SPLINE
  5
287
100
AcDbEntity
  8
design
 62
1
100
AcDbSpline
 70
8
 71
3
 72
8
 73
4
 74
0
 40
0
 40
0
 40
0
 40
0
 40
1
 40
1
 40
1
 40
1
 10
107.203971
 20
107.620151
 30
0.0
 10
106.970138
 20
106.589762
 30
0.0
 10
106.612054
 20
105.591040
 30
0.0
 10
106.141929
 20
104.643471
 30
0.0
  0
SPLINE
  5
288
100
AcDbEntity
  8
design
 62
1
100
AcDbSpline
 70
8
 71
3
 72
8
 73
4
 74
0
 40
0
 40
0
 40
0
 40
0
 40
1
 40
1
 40
1
 40
1
 10
106.141929
 20
104.643471
 30
0.0
 10
106.051791
 20
104.463221
 30
0.0
 10
105.959235
 20
104.285401
 30
0.0
 10
105.861791
 20
104.110012
 30
0.0
  0
LWPOLYLINE
  5
289
100
AcDbEntity
  8
design
 62
1
100
AcDbPolyline
 90
2
 70
0
 10
113.761429
 20
110.630929
 30
0.0
 10
107.540138
 20
110.630929
 30
0.0
  0
SPLINE
  5
28a
100
AcDbEntity
  8
design
 62
1
100
AcDbSpline
 70
8
 71
3
 72
8
 73
4
 74
0
 40
0
 40
0
 40
0
 40
0
 40
1
 40
1
 40
1
 40
1
 10
108.553471
 20
102.555901
 30
0.0
 10
108.475513
 20
102.412193
 30
0.0
 10
108.392693
 20
102.273346
 30
0.0
 10
108.309874
 20
102.132054
 30
0.0
  0
LWPOLYLINE
  5
28b
100
AcDbEntity
  8
design
 62
1
100
AcDbPolyline
 90
2
 70
0
 10
105.861791
 20
104.110012
 30
0.0
 10
108.553471
 20
102.555901
 30
0.0
  0
SPLINE
  5
28c
100
AcDbEntity
  8
design
 62
1
100
AcDbSpline
 70
8
 71
3
 72
8
 73
4
 74
0
 40
0
 40
0
 40
0
 40
0
 40
1
 40
1
 40
1
 40
1
 10
105.615763
 20
103.688596
 30
0.0
 10
105.367304
 20
103.276929
 30
0.0
 10
105.096916
 20
102.877443
 30
0.0
 10
104.804610
 20
102.492568
 30
0.0
  0
SPLINE
  5
28d
100
AcDbEntity
  8
design
 62
1
100
AcDbSpline
 70
8
 71
3
 72
8
 73
4
 74
0
 40
0
 40
0
 40
0
 40
0
 40
1
 40
1
 40
1
 40
1
 10
104.804610
 20
102.492568
 30
0.0
 10
103.959360
 20
101.381804
 30
0.0
 10
102.948457
 20
100.407443
 30
0.0
 10
101.803582
 20
99.603596
 30
0.0
  0
SPLINE
  5
28e
100
AcDbEntity
  8
design
 62
1
100
AcDbSpline
 70
8
 71
3
 72
8
 73
4
 74
0
 40
0
 40
0
 40
0
 40
0
 40
1
 40
1
 40
1
 40
1
 10
101.803582
 20
99.603596
 30
0.0
 10
101.106916
 20
99.113971
 30
0.0
 10
100.363957
 20
98.690123
 30
0.0
 10
99.584471
 20
98.339359
 30
0.0
  0
SPLINE
  5
28f
100
AcDbEntity
  8
design
 62
1
100
AcDbSpline
 70
8
 71
3
 72
8
 73
4
 74
0
 40
0
 40
0
 40
0
 40
0
 40
1
 40
1
 40
1
 40
1
 10
99.584471
 20
98.339359
 30
0.0
 10
98.471263
 20
97.839998
 30
0.0
 10
97.297166
 20
97.496540
 30
0.0
 10
96.091388
 20
97.316276
 30
0.0
  0
SPLINE
  5
290
100
AcDbEntity
  8
design
 62
1
100
AcDbSpline
 70
8
 71
3
 72
8
 73
4
 74
0
 40
0
 40
0
 40
0
 40
0
 40
1
 40
1
 40
1
 40
1
 10
96.091388
 20
97.316276
 30
0.0
 10
95.587152
 20
97.240762
 30
0.0
 10
95.080485
 20
97.194484
 30
0.0
 10
94.571388
 20
97.177429
 30
0.0
  0
SPLINE
  5
291
100
AcDbEntity
  8
design
 62
1
100
AcDbSpline
 70
8
 71
3
 72
8
 73
4
 74
0
 40
0
 40
0
 40
0
 40
0
 40
1
 40
1
 40
1
 40
1
 10
94.571388
 20
97.177429
 30
0.0
 10
94.486124
 20
97.172568
 30
0.0
 10
94.403304
 20
97.170123
 30
0.0
 10
94.320485
 20
97.170123
 30
0.0
  0
LWPOLYLINE
  5
292
100
AcDbEntity
  8
design
 62
1
100
AcDbPolyline
 90
2
 70
0
 10
108.309874
 20
102.132054
 30
0.0
 10
105.615763
 20
103.688596
 30
0.0
  0
SPLINE
  5
293
100
AcDbEntity
  8
design
 62
1
100
AcDbSpline
 70
8
 71
3
 72
8
 73
4
 74
0
 40
0
 40
0
 40
0
 40
0
 40
1
 40
1
 40
1
 40
1
 10
94.320485
 20
94.059484
 30
0.0
 10
94.157277
 20
94.057040
 30
0.0
 10
93.996513
 20
94.057040
 30
0.0
 10
93.833304
 20
94.059484
 30
0.0
  0
LWPOLYLINE
  5
294
100
AcDbEntity
  8
design
 62
1
100
AcDbPolyline
 90
2
 70
0
 10
94.320485
 20
97.170123
 30
0.0
 10
94.320485
 20
94.059484
 30
0.0
  0
SPLINE
  5
295
100
AcDbEntity
  8
design
 62
1
100
AcDbSpline
 70
8
 71
3
 72
8
 73
4
 74
0
 40
0
 40
0
 40
0
 40
0
 40
1
 40
1
 40
1
 40
1
 10
93.833304
 20
97.170123
 30
0.0
 10
93.543429
 20
97.174998
 30
0.0
 10
93.253568
 20
97.189609
 30
0.0
 10
92.963693
 20
97.211540
 30
0.0
  0
SPLINE
  5
296
100
AcDbEntity
  8
design
 62
1
100
AcDbSpline
 70
8
 71
3
 72
8
 73
4
 74
0
 40
0
 40
0
 40
0
 40
0
 40
1
 40
1
 40
1
 40
1
 10
92.963693
 20
97.211540
 30
0.0
 10
92.325485
 20
97.265123
 30
0.0
 10
91.692152
 20
97.362568
 30
0.0
 10
91.066124
 20
97.503846
 30
0.0
  0
SPLINE
  5
297
100
AcDbEntity
  8
design
 62
1
100
AcDbSpline
 70
8
 71
3
 72
8
 73
4
 74
0
 40
0
 40
0
 40
0
 40
0
 40
1
 40
1
 40
1
 40
1
 10
91.066124
 20
97.503846
 30
0.0
 10
90.018679
 20
97.742568
 30
0.0
 10
89.005346
 20
98.107943
 30
0.0
 10
88.045596
 20
98.590262
 30
0.0
  0
SPLINE
  5
298
100
AcDbEntity
  8
design
 62
1
100
AcDbSpline
 70
8
 71
3
 72
8
 73
4
 74
0
 40
0
 40
0
 40
0
 40
0
 40
1
 40
1
 40
1
 40
1
 10
88.045596
 20
98.590262
 30
0.0
 10
87.258804
 20
98.984873
 30
0.0
 10
86.513416
 20
99.457443
 30
0.0
 10
85.816749
 20
99.998207
 30
0.0
  0
SPLINE
  5
299
100
AcDbEntity
  8
design
 62
1
100
AcDbSpline
 70
8
 71
3
 72
8
 73
4
 74
0
 40
0
 40
0
 40
0
 40
0
 40
1
 40
1
 40
1
 40
1
 10
85.816749
 20
99.998207
 30
0.0
 10
84.720596
 20
100.850776
 30
0.0
 10
83.760846
 20
101.866554
 30
0.0
 10
82.974054
 20
103.011415
 30
0.0
  0
SPLINE
  5
29a
100
AcDbEntity
  8
design
 62
1
100
AcDbSpline
 70
8
 71
3
 72
8
 73
4
 74
0
 40
0
 40
0
 40
0
 40
0
 40
1
 40
1
 40
1
 40
1
 10
82.974054
 20
103.011415
 30
0.0
 10
82.820596
 20
103.233096
 30
0.0
 10
82.676874
 20
103.459623
 30
0.0
 10
82.538027
 20
103.688596
 30
0.0
  0
LWPOLYLINE
  5
29b
100
AcDbEntity
  8
design
 62
1
100
AcDbPolyline
 90
2
 70
0
 10
93.833304
 20
94.059484
 30
0.0
 10
93.833304
 20
97.170123
 30
0.0
  0
SPLINE
  5
29c
100
AcDbEntity
  8
design
 62
1
100
AcDbSpline
 70
8
 71
3
 72
8
 73
4
 74
0
 40
0
 40
0
 40
0
 40
0
 40
1
 40
1
 40
1
 40
1
 10
79.843916
 20
102.132054
 30
0.0
 10
79.761096
 20
102.273346
 30
0.0
 10
79.678277
 20
102.412193
 30
0.0
 10
79.597888
 20
102.555901
 30
0.0
  0
LWPOLYLINE
  5
29d
100
AcDbEntity
  8
design
 62
1
100
AcDbPolyline
 90
2
 70
0
 10
82.538027
 20
103.688596
 30
0.0
 10
79.843916
 20
102.132054
 30
0.0
  0
SPLINE
  5
29e
100
AcDbEntity
  8
design
 62
1
100
AcDbSpline
 70
8
 71
3
 72
8
 73
4
 74
0
 40
0
 40
0
 40
0
 40
0
 40
1
 40
1
 40
1
 40
1
 10
82.291999
 20
104.110012
 30
0.0
 10
82.101999
 20
104.453471
 30
0.0
 10
81.929054
 20
104.801804
 30
0.0
 10
81.768277
 20
105.159887
 30
0.0
  0
SPLINE
  5
29f
100
AcDbEntity
  8
design
 62
1
100
AcDbSpline
 70
8
 71
3
 72
8
 73
4
 74
0
 40
0
 40
0
 40
0
 40
0
 40
1
 40
1
 40
1
 40
1
 10
81.768277
 20
105.159887
 30
0.0
 10
81.298152
 20
106.219512
 30
0.0
 10
80.964429
 20
107.335151
 30
0.0
 10
80.781735
 20
108.480026
 30
0.0
  0
SPLINE
  5
2a0
100
AcDbEntity
  8
design
 62
1
100
AcDbSpline
 70
8
 71
3
 72
8
 73
4
 74
0
 40
0
 40
0
 40
0
 40
0
 40
1
 40
1
 40
1
 40
1
 10
80.781735
 20
108.480026
 30
0.0
 10
80.701360
 20
108.989123
 30
0.0
 10
80.647763
 20
109.500665
 30
0.0
 10
80.625846
 20
110.014637
 30
0.0
  0
SPLINE
  5
2a1
100
AcDbEntity
  8
design
 62
1
100
AcDbSpline
 70
8
 71
3
 72
8
 73
4
 74
0
 40
0
 40
0
 40
0
 40
0
 40
1
 40
1
 40
1
 40
1
 10
80.625846
 20
110.014637
 30
0.0
 10
80.616096
 20
110.219262
 30
0.0
 10
80.611221
 20
110.426304
 30
0.0
 10
80.611221
 20
110.630929
 30
0.0
  0
LWPOLYLINE
  5
2a2
100
AcDbEntity
  8
design
 62
1
100
AcDbPolyline
 90
2
 70
0
 10
79.597888
 20
102.555901
 30
0.0
 10
82.291999
 20
104.110012
 30
0.0
  0
LWPOLYLINE
  5
2a3
100
AcDbEntity
  8
design
 62
1
100
AcDbPolyline
 90
2
 70
0
 10
80.611221
 20
110.630929
 30
0.0
 10
74.391638
 20
110.630929
 30
0.0
  0
SPLINE
  5
2a4
100
AcDbEntity
  8
design
 62
1
100
AcDbSpline
 70
8
 71
3
 72
8
 73
4
 74
0
 40
0
 40
0
 40
0
 40
0
 40
1
 40
1
 40
1
 40
1
 10
95.438568
 20
118.347859
 30
0.0
 10
95.307027
 20
118.925179
 30
0.0
 10
95.121902
 20
119.346582
 30
0.0
 10
94.880749
 20
119.607221
 30
0.0
  0
SPLINE
  5
2a5
100
AcDbEntity
  8
design
 62
1
100
AcDbSpline
 70
8
 71
3
 72
8
 73
4
 74
0
 40
0
 40
0
 40
0
 40
0
 40
1
 40
1
 40
1
 40
1
 10
94.880749
 20
119.607221
 30
0.0
 10
94.481263
 20
120.028637
 30
0.0
 10
93.991638
 20
120.238123
 30
0.0
 10
93.407027
 20
120.238123
 30
0.0
  0
SPLINE
  5
2a6
100
AcDbEntity
  8
design
 62
1
100
AcDbSpline
 70
8
 71
3
 72
8
 73
4
 74
0
 40
0
 40
0
 40
0
 40
0
 40
1
 40
1
 40
1
 40
1
 10
93.407027
 20
120.238123
 30
0.0
 10
92.939332
 20
120.238123
 30
0.0
 10
92.525221
 20
120.106582
 30
0.0
 10
92.172027
 20
119.845943
 30
0.0
  0
SPLINE
  5
2a7
100
AcDbEntity
  8
design
 62
1
100
AcDbSpline
 70
8
 71
3
 72
8
 73
4
 74
0
 40
0
 40
0
 40
0
 40
0
 40
1
 40
1
 40
1
 40
1
 10
92.172027
 20
119.845943
 30
0.0
 10
91.706763
 20
119.507359
 30
0.0
 10
91.341374
 20
119.012873
 30
0.0
 10
91.073429
 20
118.362484
 30
0.0
  0
SPLINE
  5
2a8
100
AcDbEntity
  8
design
 62
1
100
AcDbSpline
 70
8
 71
3
 72
8
 73
4
 74
0
 40
0
 40
0
 40
0
 40
0
 40
1
 40
1
 40
1
 40
1
 10
91.073429
 20
118.362484
 30
0.0
 10
90.807916
 20
117.714526
 30
0.0
 10
90.669068
 20
116.788887
 30
0.0
 10
90.656888
 20
115.587984
 30
0.0
  0
SPLINE
  5
2a9
100
AcDbEntity
  8
design
 62
1
100
AcDbSpline
 70
8
 71
3
 72
8
 73
4
 74
0
 40
0
 40
0
 40
0
 40
0
 40
1
 40
1
 40
1
 40
1
 10
90.656888
 20
115.587984
 30
0.0
 10
91.012527
 20
116.128762
 30
0.0
 10
91.446124
 20
116.530679
 30
0.0
 10
91.957666
 20
116.791318
 30
0.0
  0
SPLINE
  5
2aa
100
AcDbEntity
  8
design
 62
1
100
AcDbSpline
 70
8
 71
3
 72
8
 73
4
 74
0
 40
0
 40
0
 40
0
 40
0
 40
1
 40
1
 40
1
 40
1
 10
91.957666
 20
116.791318
 30
0.0
 10
92.471638
 20
117.054401
 30
0.0
 10
93.009971
 20
117.183498
 30
0.0
 10
93.570235
 20
117.183498
 30
0.0
  0
SPLINE
  5
2ab
100
AcDbEntity
  8
design
 62
1
100
AcDbSpline
 70
8
 71
3
 72
8
 73
4
 74
0
 40
0
 40
0
 40
0
 40
0
 40
1
 40
1
 40
1
 40
1
 10
93.570235
 20
117.183498
 30
0.0
 10
94.554332
 20
117.183498
 30
0.0
 10
95.387416
 20
116.820554
 30
0.0
 10
96.076777
 20
116.094651
 30
0.0
  0
SPLINE
  5
2ac
100
AcDbEntity
  8
design
 62
1
100
AcDbSpline
 70
8
 71
3
 72
8
 73
4
 74
0
 40
0
 40
0
 40
0
 40
0
 40
1
 40
1
 40
1
 40
1
 10
96.076777
 20
116.094651
 30
0.0
 10
96.768568
 20
115.376068
 30
0.0
 10
97.114471
 20
114.443109
 30
0.0
 10
97.114471
 20
113.295804
 30
0.0
  0
SPLINE
  5
2ad
100
AcDbEntity
  8
design
 62
1
100
AcDbSpline
 70
8
 71
3
 72
8
 73
4
 74
0
 40
0
 40
0
 40
0
 40
0
 40
1
 40
1
 40
1
 40
1
 10
97.114471
 20
113.295804
 30
0.0
 10
97.114471
 20
112.543109
 30
0.0
 10
96.951263
 20
111.841568
 30
0.0
 10
96.624846
 20
111.193623
 30
0.0
  0
SPLINE
  5
2ae
100
AcDbEntity
  8
design
 62
1
100
AcDbSpline
 70
8
 71
3
 72
8
 73
4
 74
0
 40
0
 40
0
 40
0
 40
0
 40
1
 40
1
 40
1
 40
1
 10
96.624846
 20
111.193623
 30
0.0
 10
96.303318
 20
110.548109
 30
0.0
 10
95.857541
 20
110.053623
 30
0.0
 10
95.289971
 20
109.710151
 30
0.0
  0
SPLINE
  5
2af
100
AcDbEntity
  8
design
 62
1
100
AcDbSpline
 70
8
 71
3
 72
8
 73
4
 74
0
 40
0
 40
0
 40
0
 40
0
 40
1
 40
1
 40
1
 40
1
 10
95.289971
 20
109.710151
 30
0.0
 10
94.722416
 20
109.366693
 30
0.0
 10
94.079332
 20
109.196179
 30
0.0
 10
93.358304
 20
109.196179
 30
0.0
  0
SPLINE
  5
2b0
100
AcDbEntity
  8
design
 62
1
100
AcDbSpline
 70
8
 71
3
 72
8
 73
4
 74
0
 40
0
 40
0
 40
0
 40
0
 40
1
 40
1
 40
1
 40
1
 10
93.358304
 20
109.196179
 30
0.0
 10
92.130610
 20
109.196179
 30
0.0
 10
91.129457
 20
109.644387
 30
0.0
 10
90.354832
 20
110.545665
 30
0.0
  0
SPLINE
  5
2b1
100
AcDbEntity
  8
design
 62
1
100
AcDbSpline
 70
8
 71
3
 72
8
 73
4
 74
0
 40
0
 40
0
 40
0
 40
0
 40
1
 40
1
 40
1
 40
1
 10
90.354832
 20
110.545665
 30
0.0
 10
89.580221
 20
111.451818
 30
0.0
 10
89.192916
 20
112.942596
 30
0.0
 10
89.192916
 20
115.015554
 30
0.0
  0
SPLINE
  5
2b2
100
AcDbEntity
  8
design
 62
1
100
AcDbSpline
 70
8
 71
3
 72
8
 73
4
 74
0
 40
0
 40
0
 40
0
 40
0
 40
1
 40
1
 40
1
 40
1
 10
89.192916
 20
115.015554
 30
0.0
 10
89.192916
 20
117.334526
 30
0.0
 10
89.619193
 20
119.020179
 30
0.0
 10
90.476638
 20
120.074915
 30
0.0
  0
SPLINE
  5
2b3
100
AcDbEntity
  8
design
 62
1
100
AcDbSpline
 70
8
 71
3
 72
8
 73
4
 74
0
 40
0
 40
0
 40
0
 40
0
 40
1
 40
1
 40
1
 40
1
 10
90.476638
 20
120.074915
 30
0.0
 10
91.224457
 20
120.990818
 30
0.0
 10
92.230485
 20
121.448776
 30
0.0
 10
93.497152
 20
121.448776
 30
0.0
  0
SPLINE
  5
2b4
100
AcDbEntity
  8
design
 62
1
100
AcDbSpline
 70
8
 71
3
 72
8
 73
4
 74
0
 40
0
 40
0
 40
0
 40
0
 40
1
 40
1
 40
1
 40
1
 10
93.497152
 20
121.448776
 30
0.0
 10
94.442277
 20
121.448776
 30
0.0
 10
95.214471
 20
121.183262
 30
0.0
 10
95.813693
 20
120.654665
 30
0.0
  0
SPLINE
  5
2b5
100
AcDbEntity
  8
design
 62
1
100
AcDbSpline
 70
8
 71
3
 72
8
 73
4
 74
0
 40
0
 40
0
 40
0
 40
0
 40
1
 40
1
 40
1
 40
1
 10
95.813693
 20
120.654665
 30
0.0
 10
96.420235
 20
120.126068
 30
0.0
 10
96.783179
 20
119.395304
 30
0.0
 10
96.902541
 20
118.462359
 30
0.0
  0
SPLINE
  5
2b6
100
AcDbEntity
  8
design
 62
1
100
AcDbSpline
 70
8
 71
3
 72
8
 73
4
 74
0
 40
0
 40
0
 40
0
 40
0
 40
1
 40
1
 40
1
 40
1
 10
90.885860
 20
113.288498
 30
0.0
 10
90.885860
 20
112.781832
 30
0.0
 10
90.993041
 20
112.294651
 30
0.0
 10
91.204971
 20
111.831832
 30
0.0
  0
SPLINE
  5
2b7
100
AcDbEntity
  8
design
 62
1
100
AcDbSpline
 70
8
 71
3
 72
8
 73
4
 74
0
 40
0
 40
0
 40
0
 40
0
 40
1
 40
1
 40
1
 40
1
 10
91.204971
 20
111.831832
 30
0.0
 10
91.424193
 20
111.366568
 30
0.0
 10
91.726249
 20
111.013359
 30
0.0
 10
92.113554
 20
110.767332
 30
0.0
  0
SPLINE
  5
2b8
100
AcDbEntity
  8
design
 62
1
100
AcDbSpline
 70
8
 71
3
 72
8
 73
4
 74
0
 40
0
 40
0
 40
0
 40
0
 40
1
 40
1
 40
1
 40
1
 10
92.113554
 20
110.767332
 30
0.0
 10
92.500874
 20
110.526179
 30
0.0
 10
92.907666
 20
110.406818
 30
0.0
 10
93.333943
 20
110.406818
 30
0.0
  0
SPLINE
  5
2b9
100
AcDbEntity
  8
design
 62
1
100
AcDbSpline
 70
8
 71
3
 72
8
 73
4
 74
0
 40
0
 40
0
 40
0
 40
0
 40
1
 40
1
 40
1
 40
1
 10
93.333943
 20
110.406818
 30
0.0
 10
93.955096
 20
110.406818
 30
0.0
 10
94.490999
 20
110.657721
 30
0.0
 10
94.939207
 20
111.159512
 30
0.0
  0
SPLINE
  5
2ba
100
AcDbEntity
  8
design
 62
1
100
AcDbSpline
 70
8
 71
3
 72
8
 73
4
 74
0
 40
0
 40
0
 40
0
 40
0
 40
1
 40
1
 40
1
 40
1
 10
94.939207
 20
111.159512
 30
0.0
 10
95.384971
 20
111.661318
 30
0.0
 10
95.609082
 20
112.343359
 30
0.0
 10
95.609082
 20
113.205679
 30
0.0
  0
SPLINE
  5
2bb
100
AcDbEntity
  8
design
 62
1
100
AcDbSpline
 70
8
 71
3
 72
8
 73
4
 74
0
 40
0
 40
0
 40
0
 40
0
 40
1
 40
1
 40
1
 40
1
 10
95.609082
 20
113.205679
 30
0.0
 10
95.609082
 20
114.036318
 30
0.0
 10
95.387416
 20
114.686707
 30
0.0
 10
94.946513
 20
115.161707
 30
0.0
  0
SPLINE
  5
2bc
100
AcDbEntity
  8
design
 62
1
100
AcDbSpline
 70
8
 71
3
 72
8
 73
4
 74
0
 40
0
 40
0
 40
0
 40
0
 40
1
 40
1
 40
1
 40
1
 10
94.946513
 20
115.161707
 30
0.0
 10
94.503179
 20
115.644012
 30
0.0
 10
93.947791
 20
115.882734
 30
0.0
 10
93.275485
 20
115.882734
 30
0.0
  0
SPLINE
  5
2bd
100
AcDbEntity
  8
design
 62
1
100
AcDbSpline
 70
8
 71
3
 72
8
 73
4
 74
0
 40
0
 40
0
 40
0
 40
0
 40
1
 40
1
 40
1
 40
1
 10
93.275485
 20
115.882734
 30
0.0
 10
92.610485
 20
115.882734
 30
0.0
 10
92.045360
 20
115.644012
 30
0.0
 10
91.582527
 20
115.161707
 30
0.0
  0
SPLINE
  5
2be
100
AcDbEntity
  8
design
 62
1
100
AcDbSpline
 70
8
 71
3
 72
8
 73
4
 74
0
 40
0
 40
0
 40
0
 40
0
 40
1
 40
1
 40
1
 40
1
 10
91.582527
 20
115.161707
 30
0.0
 10
91.117277
 20
114.686707
 30
0.0
 10
90.885860
 20
114.063109
 30
0.0
 10
90.885860
 20
113.288498
 30
0.0
  0
LWPOLYLINE
  5
2bf
100
AcDbEntity
  8
design
 62
1
100
AcDbPolyline
 90
2
 70
0
 10
96.902541
 20
118.462359
 30
0.0
 10
95.438568
 20
118.347859
 30
0.0
  0
SPLINE
  5
2c0
100
AcDbEntity
  8
design
 62
1
100
AcDbSpline
 70
8
 71
3
 72
8
 73
4
 74
0
 40
0
 40
0
 40
0
 40
0
 40
1
 40
1
 40
1
 40
1
 10
12.676556
 20
114.984123
 30
0.0
 10
12.676556
 20
115.675915
 30
0.0
 10
12.705778
 20
116.367721
 30
0.0
 10
12.761806
 20
117.059512
 30
0.0
  0
SPLINE
  5
2c1
100
AcDbEntity
  8
design
 62
1
100
AcDbSpline
 70
8
 71
3
 72
8
 73
4
 74
0
 40
0
 40
0
 40
0
 40
0
 40
1
 40
1
 40
1
 40
1
 10
12.761806
 20
117.059512
 30
0.0
 10
12.822708
 20
117.778109
 30
0.0
 10
12.912833
 20
118.491818
 30
0.0
 10
13.037069
 20
119.203109
 30
0.0
  0
SPLINE
  5
2c2
100
AcDbEntity
  8
design
 62
1
100
AcDbSpline
 70
8
 71
3
 72
8
 73
4
 74
0
 40
0
 40
0
 40
0
 40
0
 40
1
 40
1
 40
1
 40
1
 10
13.037069
 20
119.203109
 30
0.0
 10
13.207583
 20
120.201832
 30
0.0
 10
13.443861
 20
121.188373
 30
0.0
 10
13.738611
 20
122.155415
 30
0.0
  0
SPLINE
  5
2c3
100
AcDbEntity
  8
design
 62
1
100
AcDbSpline
 70
8
 71
3
 72
8
 73
4
 74
0
 40
0
 40
0
 40
0
 40
0
 40
1
 40
1
 40
1
 40
1
 10
13.738611
 20
122.155415
 30
0.0
 10
14.191681
 20
123.643762
 30
0.0
 10
14.786042
 20
125.083373
 30
0.0
 10
15.511944
 20
126.459665
 30
0.0
  0
SPLINE
  5
2c4
100
AcDbEntity
  8
design
 62
1
100
AcDbSpline
 70
8
 71
3
 72
8
 73
4
 74
0
 40
0
 40
0
 40
0
 40
0
 40
1
 40
1
 40
1
 40
1
 10
15.511944
 20
126.459665
 30
0.0
 10
15.619125
 20
126.664276
 30
0.0
 10
15.731181
 20
126.866457
 30
0.0
 10
15.845667
 20
127.068637
 30
0.0
  0
LWPOLYLINE
  5
2c5
100
AcDbEntity
  8
design
 62
1
100
AcDbPolyline
 90
3
 70
0
 10
9.999500
 20
114.984123
 30
0.0
 10
12.676556
 20
114.984123
 30
0.0
 10
12.676556
 20
114.984123
 30
0.0
  0
SPLINE
  5
2c6
100
AcDbEntity
  8
design
 62
1
100
AcDbSpline
 70
8
 71
3
 72
8
 73
4
 74
0
 40
0
 40
0
 40
0
 40
0
 40
1
 40
1
 40
1
 40
1
 10
14.686181
 20
127.736068
 30
0.0
 10
14.766556
 20
127.879790
 30
0.0
 10
14.846944
 20
128.018637
 30
0.0
 10
14.929764
 20
128.159915
 30
0.0
  0
LWPOLYLINE
  5
2c7
100
AcDbEntity
  8
design
 62
1
100
AcDbPolyline
 90
2
 70
0
 10
15.845667
 20
127.068637
 30
0.0
 10
14.686181
 20
127.736068
 30
0.0
  0
SPLINE
  5
2c8
100
AcDbEntity
  8
design
 62
1
100
AcDbSpline
 70
8
 71
3
 72
8
 73
4
 74
0
 40
0
 40
0
 40
0
 40
0
 40
1
 40
1
 40
1
 40
1
 10
16.089250
 20
127.490054
 30
0.0
 10
16.522847
 20
128.223248
 30
0.0
 10
16.995403
 20
128.932096
 30
0.0
 10
17.502083
 20
129.616596
 30
0.0
  0
SPLINE
  5
2c9
100
AcDbEntity
  8
design
 62
1
100
AcDbSpline
 70
8
 71
3
 72
8
 73
4
 74
0
 40
0
 40
0
 40
0
 40
0
 40
1
 40
1
 40
1
 40
1
 10
17.502083
 20
129.616596
 30
0.0
 10
18.383875
 20
130.805318
 30
0.0
 10
19.370417
 20
131.911207
 30
0.0
 10
20.449514
 20
132.924540
 30
0.0
  0
SPLINE
  5
2ca
100
AcDbEntity
  8
design
 62
1
100
AcDbSpline
 70
8
 71
3
 72
8
 73
4
 74
0
 40
0
 40
0
 40
0
 40
0
 40
1
 40
1
 40
1
 40
1
 10
20.449514
 20
132.924540
 30
0.0
 10
21.589528
 20
133.991471
 30
0.0
 10
22.826958
 20
134.951221
 30
0.0
 10
24.147222
 20
135.784290
 30
0.0
  0
SPLINE
  5
2cb
100
AcDbEntity
  8
design
 62
1
100
AcDbSpline
 70
8
 71
3
 72
8
 73
4
 74
0
 40
0
 40
0
 40
0
 40
0
 40
1
 40
1
 40
1
 40
1
 10
24.147222
 20
135.784290
 30
0.0
 10
25.187347
 20
136.441984
 30
0.0
 10
26.276194
 20
137.019304
 30
0.0
 10
27.404028
 20
137.513790
 30
0.0
  0
SPLINE
  5
2cc
100
AcDbEntity
  8
design
 62
1
100
AcDbSpline
 70
8
 71
3
 72
8
 73
4
 74
0
 40
0
 40
0
 40
0
 40
0
 40
1
 40
1
 40
1
 40
1
 10
27.404028
 20
137.513790
 30
0.0
 10
29.165181
 20
138.285971
 30
0.0
 10
31.011597
 20
138.848665
 30
0.0
 10
32.906722
 20
139.187248
 30
0.0
  0
SPLINE
  5
2cd
100
AcDbEntity
  8
design
 62
1
100
AcDbSpline
 70
8
 71
3
 72
8
 73
4
 74
0
 40
0
 40
0
 40
0
 40
0
 40
1
 40
1
 40
1
 40
1
 10
32.906722
 20
139.187248
 30
0.0
 10
33.639931
 20
139.316359
 30
0.0
 10
34.378014
 20
139.413790
 30
0.0
 10
35.118528
 20
139.479568
 30
0.0
  0
SPLINE
  5
2ce
100
AcDbEntity
  8
design
 62
1
100
AcDbSpline
 70
8
 71
3
 72
8
 73
4
 74
0
 40
0
 40
0
 40
0
 40
0
 40
1
 40
1
 40
1
 40
1
 10
35.118528
 20
139.479568
 30
0.0
 10
35.746986
 20
139.533151
 30
0.0
 10
36.375458
 20
139.562387
 30
0.0
 10
37.003917
 20
139.569693
 30
0.0
  0
LWPOLYLINE
  5
2cf
100
AcDbEntity
  8
design
 62
1
100
AcDbPolyline
 90
2
 70
0
 10
14.929764
 20
128.159915
 30
0.0
 10
16.089250
 20
127.490054
 30
0.0
  0
SPLINE
  5
2d0
100
AcDbEntity
  8
design
 62
1
100
AcDbSpline
 70
8
 71
3
 72
8
 73
4
 74
0
 40
0
 40
0
 40
0
 40
0
 40
1
 40
1
 40
1
 40
1
 10
37.018528
 20
140.909443
 30
0.0
 10
37.181736
 20
140.909443
 30
0.0
 10
37.344944
 20
140.909443
 30
0.0
 10
37.505708
 20
140.909443
 30
0.0
  0
LWPOLYLINE
  5
2d1
100
AcDbEntity
  8
design
 62
1
100
AcDbPolyline
 90
3
 70
0
 10
37.003917
 20
139.569693
 30
0.0
 10
37.018528
 20
139.569693
 30
0.0
 10
37.018528
 20
140.909443
 30
0.0
  0
SPLINE
  5
2d2
100
AcDbEntity
  8
design
 62
1
100
AcDbSpline
 70
8
 71
3
 72
8
 73
4
 74
0
 40
0
 40
0
 40
0
 40
0
 40
1
 40
1
 40
1
 40
1
 10
37.505708
 20
139.569693
 30
0.0
 10
38.187764
 20
139.562387
 30
0.0
 10
38.867375
 20
139.528276
 30
0.0
 10
39.547000
 20
139.467387
 30
0.0
  0
SPLINE
  5
2d3
100
AcDbEntity
  8
design
 62
1
100
AcDbSpline
 70
8
 71
3
 72
8
 73
4
 74
0
 40
0
 40
0
 40
0
 40
0
 40
1
 40
1
 40
1
 40
1
 10
39.547000
 20
139.467387
 30
0.0
 10
40.482389
 20
139.379693
 30
0.0
 10
41.410458
 20
139.240846
 30
0.0
 10
42.328792
 20
139.048401
 30
0.0
  0
SPLINE
  5
2d4
100
AcDbEntity
  8
design
 62
1
100
AcDbSpline
 70
8
 71
3
 72
8
 73
4
 74
0
 40
0
 40
0
 40
0
 40
0
 40
1
 40
1
 40
1
 40
1
 10
42.328792
 20
139.048401
 30
0.0
 10
44.382264
 20
138.619693
 30
0.0
 10
46.372403
 20
137.925457
 30
0.0
 10
48.248042
 20
136.985193
 30
0.0
  0
SPLINE
  5
2d5
100
AcDbEntity
  8
design
 62
1
100
AcDbSpline
 70
8
 71
3
 72
8
 73
4
 74
0
 40
0
 40
0
 40
0
 40
0
 40
1
 40
1
 40
1
 40
1
 10
48.248042
 20
136.985193
 30
0.0
 10
49.283306
 20
136.468790
 30
0.0
 10
50.282028
 20
135.876859
 30
0.0
 10
51.234458
 20
135.219165
 30
0.0
  0
SPLINE
  5
2d6
100
AcDbEntity
  8
design
 62
1
100
AcDbSpline
 70
8
 71
3
 72
8
 73
4
 74
0
 40
0
 40
0
 40
0
 40
0
 40
1
 40
1
 40
1
 40
1
 10
51.234458
 20
135.219165
 30
0.0
 10
52.298944
 20
134.481096
 30
0.0
 10
53.304972
 20
133.662623
 30
0.0
 10
54.240361
 20
132.768651
 30
0.0
  0
SPLINE
  5
2d7
100
AcDbEntity
  8
design
 62
1
100
AcDbSpline
 70
8
 71
3
 72
8
 73
4
 74
0
 40
0
 40
0
 40
0
 40
0
 40
1
 40
1
 40
1
 40
1
 10
54.240361
 20
132.768651
 30
0.0
 10
55.558181
 20
131.511721
 30
0.0
 10
56.729861
 20
130.111082
 30
0.0
 10
57.740750
 20
128.595943
 30
0.0
  0
SPLINE
  5
2d8
100
AcDbEntity
  8
design
 62
1
100
AcDbSpline
 70
8
 71
3
 72
8
 73
4
 74
0
 40
0
 40
0
 40
0
 40
0
 40
1
 40
1
 40
1
 40
1
 10
57.740750
 20
128.595943
 30
0.0
 10
57.981903
 20
128.235429
 30
0.0
 10
58.213319
 20
127.865179
 30
0.0
 10
58.434986
 20
127.490054
 30
0.0
  0
LWPOLYLINE
  5
2d9
100
AcDbEntity
  8
design
 62
1
100
AcDbPolyline
 90
2
 70
0
 10
37.505708
 20
140.909443
 30
0.0
 10
37.505708
 20
139.569693
 30
0.0
  0
SPLINE
  5
2da
100
AcDbEntity
  8
design
 62
1
100
AcDbSpline
 70
8
 71
3
 72
8
 73
4
 74
0
 40
0
 40
0
 40
0
 40
0
 40
1
 40
1
 40
1
 40
1
 10
59.594472
 20
128.159915
 30
0.0
 10
59.677292
 20
128.018637
 30
0.0
 10
59.760125
 20
127.879790
 30
0.0
 10
59.840500
 20
127.736068
 30
0.0
  0
LWPOLYLINE
  5
2db
100
AcDbEntity
  8
design
 62
1
100
AcDbPolyline
 90
2
 70
0
 10
58.434986
 20
127.490054
 30
0.0
 10
59.594472
 20
128.159915
 30
0.0
  0
SPLINE
  5
2dc
100
AcDbEntity
  8
design
 62
1
100
AcDbSpline
 70
8
 71
3
 72
8
 73
4
 74
0
 40
0
 40
0
 40
0
 40
0
 40
1
 40
1
 40
1
 40
1
 10
58.681014
 20
127.068637
 30
0.0
 10
58.990375
 20
126.518123
 30
0.0
 10
59.280250
 20
125.957859
 30
0.0
 10
59.548194
 20
125.387859
 30
0.0
  0
SPLINE
  5
2dd
100
AcDbEntity
  8
design
 62
1
100
AcDbSpline
 70
8
 71
3
 72
8
 73
4
 74
0
 40
0
 40
0
 40
0
 40
0
 40
1
 40
1
 40
1
 40
1
 10
59.548194
 20
125.387859
 30
0.0
 10
60.098708
 20
124.206457
 30
0.0
 10
60.556653
 20
122.986068
 30
0.0
 10
60.912306
 20
121.731568
 30
0.0
  0
SPLINE
  5
2de
100
AcDbEntity
  8
design
 62
1
100
AcDbSpline
 70
8
 71
3
 72
8
 73
4
 74
0
 40
0
 40
0
 40
0
 40
0
 40
1
 40
1
 40
1
 40
1
 10
60.912306
 20
121.731568
 30
0.0
 10
61.248458
 20
120.552596
 30
0.0
 10
61.494486
 20
119.346818
 30
0.0
 10
61.650375
 20
118.128873
 30
0.0
  0
SPLINE
  5
2df
100
AcDbEntity
  8
design
 62
1
100
AcDbSpline
 70
8
 71
3
 72
8
 73
4
 74
0
 40
0
 40
0
 40
0
 40
0
 40
1
 40
1
 40
1
 40
1
 10
61.650375
 20
118.128873
 30
0.0
 10
61.750250
 20
117.354262
 30
0.0
 10
61.811153
 20
116.577207
 30
0.0
 10
61.835514
 20
115.797721
 30
0.0
  0
SPLINE
  5
2e0
100
AcDbEntity
  8
design
 62
1
100
AcDbSpline
 70
8
 71
3
 72
8
 73
4
 74
0
 40
0
 40
0
 40
0
 40
0
 40
1
 40
1
 40
1
 40
1
 10
61.835514
 20
115.797721
 30
0.0
 10
61.845250
 20
115.524887
 30
0.0
 10
61.850125
 20
115.254512
 30
0.0
 10
61.850125
 20
114.984123
 30
0.0
  0
LWPOLYLINE
  5
2e1
100
AcDbEntity
  8
design
 62
1
100
AcDbPolyline
 90
2
 70
0
 10
59.840500
 20
127.736068
 30
0.0
 10
58.681014
 20
127.068637
 30
0.0
  0
SPLINE
  5
2e2
100
AcDbEntity
  8
design
 62
1
100
AcDbSpline
 70
8
 71
3
 72
8
 73
4
 74
0
 40
0
 40
0
 40
0
 40
0
 40
1
 40
1
 40
1
 40
1
 10
64.527181
 20
114.984123
 30
0.0
 10
64.527181
 20
119.863234
 30
0.0
 10
63.245889
 20
124.442734
 30
0.0
 10
61.000000
 20
128.405943
 30
0.0
  0
SPLINE
  5
2e3
100
AcDbEntity
  8
design
 62
1
100
AcDbSpline
 70
8
 71
3
 72
8
 73
4
 74
0
 40
0
 40
0
 40
0
 40
0
 40
1
 40
1
 40
1
 40
1
 10
61.000000
 20
128.405943
 30
0.0
 10
60.919611
 20
128.547234
 30
0.0
 10
60.836792
 20
128.688512
 30
0.0
 10
60.753972
 20
128.829790
 30
0.0
  0
SPLINE
  5
2e4
100
AcDbEntity
  8
design
 62
1
100
AcDbSpline
 70
8
 71
3
 72
8
 73
4
 74
0
 40
0
 40
0
 40
0
 40
0
 40
1
 40
1
 40
1
 40
1
 10
60.753972
 20
128.829790
 30
0.0
 10
56.050236
 20
136.795193
 30
0.0
 10
47.407653
 20
142.159054
 30
0.0
 10
37.505708
 20
142.246748
 30
0.0
  0
SPLINE
  5
2e5
100
AcDbEntity
  8
design
 62
1
100
AcDbSpline
 70
8
 71
3
 72
8
 73
4
 74
0
 40
0
 40
0
 40
0
 40
0
 40
1
 40
1
 40
1
 40
1
 10
37.505708
 20
142.246748
 30
0.0
 10
37.425319
 20
142.246748
 30
0.0
 10
37.344944
 20
142.246748
 30
0.0
 10
37.262125
 20
142.246748
 30
0.0
  0
SPLINE
  5
2e6
100
AcDbEntity
  8
design
 62
1
100
AcDbSpline
 70
8
 71
3
 72
8
 73
4
 74
0
 40
0
 40
0
 40
0
 40
0
 40
1
 40
1
 40
1
 40
1
 10
37.262125
 20
142.246748
 30
0.0
 10
37.186611
 20
142.246748
 30
0.0
 10
37.111097
 20
142.246748
 30
0.0
 10
37.018528
 20
142.246748
 30
0.0
  0
SPLINE
  5
2e7
100
AcDbEntity
  8
design
 62
1
100
AcDbSpline
 70
8
 71
3
 72
8
 73
4
 74
0
 40
0
 40
0
 40
0
 40
0
 40
1
 40
1
 40
1
 40
1
 10
37.018528
 20
142.246748
 30
0.0
 10
27.116583
 20
142.159054
 30
0.0
 10
18.476444
 20
136.795193
 30
0.0
 10
13.770278
 20
128.829790
 30
0.0
  0
SPLINE
  5
2e8
100
AcDbEntity
  8
design
 62
1
100
AcDbSpline
 70
8
 71
3
 72
8
 73
4
 74
0
 40
0
 40
0
 40
0
 40
0
 40
1
 40
1
 40
1
 40
1
 10
13.770278
 20
128.829790
 30
0.0
 10
13.687458
 20
128.688512
 30
0.0
 10
13.607069
 20
128.547234
 30
0.0
 10
13.526681
 20
128.405943
 30
0.0
  0
SPLINE
  5
2e9
100
AcDbEntity
  8
design
 62
1
100
AcDbSpline
 70
8
 71
3
 72
8
 73
4
 74
0
 40
0
 40
0
 40
0
 40
0
 40
1
 40
1
 40
1
 40
1
 10
13.526681
 20
128.405943
 30
0.0
 10
11.280778
 20
124.445165
 30
0.0
 10
9.999500
 20
119.863234
 30
0.0
 10
9.999500
 20
114.984123
 30
0.0
  0
LWPOLYLINE
  5
2ea
100
AcDbEntity
  8
design
 62
1
100
AcDbPolyline
 90
2
 70
0
 10
61.850125
 20
114.984123
 30
0.0
 10
64.527181
 20
114.984123
 30
0.0
  0
SPLINE
  5
2eb
100
AcDbEntity
  8
design
 62
1
100
AcDbSpline
 70
8
 71
3
 72
8
 73
4
 74
0
 40
0
 40
0
 40
0
 40
0
 40
1
 40
1
 40
1
 40
1
 10
12.676556
 20
111.722443
 30
0.0
 10
12.676556
 20
111.030651
 30
0.0
 10
12.705778
 20
110.338859
 30
0.0
 10
12.761806
 20
109.649498
 30
0.0
  0
SPLINE
  5
2ec
100
AcDbEntity
  8
design
 62
1
100
AcDbSpline
 70
8
 71
3
 72
8
 73
4
 74
0
 40
0
 40
0
 40
0
 40
0
 40
1
 40
1
 40
1
 40
1
 10
12.761806
 20
109.649498
 30
0.0
 10
12.822708
 20
108.930901
 30
0.0
 10
12.912833
 20
108.214748
 30
0.0
 10
13.037069
 20
107.503471
 30
0.0
  0
SPLINE
  5
2ed
100
AcDbEntity
  8
design
 62
1
100
AcDbSpline
 70
8
 71
3
 72
8
 73
4
 74
0
 40
0
 40
0
 40
0
 40
0
 40
1
 40
1
 40
1
 40
1
 10
13.037069
 20
107.503471
 30
0.0
 10
13.207583
 20
106.507179
 30
0.0
 10
13.443861
 20
105.520637
 30
0.0
 10
13.738611
 20
104.551151
 30
0.0
  0
SPLINE
  5
2ee
100
AcDbEntity
  8
design
 62
1
100
AcDbSpline
 70
8
 71
3
 72
8
 73
4
 74
0
 40
0
 40
0
 40
0
 40
0
 40
1
 40
1
 40
1
 40
1
 10
13.738611
 20
104.551151
 30
0.0
 10
14.191681
 20
103.062818
 30
0.0
 10
14.786042
 20
101.623193
 30
0.0
 10
15.511944
 20
100.249346
 30
0.0
  0
SPLINE
  5
2ef
100
AcDbEntity
  8
design
 62
1
100
AcDbSpline
 70
8
 71
3
 72
8
 73
4
 74
0
 40
0
 40
0
 40
0
 40
0
 40
1
 40
1
 40
1
 40
1
 10
15.511944
 20
100.249346
 30
0.0
 10
15.619125
 20
100.044734
 30
0.0
 10
15.731181
 20
99.840109
 30
0.0
 10
15.845667
 20
99.640373
 30
0.0
  0
LWPOLYLINE
  5
2f0
100
AcDbEntity
  8
design
 62
1
100
AcDbPolyline
 90
3
 70
0
 10
9.999500
 20
111.722443
 30
0.0
 10
12.676556
 20
111.722443
 30
0.0
 10
12.676556
 20
111.722443
 30
0.0
  0
SPLINE
  5
2f1
100
AcDbEntity
  8
design
 62
1
100
AcDbSpline
 70
8
 71
3
 72
8
 73
4
 74
0
 40
0
 40
0
 40
0
 40
0
 40
1
 40
1
 40
1
 40
1
 10
14.686181
 20
98.970498
 30
0.0
 10
14.766556
 20
98.829221
 30
0.0
 10
14.846944
 20
98.687929
 30
0.0
 10
14.929764
 20
98.546651
 30
0.0
  0
LWPOLYLINE
  5
2f2
100
AcDbEntity
  8
design
 62
1
100
AcDbPolyline
 90
2
 70
0
 10
15.845667
 20
99.640373
 30
0.0
 10
14.686181
 20
98.970498
 30
0.0
  0
SPLINE
  5
2f3
100
AcDbEntity
  8
design
 62
1
100
AcDbSpline
 70
8
 71
3
 72
8
 73
4
 74
0
 40
0
 40
0
 40
0
 40
0
 40
1
 40
1
 40
1
 40
1
 10
16.089250
 20
99.216526
 30
0.0
 10
16.522847
 20
98.483318
 30
0.0
 10
16.995403
 20
97.774471
 30
0.0
 10
17.502083
 20
97.089984
 30
0.0
  0
SPLINE
  5
2f4
100
AcDbEntity
  8
design
 62
1
100
AcDbSpline
 70
8
 71
3
 72
8
 73
4
 74
0
 40
0
 40
0
 40
0
 40
0
 40
1
 40
1
 40
1
 40
1
 10
17.502083
 20
97.089984
 30
0.0
 10
18.383875
 20
95.901262
 30
0.0
 10
19.370417
 20
94.795359
 30
0.0
 10
20.449514
 20
93.784457
 30
0.0
  0
SPLINE
  5
2f5
100
AcDbEntity
  8
design
 62
1
100
AcDbSpline
 70
8
 71
3
 72
8
 73
4
 74
0
 40
0
 40
0
 40
0
 40
0
 40
1
 40
1
 40
1
 40
1
 10
20.449514
 20
93.784457
 30
0.0
 10
21.589528
 20
92.715096
 30
0.0
 10
22.826958
 20
91.757790
 30
0.0
 10
24.147222
 20
90.922276
 30
0.0
  0
SPLINE
  5
2f6
100
AcDbEntity
  8
design
 62
1
100
AcDbSpline
 70
8
 71
3
 72
8
 73
4
 74
0
 40
0
 40
0
 40
0
 40
0
 40
1
 40
1
 40
1
 40
1
 10
24.147222
 20
90.922276
 30
0.0
 10
25.187347
 20
90.264582
 30
0.0
 10
26.276194
 20
89.687276
 30
0.0
 10
27.404028
 20
89.192790
 30
0.0
  0
SPLINE
  5
2f7
100
AcDbEntity
  8
design
 62
1
100
AcDbSpline
 70
8
 71
3
 72
8
 73
4
 74
0
 40
0
 40
0
 40
0
 40
0
 40
1
 40
1
 40
1
 40
1
 10
27.404028
 20
89.192790
 30
0.0
 10
29.165181
 20
88.420609
 30
0.0
 10
31.011597
 20
87.860346
 30
0.0
 10
32.906722
 20
87.521748
 30
0.0
  0
SPLINE
  5
2f8
100
AcDbEntity
  8
design
 62
1
100
AcDbSpline
 70
8
 71
3
 72
8
 73
4
 74
0
 40
0
 40
0
 40
0
 40
0
 40
1
 40
1
 40
1
 40
1
 10
32.906722
 20
87.521748
 30
0.0
 10
33.639931
 20
87.390221
 30
0.0
 10
34.378014
 20
87.292776
 30
0.0
 10
35.118528
 20
87.229443
 30
0.0
  0
SPLINE
  5
2f9
100
AcDbEntity
  8
design
 62
1
100
AcDbSpline
 70
8
 71
3
 72
8
 73
4
 74
0
 40
0
 40
0
 40
0
 40
0
 40
1
 40
1
 40
1
 40
1
 10
35.118528
 20
87.229443
 30
0.0
 10
35.746986
 20
87.175859
 30
0.0
 10
36.375458
 20
87.144193
 30
0.0
 10
37.003917
 20
87.136887
 30
0.0
  0
LWPOLYLINE
  5
2fa
100
AcDbEntity
  8
design
 62
1
100
AcDbPolyline
 90
2
 70
0
 10
14.929764
 20
98.546651
 30
0.0
 10
16.089250
 20
99.216526
 30
0.0
  0
SPLINE
  5
2fb
100
AcDbEntity
  8
design
 62
1
100
AcDbSpline
 70
8
 71
3
 72
8
 73
4
 74
0
 40
0
 40
0
 40
0
 40
0
 40
1
 40
1
 40
1
 40
1
 10
37.018528
 20
85.799568
 30
0.0
 10
37.181736
 20
85.797137
 30
0.0
 10
37.344944
 20
85.797137
 30
0.0
 10
37.505708
 20
85.799568
 30
0.0
  0
LWPOLYLINE
  5
2fc
100
AcDbEntity
  8
design
 62
1
100
AcDbPolyline
 90
3
 70
0
 10
37.003917
 20
87.136887
 30
0.0
 10
37.018528
 20
87.136887
 30
0.0
 10
37.018528
 20
85.799568
 30
0.0
  0
SPLINE
  5
2fd
100
AcDbEntity
  8
design
 62
1
100
AcDbSpline
 70
8
 71
3
 72
8
 73
4
 74
0
 40
0
 40
0
 40
0
 40
0
 40
1
 40
1
 40
1
 40
1
 10
37.505708
 20
87.136887
 30
0.0
 10
38.187764
 20
87.144193
 30
0.0
 10
38.867375
 20
87.178290
 30
0.0
 10
39.547000
 20
87.241623
 30
0.0
  0
SPLINE
  5
2fe
100
AcDbEntity
  8
design
 62
1
100
AcDbSpline
 70
8
 71
3
 72
8
 73
4
 74
0
 40
0
 40
0
 40
0
 40
0
 40
1
 40
1
 40
1
 40
1
 10
39.547000
 20
87.241623
 30
0.0
 10
40.482389
 20
87.326887
 30
0.0
 10
41.410458
 20
87.465734
 30
0.0
 10
42.328792
 20
87.658165
 30
0.0
  0
SPLINE
  5
2ff
100
AcDbEntity
  8
design
 62
1
100
AcDbSpline
 70
8
 71
3
 72
8
 73
4
 74
0
 40
0
 40
0
 40
0
 40
0
 40
1
 40
1
 40
1
 40
1
 10
42.328792
 20
87.658165
 30
0.0
 10
44.382264
 20
88.089318
 30
0.0
 10
46.372403
 20
88.781123
 30
0.0
 10
48.248042
 20
89.721373
 30
0.0
  0
SPLINE
  5
300
100
AcDbEntity
  8
design
 62
1
100
AcDbSpline
 70
8
 71
3
 72
8
 73
4
 74
0
 40
0
 40
0
 40
0
 40
0
 40
1
 40
1
 40
1
 40
1
 10
48.248042
 20
89.721373
 30
0.0
 10
49.283306
 20
90.240221
 30
0.0
 10
50.282028
 20
90.829707
 30
0.0
 10
51.234458
 20
91.489846
 30
0.0
  0
SPLINE
  5
301
100
AcDbEntity
  8
design
 62
1
100
AcDbSpline
 70
8
 71
3
 72
8
 73
4
 74
0
 40
0
 40
0
 40
0
 40
0
 40
1
 40
1
 40
1
 40
1
 10
51.234458
 20
91.489846
 30
0.0
 10
52.298944
 20
92.225484
 30
0.0
 10
53.304972
 20
93.043943
 30
0.0
 10
54.240361
 20
93.940359
 30
0.0
  0
SPLINE
  5
302
100
AcDbEntity
  8
design
 62
1
100
AcDbSpline
 70
8
 71
3
 72
8
 73
4
 74
0
 40
0
 40
0
 40
0
 40
0
 40
1
 40
1
 40
1
 40
1
 10
54.240361
 20
93.940359
 30
0.0
 10
55.558181
 20
95.197290
 30
0.0
 10
56.729861
 20
96.595498
 30
0.0
 10
57.740750
 20
98.110623
 30
0.0
  0
SPLINE
  5
303
100
AcDbEntity
  8
design
 62
1
100
AcDbSpline
 70
8
 71
3
 72
8
 73
4
 74
0
 40
0
 40
0
 40
0
 40
0
 40
1
 40
1
 40
1
 40
1
 10
57.740750
 20
98.110623
 30
0.0
 10
57.981903
 20
98.473568
 30
0.0
 10
58.213319
 20
98.841401
 30
0.0
 10
58.434986
 20
99.216526
 30
0.0
  0
LWPOLYLINE
  5
304
100
AcDbEntity
  8
design
 62
1
100
AcDbPolyline
 90
2
 70
0
 10
37.505708
 20
85.799568
 30
0.0
 10
37.505708
 20
87.136887
 30
0.0
  0
SPLINE
  5
305
100
AcDbEntity
  8
design
 62
1
100
AcDbSpline
 70
8
 71
3
 72
8
 73
4
 74
0
 40
0
 40
0
 40
0
 40
0
 40
1
 40
1
 40
1
 40
1
 10
59.594472
 20
98.546651
 30
0.0
 10
59.677292
 20
98.687929
 30
0.0
 10
59.760125
 20
98.829221
 30
0.0
 10
59.840500
 20
98.970498
 30
0.0
  0
LWPOLYLINE
  5
306
100
AcDbEntity
  8
design
 62
1
100
AcDbPolyline
 90
2
 70
0
 10
58.434986
 20
99.216526
 30
0.0
 10
59.594472
 20
98.546651
 30
0.0
  0
SPLINE
  5
307
100
AcDbEntity
  8
design
 62
1
100
AcDbSpline
 70
8
 71
3
 72
8
 73
4
 74
0
 40
0
 40
0
 40
0
 40
0
 40
1
 40
1
 40
1
 40
1
 10
58.681014
 20
99.640373
 30
0.0
 10
58.990375
 20
100.188443
 30
0.0
 10
59.280250
 20
100.748707
 30
0.0
 10
59.548194
 20
101.321137
 30
0.0
  0
SPLINE
  5
308
100
AcDbEntity
  8
design
 62
1
100
AcDbSpline
 70
8
 71
3
 72
8
 73
4
 74
0
 40
0
 40
0
 40
0
 40
0
 40
1
 40
1
 40
1
 40
1
 10
59.548194
 20
101.321137
 30
0.0
 10
60.098708
 20
102.500123
 30
0.0
 10
60.556653
 20
103.722943
 30
0.0
 10
60.912306
 20
104.974998
 30
0.0
  0
SPLINE
  5
309
100
AcDbEntity
  8
design
 62
1
100
AcDbSpline
 70
8
 71
3
 72
8
 73
4
 74
0
 40
0
 40
0
 40
0
 40
0
 40
1
 40
1
 40
1
 40
1
 10
60.912306
 20
104.974998
 30
0.0
 10
61.248458
 20
106.156415
 30
0.0
 10
61.494486
 20
107.359748
 30
0.0
 10
61.650375
 20
108.577693
 30
0.0
  0
SPLINE
  5
30a
100
AcDbEntity
  8
design
 62
1
100
AcDbSpline
 70
8
 71
3
 72
8
 73
4
 74
0
 40
0
 40
0
 40
0
 40
0
 40
1
 40
1
 40
1
 40
1
 10
61.650375
 20
108.577693
 30
0.0
 10
61.750250
 20
109.352318
 30
0.0
 10
61.811153
 20
110.131804
 30
0.0
 10
61.835514
 20
110.911290
 30
0.0
  0
SPLINE
  5
30b
100
AcDbEntity
  8
design
 62
1
100
AcDbSpline
 70
8
 71
3
 72
8
 73
4
 74
0
 40
0
 40
0
 40
0
 40
0
 40
1
 40
1
 40
1
 40
1
 10
61.835514
 20
110.911290
 30
0.0
 10
61.845250
 20
111.181679
 30
0.0
 10
61.850125
 20
111.452068
 30
0.0
 10
61.850125
 20
111.722443
 30
0.0
  0
LWPOLYLINE
  5
30c
100
AcDbEntity
  8
design
 62
1
100
AcDbPolyline
 90
2
 70
0
 10
59.840500
 20
98.970498
 30
0.0
 10
58.681014
 20
99.640373
 30
0.0
  0
SPLINE
  5
30d
100
AcDbEntity
  8
design
 62
1
100
AcDbSpline
 70
8
 71
3
 72
8
 73
4
 74
0
 40
0
 40
0
 40
0
 40
0
 40
1
 40
1
 40
1
 40
1
 10
64.527181
 20
111.722443
 30
0.0
 10
64.527181
 20
106.845776
 30
0.0
 10
63.245889
 20
102.266276
 30
0.0
 10
61.000000
 20
98.300623
 30
0.0
  0
SPLINE
  5
30e
100
AcDbEntity
  8
design
 62
1
100
AcDbSpline
 70
8
 71
3
 72
8
 73
4
 74
0
 40
0
 40
0
 40
0
 40
0
 40
1
 40
1
 40
1
 40
1
 10
61.000000
 20
98.300623
 30
0.0
 10
60.919611
 20
98.159346
 30
0.0
 10
60.836792
 20
98.018054
 30
0.0
 10
60.753972
 20
97.879207
 30
0.0
  0
SPLINE
  5
30f
100
AcDbEntity
  8
design
 62
1
100
AcDbSpline
 70
8
 71
3
 72
8
 73
4
 74
0
 40
0
 40
0
 40
0
 40
0
 40
1
 40
1
 40
1
 40
1
 10
60.753972
 20
97.879207
 30
0.0
 10
56.050236
 20
89.911373
 30
0.0
 10
47.407653
 20
84.547512
 30
0.0
 10
37.505708
 20
84.459832
 30
0.0
  0
SPLINE
  5
310
100
AcDbEntity
  8
design
 62
1
100
AcDbSpline
 70
8
 71
3
 72
8
 73
4
 74
0
 40
0
 40
0
 40
0
 40
0
 40
1
 40
1
 40
1
 40
1
 10
37.505708
 20
84.459832
 30
0.0
 10
37.425319
 20
84.459832
 30
0.0
 10
37.344944
 20
84.459832
 30
0.0
 10
37.262125
 20
84.459832
 30
0.0
  0
SPLINE
  5
311
100
AcDbEntity
  8
design
 62
1
100
AcDbSpline
 70
8
 71
3
 72
8
 73
4
 74
0
 40
0
 40
0
 40
0
 40
0
 40
1
 40
1
 40
1
 40
1
 10
37.262125
 20
84.459832
 30
0.0
 10
37.186611
 20
84.459832
 30
0.0
 10
37.111097
 20
84.459832
 30
0.0
 10
37.018528
 20
84.459832
 30
0.0
  0
SPLINE
  5
312
100
AcDbEntity
  8
design
 62
1
100
AcDbSpline
 70
8
 71
3
 72
8
 73
4
 74
0
 40
0
 40
0
 40
0
 40
0
 40
1
 40
1
 40
1
 40
1
 10
37.018528
 20
84.459832
 30
0.0
 10
27.116583
 20
84.547512
 30
0.0
 10
18.476444
 20
89.911373
 30
0.0
 10
13.770278
 20
97.879207
 30
0.0
  0
SPLINE
  5
313
100
AcDbEntity
  8
design
 62
1
100
AcDbSpline
 70
8
 71
3
 72
8
 73
4
 74
0
 40
0
 40
0
 40
0
 40
0
 40
1
 40
1
 40
1
 40
1
 10
13.770278
 20
97.879207
 30
0.0
 10
13.687458
 20
98.018054
 30
0.0
 10
13.607069
 20
98.159346
 30
0.0
 10
13.526681
 20
98.300623
 30
0.0
  0
SPLINE
  5
314
100
AcDbEntity
  8
design
 62
1
100
AcDbSpline
 70
8
 71
3
 72
8
 73
4
 74
0
 40
0
 40
0
 40
0
 40
0
 40
1
 40
1
 40
1
 40
1
 10
13.526681
 20
98.300623
 30
0.0
 10
11.280778
 20
102.263832
 30
0.0
 10
9.999500
 20
106.843332
 30
0.0
 10
9.999500
 20
111.722443
 30
0.0
  0
LWPOLYLINE
  5
315
100
AcDbEntity
  8
design
 62
1
100
AcDbPolyline
 90
2
 70
0
 10
61.850125
 20
111.722443
 30
0.0
 10
64.527181
 20
111.722443
 30
0.0
  0
SPLINE
  5
316
100
AcDbEntity
  8
design
 62
1
100
AcDbSpline
 70
8
 71
3
 72
8
 73
4
 74
0
 40
0
 40
0
 40
0
 40
0
 40
1
 40
1
 40
1
 40
1
 10
40.117000
 20
118.496693
 30
0.0
 10
40.231486
 20
117.743998
 30
0.0
 10
40.497000
 20
117.176429
 30
0.0
 10
40.911097
 20
116.793998
 30
0.0
  0
SPLINE
  5
317
100
AcDbEntity
  8
design
 62
1
100
AcDbSpline
 70
8
 71
3
 72
8
 73
4
 74
0
 40
0
 40
0
 40
0
 40
0
 40
1
 40
1
 40
1
 40
1
 10
40.911097
 20
116.793998
 30
0.0
 10
41.330083
 20
116.416429
 30
0.0
 10
41.836750
 20
116.228873
 30
0.0
 10
42.426236
 20
116.228873
 30
0.0
  0
SPLINE
  5
318
100
AcDbEntity
  8
design
 62
1
100
AcDbSpline
 70
8
 71
3
 72
8
 73
4
 74
0
 40
0
 40
0
 40
0
 40
0
 40
1
 40
1
 40
1
 40
1
 10
42.426236
 20
116.228873
 30
0.0
 10
43.135083
 20
116.228873
 30
0.0
 10
43.734319
 20
116.496818
 30
0.0
 10
44.226361
 20
117.030276
 30
0.0
  0
SPLINE
  5
319
100
AcDbEntity
  8
design
 62
1
100
AcDbSpline
 70
8
 71
3
 72
8
 73
4
 74
0
 40
0
 40
0
 40
0
 40
0
 40
1
 40
1
 40
1
 40
1
 10
44.226361
 20
117.030276
 30
0.0
 10
44.718417
 20
117.566179
 30
0.0
 10
44.962014
 20
118.275026
 30
0.0
 10
44.962014
 20
119.159262
 30
0.0
  0
SPLINE
  5
31a
100
AcDbEntity
  8
design
 62
1
100
AcDbSpline
 70
8
 71
3
 72
8
 73
4
 74
0
 40
0
 40
0
 40
0
 40
0
 40
1
 40
1
 40
1
 40
1
 10
44.962014
 20
119.159262
 30
0.0
 10
44.962014
 20
119.999651
 30
0.0
 10
44.725722
 20
120.662207
 30
0.0
 10
44.250722
 20
121.149387
 30
0.0
  0
SPLINE
  5
31b
100
AcDbEntity
  8
design
 62
1
100
AcDbSpline
 70
8
 71
3
 72
8
 73
4
 74
0
 40
0
 40
0
 40
0
 40
0
 40
1
 40
1
 40
1
 40
1
 10
44.250722
 20
121.149387
 30
0.0
 10
43.780597
 20
121.634137
 30
0.0
 10
43.164319
 20
121.877734
 30
0.0
 10
42.401875
 20
121.877734
 30
0.0
  0
SPLINE
  5
31c
100
AcDbEntity
  8
design
 62
1
100
AcDbSpline
 70
8
 71
3
 72
8
 73
4
 74
0
 40
0
 40
0
 40
0
 40
0
 40
1
 40
1
 40
1
 40
1
 10
42.401875
 20
121.877734
 30
0.0
 10
41.926875
 20
121.877734
 30
0.0
 10
41.498153
 20
121.768109
 30
0.0
 10
41.115722
 20
121.548887
 30
0.0
  0
SPLINE
  5
31d
100
AcDbEntity
  8
design
 62
1
100
AcDbSpline
 70
8
 71
3
 72
8
 73
4
 74
0
 40
0
 40
0
 40
0
 40
0
 40
1
 40
1
 40
1
 40
1
 10
41.115722
 20
121.548887
 30
0.0
 10
40.733278
 20
121.336957
 30
0.0
 10
40.433667
 20
121.059262
 30
0.0
 10
40.214431
 20
120.713359
 30
0.0
  0
LWPOLYLINE
  5
31e
100
AcDbEntity
  8
design
 62
1
100
AcDbPolyline
 90
2
 70
0
 10
38.570194
 20
118.365151
 30
0.0
 10
40.117000
 20
118.496693
 30
0.0
  0
SPLINE
  5
31f
100
AcDbEntity
  8
design
 62
1
100
AcDbSpline
 70
8
 71
3
 72
8
 73
4
 74
0
 40
0
 40
0
 40
0
 40
0
 40
1
 40
1
 40
1
 40
1
 10
40.526236
 20
122.425804
 30
0.0
 10
41.247264
 20
122.927596
 30
0.0
 10
42.002389
 20
123.178498
 30
0.0
 10
42.794056
 20
123.178498
 30
0.0
  0
SPLINE
  5
320
100
AcDbEntity
  8
design
 62
1
100
AcDbSpline
 70
8
 71
3
 72
8
 73
4
 74
0
 40
0
 40
0
 40
0
 40
0
 40
1
 40
1
 40
1
 40
1
 10
42.794056
 20
123.178498
 30
0.0
 10
43.841500
 20
123.178498
 30
0.0
 10
44.725722
 20
122.815554
 30
0.0
 10
45.446750
 20
122.089651
 30
0.0
  0
SPLINE
  5
321
100
AcDbEntity
  8
design
 62
1
100
AcDbSpline
 70
8
 71
3
 72
8
 73
4
 74
0
 40
0
 40
0
 40
0
 40
0
 40
1
 40
1
 40
1
 40
1
 10
45.446750
 20
122.089651
 30
0.0
 10
46.165347
 20
121.363748
 30
0.0
 10
46.525861
 20
120.430804
 30
0.0
 10
46.525861
 20
119.290804
 30
0.0
  0
SPLINE
  5
322
100
AcDbEntity
  8
design
 62
1
100
AcDbSpline
 70
8
 71
3
 72
8
 73
4
 74
0
 40
0
 40
0
 40
0
 40
0
 40
1
 40
1
 40
1
 40
1
 10
46.525861
 20
119.290804
 30
0.0
 10
46.525861
 20
118.204387
 30
0.0
 10
46.209194
 20
117.266568
 30
0.0
 10
45.575861
 20
116.474901
 30
0.0
  0
SPLINE
  5
323
100
AcDbEntity
  8
design
 62
1
100
AcDbSpline
 70
8
 71
3
 72
8
 73
4
 74
0
 40
0
 40
0
 40
0
 40
0
 40
1
 40
1
 40
1
 40
1
 10
45.575861
 20
116.474901
 30
0.0
 10
44.808542
 20
115.502971
 30
0.0
 10
43.756236
 20
115.018221
 30
0.0
 10
42.426236
 20
115.018221
 30
0.0
  0
SPLINE
  5
324
100
AcDbEntity
  8
design
 62
1
100
AcDbSpline
 70
8
 71
3
 72
8
 73
4
 74
0
 40
0
 40
0
 40
0
 40
0
 40
1
 40
1
 40
1
 40
1
 10
42.426236
 20
115.018221
 30
0.0
 10
41.334944
 20
115.018221
 30
0.0
 10
40.440972
 20
115.322707
 30
0.0
 10
39.749181
 20
115.934123
 30
0.0
  0
SPLINE
  5
325
100
AcDbEntity
  8
design
 62
1
100
AcDbSpline
 70
8
 71
3
 72
8
 73
4
 74
0
 40
0
 40
0
 40
0
 40
0
 40
1
 40
1
 40
1
 40
1
 10
39.749181
 20
115.934123
 30
0.0
 10
39.062250
 20
116.545540
 30
0.0
 10
38.667639
 20
117.356693
 30
0.0
 10
38.570194
 20
118.365151
 30
0.0
  0
SPLINE
  5
326
100
AcDbEntity
  8
design
 62
1
100
AcDbSpline
 70
8
 71
3
 72
8
 73
4
 74
0
 40
0
 40
0
 40
0
 40
0
 40
1
 40
1
 40
1
 40
1
 10
137.018624
 20
41.717429
 30
0.0
 10
137.018624
 20
41.580540
 30
0.0
 10
137.018624
 20
41.443637
 30
0.0
 10
137.021068
 20
41.306734
 30
0.0
  0
SPLINE
  5
327
100
AcDbEntity
  8
design
 62
1
100
AcDbSpline
 70
8
 71
3
 72
8
 73
4
 74
0
 40
0
 40
0
 40
0
 40
0
 40
1
 40
1
 40
1
 40
1
 10
137.021068
 20
41.306734
 30
0.0
 10
137.021068
 20
41.170332
 30
0.0
 10
137.023499
 20
41.033915
 30
0.0
 10
137.028374
 20
40.897512
 30
0.0
  0
SPLINE
  5
328
100
AcDbEntity
  8
design
 62
1
100
AcDbSpline
 70
8
 71
3
 72
8
 73
4
 74
0
 40
0
 40
0
 40
0
 40
0
 40
1
 40
1
 40
1
 40
1
 10
137.028374
 20
40.897512
 30
0.0
 10
137.035679
 20
40.625665
 30
0.0
 10
137.045429
 20
40.354054
 30
0.0
 10
137.060041
 20
40.082457
 30
0.0
  0
SPLINE
  5
329
100
AcDbEntity
  8
design
 62
1
100
AcDbSpline
 70
8
 71
3
 72
8
 73
4
 74
0
 40
0
 40
0
 40
0
 40
0
 40
1
 40
1
 40
1
 40
1
 10
137.060041
 20
40.082457
 30
0.0
 10
137.086832
 20
39.543637
 30
0.0
 10
137.128249
 20
39.005540
 30
0.0
 10
137.181832
 20
38.468915
 30
0.0
  0
SPLINE
  5
32a
100
AcDbEntity
  8
design
 62
1
100
AcDbSpline
 70
8
 71
3
 72
8
 73
4
 74
0
 40
0
 40
0
 40
0
 40
0
 40
1
 40
1
 40
1
 40
1
 10
137.181832
 20
38.468915
 30
0.0
 10
137.291457
 20
37.393707
 30
0.0
 10
137.454652
 20
36.324346
 30
0.0
 10
137.673888
 20
35.265943
 30
0.0
  0
SPLINE
  5
32b
100
AcDbEntity
  8
design
 62
1
100
AcDbSpline
 70
8
 71
3
 72
8
 73
4
 74
0
 40
0
 40
0
 40
0
 40
0
 40
1
 40
1
 40
1
 40
1
 10
137.673888
 20
35.265943
 30
0.0
 10
137.885804
 20
34.239207
 30
0.0
 10
138.148888
 20
33.223443
 30
0.0
 10
138.460679
 20
32.223012
 30
0.0
  0
SPLINE
  5
32c
100
AcDbEntity
  8
design
 62
1
100
AcDbSpline
 70
8
 71
3
 72
8
 73
4
 74
0
 40
0
 40
0
 40
0
 40
0
 40
1
 40
1
 40
1
 40
1
 10
138.460679
 20
32.223012
 30
0.0
 10
138.774916
 20
31.218207
 30
0.0
 10
139.140304
 20
30.229957
 30
0.0
 10
139.551971
 20
29.261443
 30
0.0
  0
SPLINE
  5
32d
100
AcDbEntity
  8
design
 62
1
100
AcDbSpline
 70
8
 71
3
 72
8
 73
4
 74
0
 40
0
 40
0
 40
0
 40
0
 40
1
 40
1
 40
1
 40
1
 10
139.551971
 20
29.261443
 30
0.0
 10
140.022096
 20
28.158957
 30
0.0
 10
140.555554
 20
27.083498
 30
0.0
 10
141.147485
 20
26.040693
 30
0.0
  0
SPLINE
  5
32e
100
AcDbEntity
  8
design
 62
1
100
AcDbSpline
 70
8
 71
3
 72
8
 73
4
 74
0
 40
0
 40
0
 40
0
 40
0
 40
1
 40
1
 40
1
 40
1
 10
141.147485
 20
26.040693
 30
0.0
 10
141.227874
 20
25.899165
 30
0.0
 10
141.310693
 20
25.758373
 30
0.0
 10
141.393513
 20
25.618304
 30
0.0
  0
SPLINE
  5
32f
100
AcDbEntity
  8
design
 62
1
100
AcDbSpline
 70
8
 71
3
 72
8
 73
4
 74
0
 40
0
 40
0
 40
0
 40
0
 40
1
 40
1
 40
1
 40
1
 10
141.393513
 20
25.618304
 30
0.0
 10
141.661457
 20
25.162554
 30
0.0
 10
141.941582
 20
24.713609
 30
0.0
 10
142.231457
 20
24.271984
 30
0.0
  0
SPLINE
  5
330
100
AcDbEntity
  8
design
 62
1
100
AcDbSpline
 70
8
 71
3
 72
8
 73
4
 74
0
 40
0
 40
0
 40
0
 40
0
 40
1
 40
1
 40
1
 40
1
 10
142.231457
 20
24.271984
 30
0.0
 10
142.801457
 20
23.407234
 30
0.0
 10
143.410443
 20
22.571484
 30
0.0
 10
144.060818
 20
21.766415
 30
0.0
  0
SPLINE
  5
331
100
AcDbEntity
  8
design
 62
1
100
AcDbSpline
 70
8
 71
3
 72
8
 73
4
 74
0
 40
0
 40
0
 40
0
 40
0
 40
1
 40
1
 40
1
 40
1
 10
144.060818
 20
21.766415
 30
0.0
 10
144.711207
 20
20.962568
 30
0.0
 10
145.398138
 20
20.191609
 30
0.0
 10
146.121596
 20
19.454498
 30
0.0
  0
SPLINE
  5
332
100
AcDbEntity
  8
design
 62
1
100
AcDbSpline
 70
8
 71
3
 72
8
 73
4
 74
0
 40
0
 40
0
 40
0
 40
0
 40
1
 40
1
 40
1
 40
1
 10
146.121596
 20
19.454498
 30
0.0
 10
147.558777
 20
17.991498
 30
0.0
 10
149.137249
 20
16.667096
 30
0.0
 10
150.827763
 20
15.506387
 30
0.0
  0
SPLINE
  5
333
100
AcDbEntity
  8
design
 62
1
100
AcDbSpline
 70
8
 71
3
 72
8
 73
4
 74
0
 40
0
 40
0
 40
0
 40
0
 40
1
 40
1
 40
1
 40
1
 10
150.827763
 20
15.506387
 30
0.0
 10
151.682763
 20
14.918846
 30
0.0
 10
152.566999
 20
14.373693
 30
0.0
 10
153.475582
 20
13.872637
 30
0.0
  0
SPLINE
  5
334
100
AcDbEntity
  8
design
 62
1
100
AcDbSpline
 70
8
 71
3
 72
8
 73
4
 74
0
 40
0
 40
0
 40
0
 40
0
 40
1
 40
1
 40
1
 40
1
 10
153.475582
 20
13.872637
 30
0.0
 10
154.391485
 20
13.368887
 30
0.0
 10
155.329304
 20
12.910443
 30
0.0
 10
156.289054
 20
12.499512
 30
0.0
  0
SPLINE
  5
335
100
AcDbEntity
  8
design
 62
1
100
AcDbSpline
 70
8
 71
3
 72
8
 73
4
 74
0
 40
0
 40
0
 40
0
 40
0
 40
1
 40
1
 40
1
 40
1
 10
156.289054
 20
12.499512
 30
0.0
 10
157.241499
 20
12.091248
 30
0.0
 10
158.213416
 20
11.730248
 30
0.0
 10
159.202402
 20
11.417971
 30
0.0
  0
SPLINE
  5
336
100
AcDbEntity
  8
design
 62
1
100
AcDbSpline
 70
8
 71
3
 72
8
 73
4
 74
0
 40
0
 40
0
 40
0
 40
0
 40
1
 40
1
 40
1
 40
1
 10
159.202402
 20
11.417971
 30
0.0
 10
160.215735
 20
11.097165
 30
0.0
 10
161.248554
 20
10.827998
 30
0.0
 10
162.288679
 20
10.611207
 30
0.0
  0
SPLINE
  5
337
100
AcDbEntity
  8
design
 62
1
100
AcDbSpline
 70
8
 71
3
 72
8
 73
4
 74
0
 40
0
 40
0
 40
0
 40
0
 40
1
 40
1
 40
1
 40
1
 10
162.288679
 20
10.611207
 30
0.0
 10
163.348304
 20
10.391234
 30
0.0
 10
164.415221
 20
10.225846
 30
0.0
 10
165.491902
 20
10.115012
 30
0.0
  0
SPLINE
  5
338
100
AcDbEntity
  8
design
 62
1
100
AcDbSpline
 70
8
 71
3
 72
8
 73
4
 74
0
 40
0
 40
0
 40
0
 40
0
 40
1
 40
1
 40
1
 40
1
 10
165.491902
 20
10.115012
 30
0.0
 10
166.027791
 20
10.059707
 30
0.0
 10
166.566124
 20
10.017818
 30
0.0
 10
167.104471
 20
9.989804
 30
0.0
  0
SPLINE
  5
339
100
AcDbEntity
  8
design
 62
1
100
AcDbSpline
 70
8
 71
3
 72
8
 73
4
 74
0
 40
0
 40
0
 40
0
 40
0
 40
1
 40
1
 40
1
 40
1
 10
167.104471
 20
9.989804
 30
0.0
 10
167.374846
 20
9.975679
 30
0.0
 10
167.647666
 20
9.964957
 30
0.0
 10
167.918054
 20
9.957401
 30
0.0
  0
SPLINE
  5
33a
100
AcDbEntity
  8
design
 62
1
100
AcDbSpline
 70
8
 71
3
 72
8
 73
4
 74
0
 40
0
 40
0
 40
0
 40
0
 40
1
 40
1
 40
1
 40
1
 10
167.918054
 20
9.957401
 30
0.0
 10
168.054471
 20
9.953748
 30
0.0
 10
168.190874
 20
9.951068
 30
0.0
 10
168.327291
 20
9.949123
 30
0.0
  0
SPLINE
  5
33b
100
AcDbEntity
  8
design
 62
1
100
AcDbSpline
 70
8
 71
3
 72
8
 73
4
 74
0
 40
0
 40
0
 40
0
 40
0
 40
1
 40
1
 40
1
 40
1
 10
168.327291
 20
9.949123
 30
0.0
 10
168.395499
 20
9.948151
 30
0.0
 10
168.463693
 20
9.947415
 30
0.0
 10
168.531902
 20
9.946679
 30
0.0
  0
SPLINE
  5
33c
100
AcDbEntity
  8
design
 62
1
100
AcDbSpline
 70
8
 71
3
 72
8
 73
4
 74
0
 40
0
 40
0
 40
0
 40
0
 40
1
 40
1
 40
1
 40
1
 10
168.531902
 20
9.946679
 30
0.0
 10
168.536777
 20
9.946679
 30
0.0
 10
168.541652
 20
9.946679
 30
0.0
 10
168.544082
 20
9.946679
 30
0.0
  0
SPLINE
  5
33d
100
AcDbEntity
  8
design
 62
1
100
AcDbSpline
 70
8
 71
3
 72
8
 73
4
 74
0
 40
0
 40
0
 40
0
 40
0
 40
1
 40
1
 40
1
 40
1
 10
168.544082
 20
9.946679
 30
0.0
 10
168.626902
 20
9.946262
 30
0.0
 10
168.707291
 20
9.945707
 30
0.0
 10
168.790110
 20
9.945707
 30
0.0
  0
SPLINE
  5
33e
100
AcDbEntity
  8
design
 62
1
100
AcDbSpline
 70
8
 71
3
 72
8
 73
4
 74
0
 40
0
 40
0
 40
0
 40
0
 40
1
 40
1
 40
1
 40
1
 10
168.790110
 20
9.945707
 30
0.0
 10
168.865624
 20
9.945707
 30
0.0
 10
168.941138
 20
9.946123
 30
0.0
 10
169.033693
 20
9.946679
 30
0.0
  0
SPLINE
  5
33f
100
AcDbEntity
  8
design
 62
1
100
AcDbSpline
 70
8
 71
3
 72
8
 73
4
 74
0
 40
0
 40
0
 40
0
 40
0
 40
1
 40
1
 40
1
 40
1
 10
169.033693
 20
9.946679
 30
0.0
 10
180.596929
 20
10.033651
 30
0.0
 10
190.691304
 20
16.298304
 30
0.0
 10
196.184277
 20
25.619040
 30
0.0
  0
SPLINE
  5
340
100
AcDbEntity
  8
design
 62
1
100
AcDbSpline
 70
8
 71
3
 72
8
 73
4
 74
0
 40
0
 40
0
 40
0
 40
0
 40
1
 40
1
 40
1
 40
1
 10
196.184277
 20
25.619040
 30
0.0
 10
196.267096
 20
25.759109
 30
0.0
 10
196.347471
 20
25.899901
 30
0.0
 10
196.430304
 20
26.041429
 30
0.0
  0
SPLINE
  5
341
100
AcDbEntity
  8
design
 62
1
100
AcDbSpline
 70
8
 71
3
 72
8
 73
4
 74
0
 40
0
 40
0
 40
0
 40
0
 40
1
 40
1
 40
1
 40
1
 10
196.430304
 20
26.041429
 30
0.0
 10
196.844402
 20
26.772193
 30
0.0
 10
197.231707
 20
27.521234
 30
0.0
 10
197.592221
 20
28.286846
 30
0.0
  0
LWPOLYLINE
  5
342
100
AcDbEntity
  8
design
 62
1
100
AcDbPolyline
 90
7
 70
0
 10
40.214431
 20
120.713359
 30
0.0
 10
38.830847
 20
120.893623
 30
0.0
 10
39.995208
 20
127.058887
 30
0.0
 10
45.960736
 20
127.058887
 30
0.0
 10
45.960736
 20
125.650943
 30
0.0
 10
41.174181
 20
125.650943
 30
0.0
 10
40.526236
 20
122.425804
 30
0.0
  0
SPLINE
  5
343
100
AcDbEntity
  8
design
 62
1
100
AcDbSpline
 70
8
 71
3
 72
8
 73
4
 74
0
 40
0
 40
0
 40
0
 40
0
 40
1
 40
1
 40
1
 40
1
 10
194.951707
 20
29.518193
 30
0.0
 10
194.630166
 20
28.831026
 30
0.0
 10
194.281832
 20
28.157012
 30
0.0
 10
193.906707
 20
27.497359
 30
0.0
  0
LWPOLYLINE
  5
344
100
AcDbEntity
  8
design
 62
1
100
AcDbPolyline
 90
3
 70
0
 10
197.592221
 20
28.286846
 30
0.0
 10
196.271971
 20
28.902637
 30
0.0
 10
194.951707
 20
29.518193
 30
0.0
  0
SPLINE
  5
345
100
AcDbEntity
  8
design
 62
1
100
AcDbSpline
 70
8
 71
3
 72
8
 73
4
 74
0
 40
0
 40
0
 40
0
 40
0
 40
1
 40
1
 40
1
 40
1
 10
195.168499
 20
26.769026
 30
0.0
 10
195.129527
 20
26.698387
 30
0.0
 10
195.088110
 20
26.627748
 30
0.0
 10
195.046707
 20
26.557346
 30
0.0
  0
SPLINE
  5
346
100
AcDbEntity
  8
design
 62
1
100
AcDbSpline
 70
8
 71
3
 72
8
 73
4
 74
0
 40
0
 40
0
 40
0
 40
0
 40
1
 40
1
 40
1
 40
1
 10
195.046707
 20
26.557346
 30
0.0
 10
195.007735
 20
26.486957
 30
0.0
 10
194.966318
 20
26.416554
 30
0.0
 10
194.924916
 20
26.346651
 30
0.0
  0
LWPOLYLINE
  5
347
100
AcDbEntity
  8
design
 62
1
100
AcDbPolyline
 90
2
 70
0
 10
193.906707
 20
27.497359
 30
0.0
 10
195.168499
 20
26.769026
 30
0.0
  0
SPLINE
  5
348
100
AcDbEntity
  8
design
 62
1
100
AcDbSpline
 70
8
 71
3
 72
8
 73
4
 74
0
 40
0
 40
0
 40
0
 40
0
 40
1
 40
1
 40
1
 40
1
 10
193.663110
 20
27.074984
 30
0.0
 10
193.653374
 20
27.057929
 30
0.0
 10
193.643624
 20
27.040873
 30
0.0
 10
193.631443
 20
27.023832
 30
0.0
  0
SPLINE
  5
349
100
AcDbEntity
  8
design
 62
1
100
AcDbSpline
 70
8
 71
3
 72
8
 73
4
 74
0
 40
0
 40
0
 40
0
 40
0
 40
1
 40
1
 40
1
 40
1
 10
193.631443
 20
27.023832
 30
0.0
 10
192.966443
 20
25.899415
 30
0.0
 10
192.223499
 20
24.821762
 30
0.0
 10
191.412332
 20
23.797721
 30
0.0
  0
SPLINE
  5
34a
100
AcDbEntity
  8
design
 62
1
100
AcDbSpline
 70
8
 71
3
 72
8
 73
4
 74
0
 40
0
 40
0
 40
0
 40
0
 40
1
 40
1
 40
1
 40
1
 10
191.412332
 20
23.797721
 30
0.0
 10
189.831443
 20
21.806123
 30
0.0
 10
187.997207
 20
20.030596
 30
0.0
 10
185.953485
 20
18.516679
 30
0.0
  0
SPLINE
  5
34b
100
AcDbEntity
  8
design
 62
1
100
AcDbSpline
 70
8
 71
3
 72
8
 73
4
 74
0
 40
0
 40
0
 40
0
 40
0
 40
1
 40
1
 40
1
 40
1
 10
185.953485
 20
18.516679
 30
0.0
 10
185.066818
 20
17.858498
 30
0.0
 10
184.141166
 20
17.251707
 30
0.0
 10
183.183860
 20
16.699498
 30
0.0
  0
SPLINE
  5
34c
100
AcDbEntity
  8
design
 62
1
100
AcDbSpline
 70
8
 71
3
 72
8
 73
4
 74
0
 40
0
 40
0
 40
0
 40
0
 40
1
 40
1
 40
1
 40
1
 10
183.183860
 20
16.699498
 30
0.0
 10
182.124235
 20
16.088568
 30
0.0
 10
181.028082
 20
15.545846
 30
0.0
 10
179.900263
 20
15.074498
 30
0.0
  0
SPLINE
  5
34d
100
AcDbEntity
  8
design
 62
1
100
AcDbSpline
 70
8
 71
3
 72
8
 73
4
 74
0
 40
0
 40
0
 40
0
 40
0
 40
1
 40
1
 40
1
 40
1
 10
179.900263
 20
15.074498
 30
0.0
 10
177.863846
 20
14.224373
 30
0.0
 10
175.734874
 20
13.612721
 30
0.0
 10
173.559610
 20
13.251234
 30
0.0
  0
SPLINE
  5
34e
100
AcDbEntity
  8
design
 62
1
100
AcDbSpline
 70
8
 71
3
 72
8
 73
4
 74
0
 40
0
 40
0
 40
0
 40
0
 40
1
 40
1
 40
1
 40
1
 10
173.559610
 20
13.251234
 30
0.0
 10
172.655888
 20
13.101179
 30
0.0
 10
171.747291
 20
12.994248
 30
0.0
 10
170.836263
 20
12.930415
 30
0.0
  0
SPLINE
  5
34f
100
AcDbEntity
  8
design
 62
1
100
AcDbSpline
 70
8
 71
3
 72
8
 73
4
 74
0
 40
0
 40
0
 40
0
 40
0
 40
1
 40
1
 40
1
 40
1
 10
170.836263
 20
12.930415
 30
0.0
 10
170.234596
 20
12.888526
 30
0.0
 10
169.635374
 20
12.865137
 30
0.0
 10
169.033693
 20
12.860262
 30
0.0
  0
LWPOLYLINE
  5
350
100
AcDbEntity
  8
design
 62
1
100
AcDbPolyline
 90
2
 70
0
 10
194.924916
 20
26.346651
 30
0.0
 10
193.663110
 20
27.074984
 30
0.0
  0
SPLINE
  5
351
100
AcDbEntity
  8
design
 62
1
100
AcDbSpline
 70
8
 71
3
 72
8
 73
4
 74
0
 40
0
 40
0
 40
0
 40
0
 40
1
 40
1
 40
1
 40
1
 10
169.033693
 20
11.403359
 30
0.0
 10
168.953318
 20
11.402665
 30
0.0
 10
168.870499
 20
11.402387
 30
0.0
 10
168.790110
 20
11.402387
 30
0.0
  0
SPLINE
  5
352
100
AcDbEntity
  8
design
 62
1
100
AcDbSpline
 70
8
 71
3
 72
8
 73
4
 74
0
 40
0
 40
0
 40
0
 40
0
 40
1
 40
1
 40
1
 40
1
 10
168.790110
 20
11.402387
 30
0.0
 10
168.707291
 20
11.402387
 30
0.0
 10
168.626902
 20
11.402665
 30
0.0
 10
168.544082
 20
11.403359
 30
0.0
  0
LWPOLYLINE
  5
353
100
AcDbEntity
  8
design
 62
1
100
AcDbPolyline
 90
2
 70
0
 10
169.033693
 20
12.860262
 30
0.0
 10
169.033693
 20
11.403359
 30
0.0
  0
SPLINE
  5
354
100
AcDbEntity
  8
design
 62
1
100
AcDbSpline
 70
8
 71
3
 72
8
 73
4
 74
0
 40
0
 40
0
 40
0
 40
0
 40
1
 40
1
 40
1
 40
1
 10
168.544082
 20
12.860262
 30
0.0
 10
167.686652
 20
12.867082
 30
0.0
 10
166.829207
 20
12.911915
 30
0.0
 10
165.976638
 20
12.994248
 30
0.0
  0
SPLINE
  5
355
100
AcDbEntity
  8
design
 62
1
100
AcDbSpline
 70
8
 71
3
 72
8
 73
4
 74
0
 40
0
 40
0
 40
0
 40
0
 40
1
 40
1
 40
1
 40
1
 10
165.976638
 20
12.994248
 30
0.0
 10
164.941388
 20
13.094109
 30
0.0
 10
163.913429
 20
13.250012
 30
0.0
 10
162.895221
 20
13.461207
 30
0.0
  0
SPLINE
  5
356
100
AcDbEntity
  8
design
 62
1
100
AcDbSpline
 70
8
 71
3
 72
8
 73
4
 74
0
 40
0
 40
0
 40
0
 40
0
 40
1
 40
1
 40
1
 40
1
 10
162.895221
 20
13.461207
 30
0.0
 10
160.737013
 20
13.908443
 30
0.0
 10
158.639707
 20
14.603151
 30
0.0
 10
156.642263
 20
15.531484
 30
0.0
  0
SPLINE
  5
357
100
AcDbEntity
  8
design
 62
1
100
AcDbSpline
 70
8
 71
3
 72
8
 73
4
 74
0
 40
0
 40
0
 40
0
 40
0
 40
1
 40
1
 40
1
 40
1
 10
156.642263
 20
15.531484
 30
0.0
 10
155.680082
 20
15.978471
 30
0.0
 10
154.744693
 20
16.478554
 30
0.0
 10
153.838541
 20
17.029068
 30
0.0
  0
SPLINE
  5
358
100
AcDbEntity
  8
design
 62
1
100
AcDbSpline
 70
8
 71
3
 72
8
 73
4
 74
0
 40
0
 40
0
 40
0
 40
0
 40
1
 40
1
 40
1
 40
1
 10
153.838541
 20
17.029068
 30
0.0
 10
152.749693
 20
17.688957
 30
0.0
 10
151.707124
 20
18.419971
 30
0.0
 10
150.718152
 20
19.216998
 30
0.0
  0
SPLINE
  5
359
100
AcDbEntity
  8
design
 62
1
100
AcDbSpline
 70
8
 71
3
 72
8
 73
4
 74
0
 40
0
 40
0
 40
0
 40
0
 40
1
 40
1
 40
1
 40
1
 10
150.718152
 20
19.216998
 30
0.0
 10
148.791346
 20
20.766234
 30
0.0
 10
147.071596
 20
22.554915
 30
0.0
 10
145.597874
 20
24.539929
 30
0.0
  0
SPLINE
  5
35a
100
AcDbEntity
  8
design
 62
1
100
AcDbSpline
 70
8
 71
3
 72
8
 73
4
 74
0
 40
0
 40
0
 40
0
 40
0
 40
1
 40
1
 40
1
 40
1
 10
145.597874
 20
24.539929
 30
0.0
 10
144.993777
 20
25.354748
 30
0.0
 10
144.431082
 20
26.200971
 30
0.0
 10
143.917110
 20
27.074984
 30
0.0
  0
LWPOLYLINE
  5
35b
100
AcDbEntity
  8
design
 62
1
100
AcDbPolyline
 90
2
 70
0
 10
168.544082
 20
11.403359
 30
0.0
 10
168.544082
 20
12.860262
 30
0.0
  0
SPLINE
  5
35c
100
AcDbEntity
  8
design
 62
1
100
AcDbSpline
 70
8
 71
3
 72
8
 73
4
 74
0
 40
0
 40
0
 40
0
 40
0
 40
1
 40
1
 40
1
 40
1
 10
142.655304
 20
26.346401
 30
0.0
 10
142.613902
 20
26.416554
 30
0.0
 10
142.572485
 20
26.486957
 30
0.0
 10
142.531082
 20
26.557346
 30
0.0
  0
SPLINE
  5
35d
100
AcDbEntity
  8
design
 62
1
100
AcDbSpline
 70
8
 71
3
 72
8
 73
4
 74
0
 40
0
 40
0
 40
0
 40
0
 40
1
 40
1
 40
1
 40
1
 10
142.531082
 20
26.557346
 30
0.0
 10
142.489666
 20
26.627748
 30
0.0
 10
142.450693
 20
26.698387
 30
0.0
 10
142.409277
 20
26.769026
 30
0.0
  0
LWPOLYLINE
  5
35e
100
AcDbEntity
  8
design
 62
1
100
AcDbPolyline
 90
2
 70
0
 10
143.917110
 20
27.074984
 30
0.0
 10
142.655304
 20
26.346401
 30
0.0
  0
SPLINE
  5
35f
100
AcDbEntity
  8
design
 62
1
100
AcDbSpline
 70
8
 71
3
 72
8
 73
4
 74
0
 40
0
 40
0
 40
0
 40
0
 40
1
 40
1
 40
1
 40
1
 10
143.671082
 20
27.497359
 30
0.0
 10
143.295957
 20
28.157012
 30
0.0
 10
142.950054
 20
28.831026
 30
0.0
 10
142.628513
 20
29.518193
 30
0.0
  0
SPLINE
  5
360
100
AcDbEntity
  8
design
 62
1
100
AcDbSpline
 70
8
 71
3
 72
8
 73
4
 74
0
 40
0
 40
0
 40
0
 40
0
 40
1
 40
1
 40
1
 40
1
 10
142.628513
 20
29.518193
 30
0.0
 10
142.431207
 20
29.938623
 30
0.0
 10
142.246082
 20
30.363929
 30
0.0
 10
142.070693
 20
30.793387
 30
0.0
  0
SPLINE
  5
361
100
AcDbEntity
  8
design
 62
1
100
AcDbSpline
 70
8
 71
3
 72
8
 73
4
 74
0
 40
0
 40
0
 40
0
 40
0
 40
1
 40
1
 40
1
 40
1
 10
142.070693
 20
30.793387
 30
0.0
 10
141.235179
 20
32.831748
 30
0.0
 10
140.638388
 20
34.959748
 30
0.0
 10
140.292485
 20
37.134776
 30
0.0
  0
SPLINE
  5
362
100
AcDbEntity
  8
design
 62
1
100
AcDbSpline
 70
8
 71
3
 72
8
 73
4
 74
0
 40
0
 40
0
 40
0
 40
0
 40
1
 40
1
 40
1
 40
1
 10
140.292485
 20
37.134776
 30
0.0
 10
140.146332
 20
38.052137
 30
0.0
 10
140.044027
 20
38.976068
 30
0.0
 10
139.987999
 20
39.903415
 30
0.0
  0
SPLINE
  5
363
100
AcDbEntity
  8
design
 62
1
100
AcDbSpline
 70
8
 71
3
 72
8
 73
4
 74
0
 40
0
 40
0
 40
0
 40
0
 40
1
 40
1
 40
1
 40
1
 10
139.987999
 20
39.903415
 30
0.0
 10
139.949027
 20
40.507276
 30
0.0
 10
139.931971
 20
41.112359
 30
0.0
 10
139.931971
 20
41.717429
 30
0.0
  0
LWPOLYLINE
  5
364
100
AcDbEntity
  8
design
 62
1
100
AcDbPolyline
 90
2
 70
0
 10
142.409277
 20
26.769026
 30
0.0
 10
143.671082
 20
27.497359
 30
0.0
  0
SPLINE
  5
365
100
AcDbEntity
  8
design
 62
1
100
AcDbSpline
 70
8
 71
3
 72
8
 73
4
 74
0
 40
0
 40
0
 40
0
 40
0
 40
1
 40
1
 40
1
 40
1
 10
137.018624
 20
44.978373
 30
0.0
 10
137.018624
 20
45.115276
 30
0.0
 10
137.018624
 20
45.252179
 30
0.0
 10
137.021068
 20
45.389068
 30
0.0
  0
SPLINE
  5
366
100
AcDbEntity
  8
design
 62
1
100
AcDbSpline
 70
8
 71
3
 72
8
 73
4
 74
0
 40
0
 40
0
 40
0
 40
0
 40
1
 40
1
 40
1
 40
1
 10
137.021068
 20
45.389068
 30
0.0
 10
137.021068
 20
45.525484
 30
0.0
 10
137.023499
 20
45.661887
 30
0.0
 10
137.028374
 20
45.798304
 30
0.0
  0
SPLINE
  5
367
100
AcDbEntity
  8
design
 62
1
100
AcDbSpline
 70
8
 71
3
 72
8
 73
4
 74
0
 40
0
 40
0
 40
0
 40
0
 40
1
 40
1
 40
1
 40
1
 10
137.028374
 20
45.798304
 30
0.0
 10
137.035679
 20
46.070151
 30
0.0
 10
137.045429
 20
46.341748
 30
0.0
 10
137.060041
 20
46.613359
 30
0.0
  0
SPLINE
  5
368
100
AcDbEntity
  8
design
 62
1
100
AcDbSpline
 70
8
 71
3
 72
8
 73
4
 74
0
 40
0
 40
0
 40
0
 40
0
 40
1
 40
1
 40
1
 40
1
 10
137.060041
 20
46.613359
 30
0.0
 10
137.086832
 20
47.152179
 30
0.0
 10
137.128249
 20
47.690026
 30
0.0
 10
137.181832
 20
48.226901
 30
0.0
  0
SPLINE
  5
369
100
AcDbEntity
  8
design
 62
1
100
AcDbSpline
 70
8
 71
3
 72
8
 73
4
 74
0
 40
0
 40
0
 40
0
 40
0
 40
1
 40
1
 40
1
 40
1
 10
137.181832
 20
48.226901
 30
0.0
 10
137.291457
 20
49.302109
 30
0.0
 10
137.454652
 20
50.371471
 30
0.0
 10
137.673888
 20
51.430109
 30
0.0
  0
SPLINE
  5
36a
100
AcDbEntity
  8
design
 62
1
100
AcDbSpline
 70
8
 71
3
 72
8
 73
4
 74
0
 40
0
 40
0
 40
0
 40
0
 40
1
 40
1
 40
1
 40
1
 10
137.673888
 20
51.430109
 30
0.0
 10
137.885804
 20
52.456596
 30
0.0
 10
138.148888
 20
53.472373
 30
0.0
 10
138.460679
 20
54.473040
 30
0.0
  0
SPLINE
  5
36b
100
AcDbEntity
  8
design
 62
1
100
AcDbSpline
 70
8
 71
3
 72
8
 73
4
 74
0
 40
0
 40
0
 40
0
 40
0
 40
1
 40
1
 40
1
 40
1
 10
138.460679
 20
54.473040
 30
0.0
 10
138.774916
 20
55.477609
 30
0.0
 10
139.140304
 20
56.465846
 30
0.0
 10
139.551971
 20
57.434359
 30
0.0
  0
SPLINE
  5
36c
100
AcDbEntity
  8
design
 62
1
100
AcDbSpline
 70
8
 71
3
 72
8
 73
4
 74
0
 40
0
 40
0
 40
0
 40
0
 40
1
 40
1
 40
1
 40
1
 10
139.551971
 20
57.434359
 30
0.0
 10
140.022096
 20
58.536859
 30
0.0
 10
140.555554
 20
59.612304
 30
0.0
 10
141.147485
 20
60.655123
 30
0.0
  0
SPLINE
  5
36d
100
AcDbEntity
  8
design
 62
1
100
AcDbSpline
 70
8
 71
3
 72
8
 73
4
 74
0
 40
0
 40
0
 40
0
 40
0
 40
1
 40
1
 40
1
 40
1
 10
141.147485
 20
60.655123
 30
0.0
 10
141.227874
 20
60.796637
 30
0.0
 10
141.310693
 20
60.937443
 30
0.0
 10
141.393513
 20
61.077748
 30
0.0
  0
SPLINE
  5
36e
100
AcDbEntity
  8
design
 62
1
100
AcDbSpline
 70
8
 71
3
 72
8
 73
4
 74
0
 40
0
 40
0
 40
0
 40
0
 40
1
 40
1
 40
1
 40
1
 10
141.393513
 20
61.077748
 30
0.0
 10
141.661457
 20
61.533262
 30
0.0
 10
141.941582
 20
61.982193
 30
0.0
 10
142.231457
 20
62.423832
 30
0.0
  0
SPLINE
  5
36f
100
AcDbEntity
  8
design
 62
1
100
AcDbSpline
 70
8
 71
3
 72
8
 73
4
 74
0
 40
0
 40
0
 40
0
 40
0
 40
1
 40
1
 40
1
 40
1
 10
142.231457
 20
62.423832
 30
0.0
 10
142.801457
 20
63.288568
 30
0.0
 10
143.410443
 20
64.124332
 30
0.0
 10
144.060818
 20
64.929637
 30
0.0
  0
SPLINE
  5
370
100
AcDbEntity
  8
design
 62
1
100
AcDbSpline
 70
8
 71
3
 72
8
 73
4
 74
0
 40
0
 40
0
 40
0
 40
0
 40
1
 40
1
 40
1
 40
1
 10
144.060818
 20
64.929637
 30
0.0
 10
144.711207
 20
65.733248
 30
0.0
 10
145.398138
 20
66.504207
 30
0.0
 10
146.121596
 20
67.241304
 30
0.0
  0
SPLINE
  5
371
100
AcDbEntity
  8
design
 62
1
100
AcDbSpline
 70
8
 71
3
 72
8
 73
4
 74
0
 40
0
 40
0
 40
0
 40
0
 40
1
 40
1
 40
1
 40
1
 10
146.121596
 20
67.241304
 30
0.0
 10
147.558777
 20
68.704318
 30
0.0
 10
149.137249
 20
70.028721
 30
0.0
 10
150.827763
 20
71.189429
 30
0.0
  0
SPLINE
  5
372
100
AcDbEntity
  8
design
 62
1
100
AcDbSpline
 70
8
 71
3
 72
8
 73
4
 74
0
 40
0
 40
0
 40
0
 40
0
 40
1
 40
1
 40
1
 40
1
 10
150.827763
 20
71.189429
 30
0.0
 10
151.682763
 20
71.776957
 30
0.0
 10
152.566999
 20
72.322123
 30
0.0
 10
153.475582
 20
72.823179
 30
0.0
  0
SPLINE
  5
373
100
AcDbEntity
  8
design
 62
1
100
AcDbSpline
 70
8
 71
3
 72
8
 73
4
 74
0
 40
0
 40
0
 40
0
 40
0
 40
1
 40
1
 40
1
 40
1
 10
153.475582
 20
72.823179
 30
0.0
 10
154.391485
 20
73.327165
 30
0.0
 10
155.329304
 20
73.785359
 30
0.0
 10
156.289054
 20
74.196540
 30
0.0
  0
SPLINE
  5
374
100
AcDbEntity
  8
design
 62
1
100
AcDbSpline
 70
8
 71
3
 72
8
 73
4
 74
0
 40
0
 40
0
 40
0
 40
0
 40
1
 40
1
 40
1
 40
1
 10
156.289054
 20
74.196540
 30
0.0
 10
157.241499
 20
74.604554
 30
0.0
 10
158.213416
 20
74.965554
 30
0.0
 10
159.202402
 20
75.277846
 30
0.0
  0
SPLINE
  5
375
100
AcDbEntity
  8
design
 62
1
100
AcDbSpline
 70
8
 71
3
 72
8
 73
4
 74
0
 40
0
 40
0
 40
0
 40
0
 40
1
 40
1
 40
1
 40
1
 10
159.202402
 20
75.277846
 30
0.0
 10
160.215735
 20
75.598651
 30
0.0
 10
161.248554
 20
75.867818
 30
0.0
 10
162.288679
 20
76.084609
 30
0.0
  0
SPLINE
  5
376
100
AcDbEntity
  8
design
 62
1
100
AcDbSpline
 70
8
 71
3
 72
8
 73
4
 74
0
 40
0
 40
0
 40
0
 40
0
 40
1
 40
1
 40
1
 40
1
 10
162.288679
 20
76.084609
 30
0.0
 10
163.348304
 20
76.304568
 30
0.0
 10
164.415221
 20
76.469971
 30
0.0
 10
165.491902
 20
76.580804
 30
0.0
  0
SPLINE
  5
377
100
AcDbEntity
  8
design
 62
1
100
AcDbSpline
 70
8
 71
3
 72
8
 73
4
 74
0
 40
0
 40
0
 40
0
 40
0
 40
1
 40
1
 40
1
 40
1
 10
165.491902
 20
76.580804
 30
0.0
 10
166.027791
 20
76.636096
 30
0.0
 10
166.566124
 20
76.677998
 30
0.0
 10
167.104471
 20
76.706012
 30
0.0
  0
SPLINE
  5
378
100
AcDbEntity
  8
design
 62
1
100
AcDbSpline
 70
8
 71
3
 72
8
 73
4
 74
0
 40
0
 40
0
 40
0
 40
0
 40
1
 40
1
 40
1
 40
1
 10
167.104471
 20
76.706012
 30
0.0
 10
167.374846
 20
76.720387
 30
0.0
 10
167.647666
 20
76.731096
 30
0.0
 10
167.918054
 20
76.738165
 30
0.0
  0
SPLINE
  5
379
100
AcDbEntity
  8
design
 62
1
100
AcDbSpline
 70
8
 71
3
 72
8
 73
4
 74
0
 40
0
 40
0
 40
0
 40
0
 40
1
 40
1
 40
1
 40
1
 10
167.918054
 20
76.738165
 30
0.0
 10
168.054471
 20
76.742068
 30
0.0
 10
168.190874
 20
76.744748
 30
0.0
 10
168.327291
 20
76.746693
 30
0.0
  0
SPLINE
  5
37a
100
AcDbEntity
  8
design
 62
1
100
AcDbSpline
 70
8
 71
3
 72
8
 73
4
 74
0
 40
0
 40
0
 40
0
 40
0
 40
1
 40
1
 40
1
 40
1
 10
168.327291
 20
76.746693
 30
0.0
 10
168.395499
 20
76.747665
 30
0.0
 10
168.463693
 20
76.748401
 30
0.0
 10
168.531902
 20
76.749123
 30
0.0
  0
SPLINE
  5
37b
100
AcDbEntity
  8
design
 62
1
100
AcDbSpline
 70
8
 71
3
 72
8
 73
4
 74
0
 40
0
 40
0
 40
0
 40
0
 40
1
 40
1
 40
1
 40
1
 10
168.531902
 20
76.749123
 30
0.0
 10
168.536777
 20
76.749123
 30
0.0
 10
168.541652
 20
76.749123
 30
0.0
 10
168.544082
 20
76.749123
 30
0.0
  0
SPLINE
  5
37c
100
AcDbEntity
  8
design
 62
1
100
AcDbSpline
 70
8
 71
3
 72
8
 73
4
 74
0
 40
0
 40
0
 40
0
 40
0
 40
1
 40
1
 40
1
 40
1
 10
168.544082
 20
76.749123
 30
0.0
 10
168.626902
 20
76.749818
 30
0.0
 10
168.707291
 20
76.749818
 30
0.0
 10
168.790110
 20
76.750096
 30
0.0
  0
SPLINE
  5
37d
100
AcDbEntity
  8
design
 62
1
100
AcDbSpline
 70
8
 71
3
 72
8
 73
4
 74
0
 40
0
 40
0
 40
0
 40
0
 40
1
 40
1
 40
1
 40
1
 10
168.790110
 20
76.750096
 30
0.0
 10
168.865624
 20
76.750096
 30
0.0
 10
168.941138
 20
76.749818
 30
0.0
 10
169.033693
 20
76.749123
 30
0.0
  0
SPLINE
  5
37e
100
AcDbEntity
  8
design
 62
1
100
AcDbSpline
 70
8
 71
3
 72
8
 73
4
 74
0
 40
0
 40
0
 40
0
 40
0
 40
1
 40
1
 40
1
 40
1
 10
169.033693
 20
76.749123
 30
0.0
 10
180.596929
 20
76.662165
 30
0.0
 10
190.691304
 20
70.397512
 30
0.0
 10
196.184277
 20
61.076776
 30
0.0
  0
SPLINE
  5
37f
100
AcDbEntity
  8
design
 62
1
100
AcDbSpline
 70
8
 71
3
 72
8
 73
4
 74
0
 40
0
 40
0
 40
0
 40
0
 40
1
 40
1
 40
1
 40
1
 10
196.184277
 20
61.076776
 30
0.0
 10
196.267096
 20
60.936707
 30
0.0
 10
196.347471
 20
60.795915
 30
0.0
 10
196.430304
 20
60.654387
 30
0.0
  0
SPLINE
  5
380
100
AcDbEntity
  8
design
 62
1
100
AcDbSpline
 70
8
 71
3
 72
8
 73
4
 74
0
 40
0
 40
0
 40
0
 40
0
 40
1
 40
1
 40
1
 40
1
 10
196.430304
 20
60.654387
 30
0.0
 10
196.844402
 20
59.923609
 30
0.0
 10
197.231707
 20
59.174582
 30
0.0
 10
197.592221
 20
58.408971
 30
0.0
  0
LWPOLYLINE
  5
381
100
AcDbEntity
  8
design
 62
1
100
AcDbPolyline
 90
2
 70
0
 10
139.931971
 20
41.717429
 30
0.0
 10
137.018624
 20
41.717429
 30
0.0
  0
SPLINE
  5
382
100
AcDbEntity
  8
design
 62
1
100
AcDbSpline
 70
8
 71
3
 72
8
 73
4
 74
0
 40
0
 40
0
 40
0
 40
0
 40
1
 40
1
 40
1
 40
1
 10
194.951707
 20
57.177623
 30
0.0
 10
194.630166
 20
57.864790
 30
0.0
 10
194.281832
 20
58.538804
 30
0.0
 10
193.906707
 20
59.198443
 30
0.0
  0
LWPOLYLINE
  5
383
100
AcDbEntity
  8
design
 62
1
100
AcDbPolyline
 90
3
 70
0
 10
197.592221
 20
58.408971
 30
0.0
 10
196.271971
 20
57.793179
 30
0.0
 10
194.951707
 20
57.177623
 30
0.0
  0
SPLINE
  5
384
100
AcDbEntity
  8
design
 62
1
100
AcDbSpline
 70
8
 71
3
 72
8
 73
4
 74
0
 40
0
 40
0
 40
0
 40
0
 40
1
 40
1
 40
1
 40
1
 10
195.168499
 20
59.926776
 30
0.0
 10
195.129527
 20
59.997429
 30
0.0
 10
195.088110
 20
60.068068
 30
0.0
 10
195.046707
 20
60.138457
 30
0.0
  0
SPLINE
  5
385
100
AcDbEntity
  8
design
 62
1
100
AcDbSpline
 70
8
 71
3
 72
8
 73
4
 74
0
 40
0
 40
0
 40
0
 40
0
 40
1
 40
1
 40
1
 40
1
 10
195.046707
 20
60.138457
 30
0.0
 10
195.007735
 20
60.208859
 30
0.0
 10
194.966318
 20
60.279262
 30
0.0
 10
194.924916
 20
60.349415
 30
0.0
  0
LWPOLYLINE
  5
386
100
AcDbEntity
  8
design
 62
1
100
AcDbPolyline
 90
2
 70
0
 10
193.906707
 20
59.198443
 30
0.0
 10
195.168499
 20
59.926776
 30
0.0
  0
SPLINE
  5
387
100
AcDbEntity
  8
design
 62
1
100
AcDbSpline
 70
8
 71
3
 72
8
 73
4
 74
0
 40
0
 40
0
 40
0
 40
0
 40
1
 40
1
 40
1
 40
1
 10
193.663110
 20
59.620832
 30
0.0
 10
193.653374
 20
59.637887
 30
0.0
 10
193.643624
 20
59.654929
 30
0.0
 10
193.631443
 20
59.671984
 30
0.0
  0
SPLINE
  5
388
100
AcDbEntity
  8
design
 62
1
100
AcDbSpline
 70
8
 71
3
 72
8
 73
4
 74
0
 40
0
 40
0
 40
0
 40
0
 40
1
 40
1
 40
1
 40
1
 10
193.631443
 20
59.671984
 30
0.0
 10
192.966443
 20
60.796401
 30
0.0
 10
192.223499
 20
61.874040
 30
0.0
 10
191.412332
 20
62.898096
 30
0.0
  0
SPLINE
  5
389
100
AcDbEntity
  8
design
 62
1
100
AcDbSpline
 70
8
 71
3
 72
8
 73
4
 74
0
 40
0
 40
0
 40
0
 40
0
 40
1
 40
1
 40
1
 40
1
 10
191.412332
 20
62.898096
 30
0.0
 10
189.831443
 20
64.889693
 30
0.0
 10
187.997207
 20
66.665221
 30
0.0
 10
185.953485
 20
68.179137
 30
0.0
  0
SPLINE
  5
38a
100
AcDbEntity
  8
design
 62
1
100
AcDbSpline
 70
8
 71
3
 72
8
 73
4
 74
0
 40
0
 40
0
 40
0
 40
0
 40
1
 40
1
 40
1
 40
1
 10
185.953485
 20
68.179137
 30
0.0
 10
185.066818
 20
68.837318
 30
0.0
 10
184.141166
 20
69.444096
 30
0.0
 10
183.183860
 20
69.996318
 30
0.0
  0
SPLINE
  5
38b
100
AcDbEntity
  8
design
 62
1
100
AcDbSpline
 70
8
 71
3
 72
8
 73
4
 74
0
 40
0
 40
0
 40
0
 40
0
 40
1
 40
1
 40
1
 40
1
 10
183.183860
 20
69.996318
 30
0.0
 10
182.124235
 20
70.607234
 30
0.0
 10
181.028082
 20
71.149957
 30
0.0
 10
179.900263
 20
71.621304
 30
0.0
  0
SPLINE
  5
38c
100
AcDbEntity
  8
design
 62
1
100
AcDbSpline
 70
8
 71
3
 72
8
 73
4
 74
0
 40
0
 40
0
 40
0
 40
0
 40
1
 40
1
 40
1
 40
1
 10
179.900263
 20
71.621304
 30
0.0
 10
177.863846
 20
72.471443
 30
0.0
 10
175.734874
 20
73.083096
 30
0.0
 10
173.559610
 20
73.444582
 30
0.0
  0
SPLINE
  5
38d
100
AcDbEntity
  8
design
 62
1
100
AcDbSpline
 70
8
 71
3
 72
8
 73
4
 74
0
 40
0
 40
0
 40
0
 40
0
 40
1
 40
1
 40
1
 40
1
 10
173.559610
 20
73.444582
 30
0.0
 10
172.655888
 20
73.594637
 30
0.0
 10
171.747291
 20
73.701568
 30
0.0
 10
170.836263
 20
73.765387
 30
0.0
  0
SPLINE
  5
38e
100
AcDbEntity
  8
design
 62
1
100
AcDbSpline
 70
8
 71
3
 72
8
 73
4
 74
0
 40
0
 40
0
 40
0
 40
0
 40
1
 40
1
 40
1
 40
1
 10
170.836263
 20
73.765387
 30
0.0
 10
170.234596
 20
73.807290
 30
0.0
 10
169.635374
 20
73.830665
 30
0.0
 10
169.033693
 20
73.835540
 30
0.0
  0
LWPOLYLINE
  5
38f
100
AcDbEntity
  8
design
 62
1
100
AcDbPolyline
 90
2
 70
0
 10
194.924916
 20
60.349415
 30
0.0
 10
193.663110
 20
59.620832
 30
0.0
  0
SPLINE
  5
390
100
AcDbEntity
  8
design
 62
1
100
AcDbSpline
 70
8
 71
3
 72
8
 73
4
 74
0
 40
0
 40
0
 40
0
 40
0
 40
1
 40
1
 40
1
 40
1
 10
169.033693
 20
75.292457
 30
0.0
 10
168.953318
 20
75.293151
 30
0.0
 10
168.870499
 20
75.293429
 30
0.0
 10
168.790110
 20
75.293429
 30
0.0
  0
SPLINE
  5
391
100
AcDbEntity
  8
design
 62
1
100
AcDbSpline
 70
8
 71
3
 72
8
 73
4
 74
0
 40
0
 40
0
 40
0
 40
0
 40
1
 40
1
 40
1
 40
1
 10
168.790110
 20
75.293429
 30
0.0
 10
168.707291
 20
75.293429
 30
0.0
 10
168.626902
 20
75.293151
 30
0.0
 10
168.544082
 20
75.292457
 30
0.0
  0
LWPOLYLINE
  5
392
100
AcDbEntity
  8
design
 62
1
100
AcDbPolyline
 90
2
 70
0
 10
169.033693
 20
73.835540
 30
0.0
 10
169.033693
 20
75.292457
 30
0.0
  0
SPLINE
  5
393
100
AcDbEntity
  8
design
 62
1
100
AcDbSpline
 70
8
 71
3
 72
8
 73
4
 74
0
 40
0
 40
0
 40
0
 40
0
 40
1
 40
1
 40
1
 40
1
 10
168.544082
 20
73.835540
 30
0.0
 10
167.686652
 20
73.828721
 30
0.0
 10
166.829207
 20
73.783901
 30
0.0
 10
165.976638
 20
73.701568
 30
0.0
  0
SPLINE
  5
394
100
AcDbEntity
  8
design
 62
1
100
AcDbSpline
 70
8
 71
3
 72
8
 73
4
 74
0
 40
0
 40
0
 40
0
 40
0
 40
1
 40
1
 40
1
 40
1
 10
165.976638
 20
73.701568
 30
0.0
 10
164.941388
 20
73.601457
 30
0.0
 10
163.913429
 20
73.445804
 30
0.0
 10
162.895221
 20
73.234609
 30
0.0
  0
SPLINE
  5
395
100
AcDbEntity
  8
design
 62
1
100
AcDbSpline
 70
8
 71
3
 72
8
 73
4
 74
0
 40
0
 40
0
 40
0
 40
0
 40
1
 40
1
 40
1
 40
1
 10
162.895221
 20
73.234609
 30
0.0
 10
160.737013
 20
72.787373
 30
0.0
 10
158.639707
 20
72.092651
 30
0.0
 10
156.642263
 20
71.164332
 30
0.0
  0
SPLINE
  5
396
100
AcDbEntity
  8
design
 62
1
100
AcDbSpline
 70
8
 71
3
 72
8
 73
4
 74
0
 40
0
 40
0
 40
0
 40
0
 40
1
 40
1
 40
1
 40
1
 10
156.642263
 20
71.164332
 30
0.0
 10
155.680082
 20
70.717096
 30
0.0
 10
154.744693
 20
70.217248
 30
0.0
 10
153.838541
 20
69.666734
 30
0.0
  0
SPLINE
  5
397
100
AcDbEntity
  8
design
 62
1
100
AcDbSpline
 70
8
 71
3
 72
8
 73
4
 74
0
 40
0
 40
0
 40
0
 40
0
 40
1
 40
1
 40
1
 40
1
 10
153.838541
 20
69.666734
 30
0.0
 10
152.749693
 20
69.006859
 30
0.0
 10
151.707124
 20
68.276082
 30
0.0
 10
150.718152
 20
67.478818
 30
0.0
  0
SPLINE
  5
398
100
AcDbEntity
  8
design
 62
1
100
AcDbSpline
 70
8
 71
3
 72
8
 73
4
 74
0
 40
0
 40
0
 40
0
 40
0
 40
1
 40
1
 40
1
 40
1
 10
150.718152
 20
67.478818
 30
0.0
 10
148.791346
 20
65.929818
 30
0.0
 10
147.071596
 20
64.140887
 30
0.0
 10
145.597874
 20
62.155873
 30
0.0
  0
SPLINE
  5
399
100
AcDbEntity
  8
design
 62
1
100
AcDbSpline
 70
8
 71
3
 72
8
 73
4
 74
0
 40
0
 40
0
 40
0
 40
0
 40
1
 40
1
 40
1
 40
1
 10
145.597874
 20
62.155873
 30
0.0
 10
144.993777
 20
61.341068
 30
0.0
 10
144.431082
 20
60.494832
 30
0.0
 10
143.917110
 20
59.620832
 30
0.0
  0
LWPOLYLINE
  5
39a
100
AcDbEntity
  8
design
 62
1
100
AcDbPolyline
 90
2
 70
0
 10
168.544082
 20
75.292457
 30
0.0
 10
168.544082
 20
73.835540
 30
0.0
  0
SPLINE
  5
39b
100
AcDbEntity
  8
design
 62
1
100
AcDbSpline
 70
8
 71
3
 72
8
 73
4
 74
0
 40
0
 40
0
 40
0
 40
0
 40
1
 40
1
 40
1
 40
1
 10
142.655304
 20
60.349415
 30
0.0
 10
142.613902
 20
60.279262
 30
0.0
 10
142.572485
 20
60.208859
 30
0.0
 10
142.531082
 20
60.138457
 30
0.0
  0
SPLINE
  5
39c
100
AcDbEntity
  8
design
 62
1
100
AcDbSpline
 70
8
 71
3
 72
8
 73
4
 74
0
 40
0
 40
0
 40
0
 40
0
 40
1
 40
1
 40
1
 40
1
 10
142.531082
 20
60.138457
 30
0.0
 10
142.489666
 20
60.068068
 30
0.0
 10
142.450693
 20
59.997429
 30
0.0
 10
142.409277
 20
59.926776
 30
0.0
  0
LWPOLYLINE
  5
39d
100
AcDbEntity
  8
design
 62
1
100
AcDbPolyline
 90
2
 70
0
 10
143.917110
 20
59.620832
 30
0.0
 10
142.655304
 20
60.349415
 30
0.0
  0
SPLINE
  5
39e
100
AcDbEntity
  8
design
 62
1
100
AcDbSpline
 70
8
 71
3
 72
8
 73
4
 74
0
 40
0
 40
0
 40
0
 40
0
 40
1
 40
1
 40
1
 40
1
 10
143.671082
 20
59.198443
 30
0.0
 10
143.295957
 20
58.538804
 30
0.0
 10
142.950054
 20
57.864790
 30
0.0
 10
142.628513
 20
57.177623
 30
0.0
  0
SPLINE
  5
39f
100
AcDbEntity
  8
design
 62
1
100
AcDbSpline
 70
8
 71
3
 72
8
 73
4
 74
0
 40
0
 40
0
 40
0
 40
0
 40
1
 40
1
 40
1
 40
1
 10
142.628513
 20
57.177623
 30
0.0
 10
142.431207
 20
56.757179
 30
0.0
 10
142.246082
 20
56.331873
 30
0.0
 10
142.070693
 20
55.902429
 30
0.0
  0
SPLINE
  5
3a0
100
AcDbEntity
  8
design
 62
1
100
AcDbSpline
 70
8
 71
3
 72
8
 73
4
 74
0
 40
0
 40
0
 40
0
 40
0
 40
1
 40
1
 40
1
 40
1
 10
142.070693
 20
55.902429
 30
0.0
 10
141.235179
 20
53.864068
 30
0.0
 10
140.638388
 20
51.736054
 30
0.0
 10
140.292485
 20
49.561040
 30
0.0
  0
SPLINE
  5
3a1
100
AcDbEntity
  8
design
 62
1
100
AcDbSpline
 70
8
 71
3
 72
8
 73
4
 74
0
 40
0
 40
0
 40
0
 40
0
 40
1
 40
1
 40
1
 40
1
 10
140.292485
 20
49.561040
 30
0.0
 10
140.146332
 20
48.643679
 30
0.0
 10
140.044027
 20
47.719748
 30
0.0
 10
139.987999
 20
46.792401
 30
0.0
  0
SPLINE
  5
3a2
100
AcDbEntity
  8
design
 62
1
100
AcDbSpline
 70
8
 71
3
 72
8
 73
4
 74
0
 40
0
 40
0
 40
0
 40
0
 40
1
 40
1
 40
1
 40
1
 10
139.987999
 20
46.792401
 30
0.0
 10
139.949027
 20
46.188540
 30
0.0
 10
139.931971
 20
45.583457
 30
0.0
 10
139.931971
 20
44.978373
 30
0.0
  0
LWPOLYLINE
  5
3a3
100
AcDbEntity
  8
design
 62
1
100
AcDbPolyline
 90
2
 70
0
 10
142.409277
 20
59.926776
 30
0.0
 10
143.671082
 20
59.198443
 30
0.0
  0
LWPOLYLINE
  5
3a4
100
AcDbEntity
  8
design
 62
1
100
AcDbPolyline
 90
2
 70
0
 10
139.931971
 20
44.978373
 30
0.0
 10
137.018624
 20
44.978373
 30
0.0
  0
SPLINE
  5
3a5
100
AcDbEntity
  8
design
 62
1
100
AcDbSpline
 70
8
 71
3
 72
8
 73
4
 74
0
 40
0
 40
0
 40
0
 40
0
 40
1
 40
1
 40
1
 40
1
 10
162.836763
 20
42.636012
 30
0.0
 10
163.007277
 20
41.800984
 30
0.0
 10
163.292277
 20
41.197859
 30
0.0
 10
163.696638
 20
40.826873
 30
0.0
  0
SPLINE
  5
3a6
100
AcDbEntity
  8
design
 62
1
100
AcDbSpline
 70
8
 71
3
 72
8
 73
4
 74
0
 40
0
 40
0
 40
0
 40
0
 40
1
 40
1
 40
1
 40
1
 10
163.696638
 20
40.826873
 30
0.0
 10
164.105874
 20
40.461234
 30
0.0
 10
164.602791
 20
40.278540
 30
0.0
 10
165.187416
 20
40.278540
 30
0.0
  0
SPLINE
  5
3a7
100
AcDbEntity
  8
design
 62
1
100
AcDbSpline
 70
8
 71
3
 72
8
 73
4
 74
0
 40
0
 40
0
 40
0
 40
0
 40
1
 40
1
 40
1
 40
1
 10
165.187416
 20
40.278540
 30
0.0
 10
165.879207
 20
40.278540
 30
0.0
 10
166.463818
 20
40.518484
 30
0.0
 10
166.938818
 20
40.998846
 30
0.0
  0
SPLINE
  5
3a8
100
AcDbEntity
  8
design
 62
1
100
AcDbSpline
 70
8
 71
3
 72
8
 73
4
 74
0
 40
0
 40
0
 40
0
 40
0
 40
1
 40
1
 40
1
 40
1
 10
166.938818
 20
40.998846
 30
0.0
 10
167.418693
 20
41.478957
 30
0.0
 10
167.657416
 20
42.073804
 30
0.0
 10
167.657416
 20
42.783387
 30
0.0
  0
SPLINE
  5
3a9
100
AcDbEntity
  8
design
 62
1
100
AcDbSpline
 70
8
 71
3
 72
8
 73
4
 74
0
 40
0
 40
0
 40
0
 40
0
 40
1
 40
1
 40
1
 40
1
 10
167.657416
 20
42.783387
 30
0.0
 10
167.657416
 20
43.459832
 30
0.0
 10
167.438179
 20
44.016679
 30
0.0
 10
166.994846
 20
44.453193
 30
0.0
  0
SPLINE
  5
3aa
100
AcDbEntity
  8
design
 62
1
100
AcDbSpline
 70
8
 71
3
 72
8
 73
4
 74
0
 40
0
 40
0
 40
0
 40
0
 40
1
 40
1
 40
1
 40
1
 10
166.994846
 20
44.453193
 30
0.0
 10
166.553957
 20
44.895068
 30
0.0
 10
165.991263
 20
45.116248
 30
0.0
 10
165.309207
 20
45.116248
 30
0.0
  0
SPLINE
  5
3ab
100
AcDbEntity
  8
design
 62
1
100
AcDbSpline
 70
8
 71
3
 72
8
 73
4
 74
0
 40
0
 40
0
 40
0
 40
0
 40
1
 40
1
 40
1
 40
1
 10
165.309207
 20
45.116248
 30
0.0
 10
165.031513
 20
45.116248
 30
0.0
 10
164.683179
 20
45.061443
 30
0.0
 10
164.269068
 20
44.952554
 30
0.0
  0
LWPOLYLINE
  5
3ac
100
AcDbEntity
  8
design
 62
1
100
AcDbPolyline
 90
2
 70
0
 10
161.363041
 20
42.439443
 30
0.0
 10
162.836763
 20
42.636012
 30
0.0
  0
SPLINE
  5
3ad
100
AcDbEntity
  8
design
 62
1
100
AcDbSpline
 70
8
 71
3
 72
8
 73
4
 74
0
 40
0
 40
0
 40
0
 40
0
 40
1
 40
1
 40
1
 40
1
 10
164.432277
 20
46.245776
 30
0.0
 10
164.532152
 20
46.234818
 30
0.0
 10
164.610096
 20
46.229457
 30
0.0
 10
164.670999
 20
46.229457
 30
0.0
  0
SPLINE
  5
3ae
100
AcDbEntity
  8
design
 62
1
100
AcDbSpline
 70
8
 71
3
 72
8
 73
4
 74
0
 40
0
 40
0
 40
0
 40
0
 40
1
 40
1
 40
1
 40
1
 10
164.670999
 20
46.229457
 30
0.0
 10
165.299457
 20
46.229457
 30
0.0
 10
165.862152
 20
46.393151
 30
0.0
 10
166.363943
 20
46.720540
 30
0.0
  0
SPLINE
  5
3af
100
AcDbEntity
  8
design
 62
1
100
AcDbSpline
 70
8
 71
3
 72
8
 73
4
 74
0
 40
0
 40
0
 40
0
 40
0
 40
1
 40
1
 40
1
 40
1
 10
166.363943
 20
46.720540
 30
0.0
 10
166.868179
 20
47.047915
 30
0.0
 10
167.119082
 20
47.552637
 30
0.0
 10
167.119082
 20
48.234929
 30
0.0
  0
SPLINE
  5
3b0
100
AcDbEntity
  8
design
 62
1
100
AcDbSpline
 70
8
 71
3
 72
8
 73
4
 74
0
 40
0
 40
0
 40
0
 40
0
 40
1
 40
1
 40
1
 40
1
 10
167.119082
 20
48.234929
 30
0.0
 10
167.119082
 20
48.774971
 30
0.0
 10
166.936388
 20
49.222457
 30
0.0
 10
166.568568
 20
49.577359
 30
0.0
  0
SPLINE
  5
3b1
100
AcDbEntity
  8
design
 62
1
100
AcDbSpline
 70
8
 71
3
 72
8
 73
4
 74
0
 40
0
 40
0
 40
0
 40
0
 40
1
 40
1
 40
1
 40
1
 10
166.568568
 20
49.577359
 30
0.0
 10
166.203179
 20
49.932026
 30
0.0
 10
165.733054
 20
50.109359
 30
0.0
 10
165.153304
 20
50.109359
 30
0.0
  0
SPLINE
  5
3b2
100
AcDbEntity
  8
design
 62
1
100
AcDbSpline
 70
8
 71
3
 72
8
 73
4
 74
0
 40
0
 40
0
 40
0
 40
0
 40
1
 40
1
 40
1
 40
1
 10
165.153304
 20
50.109359
 30
0.0
 10
164.580874
 20
50.109359
 30
0.0
 10
164.103429
 20
49.929346
 30
0.0
 10
163.720999
 20
49.569082
 30
0.0
  0
SPLINE
  5
3b3
100
AcDbEntity
  8
design
 62
1
100
AcDbSpline
 70
8
 71
3
 72
8
 73
4
 74
0
 40
0
 40
0
 40
0
 40
0
 40
1
 40
1
 40
1
 40
1
 10
163.720999
 20
49.569082
 30
0.0
 10
163.338554
 20
49.209054
 30
0.0
 10
163.092527
 20
48.668776
 30
0.0
 10
162.985360
 20
47.948471
 30
0.0
  0
LWPOLYLINE
  5
3b4
100
AcDbEntity
  8
design
 62
1
100
AcDbPolyline
 90
2
 70
0
 10
164.269068
 20
44.952554
 30
0.0
 10
164.432277
 20
46.245776
 30
0.0
  0
SPLINE
  5
3b5
100
AcDbEntity
  8
design
 62
1
100
AcDbSpline
 70
8
 71
3
 72
8
 73
4
 74
0
 40
0
 40
0
 40
0
 40
0
 40
1
 40
1
 40
1
 40
1
 10
161.511638
 20
48.210332
 30
0.0
 10
161.691888
 20
49.198096
 30
0.0
 10
162.101124
 20
49.961984
 30
0.0
 10
162.739332
 20
50.502276
 30
0.0
  0
SPLINE
  5
3b6
100
AcDbEntity
  8
design
 62
1
100
AcDbSpline
 70
8
 71
3
 72
8
 73
4
 74
0
 40
0
 40
0
 40
0
 40
0
 40
1
 40
1
 40
1
 40
1
 10
162.739332
 20
50.502276
 30
0.0
 10
163.377527
 20
51.047915
 30
0.0
 10
164.171638
 20
51.320734
 30
0.0
 10
165.121638
 20
51.320734
 30
0.0
  0
SPLINE
  5
3b7
100
AcDbEntity
  8
design
 62
1
100
AcDbSpline
 70
8
 71
3
 72
8
 73
4
 74
0
 40
0
 40
0
 40
0
 40
0
 40
1
 40
1
 40
1
 40
1
 10
165.121638
 20
51.320734
 30
0.0
 10
165.776902
 20
51.320734
 30
0.0
 10
166.378568
 20
51.178971
 30
0.0
 10
166.929082
 20
50.895179
 30
0.0
  0
SPLINE
  5
3b8
100
AcDbEntity
  8
design
 62
1
100
AcDbSpline
 70
8
 71
3
 72
8
 73
4
 74
0
 40
0
 40
0
 40
0
 40
0
 40
1
 40
1
 40
1
 40
1
 10
166.929082
 20
50.895179
 30
0.0
 10
167.482027
 20
50.616762
 30
0.0
 10
167.900999
 20
50.234818
 30
0.0
 10
168.190874
 20
49.749096
 30
0.0
  0
SPLINE
  5
3b9
100
AcDbEntity
  8
design
 62
1
100
AcDbSpline
 70
8
 71
3
 72
8
 73
4
 74
0
 40
0
 40
0
 40
0
 40
0
 40
1
 40
1
 40
1
 40
1
 10
168.190874
 20
49.749096
 30
0.0
 10
168.485624
 20
49.263373
 30
0.0
 10
168.631777
 20
48.747943
 30
0.0
 10
168.631777
 20
48.202054
 30
0.0
  0
SPLINE
  5
3ba
100
AcDbEntity
  8
design
 62
1
100
AcDbSpline
 70
8
 71
3
 72
8
 73
4
 74
0
 40
0
 40
0
 40
0
 40
0
 40
1
 40
1
 40
1
 40
1
 10
168.631777
 20
48.202054
 30
0.0
 10
168.631777
 20
47.683693
 30
0.0
 10
168.492929
 20
47.211609
 30
0.0
 10
168.215235
 20
46.786054
 30
0.0
  0
SPLINE
  5
3bb
100
AcDbEntity
  8
design
 62
1
100
AcDbSpline
 70
8
 71
3
 72
8
 73
4
 74
0
 40
0
 40
0
 40
0
 40
0
 40
1
 40
1
 40
1
 40
1
 10
168.215235
 20
46.786054
 30
0.0
 10
167.937541
 20
46.360262
 30
0.0
 10
167.525874
 20
46.021915
 30
0.0
 10
166.980235
 20
45.771026
 30
0.0
  0
SPLINE
  5
3bc
100
AcDbEntity
  8
design
 62
1
100
AcDbSpline
 70
8
 71
3
 72
8
 73
4
 74
0
 40
0
 40
0
 40
0
 40
0
 40
1
 40
1
 40
1
 40
1
 10
166.980235
 20
45.771026
 30
0.0
 10
167.689082
 20
45.607332
 30
0.0
 10
168.239596
 20
45.266304
 30
0.0
 10
168.631777
 20
44.747943
 30
0.0
  0
SPLINE
  5
3bd
100
AcDbEntity
  8
design
 62
1
100
AcDbSpline
 70
8
 71
3
 72
8
 73
4
 74
0
 40
0
 40
0
 40
0
 40
0
 40
1
 40
1
 40
1
 40
1
 10
168.631777
 20
44.747943
 30
0.0
 10
169.026388
 20
44.234943
 30
0.0
 10
169.221263
 20
43.590887
 30
0.0
 10
169.221263
 20
42.816026
 30
0.0
  0
SPLINE
  5
3be
100
AcDbEntity
  8
design
 62
1
100
AcDbSpline
 70
8
 71
3
 72
8
 73
4
 74
0
 40
0
 40
0
 40
0
 40
0
 40
1
 40
1
 40
1
 40
1
 10
169.221263
 20
42.816026
 30
0.0
 10
169.221263
 20
41.768346
 30
0.0
 10
168.838832
 20
40.878748
 30
0.0
 10
168.076388
 20
40.147498
 30
0.0
  0
SPLINE
  5
3bf
100
AcDbEntity
  8
design
 62
1
100
AcDbSpline
 70
8
 71
3
 72
8
 73
4
 74
0
 40
0
 40
0
 40
0
 40
0
 40
1
 40
1
 40
1
 40
1
 10
168.076388
 20
40.147498
 30
0.0
 10
167.311513
 20
39.421846
 30
0.0
 10
166.346902
 20
39.058887
 30
0.0
 10
165.177666
 20
39.058887
 30
0.0
  0
SPLINE
  5
3c0
100
AcDbEntity
  8
design
 62
1
100
AcDbSpline
 70
8
 71
3
 72
8
 73
4
 74
0
 40
0
 40
0
 40
0
 40
0
 40
1
 40
1
 40
1
 40
1
 10
165.177666
 20
39.058887
 30
0.0
 10
164.125360
 20
39.058887
 30
0.0
 10
163.248429
 20
39.372637
 30
0.0
 10
162.551763
 20
40.000123
 30
0.0
  0
SPLINE
  5
3c1
100
AcDbEntity
  8
design
 62
1
100
AcDbSpline
 70
8
 71
3
 72
8
 73
4
 74
0
 40
0
 40
0
 40
0
 40
0
 40
1
 40
1
 40
1
 40
1
 10
162.551763
 20
40.000123
 30
0.0
 10
161.857527
 20
40.627609
 30
0.0
 10
161.462916
 20
41.440957
 30
0.0
 10
161.363041
 20
42.439443
 30
0.0
  0
SPLINE
  5
3c2
100
AcDbEntity
  8
design
 62
1
100
AcDbSpline
 70
8
 71
3
 72
8
 73
4
 74
0
 40
0
 40
0
 40
0
 40
0
 40
1
 40
1
 40
1
 40
1
 10
72.949707
 20
28.249512
 30
0.0
 10
72.840096
 20
28.435623
 30
0.0
 10
72.735360
 20
28.622693
 30
0.0
 10
72.630610
 20
28.810984
 30
0.0
  0
SPLINE
  5
3c3
100
AcDbEntity
  8
design
 62
1
100
AcDbSpline
 70
8
 71
3
 72
8
 73
4
 74
0
 40
0
 40
0
 40
0
 40
0
 40
1
 40
1
 40
1
 40
1
 10
72.630610
 20
28.810984
 30
0.0
 10
72.143429
 20
29.697415
 30
0.0
 10
71.697666
 20
30.607707
 30
0.0
 10
71.300610
 20
31.537984
 30
0.0
  0
SPLINE
  5
3c4
100
AcDbEntity
  8
design
 62
1
100
AcDbSpline
 70
8
 71
3
 72
8
 73
4
 74
0
 40
0
 40
0
 40
0
 40
0
 40
1
 40
1
 40
1
 40
1
 10
71.300610
 20
31.537984
 30
0.0
 10
70.903554
 20
32.461429
 30
0.0
 10
70.555221
 20
33.404373
 30
0.0
 10
70.250735
 20
34.362165
 30
0.0
  0
SPLINE
  5
3c5
100
AcDbEntity
  8
design
 62
1
100
AcDbSpline
 70
8
 71
3
 72
8
 73
4
 74
0
 40
0
 40
0
 40
0
 40
0
 40
1
 40
1
 40
1
 40
1
 10
70.250735
 20
34.362165
 30
0.0
 10
69.941374
 20
35.346276
 30
0.0
 10
69.678291
 20
36.345971
 30
0.0
 10
69.468804
 20
37.356137
 30
0.0
  0
SPLINE
  5
3c6
100
AcDbEntity
  8
design
 62
1
100
AcDbSpline
 70
8
 71
3
 72
8
 73
4
 74
0
 40
0
 40
0
 40
0
 40
0
 40
1
 40
1
 40
1
 40
1
 10
69.468804
 20
37.356137
 30
0.0
 10
69.256888
 20
38.381901
 30
0.0
 10
69.096110
 20
39.418609
 30
0.0
 10
68.988929
 20
40.460457
 30
0.0
  0
SPLINE
  5
3c7
100
AcDbEntity
  8
design
 62
1
100
AcDbSpline
 70
8
 71
3
 72
8
 73
4
 74
0
 40
0
 40
0
 40
0
 40
0
 40
1
 40
1
 40
1
 40
1
 10
68.988929
 20
40.460457
 30
0.0
 10
68.935346
 20
40.980512
 30
0.0
 10
68.893929
 20
41.502040
 30
0.0
 10
68.867138
 20
42.024304
 30
0.0
  0
SPLINE
  5
3c8
100
AcDbEntity
  8
design
 62
1
100
AcDbSpline
 70
8
 71
3
 72
8
 73
4
 74
0
 40
0
 40
0
 40
0
 40
0
 40
1
 40
1
 40
1
 40
1
 10
68.867138
 20
42.024304
 30
0.0
 10
68.852527
 20
42.287373
 30
0.0
 10
68.842777
 20
42.550707
 30
0.0
 10
68.835471
 20
42.814262
 30
0.0
  0
SPLINE
  5
3c9
100
AcDbEntity
  8
design
 62
1
100
AcDbSpline
 70
8
 71
3
 72
8
 73
4
 74
0
 40
0
 40
0
 40
0
 40
0
 40
1
 40
1
 40
1
 40
1
 10
68.835471
 20
42.814262
 30
0.0
 10
68.830596
 20
42.946540
 30
0.0
 10
68.828166
 20
43.078804
 30
0.0
 10
68.828166
 20
43.211068
 30
0.0
  0
SPLINE
  5
3ca
100
AcDbEntity
  8
design
 62
1
100
AcDbSpline
 70
8
 71
3
 72
8
 73
4
 74
0
 40
0
 40
0
 40
0
 40
0
 40
1
 40
1
 40
1
 40
1
 10
68.828166
 20
43.211068
 30
0.0
 10
68.825735
 20
43.277332
 30
0.0
 10
68.825735
 20
43.343582
 30
0.0
 10
68.825735
 20
43.409846
 30
0.0
  0
SPLINE
  5
3cb
100
AcDbEntity
  8
design
 62
1
100
AcDbSpline
 70
8
 71
3
 72
8
 73
4
 74
0
 40
0
 40
0
 40
0
 40
0
 40
1
 40
1
 40
1
 40
1
 10
68.825735
 20
43.409846
 30
0.0
 10
68.825735
 20
43.411554
 30
0.0
 10
68.825735
 20
43.413248
 30
0.0
 10
68.825735
 20
43.414721
 30
0.0
  0
SPLINE
  5
3cc
100
AcDbEntity
  8
design
 62
1
100
AcDbSpline
 70
8
 71
3
 72
8
 73
4
 74
0
 40
0
 40
0
 40
0
 40
0
 40
1
 40
1
 40
1
 40
1
 10
68.825735
 20
43.414721
 30
0.0
 10
68.823291
 20
43.496068
 30
0.0
 10
68.823291
 20
43.577429
 30
0.0
 10
68.823291
 20
43.658790
 30
0.0
  0
SPLINE
  5
3cd
100
AcDbEntity
  8
design
 62
1
100
AcDbSpline
 70
8
 71
3
 72
8
 73
4
 74
0
 40
0
 40
0
 40
0
 40
0
 40
1
 40
1
 40
1
 40
1
 10
68.823291
 20
43.658790
 30
0.0
 10
68.823291
 20
43.745262
 30
0.0
 10
68.823291
 20
43.831734
 30
0.0
 10
68.825735
 20
43.902873
 30
0.0
  0
SPLINE
  5
3ce
100
AcDbEntity
  8
design
 62
1
100
AcDbSpline
 70
8
 71
3
 72
8
 73
4
 74
0
 40
0
 40
0
 40
0
 40
0
 40
1
 40
1
 40
1
 40
1
 10
68.825735
 20
43.902873
 30
0.0
 10
68.910985
 20
55.109734
 30
0.0
 10
74.983693
 20
64.891582
 30
0.0
 10
84.016013
 20
70.218651
 30
0.0
  0
SPLINE
  5
3cf
100
AcDbEntity
  8
design
 62
1
100
AcDbSpline
 70
8
 71
3
 72
8
 73
4
 74
0
 40
0
 40
0
 40
0
 40
0
 40
1
 40
1
 40
1
 40
1
 10
84.016013
 20
70.218651
 30
0.0
 10
84.154860
 20
70.301234
 30
0.0
 10
84.296152
 20
70.382832
 30
0.0
 10
84.437429
 20
70.463221
 30
0.0
  0
SPLINE
  5
3d0
100
AcDbEntity
  8
design
 62
1
100
AcDbSpline
 70
8
 71
3
 72
8
 73
4
 74
0
 40
0
 40
0
 40
0
 40
0
 40
1
 40
1
 40
1
 40
1
 10
84.437429
 20
70.463221
 30
0.0
 10
85.143846
 20
70.865151
 30
0.0
 10
85.867304
 20
71.239790
 30
0.0
 10
86.607818
 20
71.586179
 30
0.0
  0
LWPOLYLINE
  5
3d1
100
AcDbEntity
  8
design
 62
1
100
AcDbPolyline
 90
2
 70
0
 10
162.985360
 20
47.948471
 30
0.0
 10
161.511638
 20
48.210332
 30
0.0
  0
SPLINE
  5
3d2
100
AcDbEntity
  8
design
 62
1
100
AcDbSpline
 70
8
 71
3
 72
8
 73
4
 74
0
 40
0
 40
0
 40
0
 40
0
 40
1
 40
1
 40
1
 40
1
 10
88.205777
 20
68.160804
 30
0.0
 10
87.567568
 20
67.862401
 30
0.0
 10
86.939096
 20
67.538915
 30
0.0
 10
86.327693
 20
67.191318
 30
0.0
  0
LWPOLYLINE
  5
3d3
100
AcDbEntity
  8
design
 62
1
100
AcDbPolyline
 90
3
 70
0
 10
86.607818
 20
71.586179
 30
0.0
 10
87.406791
 20
69.873484
 30
0.0
 10
88.205777
 20
68.160804
 30
0.0
  0
SPLINE
  5
3d4
100
AcDbEntity
  8
design
 62
1
100
AcDbSpline
 70
8
 71
3
 72
8
 73
4
 74
0
 40
0
 40
0
 40
0
 40
0
 40
1
 40
1
 40
1
 40
1
 10
85.382554
 20
68.827762
 30
0.0
 10
85.341152
 20
68.804859
 30
0.0
 10
85.299735
 20
68.781721
 30
0.0
 10
85.260763
 20
68.758582
 30
0.0
  0
SPLINE
  5
3d5
100
AcDbEntity
  8
design
 62
1
100
AcDbSpline
 70
8
 71
3
 72
8
 73
4
 74
0
 40
0
 40
0
 40
0
 40
0
 40
1
 40
1
 40
1
 40
1
 10
85.260763
 20
68.758582
 30
0.0
 10
85.158457
 20
68.700596
 30
0.0
 10
85.058582
 20
68.642387
 30
0.0
 10
84.958707
 20
68.583193
 30
0.0
  0
LWPOLYLINE
  5
3d6
100
AcDbEntity
  8
design
 62
1
100
AcDbPolyline
 90
2
 70
0
 10
86.327693
 20
67.191318
 30
0.0
 10
85.382554
 20
68.827762
 30
0.0
  0
SPLINE
  5
3d7
100
AcDbEntity
  8
design
 62
1
100
AcDbSpline
 70
8
 71
3
 72
8
 73
4
 74
0
 40
0
 40
0
 40
0
 40
0
 40
1
 40
1
 40
1
 40
1
 10
85.903846
 20
66.946512
 30
0.0
 10
84.892943
 20
66.349221
 30
0.0
 10
83.923457
 20
65.686901
 30
0.0
 10
82.997818
 20
64.963679
 30
0.0
  0
SPLINE
  5
3d8
100
AcDbEntity
  8
design
 62
1
100
AcDbSpline
 70
8
 71
3
 72
8
 73
4
 74
0
 40
0
 40
0
 40
0
 40
0
 40
1
 40
1
 40
1
 40
1
 10
82.997818
 20
64.963679
 30
0.0
 10
81.324346
 20
63.655846
 30
0.0
 10
79.811652
 20
62.156554
 30
0.0
 10
78.488957
 20
60.496721
 30
0.0
  0
SPLINE
  5
3d9
100
AcDbEntity
  8
design
 62
1
100
AcDbSpline
 70
8
 71
3
 72
8
 73
4
 74
0
 40
0
 40
0
 40
0
 40
0
 40
1
 40
1
 40
1
 40
1
 10
78.488957
 20
60.496721
 30
0.0
 10
77.743568
 20
59.563526
 30
0.0
 10
77.061513
 20
58.582109
 30
0.0
 10
76.447666
 20
57.559026
 30
0.0
  0
SPLINE
  5
3da
100
AcDbEntity
  8
design
 62
1
100
AcDbSpline
 70
8
 71
3
 72
8
 73
4
 74
0
 40
0
 40
0
 40
0
 40
0
 40
1
 40
1
 40
1
 40
1
 10
76.447666
 20
57.559026
 30
0.0
 10
75.809457
 20
56.497943
 30
0.0
 10
75.244332
 20
55.393998
 30
0.0
 10
74.759582
 20
54.255457
 30
0.0
  0
SPLINE
  5
3db
100
AcDbEntity
  8
design
 62
1
100
AcDbSpline
 70
8
 71
3
 72
8
 73
4
 74
0
 40
0
 40
0
 40
0
 40
0
 40
1
 40
1
 40
1
 40
1
 10
74.759582
 20
54.255457
 30
0.0
 10
73.938693
 20
52.334012
 30
0.0
 10
73.346763
 20
50.323415
 30
0.0
 10
72.993554
 20
48.264346
 30
0.0
  0
SPLINE
  5
3dc
100
AcDbEntity
  8
design
 62
1
100
AcDbSpline
 70
8
 71
3
 72
8
 73
4
 74
0
 40
0
 40
0
 40
0
 40
0
 40
1
 40
1
 40
1
 40
1
 10
72.993554
 20
48.264346
 30
0.0
 10
72.849846
 20
47.430790
 30
0.0
 10
72.747527
 20
46.590887
 30
0.0
 10
72.681763
 20
45.747582
 30
0.0
  0
SPLINE
  5
3dd
100
AcDbEntity
  8
design
 62
1
100
AcDbSpline
 70
8
 71
3
 72
8
 73
4
 74
0
 40
0
 40
0
 40
0
 40
0
 40
1
 40
1
 40
1
 40
1
 10
72.681763
 20
45.747582
 30
0.0
 10
72.635485
 20
45.133734
 30
0.0
 10
72.611124
 20
44.518415
 30
0.0
 10
72.603818
 20
43.902873
 30
0.0
  0
LWPOLYLINE
  5
3de
100
AcDbEntity
  8
design
 62
1
100
AcDbPolyline
 90
2
 70
0
 10
84.958707
 20
68.583193
 30
0.0
 10
85.903846
 20
66.946512
 30
0.0
  0
SPLINE
  5
3df
100
AcDbEntity
  8
design
 62
1
100
AcDbSpline
 70
8
 71
3
 72
8
 73
4
 74
0
 40
0
 40
0
 40
0
 40
0
 40
1
 40
1
 40
1
 40
1
 10
70.713554
 20
43.902873
 30
0.0
 10
70.713554
 20
43.854637
 30
0.0
 10
70.713554
 20
43.806401
 30
0.0
 10
70.713554
 20
43.758179
 30
0.0
  0
SPLINE
  5
3e0
100
AcDbEntity
  8
design
 62
1
100
AcDbSpline
 70
8
 71
3
 72
8
 73
4
 74
0
 40
0
 40
0
 40
0
 40
0
 40
1
 40
1
 40
1
 40
1
 10
70.713554
 20
43.758179
 30
0.0
 10
70.713554
 20
43.643693
 30
0.0
 10
70.713554
 20
43.529207
 30
0.0
 10
70.713554
 20
43.414707
 30
0.0
  0
LWPOLYLINE
  5
3e1
100
AcDbEntity
  8
design
 62
1
100
AcDbPolyline
 90
2
 70
0
 10
72.603818
 20
43.902873
 30
0.0
 10
70.713554
 20
43.902873
 30
0.0
  0
SPLINE
  5
3e2
100
AcDbEntity
  8
design
 62
1
100
AcDbSpline
 70
8
 71
3
 72
8
 73
4
 74
0
 40
0
 40
0
 40
0
 40
0
 40
1
 40
1
 40
1
 40
1
 10
72.603818
 20
43.414707
 30
0.0
 10
72.611124
 20
42.659832
 30
0.0
 10
72.650096
 20
41.905179
 30
0.0
 10
72.718304
 20
41.153221
 30
0.0
  0
SPLINE
  5
3e3
100
AcDbEntity
  8
design
 62
1
100
AcDbSpline
 70
8
 71
3
 72
8
 73
4
 74
0
 40
0
 40
0
 40
0
 40
0
 40
1
 40
1
 40
1
 40
1
 10
72.718304
 20
41.153221
 30
0.0
 10
72.808429
 20
40.178859
 30
0.0
 10
72.949707
 20
39.210096
 30
0.0
 10
73.144582
 20
38.251082
 30
0.0
  0
SPLINE
  5
3e4
100
AcDbEntity
  8
design
 62
1
100
AcDbSpline
 70
8
 71
3
 72
8
 73
4
 74
0
 40
0
 40
0
 40
0
 40
0
 40
1
 40
1
 40
1
 40
1
 10
73.144582
 20
38.251082
 30
0.0
 10
73.500221
 20
36.494068
 30
0.0
 10
74.031249
 20
34.777248
 30
0.0
 10
74.732791
 20
33.126429
 30
0.0
  0
SPLINE
  5
3e5
100
AcDbEntity
  8
design
 62
1
100
AcDbSpline
 70
8
 71
3
 72
8
 73
4
 74
0
 40
0
 40
0
 40
0
 40
0
 40
1
 40
1
 40
1
 40
1
 10
74.732791
 20
33.126429
 30
0.0
 10
75.166388
 20
32.101651
 30
0.0
 10
75.663304
 20
31.105123
 30
0.0
 10
76.221124
 20
30.141971
 30
0.0
  0
LWPOLYLINE
  5
3e6
100
AcDbEntity
  8
design
 62
1
100
AcDbPolyline
 90
2
 70
0
 10
70.713554
 20
43.414707
 30
0.0
 10
72.603818
 20
43.414707
 30
0.0
  0
SPLINE
  5
3e7
100
AcDbEntity
  8
design
 62
1
100
AcDbSpline
 70
8
 71
3
 72
8
 73
4
 74
0
 40
0
 40
0
 40
0
 40
0
 40
1
 40
1
 40
1
 40
1
 10
123.039179
 20
29.731762
 30
0.0
 10
123.587263
 20
30.675429
 30
0.0
 10
124.074443
 20
31.651734
 30
0.0
 10
124.503166
 20
32.654596
 30
0.0
  0
SPLINE
  5
3e8
100
AcDbEntity
  8
design
 62
1
100
AcDbSpline
 70
8
 71
3
 72
8
 73
4
 74
0
 40
0
 40
0
 40
0
 40
0
 40
1
 40
1
 40
1
 40
1
 10
124.503166
 20
32.654596
 30
0.0
 10
125.324054
 20
34.576040
 30
0.0
 10
125.915985
 20
36.586873
 30
0.0
 10
126.269193
 20
38.645707
 30
0.0
  0
SPLINE
  5
3e9
100
AcDbEntity
  8
design
 62
1
100
AcDbSpline
 70
8
 71
3
 72
8
 73
4
 74
0
 40
0
 40
0
 40
0
 40
0
 40
1
 40
1
 40
1
 40
1
 10
126.269193
 20
38.645707
 30
0.0
 10
126.410471
 20
39.479512
 30
0.0
 10
126.515221
 20
40.319415
 30
0.0
 10
126.578554
 20
41.162721
 30
0.0
  0
SPLINE
  5
3ea
100
AcDbEntity
  8
design
 62
1
100
AcDbSpline
 70
8
 71
3
 72
8
 73
4
 74
0
 40
0
 40
0
 40
0
 40
0
 40
1
 40
1
 40
1
 40
1
 10
126.578554
 20
41.162721
 30
0.0
 10
126.624832
 20
41.776568
 30
0.0
 10
126.651624
 20
42.391637
 30
0.0
 10
126.656499
 20
43.007193
 30
0.0
  0
LWPOLYLINE
  5
3eb
100
AcDbEntity
  8
design
 62
1
100
AcDbPolyline
 90
2
 70
0
 10
76.221124
 20
30.141971
 30
0.0
 10
72.949707
 20
28.249512
 30
0.0
  0
SPLINE
  5
3ec
100
AcDbEntity
  8
design
 62
1
100
AcDbSpline
 70
8
 71
3
 72
8
 73
4
 74
0
 40
0
 40
0
 40
0
 40
0
 40
1
 40
1
 40
1
 40
1
 10
128.546763
 20
43.007193
 30
0.0
 10
128.546763
 20
43.055415
 30
0.0
 10
128.549193
 20
43.103651
 30
0.0
 10
128.549193
 20
43.151873
 30
0.0
  0
SPLINE
  5
3ed
100
AcDbEntity
  8
design
 62
1
100
AcDbSpline
 70
8
 71
3
 72
8
 73
4
 74
0
 40
0
 40
0
 40
0
 40
0
 40
1
 40
1
 40
1
 40
1
 10
128.549193
 20
43.151873
 30
0.0
 10
128.549193
 20
43.266373
 30
0.0
 10
128.549193
 20
43.380859
 30
0.0
 10
128.546763
 20
43.495346
 30
0.0
  0
LWPOLYLINE
  5
3ee
100
AcDbEntity
  8
design
 62
1
100
AcDbPolyline
 90
2
 70
0
 10
126.656499
 20
43.007193
 30
0.0
 10
128.546763
 20
43.007193
 30
0.0
  0
SPLINE
  5
3ef
100
AcDbEntity
  8
design
 62
1
100
AcDbSpline
 70
8
 71
3
 72
8
 73
4
 74
0
 40
0
 40
0
 40
0
 40
0
 40
1
 40
1
 40
1
 40
1
 10
126.656499
 20
43.495346
 30
0.0
 10
126.651624
 20
44.250234
 30
0.0
 10
126.612652
 20
45.004623
 30
0.0
 10
126.544443
 20
45.756596
 30
0.0
  0
SPLINE
  5
3f0
100
AcDbEntity
  8
design
 62
1
100
AcDbSpline
 70
8
 71
3
 72
8
 73
4
 74
0
 40
0
 40
0
 40
0
 40
0
 40
1
 40
1
 40
1
 40
1
 10
126.544443
 20
45.756596
 30
0.0
 10
126.456749
 20
46.723887
 30
0.0
 10
126.315471
 20
47.685582
 30
0.0
 10
126.123041
 20
48.637776
 30
0.0
  0
SPLINE
  5
3f1
100
AcDbEntity
  8
design
 62
1
100
AcDbSpline
 70
8
 71
3
 72
8
 73
4
 74
0
 40
0
 40
0
 40
0
 40
0
 40
1
 40
1
 40
1
 40
1
 10
126.123041
 20
48.637776
 30
0.0
 10
125.794193
 20
50.267401
 30
0.0
 10
125.314318
 20
51.862915
 30
0.0
 10
124.688291
 20
53.403623
 30
0.0
  0
SPLINE
  5
3f2
100
AcDbEntity
  8
design
 62
1
100
AcDbSpline
 70
8
 71
3
 72
8
 73
4
 74
0
 40
0
 40
0
 40
0
 40
0
 40
1
 40
1
 40
1
 40
1
 10
124.688291
 20
53.403623
 30
0.0
 10
124.232777
 20
54.528026
 30
0.0
 10
123.699318
 20
55.620290
 30
0.0
 10
123.097638
 20
56.672596
 30
0.0
  0
SPLINE
  5
3f3
100
AcDbEntity
  8
design
 62
1
100
AcDbSpline
 70
8
 71
3
 72
8
 73
4
 74
0
 40
0
 40
0
 40
0
 40
0
 40
1
 40
1
 40
1
 40
1
 10
123.097638
 20
56.672596
 30
0.0
 10
122.454568
 20
57.793609
 30
0.0
 10
121.731096
 20
58.867109
 30
0.0
 10
120.934568
 20
59.884832
 30
0.0
  0
SPLINE
  5
3f4
100
AcDbEntity
  8
design
 62
1
100
AcDbSpline
 70
8
 71
3
 72
8
 73
4
 74
0
 40
0
 40
0
 40
0
 40
0
 40
1
 40
1
 40
1
 40
1
 10
120.934568
 20
59.884832
 30
0.0
 10
119.628916
 20
61.557068
 30
0.0
 10
118.128402
 20
63.070748
 30
0.0
 10
116.469554
 20
64.394415
 30
0.0
  0
SPLINE
  5
3f5
100
AcDbEntity
  8
design
 62
1
100
AcDbSpline
 70
8
 71
3
 72
8
 73
4
 74
0
 40
0
 40
0
 40
0
 40
0
 40
1
 40
1
 40
1
 40
1
 10
116.469554
 20
64.394415
 30
0.0
 10
115.536596
 20
65.138832
 30
0.0
 10
114.554929
 20
65.820873
 30
0.0
 10
113.531860
 20
66.435693
 30
0.0
  0
SPLINE
  5
3f6
100
AcDbEntity
  8
design
 62
1
100
AcDbSpline
 70
8
 71
3
 72
8
 73
4
 74
0
 40
0
 40
0
 40
0
 40
0
 40
1
 40
1
 40
1
 40
1
 10
113.531860
 20
66.435693
 30
0.0
 10
113.473388
 20
66.470540
 30
0.0
 10
113.414929
 20
66.504873
 30
0.0
 10
113.358902
 20
66.538984
 30
0.0
  0
LWPOLYLINE
  5
3f7
100
AcDbEntity
  8
design
 62
1
100
AcDbPolyline
 90
2
 70
0
 10
128.546763
 20
43.495346
 30
0.0
 10
126.656499
 20
43.495346
 30
0.0
  0
SPLINE
  5
3f8
100
AcDbEntity
  8
design
 62
1
100
AcDbSpline
 70
8
 71
3
 72
8
 73
4
 74
0
 40
0
 40
0
 40
0
 40
0
 40
1
 40
1
 40
1
 40
1
 10
114.304041
 20
68.175665
 30
0.0
 10
114.162749
 20
68.258484
 30
0.0
 10
114.021471
 20
68.339846
 30
0.0
 10
113.880193
 20
68.420234
 30
0.0
  0
LWPOLYLINE
  5
3f9
100
AcDbEntity
  8
design
 62
1
100
AcDbPolyline
 90
2
 70
0
 10
113.358902
 20
66.538984
 30
0.0
 10
114.304041
 20
68.175665
 30
0.0
  0
SPLINE
  5
3fa
100
AcDbEntity
  8
design
 62
1
100
AcDbSpline
 70
8
 71
3
 72
8
 73
4
 74
0
 40
0
 40
0
 40
0
 40
0
 40
1
 40
1
 40
1
 40
1
 10
112.935054
 20
66.783540
 30
0.0
 10
112.321207
 20
67.131151
 30
0.0
 10
111.695179
 20
67.454637
 30
0.0
 10
111.056971
 20
67.753276
 30
0.0
  0
LWPOLYLINE
  5
3fb
100
AcDbEntity
  8
design
 62
1
100
AcDbPolyline
 90
2
 70
0
 10
113.880193
 20
68.420234
 30
0.0
 10
112.935054
 20
66.783540
 30
0.0
  0
SPLINE
  5
3fc
100
AcDbEntity
  8
design
 62
1
100
AcDbSpline
 70
8
 71
3
 72
8
 73
4
 74
0
 40
0
 40
0
 40
0
 40
0
 40
1
 40
1
 40
1
 40
1
 10
112.654929
 20
71.178651
 30
0.0
 10
113.388138
 20
70.835179
 30
0.0
 10
114.109166
 20
70.463471
 30
0.0
 10
114.825318
 20
70.056915
 30
0.0
  0
SPLINE
  5
3fd
100
AcDbEntity
  8
design
 62
1
100
AcDbSpline
 70
8
 71
3
 72
8
 73
4
 74
0
 40
0
 40
0
 40
0
 40
0
 40
1
 40
1
 40
1
 40
1
 10
114.825318
 20
70.056915
 30
0.0
 10
114.966596
 20
69.976526
 30
0.0
 10
115.107888
 20
69.894929
 30
0.0
 10
115.249166
 20
69.812346
 30
0.0
  0
SPLINE
  5
3fe
100
AcDbEntity
  8
design
 62
1
100
AcDbSpline
 70
8
 71
3
 72
8
 73
4
 74
0
 40
0
 40
0
 40
0
 40
0
 40
1
 40
1
 40
1
 40
1
 10
115.249166
 20
69.812346
 30
0.0
 10
124.274179
 20
64.494526
 30
0.0
 10
130.349332
 20
54.708040
 30
0.0
 10
130.437013
 20
43.495346
 30
0.0
  0
SPLINE
  5
3ff
100
AcDbEntity
  8
design
 62
1
100
AcDbSpline
 70
8
 71
3
 72
8
 73
4
 74
0
 40
0
 40
0
 40
0
 40
0
 40
1
 40
1
 40
1
 40
1
 10
130.437013
 20
43.495346
 30
0.0
 10
130.437013
 20
43.413984
 30
0.0
 10
130.437013
 20
43.332623
 30
0.0
 10
130.437013
 20
43.251262
 30
0.0
  0
SPLINE
  5
400
100
AcDbEntity
  8
design
 62
1
100
AcDbSpline
 70
8
 71
3
 72
8
 73
4
 74
0
 40
0
 40
0
 40
0
 40
0
 40
1
 40
1
 40
1
 40
1
 10
130.437013
 20
43.251262
 30
0.0
 10
130.437013
 20
43.169901
 30
0.0
 10
130.437013
 20
43.088540
 30
0.0
 10
130.437013
 20
43.007193
 30
0.0
  0
SPLINE
  5
401
100
AcDbEntity
  8
design
 62
1
100
AcDbSpline
 70
8
 71
3
 72
8
 73
4
 74
0
 40
0
 40
0
 40
0
 40
0
 40
1
 40
1
 40
1
 40
1
 10
130.437013
 20
43.007193
 30
0.0
 10
130.437013
 20
42.955790
 30
0.0
 10
130.437013
 20
42.904387
 30
0.0
 10
130.434582
 20
42.853234
 30
0.0
  0
SPLINE
  5
402
100
AcDbEntity
  8
design
 62
1
100
AcDbSpline
 70
8
 71
3
 72
8
 73
4
 74
0
 40
0
 40
0
 40
0
 40
0
 40
1
 40
1
 40
1
 40
1
 10
130.434582
 20
42.853234
 30
0.0
 10
130.434582
 20
42.720721
 30
0.0
 10
130.432152
 20
42.588457
 30
0.0
 10
130.427277
 20
42.456179
 30
0.0
  0
SPLINE
  5
403
100
AcDbEntity
  8
design
 62
1
100
AcDbSpline
 70
8
 71
3
 72
8
 73
4
 74
0
 40
0
 40
0
 40
0
 40
0
 40
1
 40
1
 40
1
 40
1
 10
130.427277
 20
42.456179
 30
0.0
 10
130.422402
 20
42.192623
 30
0.0
 10
130.410221
 20
41.929304
 30
0.0
 10
130.398041
 20
41.665984
 30
0.0
  0
SPLINE
  5
404
100
AcDbEntity
  8
design
 62
1
100
AcDbSpline
 70
8
 71
3
 72
8
 73
4
 74
0
 40
0
 40
0
 40
0
 40
0
 40
1
 40
1
 40
1
 40
1
 10
130.398041
 20
41.665984
 30
0.0
 10
130.371249
 20
41.143484
 30
0.0
 10
130.332277
 20
40.621707
 30
0.0
 10
130.278679
 20
40.101401
 30
0.0
  0
SPLINE
  5
405
100
AcDbEntity
  8
design
 62
1
100
AcDbSpline
 70
8
 71
3
 72
8
 73
4
 74
0
 40
0
 40
0
 40
0
 40
0
 40
1
 40
1
 40
1
 40
1
 10
130.278679
 20
40.101401
 30
0.0
 10
130.173943
 20
39.058832
 30
0.0
 10
130.013166
 20
38.021873
 30
0.0
 10
129.803679
 20
36.995623
 30
0.0
  0
SPLINE
  5
406
100
AcDbEntity
  8
design
 62
1
100
AcDbSpline
 70
8
 71
3
 72
8
 73
4
 74
0
 40
0
 40
0
 40
0
 40
0
 40
1
 40
1
 40
1
 40
1
 10
129.803679
 20
36.995623
 30
0.0
 10
129.596638
 20
36.000068
 30
0.0
 10
129.343304
 20
35.014984
 30
0.0
 10
129.038804
 20
34.045012
 30
0.0
  0
SPLINE
  5
407
100
AcDbEntity
  8
design
 62
1
100
AcDbSpline
 70
8
 71
3
 72
8
 73
4
 74
0
 40
0
 40
0
 40
0
 40
0
 40
1
 40
1
 40
1
 40
1
 10
129.038804
 20
34.045012
 30
0.0
 10
128.734318
 20
33.070901
 30
0.0
 10
128.381124
 20
32.112123
 30
0.0
 10
127.981624
 20
31.173332
 30
0.0
  0
SPLINE
  5
408
100
AcDbEntity
  8
design
 62
1
100
AcDbSpline
 70
8
 71
3
 72
8
 73
4
 74
0
 40
0
 40
0
 40
0
 40
0
 40
1
 40
1
 40
1
 40
1
 10
127.981624
 20
31.173332
 30
0.0
 10
127.589443
 20
30.256693
 30
0.0
 10
127.153416
 20
29.359304
 30
0.0
 10
126.675985
 20
28.485068
 30
0.0
  0
SPLINE
  5
409
100
AcDbEntity
  8
design
 62
1
100
AcDbSpline
 70
8
 71
3
 72
8
 73
4
 74
0
 40
0
 40
0
 40
0
 40
0
 40
1
 40
1
 40
1
 40
1
 10
126.675985
 20
28.485068
 30
0.0
 10
126.556624
 20
28.267776
 30
0.0
 10
126.434832
 20
28.051957
 30
0.0
 10
126.310596
 20
27.838096
 30
0.0
  0
LWPOLYLINE
  5
40a
100
AcDbEntity
  8
design
 62
1
100
AcDbPolyline
 90
3
 70
0
 10
111.056971
 20
67.753276
 30
0.0
 10
111.855957
 20
69.465721
 30
0.0
 10
112.654929
 20
71.178651
 30
0.0
  0
SPLINE
  5
40b
100
AcDbEntity
  8
design
 62
1
100
AcDbSpline
 70
8
 71
3
 72
8
 73
4
 74
0
 40
0
 40
0
 40
0
 40
0
 40
1
 40
1
 40
1
 40
1
 10
76.221124
 20
27.696082
 30
0.0
 10
76.228443
 20
27.680734
 30
0.0
 10
76.238179
 20
27.665137
 30
0.0
 10
76.247929
 20
27.649554
 30
0.0
  0
SPLINE
  5
40c
100
AcDbEntity
  8
design
 62
1
100
AcDbSpline
 70
8
 71
3
 72
8
 73
4
 74
0
 40
0
 40
0
 40
0
 40
0
 40
1
 40
1
 40
1
 40
1
 10
76.247929
 20
27.649554
 30
0.0
 10
76.886138
 20
26.550957
 30
0.0
 10
77.602291
 20
25.498401
 30
0.0
 10
78.389082
 20
24.500165
 30
0.0
  0
SPLINE
  5
40d
100
AcDbEntity
  8
design
 62
1
100
AcDbSpline
 70
8
 71
3
 72
8
 73
4
 74
0
 40
0
 40
0
 40
0
 40
0
 40
1
 40
1
 40
1
 40
1
 10
78.389082
 20
24.500165
 30
0.0
 10
79.887166
 20
22.600165
 30
0.0
 10
81.631277
 20
20.908193
 30
0.0
 10
83.575124
 20
19.469304
 30
0.0
  0
SPLINE
  5
40e
100
AcDbEntity
  8
design
 62
1
100
AcDbSpline
 70
8
 71
3
 72
8
 73
4
 74
0
 40
0
 40
0
 40
0
 40
0
 40
1
 40
1
 40
1
 40
1
 10
83.575124
 20
19.469304
 30
0.0
 10
84.325374
 20
18.914887
 30
0.0
 10
85.102429
 20
18.399693
 30
0.0
 10
85.903846
 20
17.925429
 30
0.0
  0
LWPOLYLINE
  5
40f
100
AcDbEntity
  8
design
 62
1
100
AcDbPolyline
 90
2
 70
0
 10
126.310596
 20
27.838096
 30
0.0
 10
123.039179
 20
29.731762
 30
0.0
  0
SPLINE
  5
410
100
AcDbEntity
  8
design
 62
1
100
AcDbSpline
 70
8
 71
3
 72
8
 73
4
 74
0
 40
0
 40
0
 40
0
 40
0
 40
1
 40
1
 40
1
 40
1
 10
84.958707
 20
16.288748
 30
0.0
 10
85.061027
 20
16.229068
 30
0.0
 10
85.160888
 20
16.170359
 30
0.0
 10
85.263207
 20
16.111901
 30
0.0
  0
SPLINE
  5
411
100
AcDbEntity
  8
design
 62
1
100
AcDbSpline
 70
8
 71
3
 72
8
 73
4
 74
0
 40
0
 40
0
 40
0
 40
0
 40
1
 40
1
 40
1
 40
1
 10
85.263207
 20
16.111901
 30
0.0
 10
85.302179
 20
16.089248
 30
0.0
 10
85.341152
 20
16.066596
 30
0.0
 10
85.382554
 20
16.044179
 30
0.0
  0
LWPOLYLINE
  5
412
100
AcDbEntity
  8
design
 62
1
100
AcDbPolyline
 90
2
 70
0
 10
85.903846
 20
17.925429
 30
0.0
 10
84.958707
 20
16.288748
 30
0.0
  0
SPLINE
  5
413
100
AcDbEntity
  8
design
 62
1
100
AcDbSpline
 70
8
 71
3
 72
8
 73
4
 74
0
 40
0
 40
0
 40
0
 40
0
 40
1
 40
1
 40
1
 40
1
 10
86.327693
 20
17.680859
 30
0.0
 10
86.939096
 20
17.333012
 30
0.0
 10
87.567568
 20
17.009776
 30
0.0
 10
88.205777
 20
16.711137
 30
0.0
  0
SPLINE
  5
414
100
AcDbEntity
  8
design
 62
1
100
AcDbSpline
 70
8
 71
3
 72
8
 73
4
 74
0
 40
0
 40
0
 40
0
 40
0
 40
1
 40
1
 40
1
 40
1
 10
88.205777
 20
16.711137
 30
0.0
 10
88.566291
 20
16.542318
 30
0.0
 10
88.931666
 20
16.381554
 30
0.0
 10
89.301929
 20
16.228818
 30
0.0
  0
SPLINE
  5
415
100
AcDbEntity
  8
design
 62
1
100
AcDbSpline
 70
8
 71
3
 72
8
 73
4
 74
0
 40
0
 40
0
 40
0
 40
0
 40
1
 40
1
 40
1
 40
1
 10
89.301929
 20
16.228818
 30
0.0
 10
91.226291
 20
15.431790
 30
0.0
 10
93.238346
 20
14.862040
 30
0.0
 10
95.296679
 20
14.530748
 30
0.0
  0
SPLINE
  5
416
100
AcDbEntity
  8
design
 62
1
100
AcDbSpline
 70
8
 71
3
 72
8
 73
4
 74
0
 40
0
 40
0
 40
0
 40
0
 40
1
 40
1
 40
1
 40
1
 10
95.296679
 20
14.530748
 30
0.0
 10
96.161429
 20
14.391415
 30
0.0
 10
97.035916
 20
14.294221
 30
0.0
 10
97.910416
 20
14.239415
 30
0.0
  0
SPLINE
  5
417
100
AcDbEntity
  8
design
 62
1
100
AcDbSpline
 70
8
 71
3
 72
8
 73
4
 74
0
 40
0
 40
0
 40
0
 40
0
 40
1
 40
1
 40
1
 40
1
 10
97.910416
 20
14.239415
 30
0.0
 10
98.482846
 20
14.203373
 30
0.0
 10
99.057721
 20
14.185582
 30
0.0
 10
99.632596
 20
14.185582
 30
0.0
  0
SPLINE
  5
418
100
AcDbEntity
  8
design
 62
1
100
AcDbSpline
 70
8
 71
3
 72
8
 73
4
 74
0
 40
0
 40
0
 40
0
 40
0
 40
1
 40
1
 40
1
 40
1
 10
99.632596
 20
14.185582
 30
0.0
 10
100.509513
 20
14.185582
 30
0.0
 10
101.386443
 20
14.227484
 30
0.0
 10
102.258499
 20
14.311526
 30
0.0
  0
SPLINE
  5
419
100
AcDbEntity
  8
design
 62
1
100
AcDbSpline
 70
8
 71
3
 72
8
 73
4
 74
0
 40
0
 40
0
 40
0
 40
0
 40
1
 40
1
 40
1
 40
1
 10
102.258499
 20
14.311526
 30
0.0
 10
103.198749
 20
14.401887
 30
0.0
 10
104.131707
 20
14.541471
 30
0.0
 10
105.057346
 20
14.729762
 30
0.0
  0
SPLINE
  5
41a
100
AcDbEntity
  8
design
 62
1
100
AcDbSpline
 70
8
 71
3
 72
8
 73
4
 74
0
 40
0
 40
0
 40
0
 40
0
 40
1
 40
1
 40
1
 40
1
 10
105.057346
 20
14.729762
 30
0.0
 10
106.686971
 20
15.061540
 30
0.0
 10
108.282485
 20
15.544332
 30
0.0
 10
109.821971
 20
16.171582
 30
0.0
  0
SPLINE
  5
41b
100
AcDbEntity
  8
design
 62
1
100
AcDbSpline
 70
8
 71
3
 72
8
 73
4
 74
0
 40
0
 40
0
 40
0
 40
0
 40
1
 40
1
 40
1
 40
1
 10
109.821971
 20
16.171582
 30
0.0
 10
110.238513
 20
16.341109
 30
0.0
 10
110.650179
 20
16.521123
 30
0.0
 10
111.056971
 20
16.711123
 30
0.0
  0
SPLINE
  5
41c
100
AcDbEntity
  8
design
 62
1
100
AcDbSpline
 70
8
 71
3
 72
8
 73
4
 74
0
 40
0
 40
0
 40
0
 40
0
 40
1
 40
1
 40
1
 40
1
 10
111.056971
 20
16.711123
 30
0.0
 10
111.695179
 20
17.009776
 30
0.0
 10
112.321207
 20
17.333012
 30
0.0
 10
112.935054
 20
17.680859
 30
0.0
  0
LWPOLYLINE
  5
41d
100
AcDbEntity
  8
design
 62
1
100
AcDbPolyline
 90
2
 70
0
 10
85.382554
 20
16.044179
 30
0.0
 10
86.327693
 20
17.680859
 30
0.0
  0
SPLINE
  5
41e
100
AcDbEntity
  8
design
 62
1
100
AcDbSpline
 70
8
 71
3
 72
8
 73
4
 74
0
 40
0
 40
0
 40
0
 40
0
 40
1
 40
1
 40
1
 40
1
 10
113.880193
 20
16.044179
 30
0.0
 10
113.921596
 20
16.067318
 30
0.0
 10
113.960568
 20
16.090457
 30
0.0
 10
114.001985
 20
16.113609
 30
0.0
  0
SPLINE
  5
41f
100
AcDbEntity
  8
design
 62
1
100
AcDbSpline
 70
8
 71
3
 72
8
 73
4
 74
0
 40
0
 40
0
 40
0
 40
0
 40
1
 40
1
 40
1
 40
1
 10
114.001985
 20
16.113609
 30
0.0
 10
114.101860
 20
16.171332
 30
0.0
 10
114.204166
 20
16.229790
 30
0.0
 10
114.304041
 20
16.288748
 30
0.0
  0
LWPOLYLINE
  5
420
100
AcDbEntity
  8
design
 62
1
100
AcDbPolyline
 90
2
 70
0
 10
112.935054
 20
17.680859
 30
0.0
 10
113.880193
 20
16.044179
 30
0.0
  0
SPLINE
  5
421
100
AcDbEntity
  8
design
 62
1
100
AcDbSpline
 70
8
 71
3
 72
8
 73
4
 74
0
 40
0
 40
0
 40
0
 40
0
 40
1
 40
1
 40
1
 40
1
 10
113.358902
 20
17.925429
 30
0.0
 10
114.369804
 20
18.522707
 30
0.0
 10
115.339291
 20
19.185040
 30
0.0
 10
116.264943
 20
19.908498
 30
0.0
  0
SPLINE
  5
422
100
AcDbEntity
  8
design
 62
1
100
AcDbSpline
 70
8
 71
3
 72
8
 73
4
 74
0
 40
0
 40
0
 40
0
 40
0
 40
1
 40
1
 40
1
 40
1
 10
116.264943
 20
19.908498
 30
0.0
 10
117.935971
 20
21.216332
 30
0.0
 10
119.451096
 20
22.715387
 30
0.0
 10
120.773791
 20
24.375207
 30
0.0
  0
SPLINE
  5
423
100
AcDbEntity
  8
design
 62
1
100
AcDbSpline
 70
8
 71
3
 72
8
 73
4
 74
0
 40
0
 40
0
 40
0
 40
0
 40
1
 40
1
 40
1
 40
1
 10
120.773791
 20
24.375207
 30
0.0
 10
121.519179
 20
25.308401
 30
0.0
 10
122.201235
 20
26.289832
 30
0.0
 10
122.815082
 20
27.312915
 30
0.0
  0
SPLINE
  5
424
100
AcDbEntity
  8
design
 62
1
100
AcDbSpline
 70
8
 71
3
 72
8
 73
4
 74
0
 40
0
 40
0
 40
0
 40
0
 40
1
 40
1
 40
1
 40
1
 10
122.815082
 20
27.312915
 30
0.0
 10
122.890596
 20
27.439082
 30
0.0
 10
122.966110
 20
27.565998
 30
0.0
 10
123.039179
 20
27.693637
 30
0.0
  0
LWPOLYLINE
  5
425
100
AcDbEntity
  8
design
 62
1
100
AcDbPolyline
 90
2
 70
0
 10
114.304041
 20
16.288748
 30
0.0
 10
113.358902
 20
17.925429
 30
0.0
  0
SPLINE
  5
426
100
AcDbEntity
  8
design
 62
1
100
AcDbSpline
 70
8
 71
3
 72
8
 73
4
 74
0
 40
0
 40
0
 40
0
 40
0
 40
1
 40
1
 40
1
 40
1
 10
126.310596
 20
25.799971
 30
0.0
 10
125.930596
 20
25.143248
 30
0.0
 10
125.526235
 20
24.500665
 30
0.0
 10
125.097527
 20
23.873415
 30
0.0
  0
SPLINE
  5
427
100
AcDbEntity
  8
design
 62
1
100
AcDbSpline
 70
8
 71
3
 72
8
 73
4
 74
0
 40
0
 40
0
 40
0
 40
0
 40
1
 40
1
 40
1
 40
1
 10
125.097527
 20
23.873415
 30
0.0
 10
124.532388
 20
23.045207
 30
0.0
 10
123.928291
 20
22.244526
 30
0.0
 10
123.285207
 20
21.474776
 30
0.0
  0
SPLINE
  5
428
100
AcDbEntity
  8
design
 62
1
100
AcDbSpline
 70
8
 71
3
 72
8
 73
4
 74
0
 40
0
 40
0
 40
0
 40
0
 40
1
 40
1
 40
1
 40
1
 10
123.285207
 20
21.474776
 30
0.0
 10
122.642124
 20
20.706012
 30
0.0
 10
121.964943
 20
19.969637
 30
0.0
 10
121.251235
 20
19.266637
 30
0.0
  0
SPLINE
  5
429
100
AcDbEntity
  8
design
 62
1
100
AcDbSpline
 70
8
 71
3
 72
8
 73
4
 74
0
 40
0
 40
0
 40
0
 40
0
 40
1
 40
1
 40
1
 40
1
 10
121.251235
 20
19.266637
 30
0.0
 10
119.833541
 20
17.870373
 30
0.0
 10
118.281860
 20
16.611262
 30
0.0
 10
116.625443
 20
15.512665
 30
0.0
  0
SPLINE
  5
42a
100
AcDbEntity
  8
design
 62
1
100
AcDbSpline
 70
8
 71
3
 72
8
 73
4
 74
0
 40
0
 40
0
 40
0
 40
0
 40
1
 40
1
 40
1
 40
1
 10
116.625443
 20
15.512665
 30
0.0
 10
116.172374
 20
15.213540
 30
0.0
 10
115.714416
 20
14.926346
 30
0.0
 10
115.249166
 20
14.652054
 30
0.0
  0
SPLINE
  5
42b
100
AcDbEntity
  8
design
 62
1
100
AcDbSpline
 70
8
 71
3
 72
8
 73
4
 74
0
 40
0
 40
0
 40
0
 40
0
 40
1
 40
1
 40
1
 40
1
 10
115.249166
 20
14.652054
 30
0.0
 10
115.107888
 20
14.569484
 30
0.0
 10
114.966596
 20
14.487887
 30
0.0
 10
114.825318
 20
14.407498
 30
0.0
  0
SPLINE
  5
42c
100
AcDbEntity
  8
design
 62
1
100
AcDbSpline
 70
8
 71
3
 72
8
 73
4
 74
0
 40
0
 40
0
 40
0
 40
0
 40
1
 40
1
 40
1
 40
1
 10
114.825318
 20
14.407498
 30
0.0
 10
113.831471
 20
13.842373
 30
0.0
 10
112.803513
 20
13.332776
 30
0.0
 10
111.751207
 20
12.882137
 30
0.0
  0
SPLINE
  5
42d
100
AcDbEntity
  8
design
 62
1
100
AcDbSpline
 70
8
 71
3
 72
8
 73
4
 74
0
 40
0
 40
0
 40
0
 40
0
 40
1
 40
1
 40
1
 40
1
 10
111.751207
 20
12.882137
 30
0.0
 10
110.827999
 20
12.486540
 30
0.0
 10
109.885304
 20
12.136498
 30
0.0
 10
108.927999
 20
11.833721
 30
0.0
  0
SPLINE
  5
42e
100
AcDbEntity
  8
design
 62
1
100
AcDbSpline
 70
8
 71
3
 72
8
 73
4
 74
0
 40
0
 40
0
 40
0
 40
0
 40
1
 40
1
 40
1
 40
1
 10
108.927999
 20
11.833721
 30
0.0
 10
107.943888
 20
11.522415
 30
0.0
 10
106.945166
 20
11.261290
 30
0.0
 10
105.934277
 20
11.051304
 30
0.0
  0
SPLINE
  5
42f
100
AcDbEntity
  8
design
 62
1
100
AcDbSpline
 70
8
 71
3
 72
8
 73
4
 74
0
 40
0
 40
0
 40
0
 40
0
 40
1
 40
1
 40
1
 40
1
 10
105.934277
 20
11.051304
 30
0.0
 10
104.908763
 20
10.838165
 30
0.0
 10
103.871068
 20
10.677637
 30
0.0
 10
102.828499
 20
10.569971
 30
0.0
  0
SPLINE
  5
430
100
AcDbEntity
  8
design
 62
1
100
AcDbSpline
 70
8
 71
3
 72
8
 73
4
 74
0
 40
0
 40
0
 40
0
 40
0
 40
1
 40
1
 40
1
 40
1
 10
102.828499
 20
10.569971
 30
0.0
 10
102.309652
 20
10.516387
 30
0.0
 10
101.788360
 20
10.475943
 30
0.0
 10
101.264652
 20
10.448665
 30
0.0
  0
SPLINE
  5
431
100
AcDbEntity
  8
design
 62
1
100
AcDbSpline
 70
8
 71
3
 72
8
 73
4
 74
0
 40
0
 40
0
 40
0
 40
0
 40
1
 40
1
 40
1
 40
1
 10
101.264652
 20
10.448665
 30
0.0
 10
101.001568
 20
10.435026
 30
0.0
 10
100.738499
 20
10.424554
 30
0.0
 10
100.475416
 20
10.417484
 30
0.0
  0
SPLINE
  5
432
100
AcDbEntity
  8
design
 62
1
100
AcDbSpline
 70
8
 71
3
 72
8
 73
4
 74
0
 40
0
 40
0
 40
0
 40
0
 40
1
 40
1
 40
1
 40
1
 10
100.475416
 20
10.417484
 30
0.0
 10
100.343874
 20
10.413832
 30
0.0
 10
100.212332
 20
10.411151
 30
0.0
 10
100.078360
 20
10.409207
 30
0.0
  0
SPLINE
  5
433
100
AcDbEntity
  8
design
 62
1
100
AcDbSpline
 70
8
 71
3
 72
8
 73
4
 74
0
 40
0
 40
0
 40
0
 40
0
 40
1
 40
1
 40
1
 40
1
 10
100.078360
 20
10.409207
 30
0.0
 10
100.012596
 20
10.408234
 30
0.0
 10
99.946818
 20
10.407748
 30
0.0
 10
99.881054
 20
10.407012
 30
0.0
  0
SPLINE
  5
434
100
AcDbEntity
  8
design
 62
1
100
AcDbSpline
 70
8
 71
3
 72
8
 73
4
 74
0
 40
0
 40
0
 40
0
 40
0
 40
1
 40
1
 40
1
 40
1
 10
99.881054
 20
10.407012
 30
0.0
 10
99.798235
 20
10.406596
 30
0.0
 10
99.712971
 20
10.406040
 30
0.0
 10
99.630152
 20
10.406040
 30
0.0
  0
SPLINE
  5
435
100
AcDbEntity
  8
design
 62
1
100
AcDbSpline
 70
8
 71
3
 72
8
 73
4
 74
0
 40
0
 40
0
 40
0
 40
0
 40
1
 40
1
 40
1
 40
1
 10
99.630152
 20
10.406040
 30
0.0
 10
99.498624
 20
10.406318
 30
0.0
 10
99.364638
 20
10.407012
 30
0.0
 10
99.233110
 20
10.408721
 30
0.0
  0
SPLINE
  5
436
100
AcDbEntity
  8
design
 62
1
100
AcDbSpline
 70
8
 71
3
 72
8
 73
4
 74
0
 40
0
 40
0
 40
0
 40
0
 40
1
 40
1
 40
1
 40
1
 10
99.233110
 20
10.408721
 30
0.0
 10
99.101568
 20
10.410429
 30
0.0
 10
98.967596
 20
10.412859
 30
0.0
 10
98.836054
 20
10.416026
 30
0.0
  0
SPLINE
  5
437
100
AcDbEntity
  8
design
 62
1
100
AcDbSpline
 70
8
 71
3
 72
8
 73
4
 74
0
 40
0
 40
0
 40
0
 40
0
 40
1
 40
1
 40
1
 40
1
 10
98.836054
 20
10.416026
 30
0.0
 10
98.572971
 20
10.422846
 30
0.0
 10
98.309902
 20
10.432832
 30
0.0
 10
98.046818
 20
10.446234
 30
0.0
  0
SPLINE
  5
438
100
AcDbEntity
  8
design
 62
1
100
AcDbSpline
 70
8
 71
3
 72
8
 73
4
 74
0
 40
0
 40
0
 40
0
 40
0
 40
1
 40
1
 40
1
 40
1
 10
98.046818
 20
10.446234
 30
0.0
 10
97.523096
 20
10.472540
 30
0.0
 10
97.001818
 20
10.512248
 30
0.0
 10
96.480541
 20
10.565109
 30
0.0
  0
SPLINE
  5
439
100
AcDbEntity
  8
design
 62
1
100
AcDbSpline
 70
8
 71
3
 72
8
 73
4
 74
0
 40
0
 40
0
 40
0
 40
0
 40
1
 40
1
 40
1
 40
1
 10
96.480541
 20
10.565109
 30
0.0
 10
95.437971
 20
10.671068
 30
0.0
 10
94.402707
 20
10.829887
 30
0.0
 10
93.374763
 20
11.041568
 30
0.0
  0
SPLINE
  5
43a
100
AcDbEntity
  8
design
 62
1
100
AcDbSpline
 70
8
 71
3
 72
8
 73
4
 74
0
 40
0
 40
0
 40
0
 40
0
 40
1
 40
1
 40
1
 40
1
 10
93.374763
 20
11.041568
 30
0.0
 10
92.380916
 20
11.246915
 30
0.0
 10
91.394374
 20
11.501707
 30
0.0
 10
90.424874
 20
11.805221
 30
0.0
  0
SPLINE
  5
43b
100
AcDbEntity
  8
design
 62
1
100
AcDbSpline
 70
8
 71
3
 72
8
 73
4
 74
0
 40
0
 40
0
 40
0
 40
0
 40
1
 40
1
 40
1
 40
1
 10
90.424874
 20
11.805221
 30
0.0
 10
89.450513
 20
12.109957
 30
0.0
 10
88.493207
 20
12.463165
 30
0.0
 10
87.552957
 20
12.863623
 30
0.0
  0
SPLINE
  5
43c
100
AcDbEntity
  8
design
 62
1
100
AcDbSpline
 70
8
 71
3
 72
8
 73
4
 74
0
 40
0
 40
0
 40
0
 40
0
 40
1
 40
1
 40
1
 40
1
 10
87.552957
 20
12.863623
 30
0.0
 10
86.486027
 20
13.318901
 30
0.0
 10
85.445888
 20
13.835068
 30
0.0
 10
84.437429
 20
14.407498
 30
0.0
  0
SPLINE
  5
43d
100
AcDbEntity
  8
design
 62
1
100
AcDbSpline
 70
8
 71
3
 72
8
 73
4
 74
0
 40
0
 40
0
 40
0
 40
0
 40
1
 40
1
 40
1
 40
1
 10
84.437429
 20
14.407498
 30
0.0
 10
84.296152
 20
14.487887
 30
0.0
 10
84.154860
 20
14.569484
 30
0.0
 10
84.013582
 20
14.652068
 30
0.0
  0
SPLINE
  5
43e
100
AcDbEntity
  8
design
 62
1
100
AcDbSpline
 70
8
 71
3
 72
8
 73
4
 74
0
 40
0
 40
0
 40
0
 40
0
 40
1
 40
1
 40
1
 40
1
 10
84.013582
 20
14.652068
 30
0.0
 10
83.575124
 20
14.911248
 30
0.0
 10
83.141527
 20
15.181137
 30
0.0
 10
82.715249
 20
15.461762
 30
0.0
  0
SPLINE
  5
43f
100
AcDbEntity
  8
design
 62
1
100
AcDbSpline
 70
8
 71
3
 72
8
 73
4
 74
0
 40
0
 40
0
 40
0
 40
0
 40
1
 40
1
 40
1
 40
1
 10
82.715249
 20
15.461762
 30
0.0
 10
81.877291
 20
16.013484
 30
0.0
 10
81.066138
 20
16.605415
 30
0.0
 10
80.286652
 20
17.236068
 30
0.0
  0
SPLINE
  5
440
100
AcDbEntity
  8
design
 62
1
100
AcDbSpline
 70
8
 71
3
 72
8
 73
4
 74
0
 40
0
 40
0
 40
0
 40
0
 40
1
 40
1
 40
1
 40
1
 10
80.286652
 20
17.236068
 30
0.0
 10
79.507166
 20
17.865748
 30
0.0
 10
78.759346
 20
18.532207
 30
0.0
 10
78.043179
 20
19.234234
 30
0.0
  0
SPLINE
  5
441
100
AcDbEntity
  8
design
 62
1
100
AcDbSpline
 70
8
 71
3
 72
8
 73
4
 74
0
 40
0
 40
0
 40
0
 40
0
 40
1
 40
1
 40
1
 40
1
 10
78.043179
 20
19.234234
 30
0.0
 10
76.625485
 20
20.627582
 30
0.0
 10
75.341777
 20
22.157804
 30
0.0
 10
74.216388
 20
23.796929
 30
0.0
  0
SPLINE
  5
442
100
AcDbEntity
  8
design
 62
1
100
AcDbSpline
 70
8
 71
3
 72
8
 73
4
 74
0
 40
0
 40
0
 40
0
 40
0
 40
1
 40
1
 40
1
 40
1
 10
74.216388
 20
23.796929
 30
0.0
 10
73.768179
 20
24.449512
 30
0.0
 10
73.346763
 20
25.118401
 30
0.0
 10
72.949707
 20
25.803623
 30
0.0
  0
LWPOLYLINE
  5
443
100
AcDbEntity
  8
design
 62
1
100
AcDbPolyline
 90
2
 70
0
 10
123.039179
 20
27.693637
 30
0.0
 10
126.310596
 20
25.799971
 30
0.0
  0
LWPOLYLINE
  5
444
100
AcDbEntity
  8
design
 62
1
100
AcDbPolyline
 90
2
 70
0
 10
72.949707
 20
25.803623
 30
0.0
 10
76.221124
 20
27.696082
 30
0.0
  0
SPLINE
  5
445
100
AcDbEntity
  8
design
 62
1
100
AcDbSpline
 70
8
 71
3
 72
8
 73
4
 74
0
 40
0
 40
0
 40
0
 40
0
 40
1
 40
1
 40
1
 40
1
 10
96.526818
 20
29.999221
 30
0.0
 10
96.514638
 20
30.353887
 30
0.0
 10
96.573096
 20
30.695165
 30
0.0
 10
96.697332
 20
31.022540
 30
0.0
  0
SPLINE
  5
446
100
AcDbEntity
  8
design
 62
1
100
AcDbSpline
 70
8
 71
3
 72
8
 73
4
 74
0
 40
0
 40
0
 40
0
 40
0
 40
1
 40
1
 40
1
 40
1
 10
96.697332
 20
31.022540
 30
0.0
 10
96.899513
 20
31.562832
 30
0.0
 10
97.221054
 20
32.094832
 30
0.0
 10
97.664388
 20
32.618790
 30
0.0
  0
SPLINE
  5
447
100
AcDbEntity
  8
design
 62
1
100
AcDbSpline
 70
8
 71
3
 72
8
 73
4
 74
0
 40
0
 40
0
 40
0
 40
0
 40
1
 40
1
 40
1
 40
1
 10
97.664388
 20
32.618790
 30
0.0
 10
98.112582
 20
33.142512
 30
0.0
 10
98.755666
 20
33.748318
 30
0.0
 10
99.596054
 20
34.435734
 30
0.0
  0
SPLINE
  5
448
100
AcDbEntity
  8
design
 62
1
100
AcDbSpline
 70
8
 71
3
 72
8
 73
4
 74
0
 40
0
 40
0
 40
0
 40
0
 40
1
 40
1
 40
1
 40
1
 10
99.596054
 20
34.435734
 30
0.0
 10
100.899263
 20
35.505332
 30
0.0
 10
101.781054
 20
36.351332
 30
0.0
 10
102.239013
 20
36.973457
 30
0.0
  0
SPLINE
  5
449
100
AcDbEntity
  8
design
 62
1
100
AcDbSpline
 70
8
 71
3
 72
8
 73
4
 74
0
 40
0
 40
0
 40
0
 40
0
 40
1
 40
1
 40
1
 40
1
 10
102.239013
 20
36.973457
 30
0.0
 10
102.699388
 20
37.600943
 30
0.0
 10
102.928374
 20
38.193109
 30
0.0
 10
102.928374
 20
38.749721
 30
0.0
  0
SPLINE
  5
44a
100
AcDbEntity
  8
design
 62
1
100
AcDbSpline
 70
8
 71
3
 72
8
 73
4
 74
0
 40
0
 40
0
 40
0
 40
0
 40
1
 40
1
 40
1
 40
1
 10
102.928374
 20
38.749721
 30
0.0
 10
102.928374
 20
39.333596
 30
0.0
 10
102.716443
 20
39.824679
 30
0.0
 10
102.297471
 20
40.222957
 30
0.0
  0
SPLINE
  5
44b
100
AcDbEntity
  8
design
 62
1
100
AcDbSpline
 70
8
 71
3
 72
8
 73
4
 74
0
 40
0
 40
0
 40
0
 40
0
 40
1
 40
1
 40
1
 40
1
 10
102.297471
 20
40.222957
 30
0.0
 10
101.883360
 20
40.626818
 30
0.0
 10
101.340166
 20
40.828762
 30
0.0
 10
100.667846
 20
40.828762
 30
0.0
  0
SPLINE
  5
44c
100
AcDbEntity
  8
design
 62
1
100
AcDbSpline
 70
8
 71
3
 72
8
 73
4
 74
0
 40
0
 40
0
 40
0
 40
0
 40
1
 40
1
 40
1
 40
1
 10
100.667846
 20
40.828762
 30
0.0
 10
99.958999
 20
40.828762
 30
0.0
 10
99.391443
 20
40.615859
 30
0.0
 10
98.965152
 20
40.190304
 30
0.0
  0
SPLINE
  5
44d
100
AcDbEntity
  8
design
 62
1
100
AcDbSpline
 70
8
 71
3
 72
8
 73
4
 74
0
 40
0
 40
0
 40
0
 40
0
 40
1
 40
1
 40
1
 40
1
 10
98.965152
 20
40.190304
 30
0.0
 10
98.538874
 20
39.764762
 30
0.0
 10
98.324513
 20
39.175262
 30
0.0
 10
98.319638
 20
38.422332
 30
0.0
  0
LWPOLYLINE
  5
44e
100
AcDbEntity
  8
design
 62
1
100
AcDbPolyline
 90
3
 70
0
 10
104.458110
 20
31.415457
 30
0.0
 10
104.458110
 20
29.999221
 30
0.0
 10
96.526818
 20
29.999221
 30
0.0
  0
SPLINE
  5
44f
100
AcDbEntity
  8
design
 62
1
100
AcDbSpline
 70
8
 71
3
 72
8
 73
4
 74
0
 40
0
 40
0
 40
0
 40
0
 40
1
 40
1
 40
1
 40
1
 10
96.804513
 20
38.577748
 30
0.0
 10
96.909249
 20
39.707276
 30
0.0
 10
97.298999
 20
40.566901
 30
0.0
 10
97.976179
 20
41.156151
 30
0.0
  0
SPLINE
  5
450
100
AcDbEntity
  8
design
 62
1
100
AcDbSpline
 70
8
 71
3
 72
8
 73
4
 74
0
 40
0
 40
0
 40
0
 40
0
 40
1
 40
1
 40
1
 40
1
 10
97.976179
 20
41.156151
 30
0.0
 10
98.650929
 20
41.750998
 30
0.0
 10
99.559513
 20
42.048415
 30
0.0
 10
100.701957
 20
42.048415
 30
0.0
  0
SPLINE
  5
451
100
AcDbEntity
  8
design
 62
1
100
AcDbSpline
 70
8
 71
3
 72
8
 73
4
 74
0
 40
0
 40
0
 40
0
 40
0
 40
1
 40
1
 40
1
 40
1
 10
100.701957
 20
42.048415
 30
0.0
 10
101.851693
 20
42.048415
 30
0.0
 10
102.762721
 20
41.729068
 30
0.0
 10
103.435041
 20
41.090623
 30
0.0
  0
SPLINE
  5
452
100
AcDbEntity
  8
design
 62
1
100
AcDbSpline
 70
8
 71
3
 72
8
 73
4
 74
0
 40
0
 40
0
 40
0
 40
0
 40
1
 40
1
 40
1
 40
1
 10
103.435041
 20
41.090623
 30
0.0
 10
104.107346
 20
40.452165
 30
0.0
 10
104.441068
 20
39.660984
 30
0.0
 10
104.441068
 20
38.716832
 30
0.0
  0
SPLINE
  5
453
100
AcDbEntity
  8
design
 62
1
100
AcDbSpline
 70
8
 71
3
 72
8
 73
4
 74
0
 40
0
 40
0
 40
0
 40
0
 40
1
 40
1
 40
1
 40
1
 10
104.441068
 20
38.716832
 30
0.0
 10
104.441068
 20
38.236721
 30
0.0
 10
104.343624
 20
37.764637
 30
0.0
 10
104.146318
 20
37.300846
 30
0.0
  0
SPLINE
  5
454
100
AcDbEntity
  8
design
 62
1
100
AcDbSpline
 70
8
 71
3
 72
8
 73
4
 74
0
 40
0
 40
0
 40
0
 40
0
 40
1
 40
1
 40
1
 40
1
 10
104.146318
 20
37.300846
 30
0.0
 10
103.951443
 20
36.836804
 30
0.0
 10
103.622596
 20
36.348401
 30
0.0
 10
103.164652
 20
35.835651
 30
0.0
  0
SPLINE
  5
455
100
AcDbEntity
  8
design
 62
1
100
AcDbSpline
 70
8
 71
3
 72
8
 73
4
 74
0
 40
0
 40
0
 40
0
 40
0
 40
1
 40
1
 40
1
 40
1
 10
103.164652
 20
35.835651
 30
0.0
 10
102.711568
 20
35.322651
 30
0.0
 10
101.956443
 20
34.618665
 30
0.0
 10
100.896832
 20
33.723721
 30
0.0
  0
SPLINE
  5
456
100
AcDbEntity
  8
design
 62
1
100
AcDbSpline
 70
8
 71
3
 72
8
 73
4
 74
0
 40
0
 40
0
 40
0
 40
0
 40
1
 40
1
 40
1
 40
1
 10
100.896832
 20
33.723721
 30
0.0
 10
100.012596
 20
32.981498
 30
0.0
 10
99.445027
 20
32.476776
 30
0.0
 10
99.194124
 20
32.209318
 30
0.0
  0
SPLINE
  5
457
100
AcDbEntity
  8
design
 62
1
100
AcDbSpline
 70
8
 71
3
 72
8
 73
4
 74
0
 40
0
 40
0
 40
0
 40
0
 40
1
 40
1
 40
1
 40
1
 10
99.194124
 20
32.209318
 30
0.0
 10
98.943235
 20
31.947457
 30
0.0
 10
98.736179
 20
31.682679
 30
0.0
 10
98.572971
 20
31.415457
 30
0.0
  0
LWPOLYLINE
  5
458
100
AcDbEntity
  8
design
 62
1
100
AcDbPolyline
 90
2
 70
0
 10
98.319638
 20
38.422332
 30
0.0
 10
96.804513
 20
38.577748
 30
0.0
  0
SPLINE
  5
459
100
AcDbEntity
  8
design
 62
1
100
AcDbSpline
 70
8
 71
3
 72
8
 73
4
 74
0
 40
0
 40
0
 40
0
 40
0
 40
1
 40
1
 40
1
 40
1
 10
17.082416
 20
36.451343
 30
0.0
 10
17.084860
 20
35.602430
 30
0.0
 10
17.136013
 20
34.754250
 30
0.0
 10
17.238319
 20
33.911671
 30
0.0
  0
SPLINE
  5
45a
100
AcDbEntity
  8
design
 62
1
100
AcDbSpline
 70
8
 71
3
 72
8
 73
4
 74
0
 40
0
 40
0
 40
0
 40
0
 40
1
 40
1
 40
1
 40
1
 10
17.238319
 20
33.911671
 30
0.0
 10
17.396652
 20
32.599986
 30
0.0
 10
17.676777
 20
31.305815
 30
0.0
 10
18.076277
 20
30.045821
 30
0.0
  0
SPLINE
  5
45b
100
AcDbEntity
  8
design
 62
1
100
AcDbSpline
 70
8
 71
3
 72
8
 73
4
 74
0
 40
0
 40
0
 40
0
 40
0
 40
1
 40
1
 40
1
 40
1
 10
18.076277
 20
30.045821
 30
0.0
 10
18.466013
 20
28.807700
 30
0.0
 10
18.967805
 20
27.607627
 30
0.0
 10
19.576791
 20
26.460755
 30
0.0
  0
SPLINE
  5
45c
100
AcDbEntity
  8
design
 62
1
100
AcDbSpline
 70
8
 71
3
 72
8
 73
4
 74
0
 40
0
 40
0
 40
0
 40
0
 40
1
 40
1
 40
1
 40
1
 10
19.576791
 20
26.460755
 30
0.0
 10
19.652305
 20
26.316794
 30
0.0
 10
19.730249
 20
26.173782
 30
0.0
 10
19.810638
 20
26.031721
 30
0.0
  0
SPLINE
  5
45d
100
AcDbEntity
  8
design
 62
1
100
AcDbSpline
 70
8
 71
3
 72
8
 73
4
 74
0
 40
0
 40
0
 40
0
 40
0
 40
1
 40
1
 40
1
 40
1
 10
19.810638
 20
26.031721
 30
0.0
 10
19.891013
 20
25.889755
 30
0.0
 10
19.971402
 20
25.748741
 30
0.0
 10
20.054221
 20
25.608579
 30
0.0
  0
SPLINE
  5
45e
100
AcDbEntity
  8
design
 62
1
100
AcDbSpline
 70
8
 71
3
 72
8
 73
4
 74
0
 40
0
 40
0
 40
0
 40
0
 40
1
 40
1
 40
1
 40
1
 10
20.054221
 20
25.608579
 30
0.0
 10
20.426916
 20
24.980384
 30
0.0
 10
20.828846
 20
24.371676
 30
0.0
 10
21.264874
 20
23.785062
 30
0.0
  0
SPLINE
  5
45f
100
AcDbEntity
  8
design
 62
1
100
AcDbSpline
 70
8
 71
3
 72
8
 73
4
 74
0
 40
0
 40
0
 40
0
 40
0
 40
1
 40
1
 40
1
 40
1
 10
21.264874
 20
23.785062
 30
0.0
 10
22.292819
 20
22.394333
 30
0.0
 10
23.491277
 20
21.135751
 30
0.0
 10
24.828596
 20
20.037768
 30
0.0
  0
SPLINE
  5
460
100
AcDbEntity
  8
design
 62
1
100
AcDbSpline
 70
8
 71
3
 72
8
 73
4
 74
0
 40
0
 40
0
 40
0
 40
0
 40
1
 40
1
 40
1
 40
1
 10
24.828596
 20
20.037768
 30
0.0
 10
25.364485
 20
19.597502
 30
0.0
 10
25.922319
 20
19.183789
 30
0.0
 10
26.499624
 20
18.797941
 30
0.0
  0
SPLINE
  5
461
100
AcDbEntity
  8
design
 62
1
100
AcDbSpline
 70
8
 71
3
 72
8
 73
4
 74
0
 40
0
 40
0
 40
0
 40
0
 40
1
 40
1
 40
1
 40
1
 10
26.499624
 20
18.797941
 30
0.0
 10
26.896680
 20
18.531893
 30
0.0
 10
27.303471
 20
18.279069
 30
0.0
 10
27.717569
 20
18.039864
 30
0.0
  0
SPLINE
  5
462
100
AcDbEntity
  8
design
 62
1
100
AcDbSpline
 70
8
 71
3
 72
8
 73
4
 74
0
 40
0
 40
0
 40
0
 40
0
 40
1
 40
1
 40
1
 40
1
 10
27.717569
 20
18.039864
 30
0.0
 10
28.275402
 20
17.717569
 30
0.0
 10
28.847832
 20
17.420316
 30
0.0
 10
29.432444
 20
17.149127
 30
0.0
  0
SPLINE
  5
463
100
AcDbEntity
  8
design
 62
1
100
AcDbSpline
 70
8
 71
3
 72
8
 73
4
 74
0
 40
0
 40
0
 40
0
 40
0
 40
1
 40
1
 40
1
 40
1
 10
29.432444
 20
17.149127
 30
0.0
 10
30.082832
 20
16.847514
 30
0.0
 10
30.747832
 20
16.578883
 30
0.0
 10
31.427457
 20
16.344427
 30
0.0
  0
SPLINE
  5
464
100
AcDbEntity
  8
design
 62
1
100
AcDbSpline
 70
8
 71
3
 72
8
 73
4
 74
0
 40
0
 40
0
 40
0
 40
0
 40
1
 40
1
 40
1
 40
1
 10
31.427457
 20
16.344427
 30
0.0
 10
32.462707
 20
15.986082
 30
0.0
 10
33.524763
 20
15.709290
 30
0.0
 10
34.603874
 20
15.516318
 30
0.0
  0
SPLINE
  5
465
100
AcDbEntity
  8
design
 62
1
100
AcDbSpline
 70
8
 71
3
 72
8
 73
4
 74
0
 40
0
 40
0
 40
0
 40
0
 40
1
 40
1
 40
1
 40
1
 10
34.603874
 20
15.516318
 30
0.0
 10
35.751180
 20
15.311361
 30
0.0
 10
36.913110
 20
15.201746
 30
0.0
 10
38.077471
 20
15.188615
 30
0.0
  0
SPLINE
  5
466
100
AcDbEntity
  8
design
 62
1
100
AcDbSpline
 70
8
 71
3
 72
8
 73
4
 74
0
 40
0
 40
0
 40
0
 40
0
 40
1
 40
1
 40
1
 40
1
 10
38.077471
 20
15.188615
 30
0.0
 10
38.087207
 20
15.188476
 30
0.0
 10
38.094513
 20
15.188421
 30
0.0
 10
38.101832
 20
15.188323
 30
0.0
  0
SPLINE
  5
467
100
AcDbEntity
  8
design
 62
1
100
AcDbSpline
 70
8
 71
3
 72
8
 73
4
 74
0
 40
0
 40
0
 40
0
 40
0
 40
1
 40
1
 40
1
 40
1
 10
38.101832
 20
15.188323
 30
0.0
 10
38.184652
 20
15.187476
 30
0.0
 10
38.265027
 20
15.187198
 30
0.0
 10
38.347860
 20
15.187282
 30
0.0
  0
SPLINE
  5
468
100
AcDbEntity
  8
design
 62
1
100
AcDbSpline
 70
8
 71
3
 72
8
 73
4
 74
0
 40
0
 40
0
 40
0
 40
0
 40
1
 40
1
 40
1
 40
1
 10
38.347860
 20
15.187282
 30
0.0
 10
38.428235
 20
15.187282
 30
0.0
 10
38.508624
 20
15.187476
 30
0.0
 10
38.591444
 20
15.188323
 30
0.0
  0
SPLINE
  5
469
100
AcDbEntity
  8
design
 62
1
100
AcDbSpline
 70
8
 71
3
 72
8
 73
4
 74
0
 40
0
 40
0
 40
0
 40
0
 40
1
 40
1
 40
1
 40
1
 10
38.591444
 20
15.188323
 30
0.0
 10
38.598749
 20
15.188462
 30
0.0
 10
38.608499
 20
15.188518
 30
0.0
 10
38.615805
 20
15.188615
 30
0.0
  0
SPLINE
  5
46a
100
AcDbEntity
  8
design
 62
1
100
AcDbSpline
 70
8
 71
3
 72
8
 73
4
 74
0
 40
0
 40
0
 40
0
 40
0
 40
1
 40
1
 40
1
 40
1
 10
38.615805
 20
15.188615
 30
0.0
 10
39.780166
 20
15.201746
 30
0.0
 10
40.942096
 20
15.311361
 30
0.0
 10
42.089402
 20
15.516318
 30
0.0
  0
SPLINE
  5
46b
100
AcDbEntity
  8
design
 62
1
100
AcDbSpline
 70
8
 71
3
 72
8
 73
4
 74
0
 40
0
 40
0
 40
0
 40
0
 40
1
 40
1
 40
1
 40
1
 10
42.089402
 20
15.516318
 30
0.0
 10
43.168499
 20
15.709290
 30
0.0
 10
44.230555
 20
15.986082
 30
0.0
 10
45.268249
 20
16.344427
 30
0.0
  0
SPLINE
  5
46c
100
AcDbEntity
  8
design
 62
1
100
AcDbSpline
 70
8
 71
3
 72
8
 73
4
 74
0
 40
0
 40
0
 40
0
 40
0
 40
1
 40
1
 40
1
 40
1
 10
45.268249
 20
16.344427
 30
0.0
 10
45.945430
 20
16.578883
 30
0.0
 10
46.610430
 20
16.847514
 30
0.0
 10
47.260819
 20
17.149127
 30
0.0
  0
SPLINE
  5
46d
100
AcDbEntity
  8
design
 62
1
100
AcDbSpline
 70
8
 71
3
 72
8
 73
4
 74
0
 40
0
 40
0
 40
0
 40
0
 40
1
 40
1
 40
1
 40
1
 10
47.260819
 20
17.149127
 30
0.0
 10
47.845444
 20
17.420316
 30
0.0
 10
48.417874
 20
17.717571
 30
0.0
 10
48.975694
 20
18.039864
 30
0.0
  0
SPLINE
  5
46e
100
AcDbEntity
  8
design
 62
1
100
AcDbSpline
 70
8
 71
3
 72
8
 73
4
 74
0
 40
0
 40
0
 40
0
 40
0
 40
1
 40
1
 40
1
 40
1
 10
48.975694
 20
18.039864
 30
0.0
 10
49.389805
 20
18.279069
 30
0.0
 10
49.796596
 20
18.531893
 30
0.0
 10
50.193652
 20
18.797941
 30
0.0
  0
SPLINE
  5
46f
100
AcDbEntity
  8
design
 62
1
100
AcDbSpline
 70
8
 71
3
 72
8
 73
4
 74
0
 40
0
 40
0
 40
0
 40
0
 40
1
 40
1
 40
1
 40
1
 10
50.193652
 20
18.797941
 30
0.0
 10
50.770957
 20
19.183789
 30
0.0
 10
51.328777
 20
19.597502
 30
0.0
 10
51.864680
 20
20.037768
 30
0.0
  0
SPLINE
  5
470
100
AcDbEntity
  8
design
 62
1
100
AcDbSpline
 70
8
 71
3
 72
8
 73
4
 74
0
 40
0
 40
0
 40
0
 40
0
 40
1
 40
1
 40
1
 40
1
 10
51.864680
 20
20.037768
 30
0.0
 10
53.201985
 20
21.135751
 30
0.0
 10
54.400457
 20
22.394333
 30
0.0
 10
55.430846
 20
23.785062
 30
0.0
  0
SPLINE
  5
471
100
AcDbEntity
  8
design
 62
1
100
AcDbSpline
 70
8
 71
3
 72
8
 73
4
 74
0
 40
0
 40
0
 40
0
 40
0
 40
1
 40
1
 40
1
 40
1
 10
55.430846
 20
23.785062
 30
0.0
 10
55.864430
 20
24.371676
 30
0.0
 10
56.268791
 20
24.980384
 30
0.0
 10
56.639041
 20
25.608579
 30
0.0
  0
SPLINE
  5
472
100
AcDbEntity
  8
design
 62
1
100
AcDbSpline
 70
8
 71
3
 72
8
 73
4
 74
0
 40
0
 40
0
 40
0
 40
0
 40
1
 40
1
 40
1
 40
1
 10
56.639041
 20
25.608579
 30
0.0
 10
56.721874
 20
25.748741
 30
0.0
 10
56.802249
 20
25.889755
 30
0.0
 10
56.882638
 20
26.031721
 30
0.0
  0
SPLINE
  5
473
100
AcDbEntity
  8
design
 62
1
100
AcDbSpline
 70
8
 71
3
 72
8
 73
4
 74
0
 40
0
 40
0
 40
0
 40
0
 40
1
 40
1
 40
1
 40
1
 10
56.882638
 20
26.031721
 30
0.0
 10
56.963027
 20
26.173782
 30
0.0
 10
57.040971
 20
26.316794
 30
0.0
 10
57.116485
 20
26.460755
 30
0.0
  0
SPLINE
  5
474
100
AcDbEntity
  8
design
 62
1
100
AcDbSpline
 70
8
 71
3
 72
8
 73
4
 74
0
 40
0
 40
0
 40
0
 40
0
 40
1
 40
1
 40
1
 40
1
 10
57.116485
 20
26.460755
 30
0.0
 10
57.291874
 20
26.791308
 30
0.0
 10
57.459944
 20
27.126439
 30
0.0
 10
57.615846
 20
27.465761
 30
0.0
  0
LWPOLYLINE
  5
475
100
AcDbEntity
  8
design
 62
1
100
AcDbPolyline
 90
2
 70
0
 10
98.572971
 20
31.415457
 30
0.0
 10
104.458110
 20
31.415457
 30
0.0
  0
SPLINE
  5
476
100
AcDbEntity
  8
design
 62
1
100
AcDbSpline
 70
8
 71
3
 72
8
 73
4
 74
0
 40
0
 40
0
 40
0
 40
0
 40
1
 40
1
 40
1
 40
1
 10
63.325596
 20
24.803587
 30
0.0
 10
63.021110
 20
24.149036
 30
0.0
 10
62.692263
 20
23.509123
 30
0.0
 10
62.339055
 20
22.881879
 30
0.0
  0
LWPOLYLINE
  5
477
100
AcDbEntity
  8
design
 62
1
100
AcDbPolyline
 90
2
 70
0
 10
57.615846
 20
27.465761
 30
0.0
 10
63.325596
 20
24.803587
 30
0.0
  0
SPLINE
  5
478
100
AcDbEntity
  8
design
 62
1
100
AcDbSpline
 70
8
 71
3
 72
8
 73
4
 74
0
 40
0
 40
0
 40
0
 40
0
 40
1
 40
1
 40
1
 40
1
 10
59.610846
 20
24.456762
 30
0.0
 10
59.530457
 20
24.314969
 30
0.0
 10
59.450082
 20
24.173954
 30
0.0
 10
59.367263
 20
24.033696
 30
0.0
  0
LWPOLYLINE
  5
479
100
AcDbEntity
  8
design
 62
1
100
AcDbPolyline
 90
2
 70
0
 10
62.339055
 20
22.881879
 30
0.0
 10
59.610846
 20
24.456762
 30
0.0
  0
SPLINE
  5
47a
100
AcDbEntity
  8
design
 62
1
100
AcDbSpline
 70
8
 71
3
 72
8
 73
4
 74
0
 40
0
 40
0
 40
0
 40
0
 40
1
 40
1
 40
1
 40
1
 10
62.095471
 20
22.458933
 30
0.0
 10
59.756999
 20
18.486707
 30
0.0
 10
56.397888
 20
15.050548
 30
0.0
 10
52.125319
 20
12.584782
 30
0.0
  0
SPLINE
  5
47b
100
AcDbEntity
  8
design
 62
1
100
AcDbSpline
 70
8
 71
3
 72
8
 73
4
 74
0
 40
0
 40
0
 40
0
 40
0
 40
1
 40
1
 40
1
 40
1
 10
52.125319
 20
12.584782
 30
0.0
 10
47.852749
 20
10.118133
 30
0.0
 10
43.195305
 20
8.925398
 30
0.0
 10
38.591444
 20
8.888859
 30
0.0
  0
LWPOLYLINE
  5
47c
100
AcDbEntity
  8
design
 62
1
100
AcDbPolyline
 90
2
 70
0
 10
59.367263
 20
24.033696
 30
0.0
 10
62.095471
 20
22.458933
 30
0.0
  0
SPLINE
  5
47d
100
AcDbEntity
  8
design
 62
1
100
AcDbSpline
 70
8
 71
3
 72
8
 73
4
 74
0
 40
0
 40
0
 40
0
 40
0
 40
1
 40
1
 40
1
 40
1
 10
38.591444
 20
12.038604
 30
0.0
 10
38.508624
 20
12.037826
 30
0.0
 10
38.428235
 20
12.037562
 30
0.0
 10
38.347860
 20
12.037659
 30
0.0
  0
SPLINE
  5
47e
100
AcDbEntity
  8
design
 62
1
100
AcDbSpline
 70
8
 71
3
 72
8
 73
4
 74
0
 40
0
 40
0
 40
0
 40
0
 40
1
 40
1
 40
1
 40
1
 10
38.347860
 20
12.037659
 30
0.0
 10
38.265027
 20
12.037521
 30
0.0
 10
38.184652
 20
12.037826
 30
0.0
 10
38.101832
 20
12.038604
 30
0.0
  0
LWPOLYLINE
  5
47f
100
AcDbEntity
  8
design
 62
1
100
AcDbPolyline
 90
2
 70
0
 10
38.591444
 20
8.888859
 30
0.0
 10
38.591444
 20
12.038604
 30
0.0
  0
SPLINE
  5
480
100
AcDbEntity
  8
design
 62
1
100
AcDbSpline
 70
8
 71
3
 72
8
 73
4
 74
0
 40
0
 40
0
 40
0
 40
0
 40
1
 40
1
 40
1
 40
1
 10
38.101832
 20
8.888859
 30
0.0
 10
33.497971
 20
8.925398
 30
0.0
 10
28.840527
 20
10.118133
 30
0.0
 10
24.567957
 20
12.584782
 30
0.0
  0
SPLINE
  5
481
100
AcDbEntity
  8
design
 62
1
100
AcDbSpline
 70
8
 71
3
 72
8
 73
4
 74
0
 40
0
 40
0
 40
0
 40
0
 40
1
 40
1
 40
1
 40
1
 10
24.567957
 20
12.584782
 30
0.0
 10
20.297819
 20
15.050548
 30
0.0
 10
16.936263
 20
18.486707
 30
0.0
 10
14.600235
 20
22.458933
 30
0.0
  0
LWPOLYLINE
  5
482
100
AcDbEntity
  8
design
 62
1
100
AcDbPolyline
 90
2
 70
0
 10
38.101832
 20
12.038604
 30
0.0
 10
38.101832
 20
8.888859
 30
0.0
  0
SPLINE
  5
483
100
AcDbEntity
  8
design
 62
1
100
AcDbSpline
 70
8
 71
3
 72
8
 73
4
 74
0
 40
0
 40
0
 40
0
 40
0
 40
1
 40
1
 40
1
 40
1
 10
17.326013
 20
24.033696
 30
0.0
 10
17.243194
 20
24.173954
 30
0.0
 10
17.162805
 20
24.314969
 30
0.0
 10
17.082416
 20
24.456762
 30
0.0
  0
LWPOLYLINE
  5
484
100
AcDbEntity
  8
design
 62
1
100
AcDbPolyline
 90
2
 70
0
 10
14.600235
 20
22.458933
 30
0.0
 10
17.326013
 20
24.033696
 30
0.0
  0
SPLINE
  5
485
100
AcDbEntity
  8
design
 62
1
100
AcDbSpline
 70
8
 71
3
 72
8
 73
4
 74
0
 40
0
 40
0
 40
0
 40
0
 40
1
 40
1
 40
1
 40
1
 10
14.354207
 20
22.881879
 30
0.0
 10
14.283569
 20
23.009204
 30
0.0
 10
14.212930
 20
23.136893
 30
0.0
 10
14.142291
 20
23.265265
 30
0.0
  0
SPLINE
  5
486
100
AcDbEntity
  8
design
 62
1
100
AcDbSpline
 70
8
 71
3
 72
8
 73
4
 74
0
 40
0
 40
0
 40
0
 40
0
 40
1
 40
1
 40
1
 40
1
 10
14.142291
 20
23.265265
 30
0.0
 10
14.074082
 20
23.393614
 30
0.0
 10
14.005874
 20
23.522351
 30
0.0
 10
13.937666
 20
23.651771
 30
0.0
  0
SPLINE
  5
487
100
AcDbEntity
  8
design
 62
1
100
AcDbSpline
 70
8
 71
3
 72
8
 73
4
 74
0
 40
0
 40
0
 40
0
 40
0
 40
1
 40
1
 40
1
 40
1
 10
13.937666
 20
23.651771
 30
0.0
 10
13.801263
 20
23.910196
 30
0.0
 10
13.669721
 20
24.170812
 30
0.0
 10
13.543055
 20
24.433354
 30
0.0
  0
SPLINE
  5
488
100
AcDbEntity
  8
design
 62
1
100
AcDbSpline
 70
8
 71
3
 72
8
 73
4
 74
0
 40
0
 40
0
 40
0
 40
0
 40
1
 40
1
 40
1
 40
1
 10
13.543055
 20
24.433354
 30
0.0
 10
13.282416
 20
24.974100
 30
0.0
 10
13.038819
 20
25.523323
 30
0.0
 10
12.812291
 20
26.079951
 30
0.0
  0
SPLINE
  5
489
100
AcDbEntity
  8
design
 62
1
100
AcDbSpline
 70
8
 71
3
 72
8
 73
4
 74
0
 40
0
 40
0
 40
0
 40
0
 40
1
 40
1
 40
1
 40
1
 10
12.812291
 20
26.079951
 30
0.0
 10
12.368944
 20
27.174109
 30
0.0
 10
11.996263
 20
28.296915
 30
0.0
 10
11.694207
 20
29.438744
 30
0.0
  0
SPLINE
  5
48a
100
AcDbEntity
  8
design
 62
1
100
AcDbSpline
 70
8
 71
3
 72
8
 73
4
 74
0
 40
0
 40
0
 40
0
 40
0
 40
1
 40
1
 40
1
 40
1
 10
11.694207
 20
29.438744
 30
0.0
 10
11.394582
 20
30.580671
 30
0.0
 10
11.168055
 20
31.742109
 30
0.0
 10
11.014582
 20
32.912951
 30
0.0
  0
SPLINE
  5
48b
100
AcDbEntity
  8
design
 62
1
100
AcDbSpline
 70
8
 71
3
 72
8
 73
4
 74
0
 40
0
 40
0
 40
0
 40
0
 40
1
 40
1
 40
1
 40
1
 10
11.014582
 20
32.912951
 30
0.0
 10
10.863569
 20
34.074876
 30
0.0
 10
10.785610
 20
35.247276
 30
0.0
 10
10.783180
 20
36.418702
 30
0.0
  0
SPLINE
  5
48c
100
AcDbEntity
  8
design
 62
1
100
AcDbSpline
 70
8
 71
3
 72
8
 73
4
 74
0
 40
0
 40
0
 40
0
 40
0
 40
1
 40
1
 40
1
 40
1
 10
10.783180
 20
36.418702
 30
0.0
 10
10.783180
 20
36.429907
 30
0.0
 10
10.783180
 20
36.441112
 30
0.0
 10
10.783180
 20
36.451343
 30
0.0
  0
LWPOLYLINE
  5
48d
100
AcDbEntity
  8
design
 62
1
100
AcDbPolyline
 90
2
 70
0
 10
17.082416
 20
24.456762
 30
0.0
 10
14.354207
 20
22.881879
 30
0.0
  0
SPLINE
  5
48e
100
AcDbEntity
  8
design
 62
1
100
AcDbSpline
 70
8
 71
3
 72
8
 73
4
 74
0
 40
0
 40
0
 40
0
 40
0
 40
1
 40
1
 40
1
 40
1
 10
10.783180
 20
38.896990
 30
0.0
 10
10.783180
 20
38.907464
 30
0.0
 10
10.783180
 20
38.918669
 30
0.0
 10
10.783180
 20
38.929875
 30
0.0
  0
SPLINE
  5
48f
100
AcDbEntity
  8
design
 62
1
100
AcDbSpline
 70
8
 71
3
 72
8
 73
4
 74
0
 40
0
 40
0
 40
0
 40
0
 40
1
 40
1
 40
1
 40
1
 10
10.783180
 20
38.929875
 30
0.0
 10
10.785610
 20
40.101300
 30
0.0
 10
10.863569
 20
41.273700
 30
0.0
 10
11.014582
 20
42.435625
 30
0.0
  0
SPLINE
  5
490
100
AcDbEntity
  8
design
 62
1
100
AcDbSpline
 70
8
 71
3
 72
8
 73
4
 74
0
 40
0
 40
0
 40
0
 40
0
 40
1
 40
1
 40
1
 40
1
 10
11.014582
 20
42.435625
 30
0.0
 10
11.168055
 20
43.606321
 30
0.0
 10
11.394582
 20
44.768002
 30
0.0
 10
11.694207
 20
45.909709
 30
0.0
  0
SPLINE
  5
491
100
AcDbEntity
  8
design
 62
1
100
AcDbSpline
 70
8
 71
3
 72
8
 73
4
 74
0
 40
0
 40
0
 40
0
 40
0
 40
1
 40
1
 40
1
 40
1
 10
11.694207
 20
45.909709
 30
0.0
 10
11.996263
 20
47.051661
 30
0.0
 10
12.368944
 20
48.174369
 30
0.0
 10
12.812291
 20
49.268576
 30
0.0
  0
SPLINE
  5
492
100
AcDbEntity
  8
design
 62
1
100
AcDbSpline
 70
8
 71
3
 72
8
 73
4
 74
0
 40
0
 40
0
 40
0
 40
0
 40
1
 40
1
 40
1
 40
1
 10
12.812291
 20
49.268576
 30
0.0
 10
13.038819
 20
49.825180
 30
0.0
 10
13.282416
 20
50.374476
 30
0.0
 10
13.543055
 20
50.915247
 30
0.0
  0
SPLINE
  5
493
100
AcDbEntity
  8
design
 62
1
100
AcDbSpline
 70
8
 71
3
 72
8
 73
4
 74
0
 40
0
 40
0
 40
0
 40
0
 40
1
 40
1
 40
1
 40
1
 10
13.543055
 20
50.915247
 30
0.0
 10
13.669721
 20
51.177837
 30
0.0
 10
13.801263
 20
51.438479
 30
0.0
 10
13.937666
 20
51.696927
 30
0.0
  0
SPLINE
  5
494
100
AcDbEntity
  8
design
 62
1
100
AcDbSpline
 70
8
 71
3
 72
8
 73
4
 74
0
 40
0
 40
0
 40
0
 40
0
 40
1
 40
1
 40
1
 40
1
 10
13.937666
 20
51.696927
 30
0.0
 10
14.005874
 20
51.826030
 30
0.0
 10
14.074082
 20
51.954890
 30
0.0
 10
14.142291
 20
52.083262
 30
0.0
  0
SPLINE
  5
495
100
AcDbEntity
  8
design
 62
1
100
AcDbSpline
 70
8
 71
3
 72
8
 73
4
 74
0
 40
0
 40
0
 40
0
 40
0
 40
1
 40
1
 40
1
 40
1
 10
14.142291
 20
52.083262
 30
0.0
 10
14.212930
 20
52.211634
 30
0.0
 10
14.283569
 20
52.339275
 30
0.0
 10
14.354207
 20
52.466673
 30
0.0
  0
LWPOLYLINE
  5
496
100
AcDbEntity
  8
design
 62
1
100
AcDbPolyline
 90
2
 70
0
 10
10.783180
 20
36.451343
 30
0.0
 10
17.082416
 20
36.451343
 30
0.0
  0
SPLINE
  5
497
100
AcDbEntity
  8
design
 62
1
100
AcDbSpline
 70
8
 71
3
 72
8
 73
4
 74
0
 40
0
 40
0
 40
0
 40
0
 40
1
 40
1
 40
1
 40
1
 10
17.082416
 20
50.891618
 30
0.0
 10
17.162805
 20
51.033632
 30
0.0
 10
17.243194
 20
51.174671
 30
0.0
 10
17.326013
 20
51.314734
 30
0.0
  0
LWPOLYLINE
  5
498
100
AcDbEntity
  8
design
 62
1
100
AcDbPolyline
 90
2
 70
0
 10
14.354207
 20
52.466673
 30
0.0
 10
17.082416
 20
50.891618
 30
0.0
  0
SPLINE
  5
499
100
AcDbEntity
  8
design
 62
1
100
AcDbSpline
 70
8
 71
3
 72
8
 73
4
 74
0
 40
0
 40
0
 40
0
 40
0
 40
1
 40
1
 40
1
 40
1
 10
14.600235
 20
52.889546
 30
0.0
 10
16.936263
 20
56.861772
 30
0.0
 10
20.297819
 20
60.298100
 30
0.0
 10
24.567957
 20
62.763721
 30
0.0
  0
SPLINE
  5
49a
100
AcDbEntity
  8
design
 62
1
100
AcDbSpline
 70
8
 71
3
 72
8
 73
4
 74
0
 40
0
 40
0
 40
0
 40
0
 40
1
 40
1
 40
1
 40
1
 10
24.567957
 20
62.763721
 30
0.0
 10
28.840527
 20
65.230316
 30
0.0
 10
33.497971
 20
66.423179
 30
0.0
 10
38.101832
 20
66.459721
 30
0.0
  0
LWPOLYLINE
  5
49b
100
AcDbEntity
  8
design
 62
1
100
AcDbPolyline
 90
2
 70
0
 10
17.326013
 20
51.314734
 30
0.0
 10
14.600235
 20
52.889546
 30
0.0
  0
SPLINE
  5
49c
100
AcDbEntity
  8
design
 62
1
100
AcDbSpline
 70
8
 71
3
 72
8
 73
4
 74
0
 40
0
 40
0
 40
0
 40
0
 40
1
 40
1
 40
1
 40
1
 10
38.101832
 20
63.309851
 30
0.0
 10
38.184652
 20
63.310587
 30
0.0
 10
38.265027
 20
63.310823
 30
0.0
 10
38.347860
 20
63.310823
 30
0.0
  0
SPLINE
  5
49d
100
AcDbEntity
  8
design
 62
1
100
AcDbSpline
 70
8
 71
3
 72
8
 73
4
 74
0
 40
0
 40
0
 40
0
 40
0
 40
1
 40
1
 40
1
 40
1
 10
38.347860
 20
63.310823
 30
0.0
 10
38.428235
 20
63.310823
 30
0.0
 10
38.508624
 20
63.310587
 30
0.0
 10
38.591444
 20
63.309851
 30
0.0
  0
LWPOLYLINE
  5
49e
100
AcDbEntity
  8
design
 62
1
100
AcDbPolyline
 90
2
 70
0
 10
38.101832
 20
66.459721
 30
0.0
 10
38.101832
 20
63.309851
 30
0.0
  0
SPLINE
  5
49f
100
AcDbEntity
  8
design
 62
1
100
AcDbSpline
 70
8
 71
3
 72
8
 73
4
 74
0
 40
0
 40
0
 40
0
 40
0
 40
1
 40
1
 40
1
 40
1
 10
38.591444
 20
66.459721
 30
0.0
 10
43.195305
 20
66.423179
 30
0.0
 10
47.852749
 20
65.230316
 30
0.0
 10
52.125319
 20
62.763721
 30
0.0
  0
SPLINE
  5
4a0
100
AcDbEntity
  8
design
 62
1
100
AcDbSpline
 70
8
 71
3
 72
8
 73
4
 74
0
 40
0
 40
0
 40
0
 40
0
 40
1
 40
1
 40
1
 40
1
 10
52.125319
 20
62.763721
 30
0.0
 10
56.397888
 20
60.298100
 30
0.0
 10
59.756999
 20
56.861772
 30
0.0
 10
62.095471
 20
52.889546
 30
0.0
  0
LWPOLYLINE
  5
4a1
100
AcDbEntity
  8
design
 62
1
100
AcDbPolyline
 90
2
 70
0
 10
38.591444
 20
63.309851
 30
0.0
 10
38.591444
 20
66.459721
 30
0.0
  0
SPLINE
  5
4a2
100
AcDbEntity
  8
design
 62
1
100
AcDbSpline
 70
8
 71
3
 72
8
 73
4
 74
0
 40
0
 40
0
 40
0
 40
0
 40
1
 40
1
 40
1
 40
1
 10
59.367263
 20
51.314734
 30
0.0
 10
59.450082
 20
51.174671
 30
0.0
 10
59.530457
 20
51.033632
 30
0.0
 10
59.610846
 20
50.891618
 30
0.0
  0
LWPOLYLINE
  5
4a3
100
AcDbEntity
  8
design
 62
1
100
AcDbPolyline
 90
2
 70
0
 10
62.095471
 20
52.889546
 30
0.0
 10
59.367263
 20
51.314734
 30
0.0
  0
SPLINE
  5
4a4
100
AcDbEntity
  8
design
 62
1
100
AcDbSpline
 70
8
 71
3
 72
8
 73
4
 74
0
 40
0
 40
0
 40
0
 40
0
 40
1
 40
1
 40
1
 40
1
 10
62.339055
 20
52.466673
 30
0.0
 10
62.692263
 20
51.839427
 30
0.0
 10
63.021110
 20
51.199516
 30
0.0
 10
63.325596
 20
50.544989
 30
0.0
  0
LWPOLYLINE
  5
4a5
100
AcDbEntity
  8
design
 62
1
100
AcDbPolyline
 90
2
 70
0
 10
59.610846
 20
50.891618
 30
0.0
 10
62.339055
 20
52.466673
 30
0.0
  0
SPLINE
  5
4a6
100
AcDbEntity
  8
design
 62
1
100
AcDbSpline
 70
8
 71
3
 72
8
 73
4
 74
0
 40
0
 40
0
 40
0
 40
0
 40
1
 40
1
 40
1
 40
1
 10
57.615846
 20
47.882791
 30
0.0
 10
57.459944
 20
48.222112
 30
0.0
 10
57.291874
 20
48.557048
 30
0.0
 10
57.116485
 20
48.887844
 30
0.0
  0
SPLINE
  5
4a7
100
AcDbEntity
  8
design
 62
1
100
AcDbSpline
 70
8
 71
3
 72
8
 73
4
 74
0
 40
0
 40
0
 40
0
 40
0
 40
1
 40
1
 40
1
 40
1
 10
57.116485
 20
48.887844
 30
0.0
 10
57.040971
 20
49.031562
 30
0.0
 10
56.963027
 20
49.174794
 30
0.0
 10
56.882638
 20
49.316807
 30
0.0
  0
SPLINE
  5
4a8
100
AcDbEntity
  8
design
 62
1
100
AcDbSpline
 70
8
 71
3
 72
8
 73
4
 74
0
 40
0
 40
0
 40
0
 40
0
 40
1
 40
1
 40
1
 40
1
 10
56.882638
 20
49.316807
 30
0.0
 10
56.802249
 20
49.458821
 30
0.0
 10
56.721874
 20
49.599859
 30
0.0
 10
56.639041
 20
49.739923
 30
0.0
  0
SPLINE
  5
4a9
100
AcDbEntity
  8
design
 62
1
100
AcDbSpline
 70
8
 71
3
 72
8
 73
4
 74
0
 40
0
 40
0
 40
0
 40
0
 40
1
 40
1
 40
1
 40
1
 10
56.639041
 20
49.739923
 30
0.0
 10
56.268791
 20
50.368143
 30
0.0
 10
55.864430
 20
50.976875
 30
0.0
 10
55.430846
 20
51.563440
 30
0.0
  0
SPLINE
  5
4aa
100
AcDbEntity
  8
design
 62
1
100
AcDbSpline
 70
8
 71
3
 72
8
 73
4
 74
0
 40
0
 40
0
 40
0
 40
0
 40
1
 40
1
 40
1
 40
1
 10
55.430846
 20
51.563440
 30
0.0
 10
54.400457
 20
52.954340
 30
0.0
 10
53.201985
 20
54.212727
 30
0.0
 10
51.864680
 20
55.310833
 30
0.0
  0
SPLINE
  5
4ab
100
AcDbEntity
  8
design
 62
1
100
AcDbSpline
 70
8
 71
3
 72
8
 73
4
 74
0
 40
0
 40
0
 40
0
 40
0
 40
1
 40
1
 40
1
 40
1
 10
51.864680
 20
55.310833
 30
0.0
 10
51.328777
 20
55.751001
 30
0.0
 10
50.770957
 20
56.164861
 30
0.0
 10
50.193652
 20
56.550464
 30
0.0
  0
SPLINE
  5
4ac
100
AcDbEntity
  8
design
 62
1
100
AcDbSpline
 70
8
 71
3
 72
8
 73
4
 74
0
 40
0
 40
0
 40
0
 40
0
 40
1
 40
1
 40
1
 40
1
 10
50.193652
 20
56.550464
 30
0.0
 10
49.796596
 20
56.816708
 30
0.0
 10
49.389805
 20
57.069555
 30
0.0
 10
48.975694
 20
57.308516
 30
0.0
  0
SPLINE
  5
4ad
100
AcDbEntity
  8
design
 62
1
100
AcDbSpline
 70
8
 71
3
 72
8
 73
4
 74
0
 40
0
 40
0
 40
0
 40
0
 40
1
 40
1
 40
1
 40
1
 10
48.975694
 20
57.308516
 30
0.0
 10
48.417874
 20
57.631030
 30
0.0
 10
47.845444
 20
57.928211
 30
0.0
 10
47.260819
 20
58.199326
 30
0.0
  0
SPLINE
  5
4ae
100
AcDbEntity
  8
design
 62
1
100
AcDbSpline
 70
8
 71
3
 72
8
 73
4
 74
0
 40
0
 40
0
 40
0
 40
0
 40
1
 40
1
 40
1
 40
1
 10
47.260819
 20
58.199326
 30
0.0
 10
46.610430
 20
58.501134
 30
0.0
 10
45.945430
 20
58.769572
 30
0.0
 10
45.268249
 20
59.004148
 30
0.0
  0
SPLINE
  5
4af
100
AcDbEntity
  8
design
 62
1
100
AcDbSpline
 70
8
 71
3
 72
8
 73
4
 74
0
 40
0
 40
0
 40
0
 40
0
 40
1
 40
1
 40
1
 40
1
 10
45.268249
 20
59.004148
 30
0.0
 10
44.230555
 20
59.362471
 30
0.0
 10
43.168499
 20
59.639189
 30
0.0
 10
42.089402
 20
59.832112
 30
0.0
  0
SPLINE
  5
4b0
100
AcDbEntity
  8
design
 62
1
100
AcDbSpline
 70
8
 71
3
 72
8
 73
4
 74
0
 40
0
 40
0
 40
0
 40
0
 40
1
 40
1
 40
1
 40
1
 10
42.089402
 20
59.832112
 30
0.0
 10
40.942096
 20
60.037215
 30
0.0
 10
39.780166
 20
60.146830
 30
0.0
 10
38.615805
 20
60.159984
 30
0.0
  0
SPLINE
  5
4b1
100
AcDbEntity
  8
design
 62
1
100
AcDbSpline
 70
8
 71
3
 72
8
 73
4
 74
0
 40
0
 40
0
 40
0
 40
0
 40
1
 40
1
 40
1
 40
1
 10
38.615805
 20
60.159984
 30
0.0
 10
38.608499
 20
60.159984
 30
0.0
 10
38.598749
 20
60.159984
 30
0.0
 10
38.591444
 20
60.160234
 30
0.0
  0
SPLINE
  5
4b2
100
AcDbEntity
  8
design
 62
1
100
AcDbSpline
 70
8
 71
3
 72
8
 73
4
 74
0
 40
0
 40
0
 40
0
 40
0
 40
1
 40
1
 40
1
 40
1
 10
38.591444
 20
60.160234
 30
0.0
 10
38.508624
 20
60.160971
 30
0.0
 10
38.428235
 20
60.161457
 30
0.0
 10
38.347860
 20
60.161207
 30
0.0
  0
SPLINE
  5
4b3
100
AcDbEntity
  8
design
 62
1
100
AcDbSpline
 70
8
 71
3
 72
8
 73
4
 74
0
 40
0
 40
0
 40
0
 40
0
 40
1
 40
1
 40
1
 40
1
 10
38.347860
 20
60.161207
 30
0.0
 10
38.265027
 20
60.161443
 30
0.0
 10
38.184652
 20
60.160957
 30
0.0
 10
38.101832
 20
60.160234
 30
0.0
  0
SPLINE
  5
4b4
100
AcDbEntity
  8
design
 62
1
100
AcDbSpline
 70
8
 71
3
 72
8
 73
4
 74
0
 40
0
 40
0
 40
0
 40
0
 40
1
 40
1
 40
1
 40
1
 10
38.101832
 20
60.160234
 30
0.0
 10
38.094513
 20
60.159984
 30
0.0
 10
38.087207
 20
60.159984
 30
0.0
 10
38.077471
 20
60.159984
 30
0.0
  0
SPLINE
  5
4b5
100
AcDbEntity
  8
design
 62
1
100
AcDbSpline
 70
8
 71
3
 72
8
 73
4
 74
0
 40
0
 40
0
 40
0
 40
0
 40
1
 40
1
 40
1
 40
1
 10
38.077471
 20
60.159984
 30
0.0
 10
36.913110
 20
60.146830
 30
0.0
 10
35.751180
 20
60.037215
 30
0.0
 10
34.603874
 20
59.832112
 30
0.0
  0
SPLINE
  5
4b6
100
AcDbEntity
  8
design
 62
1
100
AcDbSpline
 70
8
 71
3
 72
8
 73
4
 74
0
 40
0
 40
0
 40
0
 40
0
 40
1
 40
1
 40
1
 40
1
 10
34.603874
 20
59.832112
 30
0.0
 10
33.524763
 20
59.639189
 30
0.0
 10
32.462707
 20
59.362471
 30
0.0
 10
31.427457
 20
59.004148
 30
0.0
  0
SPLINE
  5
4b7
100
AcDbEntity
  8
design
 62
1
100
AcDbSpline
 70
8
 71
3
 72
8
 73
4
 74
0
 40
0
 40
0
 40
0
 40
0
 40
1
 40
1
 40
1
 40
1
 10
31.427457
 20
59.004148
 30
0.0
 10
30.747832
 20
58.769572
 30
0.0
 10
30.082832
 20
58.501134
 30
0.0
 10
29.432444
 20
58.199326
 30
0.0
  0
SPLINE
  5
4b8
100
AcDbEntity
  8
design
 62
1
100
AcDbSpline
 70
8
 71
3
 72
8
 73
4
 74
0
 40
0
 40
0
 40
0
 40
0
 40
1
 40
1
 40
1
 40
1
 10
29.432444
 20
58.199326
 30
0.0
 10
28.847832
 20
57.928211
 30
0.0
 10
28.275402
 20
57.631030
 30
0.0
 10
27.717569
 20
57.308516
 30
0.0
  0
SPLINE
  5
4b9
100
AcDbEntity
  8
design
 62
1
100
AcDbSpline
 70
8
 71
3
 72
8
 73
4
 74
0
 40
0
 40
0
 40
0
 40
0
 40
1
 40
1
 40
1
 40
1
 10
27.717569
 20
57.308516
 30
0.0
 10
27.303471
 20
57.069555
 30
0.0
 10
26.896680
 20
56.816708
 30
0.0
 10
26.499624
 20
56.550464
 30
0.0
  0
SPLINE
  5
4ba
100
AcDbEntity
  8
design
 62
1
100
AcDbSpline
 70
8
 71
3
 72
8
 73
4
 74
0
 40
0
 40
0
 40
0
 40
0
 40
1
 40
1
 40
1
 40
1
 10
26.499624
 20
56.550464
 30
0.0
 10
25.922319
 20
56.164861
 30
0.0
 10
25.364485
 20
55.751001
 30
0.0
 10
24.828596
 20
55.310833
 30
0.0
  0
SPLINE
  5
4bb
100
AcDbEntity
  8
design
 62
1
100
AcDbSpline
 70
8
 71
3
 72
8
 73
4
 74
0
 40
0
 40
0
 40
0
 40
0
 40
1
 40
1
 40
1
 40
1
 10
24.828596
 20
55.310833
 30
0.0
 10
23.491277
 20
54.212727
 30
0.0
 10
22.292819
 20
52.954340
 30
0.0
 10
21.264874
 20
51.563440
 30
0.0
  0
SPLINE
  5
4bc
100
AcDbEntity
  8
design
 62
1
100
AcDbSpline
 70
8
 71
3
 72
8
 73
4
 74
0
 40
0
 40
0
 40
0
 40
0
 40
1
 40
1
 40
1
 40
1
 10
21.264874
 20
51.563440
 30
0.0
 10
20.828846
 20
50.976875
 30
0.0
 10
20.426916
 20
50.368143
 30
0.0
 10
20.054221
 20
49.739923
 30
0.0
  0
SPLINE
  5
4bd
100
AcDbEntity
  8
design
 62
1
100
AcDbSpline
 70
8
 71
3
 72
8
 73
4
 74
0
 40
0
 40
0
 40
0
 40
0
 40
1
 40
1
 40
1
 40
1
 10
20.054221
 20
49.739923
 30
0.0
 10
19.971402
 20
49.599859
 30
0.0
 10
19.891013
 20
49.458821
 30
0.0
 10
19.810638
 20
49.316807
 30
0.0
  0
SPLINE
  5
4be
100
AcDbEntity
  8
design
 62
1
100
AcDbSpline
 70
8
 71
3
 72
8
 73
4
 74
0
 40
0
 40
0
 40
0
 40
0
 40
1
 40
1
 40
1
 40
1
 10
19.810638
 20
49.316807
 30
0.0
 10
19.730249
 20
49.174794
 30
0.0
 10
19.652305
 20
49.031562
 30
0.0
 10
19.576791
 20
48.887844
 30
0.0
  0
SPLINE
  5
4bf
100
AcDbEntity
  8
design
 62
1
100
AcDbSpline
 70
8
 71
3
 72
8
 73
4
 74
0
 40
0
 40
0
 40
0
 40
0
 40
1
 40
1
 40
1
 40
1
 10
19.576791
 20
48.887844
 30
0.0
 10
18.967805
 20
47.740777
 30
0.0
 10
18.466013
 20
46.540852
 30
0.0
 10
18.076277
 20
45.302683
 30
0.0
  0
SPLINE
  5
4c0
100
AcDbEntity
  8
design
 62
1
100
AcDbSpline
 70
8
 71
3
 72
8
 73
4
 74
0
 40
0
 40
0
 40
0
 40
0
 40
1
 40
1
 40
1
 40
1
 10
18.076277
 20
45.302683
 30
0.0
 10
17.676777
 20
44.042590
 30
0.0
 10
17.396652
 20
42.748639
 30
0.0
 10
17.238319
 20
41.436905
 30
0.0
  0
SPLINE
  5
4c1
100
AcDbEntity
  8
design
 62
1
100
AcDbSpline
 70
8
 71
3
 72
8
 73
4
 74
0
 40
0
 40
0
 40
0
 40
0
 40
1
 40
1
 40
1
 40
1
 10
17.238319
 20
41.436905
 30
0.0
 10
17.136013
 20
40.594083
 30
0.0
 10
17.084860
 20
39.746146
 30
0.0
 10
17.082416
 20
38.896990
 30
0.0
  0
LWPOLYLINE
  5
4c2
100
AcDbEntity
  8
design
 62
1
100
AcDbPolyline
 90
2
 70
0
 10
63.325596
 20
50.544989
 30
0.0
 10
57.615846
 20
47.882791
 30
0.0
  0
LWPOLYLINE
  5
4c3
100
AcDbEntity
  8
design
 62
1
100
AcDbPolyline
 90
2
 70
0
 10
17.082416
 20
38.896990
 30
0.0
 10
10.783180
 20
38.896990
 30
0.0
  0
SPLINE
  5
4c4
100
AcDbEntity
  8
design
 62
1
100
AcDbSpline
 70
8
 71
3
 72
8
 73
4
 74
0
 40
0
 40
0
 40
0
 40
0
 40
1
 40
1
 40
1
 40
1
 10
30.906166
 20
42.544023
 30
0.0
 10
30.521305
 20
42.175958
 30
0.0
 10
30.012194
 20
41.807650
 30
0.0
 10
29.383735
 20
41.439341
 30
0.0
  0
SPLINE
  5
4c5
100
AcDbEntity
  8
design
 62
1
100
AcDbSpline
 70
8
 71
3
 72
8
 73
4
 74
0
 40
0
 40
0
 40
0
 40
0
 40
1
 40
1
 40
1
 40
1
 10
29.383735
 20
41.439341
 30
0.0
 10
28.760138
 20
41.071033
 30
0.0
 10
28.197444
 20
40.794801
 30
0.0
 10
27.700527
 20
40.610890
 30
0.0
  0
LWPOLYLINE
  5
4c6
100
AcDbEntity
  8
design
 62
1
100
AcDbPolyline
 90
3
 70
0
 10
32.511430
 20
32.325386
 30
0.0
 10
30.906166
 20
32.325386
 30
0.0
 10
30.906166
 20
42.544023
 30
0.0
  0
SPLINE
  5
4c7
100
AcDbEntity
  8
design
 62
1
100
AcDbSpline
 70
8
 71
3
 72
8
 73
4
 74
0
 40
0
 40
0
 40
0
 40
0
 40
1
 40
1
 40
1
 40
1
 10
27.700527
 20
42.161100
 30
0.0
 10
28.596930
 20
42.582511
 30
0.0
 10
29.381291
 20
43.093562
 30
0.0
 10
30.051166
 20
43.693282
 30
0.0
  0
SPLINE
  5
4c8
100
AcDbEntity
  8
design
 62
1
100
AcDbSpline
 70
8
 71
3
 72
8
 73
4
 74
0
 40
0
 40
0
 40
0
 40
0
 40
1
 40
1
 40
1
 40
1
 10
30.051166
 20
43.693282
 30
0.0
 10
30.723471
 20
44.293244
 30
0.0
 10
31.198485
 20
44.875182
 30
0.0
 10
31.476166
 20
45.439580
 30
0.0
  0
LWPOLYLINE
  5
4c9
100
AcDbEntity
  8
design
 62
1
100
AcDbPolyline
 90
2
 70
0
 10
27.700527
 20
40.610890
 30
0.0
 10
27.700527
 20
42.161100
 30
0.0
  0
LWPOLYLINE
  5
4ca
100
AcDbEntity
  8
design
 62
1
100
AcDbPolyline
 90
3
 70
0
 10
31.476166
 20
45.439580
 30
0.0
 10
32.511430
 20
45.439580
 30
0.0
 10
32.511430
 20
32.325386
 30
0.0
  0
ENDSEC
  0
SECTION
  2
OBJECTS
  0
DICTIONARY
  5
C
330
0
100
AcDbDictionary
  3
ACAD_GROUP
350
D
  3
ACAD_MLINESTYLE
350
17
  0
DICTIONARY
  5
D
330
C
100
AcDbDictionary
  0
DICTIONARY
  5
1A
330
C
100
AcDbDictionary
  0
DICTIONARY
  5
17
330
C
100
AcDbDictionary
  3
STANDARD
350
18
  0
DICTIONARY
  5
19
330
C
100
AcDbDictionary
  0
ENDSEC
  0
EOF
