  0
SECTION
  2
BLOCKS
  0
ENDSEC
  0
SECTION
  2
ENTITIES
  0
LINE
  8
0
 10
-0.199997
 20
67.292
 11
-1.75607
 21
67.292
  0
LINE
  8
0
 10
-1.75607
 20
67.292
 11
-2.04999
 21
67.3545
  0
LINE
  8
0
 10
-2.04999
 20
67.3545
 11
-2.04999
 21
60
  0
LINE
  8
0
 10
-2.04999
 20
60
 11
-2.45
 21
60
  0
LINE
  8
0
 10
-2.45
 20
60
 11
-2.45
 21
67.4395
  0
LINE
  8
0
 10
-2.45
 20
67.4395
 11
-4.2
 21
67.8115
  0
LINE
  8
0
 10
-4.2
 20
67.8115
 11
-4.2
 21
62
  0
LINE
  8
0
 10
-4.2
 20
62
 11
-4.59999
 21
62
  0
LINE
  8
0
 10
-4.59999
 20
62
 11
-4.59999
 21
67.8965
  0
LINE
  8
0
 10
-4.59999
 20
67.8965
 11
-5.19148
 21
68.0222
  0
LINE
  8
0
 10
-5.19148
 20
68.0222
 11
-6.45
 21
68.5826
  0
LINE
  8
0
 10
-6.45
 20
68.5826
 11
-6.45
 21
60
  0
LINE
  8
0
 10
-6.45
 20
60
 11
-6.84999
 21
60
  0
LINE
  8
0
 10
-6.84999
 20
60
 11
-6.84999
 21
68.7607
  0
LINE
  8
0
 10
-6.84999
 20
68.7607
 11
-8.39999
 21
69.4508
  0
LINE
  8
0
 10
-8.39999
 20
69.4508
 11
-9.15596
 21
70
  0
LINE
  8
0
 10
-9.15596
 20
70
 11
-17.5
 21
70
  0
LINE
  8
0
 10
-17.5
 20
70
 11
-24.2079
 21
64.6337
  0
LINE
  8
0
 10
-24.2079
 20
64.6337
 11
-21
 21
59.5
  0
LINE
  8
0
 10
-21
 20
59.5
 11
-23.5441
 21
57.9102
  0
LINE
  8
0
 10
-23.5441
 20
57.9102
 11
-26.5664
 21
62.7469
  0
LINE
  8
0
 10
-26.5664
 20
62.7469
 11
-35
 21
56
  0
LINE
  8
0
 10
-35
 20
56
 11
-22.1798
 21
14.9754
  0
LINE
  8
0
 10
-22.1798
 20
14.9754
 11
-19.4158
 21
19.3988
  0
LINE
  8
0
 10
-19.4158
 20
19.3988
 11
-16.8717
 21
17.809
  0
LINE
  8
0
 10
-16.8717
 20
17.809
 11
-20.3648
 21
12.2189
  0
LINE
  8
0
 10
-20.3648
 20
12.2189
 11
-6.84999
 21
4.11
  0
LINE
  8
0
 10
-6.84999
 20
4.11
 11
-6.84999
 21
10
  0
LINE
  8
0
 10
-6.84999
 20
10
 11
-6.45
 21
10
  0
LINE
  8
0
 10
-6.45
 20
10
 11
-6.45
 21
3.87
  0
LINE
  8
0
 10
-6.45
 20
3.87
 11
-4.59999
 21
2.75999
  0
LINE
  8
0
 10
-4.59999
 20
2.75999
 11
-4.59999
 21
12
  0
LINE
  8
0
 10
-4.59999
 20
12
 11
-4.2
 21
12
  0
LINE
  8
0
 10
-4.2
 20
12
 11
-4.2
 21
2.52
  0
LINE
  8
0
 10
-4.2
 20
2.52
 11
-2.45
 21
1.47
  0
LINE
  8
0
 10
-2.45
 20
1.47
 11
-2.45
 21
10
  0
LINE
  8
0
 10
-2.45
 20
10
 11
-2.04999
 21
10
  0
LINE
  8
0
 10
-2.04999
 20
10
 11
-2.04999
 21
1.23
  0
LINE
  8
0
 10
-2.04999
 20
1.23
 11
0
 21
0
  0
LINE
  8
0
 10
0
 20
0
 11
2.04999
 21
1.23
  0
LINE
  8
0
 10
2.04999
 20
1.23
 11
2.04999
 21
10
  0
LINE
  8
0
 10
2.04999
 20
10
 11
2.45
 21
10
  0
LINE
  8
0
 10
2.45
 20
10
 11
2.45
 21
1.47
  0
LINE
  8
0
 10
2.45
 20
1.47
 11
4.2
 21
2.52
  0
LINE
  8
0
 10
4.2
 20
2.52
 11
4.2
 21
12
  0
LINE
  8
0
 10
4.2
 20
12
 11
4.59999
 21
12
  0
LINE
  8
0
 10
4.59999
 20
12
 11
4.59999
 21
2.75999
  0
LINE
  8
0
 10
4.59999
 20
2.75999
 11
6.45
 21
3.87
  0
LINE
  8
0
 10
6.45
 20
3.87
 11
6.45
 21
10
  0
LINE
  8
0
 10
6.45
 20
10
 11
6.84999
 21
10
  0
LINE
  8
0
 10
6.84999
 20
10
 11
6.84999
 21
4.11
  0
LINE
  8
0
 10
6.84999
 20
4.11
 11
20.3648
 21
12.2189
  0
LINE
  8
0
 10
20.3648
 20
12.2189
 11
16.8717
 21
17.809
  0
LINE
  8
0
 10
16.8717
 20
17.809
 11
19.4158
 21
19.3988
  0
LINE
  8
0
 10
19.4158
 20
19.3988
 11
22.1798
 21
14.9754
  0
LINE
  8
0
 10
22.1798
 20
14.9754
 11
35
 21
56
  0
LINE
  8
0
 10
35
 20
56
 11
26.5664
 21
62.7469
  0
LINE
  8
0
 10
26.5664
 20
62.7469
 11
23.5441
 21
57.9102
  0
LINE
  8
0
 10
23.5441
 20
57.9102
 11
21
 21
59.5
  0
LINE
  8
0
 10
21
 20
59.5
 11
24.2079
 21
64.6337
  0
LINE
  8
0
 10
24.2079
 20
64.6337
 11
17.5
 21
70
  0
LINE
  8
0
 10
17.5
 20
70
 11
9.15596
 21
70
  0
LINE
  8
0
 10
9.15596
 20
70
 11
8.39999
 21
69.4508
  0
LINE
  8
0
 10
8.39999
 20
69.4508
 11
6.84999
 21
68.7607
  0
LINE
  8
0
 10
6.84999
 20
68.7607
 11
6.84999
 21
60
  0
LINE
  8
0
 10
6.84999
 20
60
 11
6.45
 21
60
  0
LINE
  8
0
 10
6.45
 20
60
 11
6.45
 21
68.5826
  0
LINE
  8
0
 10
6.45
 20
68.5826
 11
5.19148
 21
68.0222
  0
LINE
  8
0
 10
5.19148
 20
68.0222
 11
4.59999
 21
67.8965
  0
LINE
  8
0
 10
4.59999
 20
67.8965
 11
4.59999
 21
62
  0
LINE
  8
0
 10
4.59999
 20
62
 11
4.2
 21
62
  0
LINE
  8
0
 10
4.2
 20
62
 11
4.2
 21
67.8115
  0
LINE
  8
0
 10
4.2
 20
67.8115
 11
2.45
 21
67.4395
  0
LINE
  8
0
 10
2.45
 20
67.4395
 11
2.45
 21
60
  0
LINE
  8
0
 10
2.45
 20
60
 11
2.04999
 21
60
  0
LINE
  8
0
 10
2.04999
 20
60
 11
2.04999
 21
67.3545
  0
LINE
  8
0
 10
2.04999
 20
67.3545
 11
1.75607
 21
67.292
  0
LINE
  8
0
 10
1.75607
 20
67.292
 11
0.199997
 21
67.292
  0
LINE
  8
0
 10
0.199997
 20
67.292
 11
0.199997
 21
62
  0
LINE
  8
0
 10
0.199997
 20
62
 11
-0.199997
 21
62
  0
LINE
  8
0
 10
-0.199997
 20
62
 11
-0.199997
 21
67.292
  0
LINE
  8
0
 10
0.199997
 20
50
 11
-0.199997
 21
50
  0
LINE
  8
0
 10
-0.199997
 20
50
 11
-0.199997
 21
60
  0
LINE
  8
0
 10
-0.199997
 20
60
 11
0.199997
 21
60
  0
LINE
  8
0
 10
0.199997
 20
60
 11
0.199997
 21
50
  0
LINE
  8
0
 10
-2.04999
 20
49.3417
 11
-2.04999
 21
48
  0
LINE
  8
0
 10
-2.04999
 20
48
 11
-2.45
 21
48
  0
LINE
  8
0
 10
-2.45
 20
48
 11
-2.45
 21
49.4083
  0
LINE
  8
0
 10
-2.45
 20
49.4083
 11
-6.45
 21
50.075
  0
LINE
  8
0
 10
-6.45
 20
50.075
 11
-6.45
 21
48
  0
LINE
  8
0
 10
-6.45
 20
48
 11
-6.84999
 21
48
  0
LINE
  8
0
 10
-6.84999
 20
48
 11
-6.84999
 21
50.1417
  0
LINE
  8
0
 10
-6.84999
 20
50.1417
 11
-21
 21
52.5
  0
LINE
  8
0
 10
-21
 20
52.5
 11
-6.84999
 21
50.6133
  0
LINE
  8
0
 10
-6.84999
 20
50.6133
 11
-6.84999
 21
58
  0
LINE
  8
0
 10
-6.84999
 20
58
 11
-6.45
 21
58
  0
LINE
  8
0
 10
-6.45
 20
58
 11
-6.45
 21
50.56
  0
LINE
  8
0
 10
-6.45
 20
50.56
 11
-4.59999
 21
50.3133
  0
LINE
  8
0
 10
-4.59999
 20
50.3133
 11
-4.59999
 21
60
  0
LINE
  8
0
 10
-4.59999
 20
60
 11
-4.2
 21
60
  0
LINE
  8
0
 10
-4.2
 20
60
 11
-4.2
 21
50.26
  0
LINE
  8
0
 10
-4.2
 20
50.26
 11
-2.45
 21
50.0267
  0
LINE
  8
0
 10
-2.45
 20
50.0267
 11
-2.45
 21
58
  0
LINE
  8
0
 10
-2.45
 20
58
 11
-2.04999
 21
58
  0
LINE
  8
0
 10
-2.04999
 20
58
 11
-2.04999
 21
49.9733
  0
LINE
  8
0
 10
-2.04999
 20
49.9733
 11
0
 21
49.7
  0
LINE
  8
0
 10
0
 20
49.7
 11
2.04999
 21
49.9733
  0
LINE
  8
0
 10
2.04999
 20
49.9733
 11
2.04999
 21
58
  0
LINE
  8
0
 10
2.04999
 20
58
 11
2.45
 21
58
  0
LINE
  8
0
 10
2.45
 20
58
 11
2.45
 21
50.0267
  0
LINE
  8
0
 10
2.45
 20
50.0267
 11
4.2
 21
50.26
  0
LINE
  8
0
 10
4.2
 20
50.26
 11
4.2
 21
60
  0
LINE
  8
0
 10
4.2
 20
60
 11
4.59999
 21
60
  0
LINE
  8
0
 10
4.59999
 20
60
 11
4.59999
 21
50.3133
  0
LINE
  8
0
 10
4.59999
 20
50.3133
 11
6.45
 21
50.56
  0
LINE
  8
0
 10
6.45
 20
50.56
 11
6.45
 21
58
  0
LINE
  8
0
 10
6.45
 20
58
 11
6.84999
 21
58
  0
LINE
  8
0
 10
6.84999
 20
58
 11
6.84999
 21
50.6133
  0
LINE
  8
0
 10
6.84999
 20
50.6133
 11
21
 21
52.5
  0
LINE
  8
0
 10
21
 20
52.5
 11
6.84999
 21
50.1417
  0
LINE
  8
0
 10
6.84999
 20
50.1417
 11
6.84999
 21
48
  0
LINE
  8
0
 10
6.84999
 20
48
 11
6.45
 21
48
  0
LINE
  8
0
 10
6.45
 20
48
 11
6.45
 21
50.075
  0
LINE
  8
0
 10
6.45
 20
50.075
 11
2.45
 21
49.4083
  0
LINE
  8
0
 10
2.45
 20
49.4083
 11
2.45
 21
48
  0
LINE
  8
0
 10
2.45
 20
48
 11
2.04999
 21
48
  0
LINE
  8
0
 10
2.04999
 20
48
 11
2.04999
 21
49.3417
  0
LINE
  8
0
 10
2.04999
 20
49.3417
 11
0
 21
49
  0
LINE
  8
0
 10
0
 20
49
 11
-2.04999
 21
49.3417
  0
LINE
  8
0
 10
4.2
 20
38
 11
4.2
 21
48
  0
LINE
  8
0
 10
4.2
 20
48
 11
4.59999
 21
48
  0
LINE
  8
0
 10
4.59999
 20
48
 11
4.59999
 21
38
  0
LINE
  8
0
 10
4.59999
 20
38
 11
4.2
 21
38
  0
LINE
  8
0
 10
-4.59999
 20
38
 11
-4.59999
 21
48
  0
LINE
  8
0
 10
-4.59999
 20
48
 11
-4.2
 21
48
  0
LINE
  8
0
 10
-4.2
 20
48
 11
-4.2
 21
38
  0
LINE
  8
0
 10
-4.2
 20
38
 11
-4.59999
 21
38
  0
LINE
  8
0
 10
6.45
 20
36
 11
6.45
 21
46
  0
LINE
  8
0
 10
6.45
 20
46
 11
6.84999
 21
46
  0
LINE
  8
0
 10
6.84999
 20
46
 11
6.84999
 21
36
  0
LINE
  8
0
 10
6.84999
 20
36
 11
6.45
 21
36
  0
LINE
  8
0
 10
2.04999
 20
36
 11
2.04999
 21
46
  0
LINE
  8
0
 10
2.04999
 20
46
 11
2.45
 21
46
  0
LINE
  8
0
 10
2.45
 20
46
 11
2.45
 21
36
  0
LINE
  8
0
 10
2.45
 20
36
 11
2.04999
 21
36
  0
LINE
  8
0
 10
-2.45
 20
36
 11
-2.45
 21
46
  0
LINE
  8
0
 10
-2.45
 20
46
 11
-2.04999
 21
46
  0
LINE
  8
0
 10
-2.04999
 20
46
 11
-2.04999
 21
36
  0
LINE
  8
0
 10
-2.04999
 20
36
 11
-2.45
 21
36
  0
LINE
  8
0
 10
-6.84999
 20
36
 11
-6.84999
 21
46
  0
LINE
  8
0
 10
-6.84999
 20
46
 11
-6.45
 21
46
  0
LINE
  8
0
 10
-6.45
 20
46
 11
-6.45
 21
36
  0
LINE
  8
0
 10
-6.45
 20
36
 11
-6.84999
 21
36
  0
LINE
  8
0
 10
0.199997
 20
26
 11
-0.199997
 21
26
  0
LINE
  8
0
 10
-0.199997
 20
26
 11
-0.199997
 21
36
  0
LINE
  8
0
 10
-0.199997
 20
36
 11
0.199997
 21
36
  0
LINE
  8
0
 10
0.199997
 20
36
 11
0.199997
 21
26
  0
LINE
  8
0
 10
-4.59999
 20
26
 11
-4.59999
 21
36
  0
LINE
  8
0
 10
-4.59999
 20
36
 11
-4.2
 21
36
  0
LINE
  8
0
 10
-4.2
 20
36
 11
-4.2
 21
26
  0
LINE
  8
0
 10
-4.2
 20
26
 11
-4.59999
 21
26
  0
LINE
  8
0
 10
4.2
 20
26
 11
4.2
 21
36
  0
LINE
  8
0
 10
4.2
 20
36
 11
4.59999
 21
36
  0
LINE
  8
0
 10
4.59999
 20
36
 11
4.59999
 21
26
  0
LINE
  8
0
 10
4.59999
 20
26
 11
4.2
 21
26
  0
LINE
  8
0
 10
2.04999
 20
24
 11
2.04999
 21
34
  0
LINE
  8
0
 10
2.04999
 20
34
 11
2.45
 21
34
  0
LINE
  8
0
 10
2.45
 20
34
 11
2.45
 21
24
  0
LINE
  8
0
 10
2.45
 20
24
 11
2.04999
 21
24
  0
LINE
  8
0
 10
-2.45
 20
24
 11
-2.45
 21
34
  0
LINE
  8
0
 10
-2.45
 20
34
 11
-2.04999
 21
34
  0
LINE
  8
0
 10
-2.04999
 20
34
 11
-2.04999
 21
24
  0
LINE
  8
0
 10
-2.04999
 20
24
 11
-2.45
 21
24
  0
LINE
  8
0
 10
6.45
 20
24
 11
6.45
 21
34
  0
LINE
  8
0
 10
6.45
 20
34
 11
6.84999
 21
34
  0
LINE
  8
0
 10
6.84999
 20
34
 11
6.84999
 21
24
  0
LINE
  8
0
 10
6.84999
 20
24
 11
6.45
 21
24
  0
LINE
  8
0
 10
-6.84999
 20
24
 11
-6.84999
 21
34
  0
LINE
  8
0
 10
-6.84999
 20
34
 11
-6.45
 21
34
  0
LINE
  8
0
 10
-6.45
 20
34
 11
-6.45
 21
24
  0
LINE
  8
0
 10
-6.45
 20
24
 11
-6.84999
 21
24
  0
LINE
  8
0
 10
0.199997
 20
14
 11
-0.199997
 21
14
  0
LINE
  8
0
 10
-0.199997
 20
14
 11
-0.199997
 21
24
  0
LINE
  8
0
 10
-0.199997
 20
24
 11
0.199997
 21
24
  0
LINE
  8
0
 10
0.199997
 20
24
 11
0.199997
 21
14
  0
LINE
  8
0
 10
4.2
 20
14
 11
4.2
 21
24
  0
LINE
  8
0
 10
4.2
 20
24
 11
4.59999
 21
24
  0
LINE
  8
0
 10
4.59999
 20
24
 11
4.59999
 21
14
  0
LINE
  8
0
 10
4.59999
 20
14
 11
4.2
 21
14
  0
LINE
  8
0
 10
-4.59999
 20
14
 11
-4.59999
 21
24
  0
LINE
  8
0
 10
-4.59999
 20
24
 11
-4.2
 21
24
  0
LINE
  8
0
 10
-4.2
 20
24
 11
-4.2
 21
14
  0
LINE
  8
0
 10
-4.2
 20
14
 11
-4.59999
 21
14
  0
LINE
  8
0
 10
-2.45
 20
12
 11
-2.45
 21
22
  0
LINE
  8
0
 10
-2.45
 20
22
 11
-2.04999
 21
22
  0
LINE
  8
0
 10
-2.04999
 20
22
 11
-2.04999
 21
12
  0
LINE
  8
0
 10
-2.04999
 20
12
 11
-2.45
 21
12
  0
LINE
  8
0
 10
-6.84999
 20
12
 11
-6.84999
 21
22
  0
LINE
  8
0
 10
-6.84999
 20
22
 11
-6.45
 21
22
  0
LINE
  8
0
 10
-6.45
 20
22
 11
-6.45
 21
12
  0
LINE
  8
0
 10
-6.45
 20
12
 11
-6.84999
 21
12
  0
LINE
  8
0
 10
2.04999
 20
12
 11
2.04999
 21
22
  0
LINE
  8
0
 10
2.04999
 20
22
 11
2.45
 21
22
  0
LINE
  8
0
 10
2.45
 20
22
 11
2.45
 21
12
  0
LINE
  8
0
 10
2.45
 20
12
 11
2.04999
 21
12
  0
LINE
  8
0
 10
6.45
 20
12
 11
6.45
 21
22
  0
LINE
  8
0
 10
6.45
 20
22
 11
6.84999
 21
22
  0
LINE
  8
0
 10
6.84999
 20
22
 11
6.84999
 21
12
  0
LINE
  8
0
 10
6.84999
 20
12
 11
6.45
 21
12
  0
LINE
  8
0
 10
0.199997
 20
2
 11
-0.199997
 21
2
  0
LINE
  8
0
 10
-0.199997
 20
2
 11
-0.199997
 21
12
  0
LINE
  8
0
 10
-0.199997
 20
12
 11
0.199997
 21
12
  0
LINE
  8
0
 10
0.199997
 20
12
 11
0.199997
 21
2
  0
LINE
  8
0
 10
-0.199997
 20
48
 11
0.199997
 21
48
  0
LINE
  8
0
 10
0.199997
 20
48
 11
0.199997
 21
38
  0
LINE
  8
0
 10
0.199997
 20
38
 11
-0.199997
 21
38
  0
LINE
  8
0
 10
-0.199997
 20
38
 11
-0.199997
 21
48
  0
ENDSEC
  0
SECTION
  2
OBJECTS
  0
DICTIONARY
  0
ENDSEC
  0
EOF
