  0
SECTION
  2
HEADER
  9
$ACADVER
  1
AC1014
  9
$ACADMAINTVER
 70
     9
  9
$DWGCODEPAGE
  3
ANSI_1252
  9
$INSBASE
 10
0.0
 20
0.0
 30
0.0
  9
$EXTMIN
 10
1.000000000000000E+20
 20
1.000000000000000E+20
 30
1.000000000000000E+20
  9
$EXTMAX
 10
-1.000000000000000E+20
 20
-1.000000000000000E+20
 30
-1.000000000000000E+20
  9
$LIMMIN
 10
0.0
 20
0.0
  9
$LIMMAX
 10
12.0
 20
9.0
  9
$ORTHOMODE
 70
     0
  9
$REGENMODE
 70
     1
  9
$FILLMODE
 70
     1
  9
$QTEXTMODE
 70
     0
  9
$MIRRTEXT
 70
     1
  9
$DRAGMODE
 70
     2
  9
$LTSCALE
 40
1.0
  9
$OSMODE
 70
    37
  9
$ATTMODE
 70
     1
  9
$TEXTSIZE
 40
0.2
  9
$TRACEWID
 40
0.05
  9
$TEXTSTYLE
  7
STANDARD
  9
$CLAYER
  8
0
  9
$CELTYPE
  6
BYLAYER
  9
$CECOLOR
 62
   256
  9
$CELTSCALE
 40
1.0
  9
$DELOBJ
 70
     1
  9
$DISPSILH
 70
     0
  9
$DIMSCALE
 40
1.0
  9
$DIMASZ
 40
0.18
  9
$DIMEXO
 40
0.0625
  9
$DIMDLI
 40
0.38
  9
$DIMRND
 40
0.0
  9
$DIMDLE
 40
0.0
  9
$DIMEXE
 40
0.18
  9
$DIMTP
 40
0.0
  9
$DIMTM
 40
0.0
  9
$DIMTXT
 40
0.18
  9
$DIMCEN
 40
0.09
  9
$DIMTSZ
 40
0.0
  9
$DIMTOL
 70
     0
  9
$DIMLIM
 70
     0
  9
$DIMTIH
 70
     1
  9
$DIMTOH
 70
     1
  9
$DIMSE1
 70
     0
  9
$DIMSE2
 70
     0
  9
$DIMTAD
 70
     0
  9
$DIMZIN
 70
     0
  9
$DIMBLK
  1

  9
$DIMASO
 70
     1
  9
$DIMSHO
 70
     1
  9
$DIMPOST
  1

  9
$DIMAPOST
  1

  9
$DIMALT
 70
     0
  9
$DIMALTD
 70
     2
  9
$DIMALTF
 40
25.4
  9
$DIMLFAC
 40
1.0
  9
$DIMTOFL
 70
     0
  9
$DIMTVP
 40
0.0
  9
$DIMTIX
 70
     0
  9
$DIMSOXD
 70
     0
  9
$DIMSAH
 70
     0
  9
$DIMBLK1
  1

  9
$DIMBLK2
  1

  9
$DIMSTYLE
  2
STANDARD
  9
$DIMCLRD
 70
     0
  9
$DIMCLRE
 70
     0
  9
$DIMCLRT
 70
     0
  9
$DIMTFAC
 40
1.0
  9
$DIMGAP
 40
0.09
  9
$DIMJUST
 70
     0
  9
$DIMSD1
 70
     0
  9
$DIMSD2
 70
     0
  9
$DIMTOLJ
 70
     1
  9
$DIMTZIN
 70
     0
  9
$DIMALTZ
 70
     0
  9
$DIMALTTZ
 70
     0
  9
$DIMFIT
 70
     3
  9
$DIMUPT
 70
     0
  9
$DIMUNIT
 70
     2
  9
$DIMDEC
 70
     4
  9
$DIMTDEC
 70
     4
  9
$DIMALTU
 70
     2
  9
$DIMALTTD
 70
     2
  9
$DIMTXSTY
  7
STANDARD
  9
$DIMAUNIT
 70
     0
  9
$LUNITS
 70
     2
  9
$LUPREC
 70
     4
  9
$SKETCHINC
 40
0.1
  9
$FILLETRAD
 40
0.5
  9
$AUNITS
 70
     0
  9
$AUPREC
 70
     0
  9
$MENU
  1
.
  9
$ELEVATION
 40
0.0
  9
$PELEVATION
 40
0.0
  9
$THICKNESS
 40
0.0
  9
$LIMCHECK
 70
     0
  9
$CHAMFERA
 40
0.5
  9
$CHAMFERB
 40
0.5
  9
$CHAMFERC
 40
1.0
  9
$CHAMFERD
 40
0.0
  9
$SKPOLY
 70
     0
  9
$TDCREATE
 40
2457921.56958125
  9
$TDUPDATE
 40
2457921.569581261
  9
$TDINDWG
 40
0.0000000116
  9
$TDUSRTIMER
 40
0.0000000116
  9
$USRTIMER
 70
     1
  9
$ANGBASE
 50
0.0
  9
$ANGDIR
 70
     0
  9
$PDMODE
 70
     0
  9
$PDSIZE
 40
0.0
  9
$PLINEWID
 40
0.0
  9
$COORDS
 70
     1
  9
$SPLFRAME
 70
     0
  9
$SPLINETYPE
 70
     6
  9
$SPLINESEGS
 70
     8
  9
$ATTDIA
 70
     0
  9
$ATTREQ
 70
     1
  9
$HANDLING
 70
     1
  9
$HANDSEED
  5
18B
  9
$SURFTAB1
 70
     6
  9
$SURFTAB2
 70
     6
  9
$SURFTYPE
 70
     6
  9
$SURFU
 70
     6
  9
$SURFV
 70
     6
  9
$UCSNAME
  2

  9
$UCSORG
 10
0.0
 20
0.0
 30
0.0
  9
$UCSXDIR
 10
1.0
 20
0.0
 30
0.0
  9
$UCSYDIR
 10
0.0
 20
1.0
 30
0.0
  9
$PUCSNAME
  2

  9
$PUCSORG
 10
0.0
 20
0.0
 30
0.0
  9
$PUCSXDIR
 10
1.0
 20
0.0
 30
0.0
  9
$PUCSYDIR
 10
0.0
 20
1.0
 30
0.0
  9
$USERI1
 70
     0
  9
$USERI2
 70
     0
  9
$USERI3
 70
     0
  9
$USERI4
 70
     0
  9
$USERI5
 70
     0
  9
$USERR1
 40
0.0
  9
$USERR2
 40
0.0
  9
$USERR3
 40
0.0
  9
$USERR4
 40
0.0
  9
$USERR5
 40
0.0
  9
$WORLDVIEW
 70
     1
  9
$SHADEDGE
 70
     3
  9
$SHADEDIF
 70
    70
  9
$TILEMODE
 70
     1
  9
$MAXACTVP
 70
    64
  9
$PINSBASE
 10
0.0
 20
0.0
 30
0.0
  9
$PLIMCHECK
 70
     0
  9
$PEXTMIN
 10
1.000000000000000E+20
 20
1.000000000000000E+20
 30
1.000000000000000E+20
  9
$PEXTMAX
 10
-1.000000000000000E+20
 20
-1.000000000000000E+20
 30
-1.000000000000000E+20
  9
$PLIMMIN
 10
0.0
 20
0.0
  9
$PLIMMAX
 10
12.0
 20
9.0
  9
$UNITMODE
 70
     0
  9
$VISRETAIN
 70
     1
  9
$PLINEGEN
 70
     0
  9
$PSLTSCALE
 70
     1
  9
$TREEDEPTH
 70
  3020
  9
$PICKSTYLE
 70
     1
  9
$CMLSTYLE
  2
STANDARD
  9
$CMLJUST
 70
     0
  9
$CMLSCALE
 40
1.0
  9
$PROXYGRAPHICS
 70
     1
  9
$MEASUREMENT
 70
     0
  0
ENDSEC
  0
SECTION
  2
CLASSES
  0
CLASS
  1
ACDBDICTIONARYWDFLT
  2
AcDbDictionaryWithDefault
  3
ObjectDBX Classes
 90
        0
280
     0
281
     0
  0
CLASS
  1
VISUALSTYLE
  2
AcDbVisualStyle
  3
ObjectDBX Classes
 90
     4095
280
     0
281
     0
  0
CLASS
  1
XRECORD
  2
AcDbXrecord
  3
AutoCAD 2000
 90
        0
280
     0
281
     0
  0
CLASS
  1
LWPOLYLINE
  2
AcDbPolyline
  3
AutoCAD 2000
 90
        0
280
     0
281
     1
  0
CLASS
  1
HATCH
  2
AcDbHatch
  3
AutoCAD 2000
 90
        0
280
     0
281
     1
  0
CLASS
  1
ACDBPLACEHOLDER
  2
AcDbPlaceHolder
  3
ObjectDBX Classes
 90
        0
280
     0
281
     0
  0
CLASS
  1
LAYOUT
  2
AcDbLayout
  3
ObjectDBX Classes
 90
        0
280
     0
281
     0
  0
ENDSEC
  0
SECTION
  2
TABLES
  0
TABLE
  2
VPORT
  5
8
330
0
100
AcDbSymbolTable
 70
     1
  0
VPORT
  5
29
330
8
100
AcDbSymbolTableRecord
100
AcDbViewportTableRecord
  2
*ACTIVE
 70
     0
 10
0.0
 20
0.0
 11
1.0
 21
1.0
 12
0.0
 22
0.0
 13
0.0
 23
0.0
 14
0.5
 24
0.5
 15
0.5
 25
0.5
 16
0.0
 26
0.0
 36
1.0
 17
640.0
 27
512.0
 37
0.0
 40
1024.0
 41
1.25
 42
50.0
 43
0.0
 44
0.0
 50
0.0
 51
0.0
 71
     0
 72
   100
 73
     1
 74
     3
 75
     0
 76
     0
 77
     0
 78
     0
  0
ENDTAB
  0
TABLE
  2
LTYPE
  5
5
330
0
100
AcDbSymbolTable
 70
     1
  0
LTYPE
  5
14
330
5
100
AcDbSymbolTableRecord
100
AcDbLinetypeTableRecord
  2
BYBLOCK
 70
     0
  3

 72
    65
 73
     0
 40
0.0
  0
LTYPE
  5
15
330
5
100
AcDbSymbolTableRecord
100
AcDbLinetypeTableRecord
  2
BYLAYER
 70
     0
  3

 72
    65
 73
     0
 40
0.0
  0
LTYPE
  5
16
330
5
100
AcDbSymbolTableRecord
100
AcDbLinetypeTableRecord
  2
CONTINUOUS
 70
     0
  3
Solid line
 72
    65
 73
     0
 40
0.0
  0
ENDTAB
  0
TABLE
  2
LAYER
  5
2
330
0
100
AcDbSymbolTable
 70
     2
  0
LAYER
  5
10
330
2
100
AcDbSymbolTableRecord
100
AcDbLayerTableRecord
  2
0
 70
     0
 62
     7
  6
CONTINUOUS
  0
LAYER
  5
3B
330
2
100
AcDbSymbolTableRecord
100
AcDbLayerTableRecord
  2
CAPA_1
 70
     0
 62
     7
  6
CONTINUOUS
  0
ENDTAB
  0
TABLE
  2
STYLE
  5
3
330
0
100
AcDbSymbolTable
 70
     1
  0
STYLE
  5
11
330
3
100
AcDbSymbolTableRecord
100
AcDbTextStyleTableRecord
  2
STANDARD
 70
     0
 40
0.0
 41
1.0
 50
0.0
 71
     0
 42
0.2
  3
txt
  4

  0
ENDTAB
  0
TABLE
  2
VIEW
  5
6
330
0
100
AcDbSymbolTable
 70
     0
  0
ENDTAB
  0
TABLE
  2
UCS
  5
7
330
0
100
AcDbSymbolTable
 70
     0
  0
ENDTAB
  0
TABLE
  2
APPID
  5
9
330
0
100
AcDbSymbolTable
 70
     1
  0
APPID
  5
12
330
9
100
AcDbSymbolTableRecord
100
AcDbRegAppTableRecord
  2
ACAD
 70
     0
  0
ENDTAB
  0
TABLE
  2
DIMSTYLE
  5
A
330
0
100
AcDbSymbolTable
 70
     1
  0
DIMSTYLE
105
27
330
A
100
AcDbSymbolTableRecord
100
AcDbDimStyleTableRecord
  2
STANDARD
 70
     0
  3

  4

  5

  6

  7

 40
1.0
 41
0.18
 42
0.0625
 43
0.38
 44
0.18
 45
0.0
 46
0.0
 47
0.0
 48
0.0
140
0.18
141
0.09
142
0.0
143
25.4
144
1.0
145
0.0
146
1.0
147
0.09
 71
     0
 72
     0
 73
     1
 74
     1
 75
     0
 76
     0
 77
     0
 78
     0
170
     0
171
     2
172
     0
173
     0
174
     0
175
     0
176
     0
177
     0
178
     0
270
     2
271
     4
272
     4
273
     2
274
     2
340
11
275
     0
280
     0
281
     0
282
     0
283
     1
284
     0
285
     0
286
     0
287
     3
288
     0
  0
ENDTAB
  0
TABLE
  2
BLOCK_RECORD
  5
1
330
0
100
AcDbSymbolTable
 70
    22
  0
BLOCK_RECORD
  5
1F
330
1
100
AcDbSymbolTableRecord
100
AcDbBlockTableRecord
  2
*MODEL_SPACE
  0
BLOCK_RECORD
  5
1B
330
1
100
AcDbSymbolTableRecord
100
AcDbBlockTableRecord
  2
*PAPER_SPACE
  0
BLOCK_RECORD
  5
3C
330
1
100
AcDbSymbolTableRecord
100
AcDbBlockTableRecord
  2
BLOCK_2
  0
BLOCK_RECORD
  5
40
330
1
100
AcDbSymbolTableRecord
100
AcDbBlockTableRecord
  2
BLOCK_3
  0
BLOCK_RECORD
  5
44
330
1
100
AcDbSymbolTableRecord
100
AcDbBlockTableRecord
  2
BLOCK_4
  0
BLOCK_RECORD
  5
51
330
1
100
AcDbSymbolTableRecord
100
AcDbBlockTableRecord
  2
BLOCK_5
  0
BLOCK_RECORD
  5
55
330
1
100
AcDbSymbolTableRecord
100
AcDbBlockTableRecord
  2
BLOCK_6
  0
BLOCK_RECORD
  5
59
330
1
100
AcDbSymbolTableRecord
100
AcDbBlockTableRecord
  2
BLOCK_7
  0
BLOCK_RECORD
  5
66
330
1
100
AcDbSymbolTableRecord
100
AcDbBlockTableRecord
  2
BLOCK_8
  0
BLOCK_RECORD
  5
6A
330
1
100
AcDbSymbolTableRecord
100
AcDbBlockTableRecord
  2
BLOCK_9
  0
BLOCK_RECORD
  5
6E
330
1
100
AcDbSymbolTableRecord
100
AcDbBlockTableRecord
  2
BLOCK_10
  0
BLOCK_RECORD
  5
7B
330
1
100
AcDbSymbolTableRecord
100
AcDbBlockTableRecord
  2
BLOCK_11
  0
BLOCK_RECORD
  5
7F
330
1
100
AcDbSymbolTableRecord
100
AcDbBlockTableRecord
  2
BLOCK_12
  0
BLOCK_RECORD
  5
93
330
1
100
AcDbSymbolTableRecord
100
AcDbBlockTableRecord
  2
BLOCK_13
  0
BLOCK_RECORD
  5
97
330
1
100
AcDbSymbolTableRecord
100
AcDbBlockTableRecord
  2
BLOCK_14
  0
BLOCK_RECORD
  5
D0
330
1
100
AcDbSymbolTableRecord
100
AcDbBlockTableRecord
  2
BLOCK_15
  0
BLOCK_RECORD
  5
D4
330
1
100
AcDbSymbolTableRecord
100
AcDbBlockTableRecord
  2
BLOCK_16
  0
BLOCK_RECORD
  5
FE
330
1
100
AcDbSymbolTableRecord
100
AcDbBlockTableRecord
  2
BLOCK_17
  0
BLOCK_RECORD
  5
102
330
1
100
AcDbSymbolTableRecord
100
AcDbBlockTableRecord
  2
BLOCK_18
  0
BLOCK_RECORD
  5
122
330
1
100
AcDbSymbolTableRecord
100
AcDbBlockTableRecord
  2
BLOCK_19
  0
BLOCK_RECORD
  5
126
330
1
100
AcDbSymbolTableRecord
100
AcDbBlockTableRecord
  2
BLOCK_20
  0
BLOCK_RECORD
  5
146
330
1
100
AcDbSymbolTableRecord
100
AcDbBlockTableRecord
  2
BLOCK_21
  0
BLOCK_RECORD
  5
14A
330
1
100
AcDbSymbolTableRecord
100
AcDbBlockTableRecord
  2
BLOCK_22
  0
ENDTAB
  0
ENDSEC
  0
SECTION
  2
BLOCKS
  0
BLOCK
  5
20
330
1F
100
AcDbEntity
  8
0
100
AcDbBlockBegin
  2
*MODEL_SPACE
 70
     0
 71
     0
 10
0.0
 20
0.0
 30
0.0
  3
*MODEL_SPACE
  1

  0
ENDBLK
  5
21
330
1F
100
AcDbEntity
  8
0
100
AcDbBlockEnd
  0
BLOCK
  5
1C
330
1B
100
AcDbEntity
 67
     1
  8
0
100
AcDbBlockBegin
  2
*PAPER_SPACE
 70
     0
 71
     0
 10
0.0
 20
0.0
 30
0.0
  3
*PAPER_SPACE
  1

  0
ENDBLK
  5
1D
330
1B
100
AcDbEntity
 67
     1
  8
0
100
AcDbBlockEnd
  0
BLOCK
  5
3E
330
3C
100
AcDbEntity
  8
0
100
AcDbBlockBegin
  2
BLOCK_2
 70
     0
 71
     0
 10
0.0
 20
0.0
 30
0.0
  3
BLOCK_2
  1

  0
INSERT
  5
41
330
3C
100
AcDbEntity
  8
CAPA_1
100
AcDbBlockReference
  2
BLOCK_3
 10
0.0
 20
0.0
 30
0.0
  0
ENDBLK
  5
3F
330
3C
100
AcDbEntity
  8
0
100
AcDbBlockEnd
  0
BLOCK
  5
42
330
40
100
AcDbEntity
  8
0
100
AcDbBlockBegin
  2
BLOCK_3
 70
     0
 71
     0
 10
0.0
 20
0.0
 30
0.0
  3
BLOCK_3
  1

  0
INSERT
  5
45
330
40
100
AcDbEntity
  8
CAPA_1
100
AcDbBlockReference
  2
BLOCK_4
 10
0.0
 20
0.0
 30
0.0
  0
ENDBLK
  5
43
330
40
100
AcDbEntity
  8
0
100
AcDbBlockEnd
  0
BLOCK
  5
46
330
44
100
AcDbEntity
  8
0
100
AcDbBlockBegin
  2
BLOCK_4
 70
     0
 71
     0
 10
0.0
 20
0.0
 30
0.0
  3
BLOCK_4
  1

  0
SPLINE
  5
48
330
44
100
AcDbEntity
  8
CAPA_1
100
AcDbSpline
210
0.0
220
0.0
230
1.0
 70
    11
 71
     3
 72
    29
 73
    25
 74
     0
 42
0.0000000001
 43
0.0000000001
 40
0.0
 40
0.0
 40
0.0
 40
0.0
 40
1.0
 40
1.0
 40
1.0
 40
2.0
 40
2.0
 40
2.0
 40
3.0
 40
3.0
 40
3.0
 40
4.0
 40
4.0
 40
4.0
 40
5.0
 40
5.0
 40
5.0
 40
6.0
 40
6.0
 40
6.0
 40
7.0
 40
7.0
 40
7.0
 40
8.0
 40
8.0
 40
8.0
 40
8.0
 10
618.142578125
 20
509.0712890625
 30
0.0
 10
618.142578125
 20
509.0712890625
 30
0.0
 10
605.73828125
 20
509.0712890625
 30
0.0
 10
605.73828125
 20
509.0712890625
 30
0.0
 10
605.54248046875
 20
509.0712890625
 30
0.0
 10
605.3837890625
 20
509.23046875
 30
0.0
 10
605.3837890625
 20
509.42578125
 30
0.0
 10
605.3837890625
 20
509.42578125
 30
0.0
 10
605.3837890625
 20
512.9697265625
 30
0.0
 10
605.3837890625
 20
512.9697265625
 30
0.0
 10
605.3837890625
 20
513.16552734375
 30
0.0
 10
605.54248046875
 20
513.32421875
 30
0.0
 10
605.73828125
 20
513.32421875
 30
0.0
 10
605.73828125
 20
513.32421875
 30
0.0
 10
618.142578125
 20
513.32421875
 30
0.0
 10
618.142578125
 20
513.32421875
 30
0.0
 10
618.33837890625
 20
513.32421875
 30
0.0
 10
618.4970703125
 20
513.16552734375
 30
0.0
 10
618.4970703125
 20
512.9697265625
 30
0.0
 10
618.4970703125
 20
512.9697265625
 30
0.0
 10
618.4970703125
 20
509.42578125
 30
0.0
 10
618.4970703125
 20
509.42578125
 30
0.0
 10
618.4970703125
 20
509.23046875
 30
0.0
 10
618.33837890625
 20
509.0712890625
 30
0.0
 10
618.142578125
 20
509.0712890625
 30
0.0
  0
POLYLINE
  5
49
330
44
100
AcDbEntity
  8
CAPA_1
100
AcDb2dPolyline
 66
     1
 10
0.0
 20
0.0
 30
0.0
  0
VERTEX
  5
4A
330
49
100
AcDbEntity
  8
CAPA_1
100
AcDbVertex
100
AcDb2dVertex
 10
606.0927734375
 20
509.7802734375
 30
0.0
  0
VERTEX
  5
4B
330
49
100
AcDbEntity
  8
CAPA_1
100
AcDbVertex
100
AcDb2dVertex
 10
617.7880859375
 20
509.7802734375
 30
0.0
  0
VERTEX
  5
4C
330
49
100
AcDbEntity
  8
CAPA_1
100
AcDbVertex
100
AcDb2dVertex
 10
617.7880859375
 20
512.615234375
 30
0.0
  0
VERTEX
  5
4D
330
49
100
AcDbEntity
  8
CAPA_1
100
AcDbVertex
100
AcDb2dVertex
 10
606.0927734375
 20
512.615234375
 30
0.0
  0
VERTEX
  5
4E
330
49
100
AcDbEntity
  8
CAPA_1
100
AcDbVertex
100
AcDb2dVertex
 10
606.0927734375
 20
509.7802734375
 30
0.0
  0
SEQEND
  5
4F
330
49
100
AcDbEntity
  8
CAPA_1
  0
HATCH
  5
50
330
44
100
AcDbEntity
  8
CAPA_1
 62
     7
100
AcDbHatch
 10
0.0
 20
0.0
 30
0.0
210
0.0
220
0.0
230
1.0
  2
SOLID
 70
     1
 71
     0
 91
        2
 92
        1
 93
        1
 72
     4
 94
        3
 73
     0
 74
     1
 95
       29
 96
       25
 40
0.0
 40
0.0
 40
0.0
 40
0.0
 40
1.0
 40
1.0
 40
1.0
 40
2.0
 40
2.0
 40
2.0
 40
3.0
 40
3.0
 40
3.0
 40
4.0
 40
4.0
 40
4.0
 40
5.0
 40
5.0
 40
5.0
 40
6.0
 40
6.0
 40
6.0
 40
7.0
 40
7.0
 40
7.0
 40
8.0
 40
8.0
 40
8.0
 40
8.0
 10
618.142578125
 20
509.0712890625
 10
618.142578125
 20
509.0712890625
 10
605.73828125
 20
509.0712890625
 10
605.73828125
 20
509.0712890625
 10
605.54248046875
 20
509.0712890625
 10
605.3837890625
 20
509.23046875
 10
605.3837890625
 20
509.42578125
 10
605.3837890625
 20
509.42578125
 10
605.3837890625
 20
512.9697265625
 10
605.3837890625
 20
512.9697265625
 10
605.3837890625
 20
513.16552734375
 10
605.54248046875
 20
513.32421875
 10
605.73828125
 20
513.32421875
 10
605.73828125
 20
513.32421875
 10
618.142578125
 20
513.32421875
 10
618.142578125
 20
513.32421875
 10
618.33837890625
 20
513.32421875
 10
618.4970703125
 20
513.16552734375
 10
618.4970703125
 20
512.9697265625
 10
618.4970703125
 20
512.9697265625
 10
618.4970703125
 20
509.42578125
 10
618.4970703125
 20
509.42578125
 10
618.4970703125
 20
509.23046875
 10
618.33837890625
 20
509.0712890625
 10
618.142578125
 20
509.0712890625
 97
        0
 92
        1
 93
        4
 72
     1
 10
606.0927734375
 20
509.7802734375
 11
617.7880859375
 21
509.7802734375
 72
     1
 10
617.7880859375
 20
509.7802734375
 11
617.7880859375
 21
512.615234375
 72
     1
 10
617.7880859375
 20
512.615234375
 11
606.0927734375
 21
512.615234375
 72
     1
 10
606.0927734375
 20
512.615234375
 11
606.0927734375
 21
509.7802734375
 97
        0
 75
     2
 76
     1
 98
        0
  0
ENDBLK
  5
47
330
44
100
AcDbEntity
  8
0
100
AcDbBlockEnd
  0
BLOCK
  5
53
330
51
100
AcDbEntity
  8
0
100
AcDbBlockBegin
  2
BLOCK_5
 70
     0
 71
     0
 10
0.0
 20
0.0
 30
0.0
  3
BLOCK_5
  1

  0
INSERT
  5
56
330
51
100
AcDbEntity
  8
CAPA_1
100
AcDbBlockReference
  2
BLOCK_6
 10
0.0
 20
0.0
 30
0.0
  0
ENDBLK
  5
54
330
51
100
AcDbEntity
  8
0
100
AcDbBlockEnd
  0
BLOCK
  5
57
330
55
100
AcDbEntity
  8
0
100
AcDbBlockBegin
  2
BLOCK_6
 70
     0
 71
     0
 10
0.0
 20
0.0
 30
0.0
  3
BLOCK_6
  1

  0
INSERT
  5
5A
330
55
100
AcDbEntity
  8
CAPA_1
100
AcDbBlockReference
  2
BLOCK_7
 10
0.0
 20
0.0
 30
0.0
  0
ENDBLK
  5
58
330
55
100
AcDbEntity
  8
0
100
AcDbBlockEnd
  0
BLOCK
  5
5B
330
59
100
AcDbEntity
  8
0
100
AcDbBlockBegin
  2
BLOCK_7
 70
     0
 71
     0
 10
0.0
 20
0.0
 30
0.0
  3
BLOCK_7
  1

  0
SPLINE
  5
5D
330
59
100
AcDbEntity
  8
CAPA_1
100
AcDbSpline
210
0.0
220
0.0
230
1.0
 70
    11
 71
     3
 72
    29
 73
    25
 74
     0
 42
0.0000000001
 43
0.0000000001
 40
0.0
 40
0.0
 40
0.0
 40
0.0
 40
1.0
 40
1.0
 40
1.0
 40
2.0
 40
2.0
 40
2.0
 40
3.0
 40
3.0
 40
3.0
 40
4.0
 40
4.0
 40
4.0
 40
5.0
 40
5.0
 40
5.0
 40
6.0
 40
6.0
 40
6.0
 40
7.0
 40
7.0
 40
7.0
 40
8.0
 40
8.0
 40
8.0
 40
8.0
 10
653.658203125
 20
509.072265625
 30
0.0
 10
653.658203125
 20
509.072265625
 30
0.0
 10
641.2529296875
 20
509.072265625
 30
0.0
 10
641.2529296875
 20
509.072265625
 30
0.0
 10
641.0576171875
 20
509.072265625
 30
0.0
 10
640.8984375
 20
509.2314453125
 30
0.0
 10
640.8984375
 20
509.4267578125
 30
0.0
 10
640.8984375
 20
509.4267578125
 30
0.0
 10
640.8984375
 20
512.970703125
 30
0.0
 10
640.8984375
 20
512.970703125
 30
0.0
 10
640.8984375
 20
513.16650390625
 30
0.0
 10
641.0576171875
 20
513.3251953125
 30
0.0
 10
641.2529296875
 20
513.3251953125
 30
0.0
 10
641.2529296875
 20
513.3251953125
 30
0.0
 10
653.658203125
 20
513.3251953125
 30
0.0
 10
653.658203125
 20
513.3251953125
 30
0.0
 10
653.853515625
 20
513.3251953125
 30
0.0
 10
654.0126953125
 20
513.16650390625
 30
0.0
 10
654.0126953125
 20
512.970703125
 30
0.0
 10
654.0126953125
 20
512.970703125
 30
0.0
 10
654.0126953125
 20
509.4267578125
 30
0.0
 10
654.0126953125
 20
509.4267578125
 30
0.0
 10
654.0126953125
 20
509.2314453125
 30
0.0
 10
653.853515625
 20
509.072265625
 30
0.0
 10
653.658203125
 20
509.072265625
 30
0.0
  0
POLYLINE
  5
5E
330
59
100
AcDbEntity
  8
CAPA_1
100
AcDb2dPolyline
 66
     1
 10
0.0
 20
0.0
 30
0.0
  0
VERTEX
  5
5F
330
5E
100
AcDbEntity
  8
CAPA_1
100
AcDbVertex
100
AcDb2dVertex
 10
641.607421875
 20
509.78125
 30
0.0
  0
VERTEX
  5
60
330
5E
100
AcDbEntity
  8
CAPA_1
100
AcDbVertex
100
AcDb2dVertex
 10
653.3037109375
 20
509.78125
 30
0.0
  0
VERTEX
  5
61
330
5E
100
AcDbEntity
  8
CAPA_1
100
AcDbVertex
100
AcDb2dVertex
 10
653.3037109375
 20
512.6162109375
 30
0.0
  0
VERTEX
  5
62
330
5E
100
AcDbEntity
  8
CAPA_1
100
AcDbVertex
100
AcDb2dVertex
 10
641.607421875
 20
512.6162109375
 30
0.0
  0
VERTEX
  5
63
330
5E
100
AcDbEntity
  8
CAPA_1
100
AcDbVertex
100
AcDb2dVertex
 10
641.607421875
 20
509.78125
 30
0.0
  0
SEQEND
  5
64
330
5E
100
AcDbEntity
  8
CAPA_1
  0
HATCH
  5
65
330
59
100
AcDbEntity
  8
CAPA_1
 62
     7
100
AcDbHatch
 10
0.0
 20
0.0
 30
0.0
210
0.0
220
0.0
230
1.0
  2
SOLID
 70
     1
 71
     0
 91
        2
 92
        1
 93
        1
 72
     4
 94
        3
 73
     0
 74
     1
 95
       29
 96
       25
 40
0.0
 40
0.0
 40
0.0
 40
0.0
 40
1.0
 40
1.0
 40
1.0
 40
2.0
 40
2.0
 40
2.0
 40
3.0
 40
3.0
 40
3.0
 40
4.0
 40
4.0
 40
4.0
 40
5.0
 40
5.0
 40
5.0
 40
6.0
 40
6.0
 40
6.0
 40
7.0
 40
7.0
 40
7.0
 40
8.0
 40
8.0
 40
8.0
 40
8.0
 10
653.658203125
 20
509.072265625
 10
653.658203125
 20
509.072265625
 10
641.2529296875
 20
509.072265625
 10
641.2529296875
 20
509.072265625
 10
641.0576171875
 20
509.072265625
 10
640.8984375
 20
509.2314453125
 10
640.8984375
 20
509.4267578125
 10
640.8984375
 20
509.4267578125
 10
640.8984375
 20
512.970703125
 10
640.8984375
 20
512.970703125
 10
640.8984375
 20
513.16650390625
 10
641.0576171875
 20
513.3251953125
 10
641.2529296875
 20
513.3251953125
 10
641.2529296875
 20
513.3251953125
 10
653.658203125
 20
513.3251953125
 10
653.658203125
 20
513.3251953125
 10
653.853515625
 20
513.3251953125
 10
654.0126953125
 20
513.16650390625
 10
654.0126953125
 20
512.970703125
 10
654.0126953125
 20
512.970703125
 10
654.0126953125
 20
509.4267578125
 10
654.0126953125
 20
509.4267578125
 10
654.0126953125
 20
509.2314453125
 10
653.853515625
 20
509.072265625
 10
653.658203125
 20
509.072265625
 97
        0
 92
        1
 93
        4
 72
     1
 10
641.607421875
 20
509.78125
 11
653.3037109375
 21
509.78125
 72
     1
 10
653.3037109375
 20
509.78125
 11
653.3037109375
 21
512.6162109375
 72
     1
 10
653.3037109375
 20
512.6162109375
 11
641.607421875
 21
512.6162109375
 72
     1
 10
641.607421875
 20
512.6162109375
 11
641.607421875
 21
509.78125
 97
        0
 75
     2
 76
     1
 98
        0
  0
ENDBLK
  5
5C
330
59
100
AcDbEntity
  8
0
100
AcDbBlockEnd
  0
BLOCK
  5
68
330
66
100
AcDbEntity
  8
0
100
AcDbBlockBegin
  2
BLOCK_8
 70
     0
 71
     0
 10
0.0
 20
0.0
 30
0.0
  3
BLOCK_8
  1

  0
INSERT
  5
6B
330
66
100
AcDbEntity
  8
CAPA_1
100
AcDbBlockReference
  2
BLOCK_9
 10
0.0
 20
0.0
 30
0.0
  0
ENDBLK
  5
69
330
66
100
AcDbEntity
  8
0
100
AcDbBlockEnd
  0
BLOCK
  5
6C
330
6A
100
AcDbEntity
  8
0
100
AcDbBlockBegin
  2
BLOCK_9
 70
     0
 71
     0
 10
0.0
 20
0.0
 30
0.0
  3
BLOCK_9
  1

  0
INSERT
  5
6F
330
6A
100
AcDbEntity
  8
CAPA_1
100
AcDbBlockReference
  2
BLOCK_10
 10
0.0
 20
0.0
 30
0.0
  0
ENDBLK
  5
6D
330
6A
100
AcDbEntity
  8
0
100
AcDbBlockEnd
  0
BLOCK
  5
70
330
6E
100
AcDbEntity
  8
0
100
AcDbBlockBegin
  2
BLOCK_10
 70
     0
 71
     0
 10
0.0
 20
0.0
 30
0.0
  3
BLOCK_10
  1

  0
SPLINE
  5
72
330
6E
100
AcDbEntity
  8
CAPA_1
100
AcDbSpline
210
0.0
220
0.0
230
1.0
 70
    11
 71
     3
 72
    29
 73
    25
 74
     0
 42
0.0000000001
 43
0.0000000001
 40
0.0
 40
0.0
 40
0.0
 40
0.0
 40
1.0
 40
1.0
 40
1.0
 40
2.0
 40
2.0
 40
2.0
 40
3.0
 40
3.0
 40
3.0
 40
4.0
 40
4.0
 40
4.0
 40
5.0
 40
5.0
 40
5.0
 40
6.0
 40
6.0
 40
6.0
 40
7.0
 40
7.0
 40
7.0
 40
8.0
 40
8.0
 40
8.0
 40
8.0
 10
635.958984375
 20
508.994140625
 30
0.0
 10
635.958984375
 20
508.994140625
 30
0.0
 10
623.5546875
 20
508.994140625
 30
0.0
 10
623.5546875
 20
508.994140625
 30
0.0
 10
623.35888671875
 20
508.994140625
 30
0.0
 10
623.2001953125
 20
509.1533203125
 30
0.0
 10
623.2001953125
 20
509.3486328125
 30
0.0
 10
623.2001953125
 20
509.3486328125
 30
0.0
 10
623.2001953125
 20
512.892578125
 30
0.0
 10
623.2001953125
 20
512.892578125
 30
0.0
 10
623.2001953125
 20
513.08837890625
 30
0.0
 10
623.35888671875
 20
513.2470703125
 30
0.0
 10
623.5546875
 20
513.2470703125
 30
0.0
 10
623.5546875
 20
513.2470703125
 30
0.0
 10
635.958984375
 20
513.2470703125
 30
0.0
 10
635.958984375
 20
513.2470703125
 30
0.0
 10
636.15478515625
 20
513.2470703125
 30
0.0
 10
636.3134765625
 20
513.08837890625
 30
0.0
 10
636.3134765625
 20
512.892578125
 30
0.0
 10
636.3134765625
 20
512.892578125
 30
0.0
 10
636.3134765625
 20
509.3486328125
 30
0.0
 10
636.3134765625
 20
509.3486328125
 30
0.0
 10
636.3134765625
 20
509.1533203125
 30
0.0
 10
636.15478515625
 20
508.994140625
 30
0.0
 10
635.958984375
 20
508.994140625
 30
0.0
  0
POLYLINE
  5
73
330
6E
100
AcDbEntity
  8
CAPA_1
100
AcDb2dPolyline
 66
     1
 10
0.0
 20
0.0
 30
0.0
  0
VERTEX
  5
74
330
73
100
AcDbEntity
  8
CAPA_1
100
AcDbVertex
100
AcDb2dVertex
 10
623.9091796875
 20
509.703125
 30
0.0
  0
VERTEX
  5
75
330
73
100
AcDbEntity
  8
CAPA_1
100
AcDbVertex
100
AcDb2dVertex
 10
635.6044921875
 20
509.703125
 30
0.0
  0
VERTEX
  5
76
330
73
100
AcDbEntity
  8
CAPA_1
100
AcDbVertex
100
AcDb2dVertex
 10
635.6044921875
 20
512.5380859375
 30
0.0
  0
VERTEX
  5
77
330
73
100
AcDbEntity
  8
CAPA_1
100
AcDbVertex
100
AcDb2dVertex
 10
623.9091796875
 20
512.5380859375
 30
0.0
  0
VERTEX
  5
78
330
73
100
AcDbEntity
  8
CAPA_1
100
AcDbVertex
100
AcDb2dVertex
 10
623.9091796875
 20
509.703125
 30
0.0
  0
SEQEND
  5
79
330
73
100
AcDbEntity
  8
CAPA_1
  0
HATCH
  5
7A
330
6E
100
AcDbEntity
  8
CAPA_1
 62
     7
100
AcDbHatch
 10
0.0
 20
0.0
 30
0.0
210
0.0
220
0.0
230
1.0
  2
SOLID
 70
     1
 71
     0
 91
        2
 92
        1
 93
        1
 72
     4
 94
        3
 73
     0
 74
     1
 95
       29
 96
       25
 40
0.0
 40
0.0
 40
0.0
 40
0.0
 40
1.0
 40
1.0
 40
1.0
 40
2.0
 40
2.0
 40
2.0
 40
3.0
 40
3.0
 40
3.0
 40
4.0
 40
4.0
 40
4.0
 40
5.0
 40
5.0
 40
5.0
 40
6.0
 40
6.0
 40
6.0
 40
7.0
 40
7.0
 40
7.0
 40
8.0
 40
8.0
 40
8.0
 40
8.0
 10
635.958984375
 20
508.994140625
 10
635.958984375
 20
508.994140625
 10
623.5546875
 20
508.994140625
 10
623.5546875
 20
508.994140625
 10
623.35888671875
 20
508.994140625
 10
623.2001953125
 20
509.1533203125
 10
623.2001953125
 20
509.3486328125
 10
623.2001953125
 20
509.3486328125
 10
623.2001953125
 20
512.892578125
 10
623.2001953125
 20
512.892578125
 10
623.2001953125
 20
513.08837890625
 10
623.35888671875
 20
513.2470703125
 10
623.5546875
 20
513.2470703125
 10
623.5546875
 20
513.2470703125
 10
635.958984375
 20
513.2470703125
 10
635.958984375
 20
513.2470703125
 10
636.15478515625
 20
513.2470703125
 10
636.3134765625
 20
513.08837890625
 10
636.3134765625
 20
512.892578125
 10
636.3134765625
 20
512.892578125
 10
636.3134765625
 20
509.3486328125
 10
636.3134765625
 20
509.3486328125
 10
636.3134765625
 20
509.1533203125
 10
636.15478515625
 20
508.994140625
 10
635.958984375
 20
508.994140625
 97
        0
 92
        1
 93
        4
 72
     1
 10
623.9091796875
 20
509.703125
 11
635.6044921875
 21
509.703125
 72
     1
 10
635.6044921875
 20
509.703125
 11
635.6044921875
 21
512.5380859375
 72
     1
 10
635.6044921875
 20
512.5380859375
 11
623.9091796875
 21
512.5380859375
 72
     1
 10
623.9091796875
 20
512.5380859375
 11
623.9091796875
 21
509.703125
 97
        0
 75
     2
 76
     1
 98
        0
  0
ENDBLK
  5
71
330
6E
100
AcDbEntity
  8
0
100
AcDbBlockEnd
  0
BLOCK
  5
7D
330
7B
100
AcDbEntity
  8
0
100
AcDbBlockBegin
  2
BLOCK_11
 70
     0
 71
     0
 10
0.0
 20
0.0
 30
0.0
  3
BLOCK_11
  1

  0
INSERT
  5
80
330
7B
100
AcDbEntity
  8
CAPA_1
100
AcDbBlockReference
  2
BLOCK_12
 10
0.0
 20
0.0
 30
0.0
  0
ENDBLK
  5
7E
330
7B
100
AcDbEntity
  8
0
100
AcDbBlockEnd
  0
BLOCK
  5
81
330
7F
100
AcDbEntity
  8
0
100
AcDbBlockBegin
  2
BLOCK_12
 70
     0
 71
     0
 10
0.0
 20
0.0
 30
0.0
  3
BLOCK_12
  1

  0
SPLINE
  5
83
330
7F
100
AcDbEntity
  8
CAPA_1
 62
     7
100
AcDbSpline
210
0.0
220
0.0
230
1.0
 70
    11
 71
     3
 72
    41
 73
    37
 74
     0
 42
0.0000000001
 43
0.0000000001
 40
0.0
 40
0.0
 40
0.0
 40
0.0
 40
1.0
 40
1.0
 40
1.0
 40
2.0
 40
2.0
 40
2.0
 40
3.0
 40
3.0
 40
3.0
 40
4.0
 40
4.0
 40
4.0
 40
5.0
 40
5.0
 40
5.0
 40
6.0
 40
6.0
 40
6.0
 40
7.0
 40
7.0
 40
7.0
 40
8.0
 40
8.0
 40
8.0
 40
9.0
 40
9.0
 40
9.0
 40
10.0
 40
10.0
 40
10.0
 40
11.0
 40
11.0
 40
11.0
 40
12.0
 40
12.0
 40
12.0
 40
12.0
 10
628.55126953125
 20
494.3203125
 30
0.0
 10
628.55126953125
 20
494.3203125
 30
0.0
 10
624.529296875
 20
494.3203125
 30
0.0
 10
624.529296875
 20
494.3203125
 30
0.0
 10
624.529296875
 20
494.3203125
 30
0.0
 10
624.529296875
 20
495.0927734375
 30
0.0
 10
624.529296875
 20
495.0927734375
 30
0.0
 10
624.529296875
 20
495.6640625
 30
0.0
 10
624.55810546875
 20
496.06640625
 30
0.0
 10
624.6162109375
 20
496.2998046875
 30
0.0
 10
624.673828125
 20
496.533203125
 30
0.0
 10
624.7705078125
 20
496.73828125
 30
0.0
 10
624.90576171875
 20
496.9140625
 30
0.0
 10
625.08349609375
 20
497.14453125
 30
0.0
 10
625.310546875
 20
497.3193359375
 30
0.0
 10
625.5869140625
 20
497.4384765625
 30
0.0
 10
625.86376953125
 20
497.5576171875
 30
0.0
 10
626.18212890625
 20
497.6171875
 30
0.0
 10
626.54296875
 20
497.6171875
 30
0.0
 10
626.90185546875
 20
497.6171875
 30
0.0
 10
627.21923828125
 20
497.5576171875
 30
0.0
 10
627.4951171875
 20
497.439453125
 30
0.0
 10
627.7705078125
 20
497.3212890625
 30
0.0
 10
627.9970703125
 20
497.146484375
 30
0.0
 10
628.1748046875
 20
496.9140625
 30
0.0
 10
628.310546875
 20
496.73828125
 30
0.0
 10
628.4072265625
 20
496.5380859375
 30
0.0
 10
628.46484375
 20
496.3134765625
 30
0.0
 10
628.5224609375
 20
496.0888671875
 30
0.0
 10
628.55126953125
 20
495.7392578125
 30
0.0
 10
628.55126953125
 20
495.265625
 30
0.0
 10
628.55126953125
 20
495.265625
 30
0.0
 10
628.55126953125
 20
495.0927734375
 30
0.0
 10
628.55126953125
 20
495.0927734375
 30
0.0
 10
628.55126953125
 20
495.0927734375
 30
0.0
 10
628.55126953125
 20
494.3203125
 30
0.0
 10
628.55126953125
 20
494.3203125
 30
0.0
  0
SPLINE
  5
84
330
7F
100
AcDbEntity
  8
CAPA_1
 62
     7
100
AcDbSpline
210
0.0
220
0.0
230
1.0
 70
    11
 71
     3
 72
    38
 73
    34
 74
     0
 42
0.0000000001
 43
0.0000000001
 40
0.0
 40
0.0
 40
0.0
 40
0.0
 40
1.0
 40
1.0
 40
1.0
 40
2.0
 40
2.0
 40
2.0
 40
3.0
 40
3.0
 40
3.0
 40
4.0
 40
4.0
 40
4.0
 40
5.0
 40
5.0
 40
5.0
 40
6.0
 40
6.0
 40
6.0
 40
7.0
 40
7.0
 40
7.0
 40
8.0
 40
8.0
 40
8.0
 40
9.0
 40
9.0
 40
9.0
 40
10.0
 40
10.0
 40
10.0
 40
11.0
 40
11.0
 40
11.0
 40
11.0
 10
628.1005859375
 20
494.8037109375
 30
0.0
 10
628.1005859375
 20
494.8037109375
 30
0.0
 10
628.1005859375
 20
495.1083984375
 30
0.0
 10
628.1005859375
 20
495.1083984375
 30
0.0
 10
628.1005859375
 20
495.603515625
 30
0.0
 10
628.0791015625
 20
495.9453125
 30
0.0
 10
628.0361328125
 20
496.13671875
 30
0.0
 10
627.9931640625
 20
496.3271484375
 30
0.0
 10
627.91943359375
 20
496.4853515625
 30
0.0
 10
627.81494140625
 20
496.611328125
 30
0.0
 10
627.677734375
 20
496.7763671875
 30
0.0
 10
627.50048828125
 20
496.9013671875
 30
0.0
 10
627.28369140625
 20
496.98828125
 30
0.0
 10
627.06640625
 20
497.07421875
 30
0.0
 10
626.81787109375
 20
497.1171875
 30
0.0
 10
626.53759765625
 20
497.1171875
 30
0.0
 10
626.25537109375
 20
497.1171875
 30
0.0
 10
626.0078125
 20
497.07421875
 30
0.0
 10
625.79443359375
 20
496.9892578125
 30
0.0
 10
625.5810546875
 20
496.904296875
 30
0.0
 10
625.40478515625
 20
496.7783203125
 30
0.0
 10
625.265625
 20
496.611328125
 30
0.0
 10
625.15966796875
 20
496.4853515625
 30
0.0
 10
625.083984375
 20
496.32421875
 30
0.0
 10
625.0390625
 20
496.1298828125
 30
0.0
 10
624.994140625
 20
495.9345703125
 30
0.0
 10
624.9716796875
 20
495.59375
 30
0.0
 10
624.9716796875
 20
495.1083984375
 30
0.0
 10
624.9716796875
 20
495.1083984375
 30
0.0
 10
624.9716796875
 20
494.8037109375
 30
0.0
 10
624.9716796875
 20
494.8037109375
 30
0.0
 10
624.9716796875
 20
494.8037109375
 30
0.0
 10
628.1005859375
 20
494.8037109375
 30
0.0
 10
628.1005859375
 20
494.8037109375
 30
0.0
  0
SPLINE
  5
85
330
7F
100
AcDbEntity
  8
CAPA_1
 62
     7
100
AcDbSpline
210
0.0
220
0.0
230
1.0
 70
    11
 71
     3
 72
    50
 73
    46
 74
     0
 42
0.0000000001
 43
0.0000000001
 40
0.0
 40
0.0
 40
0.0
 40
0.0
 40
1.0
 40
1.0
 40
1.0
 40
2.0
 40
2.0
 40
2.0
 40
3.0
 40
3.0
 40
3.0
 40
4.0
 40
4.0
 40
4.0
 40
5.0
 40
5.0
 40
5.0
 40
6.0
 40
6.0
 40
6.0
 40
7.0
 40
7.0
 40
7.0
 40
8.0
 40
8.0
 40
8.0
 40
9.0
 40
9.0
 40
9.0
 40
10.0
 40
10.0
 40
10.0
 40
11.0
 40
11.0
 40
11.0
 40
12.0
 40
12.0
 40
12.0
 40
13.0
 40
13.0
 40
13.0
 40
14.0
 40
14.0
 40
14.0
 40
15.0
 40
15.0
 40
15.0
 40
15.0
 10
628.55126953125
 20
498.3994140625
 30
0.0
 10
628.55126953125
 20
498.3994140625
 30
0.0
 10
624.529296875
 20
498.3994140625
 30
0.0
 10
624.529296875
 20
498.3994140625
 30
0.0
 10
624.529296875
 20
498.3994140625
 30
0.0
 10
624.529296875
 20
499.3447265625
 30
0.0
 10
624.529296875
 20
499.3447265625
 30
0.0
 10
624.529296875
 20
499.61328125
 30
0.0
 10
624.54443359375
 20
499.8115234375
 30
0.0
 10
624.57470703125
 20
499.9365234375
 30
0.0
 10
624.60498046875
 20
500.0615234375
 30
0.0
 10
624.65673828125
 20
500.171875
 30
0.0
 10
624.72998046875
 20
500.267578125
 30
0.0
 10
624.8232421875
 20
500.38671875
 30
0.0
 10
624.9482421875
 20
500.4794921875
 30
0.0
 10
625.10498046875
 20
500.544921875
 30
0.0
 10
625.26171875
 20
500.611328125
 30
0.0
 10
625.43505859375
 20
500.6435546875
 30
0.0
 10
625.62548828125
 20
500.6435546875
 30
0.0
 10
625.955078125
 20
500.6435546875
 30
0.0
 10
626.20556640625
 20
500.5517578125
 30
0.0
 10
626.376953125
 20
500.3681640625
 30
0.0
 10
626.54833984375
 20
500.18359375
 30
0.0
 10
626.6337890625
 20
499.9140625
 30
0.0
 10
626.6337890625
 20
499.55859375
 30
0.0
 10
626.6337890625
 20
499.55859375
 30
0.0
 10
626.6337890625
 20
499.4736328125
 30
0.0
 10
626.6337890625
 20
499.4736328125
 30
0.0
 10
626.6337890625
 20
499.4736328125
 30
0.0
 10
628.55126953125
 20
501.009765625
 30
0.0
 10
628.55126953125
 20
501.009765625
 30
0.0
 10
628.55126953125
 20
501.009765625
 30
0.0
 10
628.55126953125
 20
500.40234375
 30
0.0
 10
628.55126953125
 20
500.40234375
 30
0.0
 10
628.55126953125
 20
500.40234375
 30
0.0
 10
626.6337890625
 20
498.935546875
 30
0.0
 10
626.6337890625
 20
498.935546875
 30
0.0
 10
626.6337890625
 20
498.935546875
 30
0.0
 10
626.6337890625
 20
498.8662109375
 30
0.0
 10
626.6337890625
 20
498.8662109375
 30
0.0
 10
626.6337890625
 20
498.8662109375
 30
0.0
 10
628.55126953125
 20
498.8662109375
 30
0.0
 10
628.55126953125
 20
498.8662109375
 30
0.0
 10
628.55126953125
 20
498.8662109375
 30
0.0
 10
628.55126953125
 20
498.3994140625
 30
0.0
 10
628.55126953125
 20
498.3994140625
 30
0.0
  0
SPLINE
  5
86
330
7F
100
AcDbEntity
  8
CAPA_1
 62
     7
100
AcDbSpline
210
0.0
220
0.0
230
1.0
 70
    11
 71
     3
 72
    26
 73
    22
 74
     0
 42
0.0000000001
 43
0.0000000001
 40
0.0
 40
0.0
 40
0.0
 40
0.0
 40
1.0
 40
1.0
 40
1.0
 40
2.0
 40
2.0
 40
2.0
 40
3.0
 40
3.0
 40
3.0
 40
4.0
 40
4.0
 40
4.0
 40
5.0
 40
5.0
 40
5.0
 40
6.0
 40
6.0
 40
6.0
 40
7.0
 40
7.0
 40
7.0
 40
7.0
 10
624.93310546875
 20
498.8662109375
 30
0.0
 10
624.93310546875
 20
498.8662109375
 30
0.0
 10
626.279296875
 20
498.8662109375
 30
0.0
 10
626.279296875
 20
498.8662109375
 30
0.0
 10
626.279296875
 20
498.8662109375
 30
0.0
 10
626.279296875
 20
499.2314453125
 30
0.0
 10
626.279296875
 20
499.2314453125
 30
0.0
 10
626.279296875
 20
499.60546875
 30
0.0
 10
626.2314453125
 20
499.85546875
 30
0.0
 10
626.13525390625
 20
499.9814453125
 30
0.0
 10
626.0390625
 20
500.1083984375
 30
0.0
 10
625.87109375
 20
500.171875
 30
0.0
 10
625.630859375
 20
500.171875
 30
0.0
 10
625.373046875
 20
500.171875
 30
0.0
 10
625.19189453125
 20
500.1064453125
 30
0.0
 10
625.08837890625
 20
499.9765625
 30
0.0
 10
624.98486328125
 20
499.8466796875
 30
0.0
 10
624.93310546875
 20
499.5986328125
 30
0.0
 10
624.93310546875
 20
499.2314453125
 30
0.0
 10
624.93310546875
 20
499.2314453125
 30
0.0
 10
624.93310546875
 20
498.8662109375
 30
0.0
 10
624.93310546875
 20
498.8662109375
 30
0.0
  0
POLYLINE
  5
87
330
7F
100
AcDbEntity
  8
CAPA_1
 62
     7
100
AcDb2dPolyline
 66
     1
 10
0.0
 20
0.0
 30
0.0
  0
VERTEX
  5
88
330
87
100
AcDbEntity
  8
CAPA_1
 62
     7
100
AcDbVertex
100
AcDb2dVertex
 10
628.55126953125
 20
502.1962890625
 30
0.0
  0
VERTEX
  5
89
330
87
100
AcDbEntity
  8
CAPA_1
 62
     7
100
AcDbVertex
100
AcDb2dVertex
 10
626.71044921875
 20
502.1962890625
 30
0.0
  0
VERTEX
  5
8A
330
87
100
AcDbEntity
  8
CAPA_1
 62
     7
100
AcDbVertex
100
AcDb2dVertex
 10
624.529296875
 20
500.833984375
 30
0.0
  0
VERTEX
  5
8B
330
87
100
AcDbEntity
  8
CAPA_1
 62
     7
100
AcDbVertex
100
AcDb2dVertex
 10
624.529296875
 20
501.3857421875
 30
0.0
  0
VERTEX
  5
8C
330
87
100
AcDbEntity
  8
CAPA_1
 62
     7
100
AcDbVertex
100
AcDb2dVertex
 10
626.27392578125
 20
502.4375
 30
0.0
  0
VERTEX
  5
8D
330
87
100
AcDbEntity
  8
CAPA_1
 62
     7
100
AcDbVertex
100
AcDb2dVertex
 10
624.529296875
 20
503.484375
 30
0.0
  0
VERTEX
  5
8E
330
87
100
AcDbEntity
  8
CAPA_1
 62
     7
100
AcDbVertex
100
AcDb2dVertex
 10
624.529296875
 20
504.0341796875
 30
0.0
  0
VERTEX
  5
8F
330
87
100
AcDbEntity
  8
CAPA_1
 62
     7
100
AcDbVertex
100
AcDb2dVertex
 10
626.71044921875
 20
502.673828125
 30
0.0
  0
VERTEX
  5
90
330
87
100
AcDbEntity
  8
CAPA_1
 62
     7
100
AcDbVertex
100
AcDb2dVertex
 10
628.55126953125
 20
502.673828125
 30
0.0
  0
VERTEX
  5
91
330
87
100
AcDbEntity
  8
CAPA_1
 62
     7
100
AcDbVertex
100
AcDb2dVertex
 10
628.55126953125
 20
502.1962890625
 30
0.0
  0
SEQEND
  5
92
330
87
100
AcDbEntity
  8
CAPA_1
  0
ENDBLK
  5
82
330
7F
100
AcDbEntity
  8
0
100
AcDbBlockEnd
  0
BLOCK
  5
95
330
93
100
AcDbEntity
  8
0
100
AcDbBlockBegin
  2
BLOCK_13
 70
     0
 71
     0
 10
0.0
 20
0.0
 30
0.0
  3
BLOCK_13
  1

  0
INSERT
  5
98
330
93
100
AcDbEntity
  8
CAPA_1
100
AcDbBlockReference
  2
BLOCK_14
 10
0.0
 20
0.0
 30
0.0
  0
ENDBLK
  5
96
330
93
100
AcDbEntity
  8
0
100
AcDbBlockEnd
  0
BLOCK
  5
99
330
97
100
AcDbEntity
  8
0
100
AcDbBlockBegin
  2
BLOCK_14
 70
     0
 71
     0
 10
0.0
 20
0.0
 30
0.0
  3
BLOCK_14
  1

  0
POLYLINE
  5
9B
330
97
100
AcDbEntity
  8
CAPA_1
 62
     7
100
AcDb2dPolyline
 66
     1
 10
0.0
 20
0.0
 30
0.0
  0
VERTEX
  5
9C
330
9B
100
AcDbEntity
  8
CAPA_1
 62
     7
100
AcDbVertex
100
AcDb2dVertex
 10
645.912109375
 20
481.77734375
 30
0.0
  0
VERTEX
  5
9D
330
9B
100
AcDbEntity
  8
CAPA_1
 62
     7
100
AcDbVertex
100
AcDb2dVertex
 10
641.7314453125
 20
481.77734375
 30
0.0
  0
VERTEX
  5
9E
330
9B
100
AcDbEntity
  8
CAPA_1
 62
     7
100
AcDbVertex
100
AcDb2dVertex
 10
644.9453125
 20
484.7197265625
 30
0.0
  0
VERTEX
  5
9F
330
9B
100
AcDbEntity
  8
CAPA_1
 62
     7
100
AcDbVertex
100
AcDb2dVertex
 10
641.890625
 20
484.7197265625
 30
0.0
  0
VERTEX
  5
A0
330
9B
100
AcDbEntity
  8
CAPA_1
 62
     7
100
AcDbVertex
100
AcDb2dVertex
 10
641.890625
 20
485.17578125
 30
0.0
  0
VERTEX
  5
A1
330
9B
100
AcDbEntity
  8
CAPA_1
 62
     7
100
AcDbVertex
100
AcDb2dVertex
 10
646.068359375
 20
485.17578125
 30
0.0
  0
VERTEX
  5
A2
330
9B
100
AcDbEntity
  8
CAPA_1
 62
     7
100
AcDbVertex
100
AcDb2dVertex
 10
642.890625
 20
482.2333984375
 30
0.0
  0
VERTEX
  5
A3
330
9B
100
AcDbEntity
  8
CAPA_1
 62
     7
100
AcDbVertex
100
AcDb2dVertex
 10
645.912109375
 20
482.2333984375
 30
0.0
  0
VERTEX
  5
A4
330
9B
100
AcDbEntity
  8
CAPA_1
 62
     7
100
AcDbVertex
100
AcDb2dVertex
 10
645.912109375
 20
481.77734375
 30
0.0
  0
SEQEND
  5
A5
330
9B
100
AcDbEntity
  8
CAPA_1
  0
SPLINE
  5
A6
330
97
100
AcDbEntity
  8
CAPA_1
 62
     7
100
AcDbSpline
210
0.0
220
0.0
230
1.0
 70
    11
 71
     3
 72
    53
 73
    49
 74
     0
 42
0.0000000001
 43
0.0000000001
 40
0.0
 40
0.0
 40
0.0
 40
0.0
 40
1.0
 40
1.0
 40
1.0
 40
2.0
 40
2.0
 40
2.0
 40
3.0
 40
3.0
 40
3.0
 40
4.0
 40
4.0
 40
4.0
 40
5.0
 40
5.0
 40
5.0
 40
6.0
 40
6.0
 40
6.0
 40
7.0
 40
7.0
 40
7.0
 40
8.0
 40
8.0
 40
8.0
 40
9.0
 40
9.0
 40
9.0
 40
10.0
 40
10.0
 40
10.0
 40
11.0
 40
11.0
 40
11.0
 40
12.0
 40
12.0
 40
12.0
 40
13.0
 40
13.0
 40
13.0
 40
14.0
 40
14.0
 40
14.0
 40
15.0
 40
15.0
 40
15.0
 40
16.0
 40
16.0
 40
16.0
 40
16.0
 10
643.9091796875
 20
490.251953125
 30
0.0
 10
644.197265625
 20
490.251953125
 30
0.0
 10
644.4677734375
 20
490.19921875
 30
0.0
 10
644.72265625
 20
490.0927734375
 30
0.0
 10
644.9775390625
 20
489.986328125
 30
0.0
 10
645.203125
 20
489.8310546875
 30
0.0
 10
645.4013671875
 20
489.6279296875
 30
0.0
 10
645.5986328125
 20
489.4248046875
 30
0.0
 10
645.7509765625
 20
489.1904296875
 30
0.0
 10
645.8583984375
 20
488.92578125
 30
0.0
 10
645.9658203125
 20
488.6611328125
 30
0.0
 10
646.01953125
 20
488.38671875
 30
0.0
 10
646.01953125
 20
488.1025390625
 30
0.0
 10
646.01953125
 20
487.818359375
 30
0.0
 10
645.9658203125
 20
487.544921875
 30
0.0
 10
645.8583984375
 20
487.2822265625
 30
0.0
 10
645.7509765625
 20
487.0185546875
 30
0.0
 10
645.5986328125
 20
486.7861328125
 30
0.0
 10
645.4013671875
 20
486.58203125
 30
0.0
 10
645.201171875
 20
486.376953125
 30
0.0
 10
644.974609375
 20
486.220703125
 30
0.0
 10
644.7197265625
 20
486.11328125
 30
0.0
 10
644.46484375
 20
486.005859375
 30
0.0
 10
644.1953125
 20
485.953125
 30
0.0
 10
643.9091796875
 20
485.953125
 30
0.0
 10
643.6220703125
 20
485.953125
 30
0.0
 10
643.3505859375
 20
486.005859375
 30
0.0
 10
643.0947265625
 20
486.11328125
 30
0.0
 10
642.83984375
 20
486.220703125
 30
0.0
 10
642.6123046875
 20
486.376953125
 30
0.0
 10
642.412109375
 20
486.58203125
 30
0.0
 10
642.2158203125
 20
486.7841796875
 30
0.0
 10
642.0654296875
 20
487.0166015625
 30
0.0
 10
641.958984375
 20
487.2802734375
 30
0.0
 10
641.8525390625
 20
487.5439453125
 30
0.0
 10
641.7998046875
 20
487.818359375
 30
0.0
 10
641.7998046875
 20
488.1025390625
 30
0.0
 10
641.7998046875
 20
488.388671875
 30
0.0
 10
641.8525390625
 20
488.6640625
 30
0.0
 10
641.958984375
 20
488.9287109375
 30
0.0
 10
642.0654296875
 20
489.193359375
 30
0.0
 10
642.2158203125
 20
489.4267578125
 30
0.0
 10
642.412109375
 20
489.6279296875
 30
0.0
 10
642.6103515625
 20
489.8310546875
 30
0.0
 10
642.8369140625
 20
489.986328125
 30
0.0
 10
643.091796875
 20
490.0927734375
 30
0.0
 10
643.34765625
 20
490.19921875
 30
0.0
 10
643.6201171875
 20
490.251953125
 30
0.0
 10
643.9091796875
 20
490.251953125
 30
0.0
  0
SPLINE
  5
A7
330
97
100
AcDbEntity
  8
CAPA_1
 62
     7
100
AcDbSpline
210
0.0
220
0.0
230
1.0
 70
    11
 71
     3
 72
    53
 73
    49
 74
     0
 42
0.0000000001
 43
0.0000000001
 40
0.0
 40
0.0
 40
0.0
 40
0.0
 40
1.0
 40
1.0
 40
1.0
 40
2.0
 40
2.0
 40
2.0
 40
3.0
 40
3.0
 40
3.0
 40
4.0
 40
4.0
 40
4.0
 40
5.0
 40
5.0
 40
5.0
 40
6.0
 40
6.0
 40
6.0
 40
7.0
 40
7.0
 40
7.0
 40
8.0
 40
8.0
 40
8.0
 40
9.0
 40
9.0
 40
9.0
 40
10.0
 40
10.0
 40
10.0
 40
11.0
 40
11.0
 40
11.0
 40
12.0
 40
12.0
 40
12.0
 40
13.0
 40
13.0
 40
13.0
 40
14.0
 40
14.0
 40
14.0
 40
15.0
 40
15.0
 40
15.0
 40
16.0
 40
16.0
 40
16.0
 40
16.0
 10
645.568359375
 20
488.1025390625
 30
0.0
 10
645.568359375
 20
488.322265625
 30
0.0
 10
645.52734375
 20
488.53125
 30
0.0
 10
645.443359375
 20
488.73046875
 30
0.0
 10
645.3603515625
 20
488.9296875
 30
0.0
 10
645.2392578125
 20
489.1083984375
 30
0.0
 10
645.080078125
 20
489.2685546875
 30
0.0
 10
644.921875
 20
489.42578125
 30
0.0
 10
644.744140625
 20
489.5458984375
 30
0.0
 10
644.5439453125
 20
489.6279296875
 30
0.0
 10
644.3447265625
 20
489.7109375
 30
0.0
 10
644.1328125
 20
489.751953125
 30
0.0
 10
643.9091796875
 20
489.751953125
 30
0.0
 10
643.6845703125
 20
489.751953125
 30
0.0
 10
643.4697265625
 20
489.7099609375
 30
0.0
 10
643.2666015625
 20
489.626953125
 30
0.0
 10
643.0634765625
 20
489.5439453125
 30
0.0
 10
642.8837890625
 20
489.423828125
 30
0.0
 10
642.728515625
 20
489.2685546875
 30
0.0
 10
642.5703125
 20
489.1103515625
 30
0.0
 10
642.451171875
 20
488.9326171875
 30
0.0
 10
642.3681640625
 20
488.7333984375
 30
0.0
 10
642.2861328125
 20
488.5341796875
 30
0.0
 10
642.2451171875
 20
488.32421875
 30
0.0
 10
642.2451171875
 20
488.1025390625
 30
0.0
 10
642.2451171875
 20
487.87890625
 30
0.0
 10
642.2861328125
 20
487.6669921875
 30
0.0
 10
642.3681640625
 20
487.466796875
 30
0.0
 10
642.451171875
 20
487.267578125
 30
0.0
 10
642.5703125
 20
487.0908203125
 30
0.0
 10
642.728515625
 20
486.9365234375
 30
0.0
 10
642.8876953125
 20
486.779296875
 30
0.0
 10
643.068359375
 20
486.6591796875
 30
0.0
 10
643.26953125
 20
486.576171875
 30
0.0
 10
643.470703125
 20
486.494140625
 30
0.0
 10
643.6845703125
 20
486.453125
 30
0.0
 10
643.9091796875
 20
486.453125
 30
0.0
 10
644.1328125
 20
486.453125
 30
0.0
 10
644.34375
 20
486.4931640625
 30
0.0
 10
644.541015625
 20
486.5751953125
 30
0.0
 10
644.7392578125
 20
486.65625
 30
0.0
 10
644.9189453125
 20
486.77734375
 30
0.0
 10
645.080078125
 20
486.9365234375
 30
0.0
 10
645.2412109375
 20
487.09765625
 30
0.0
 10
645.3623046875
 20
487.27734375
 30
0.0
 10
645.4453125
 20
487.474609375
 30
0.0
 10
645.52734375
 20
487.6708984375
 30
0.0
 10
645.568359375
 20
487.880859375
 30
0.0
 10
645.568359375
 20
488.1025390625
 30
0.0
  0
SPLINE
  5
A8
330
97
100
AcDbEntity
  8
CAPA_1
 62
     7
100
AcDbSpline
210
0.0
220
0.0
230
1.0
 70
    11
 71
     3
 72
    50
 73
    46
 74
     0
 42
0.0000000001
 43
0.0000000001
 40
0.0
 40
0.0
 40
0.0
 40
0.0
 40
1.0
 40
1.0
 40
1.0
 40
2.0
 40
2.0
 40
2.0
 40
3.0
 40
3.0
 40
3.0
 40
4.0
 40
4.0
 40
4.0
 40
5.0
 40
5.0
 40
5.0
 40
6.0
 40
6.0
 40
6.0
 40
7.0
 40
7.0
 40
7.0
 40
8.0
 40
8.0
 40
8.0
 40
9.0
 40
9.0
 40
9.0
 40
10.0
 40
10.0
 40
10.0
 40
11.0
 40
11.0
 40
11.0
 40
12.0
 40
12.0
 40
12.0
 40
13.0
 40
13.0
 40
13.0
 40
14.0
 40
14.0
 40
14.0
 40
15.0
 40
15.0
 40
15.0
 40
15.0
 10
645.912109375
 20
491.0322265625
 30
0.0
 10
645.912109375
 20
491.0322265625
 30
0.0
 10
641.890625
 20
491.0322265625
 30
0.0
 10
641.890625
 20
491.0322265625
 30
0.0
 10
641.890625
 20
491.0322265625
 30
0.0
 10
641.890625
 20
491.9775390625
 30
0.0
 10
641.890625
 20
491.9775390625
 30
0.0
 10
641.890625
 20
492.24609375
 30
0.0
 10
641.9052734375
 20
492.4443359375
 30
0.0
 10
641.935546875
 20
492.5693359375
 30
0.0
 10
641.9658203125
 20
492.6943359375
 30
0.0
 10
642.017578125
 20
492.8046875
 30
0.0
 10
642.0908203125
 20
492.900390625
 30
0.0
 10
642.1845703125
 20
493.01953125
 30
0.0
 10
642.3095703125
 20
493.1123046875
 30
0.0
 10
642.4658203125
 20
493.177734375
 30
0.0
 10
642.6220703125
 20
493.244140625
 30
0.0
 10
642.7958984375
 20
493.2763671875
 30
0.0
 10
642.986328125
 20
493.2763671875
 30
0.0
 10
643.31640625
 20
493.2763671875
 30
0.0
 10
643.56640625
 20
493.1845703125
 30
0.0
 10
643.7373046875
 20
493.0009765625
 30
0.0
 10
643.9091796875
 20
492.81640625
 30
0.0
 10
643.994140625
 20
492.546875
 30
0.0
 10
643.994140625
 20
492.19140625
 30
0.0
 10
643.994140625
 20
492.19140625
 30
0.0
 10
643.994140625
 20
492.1064453125
 30
0.0
 10
643.994140625
 20
492.1064453125
 30
0.0
 10
643.994140625
 20
492.1064453125
 30
0.0
 10
645.912109375
 20
493.642578125
 30
0.0
 10
645.912109375
 20
493.642578125
 30
0.0
 10
645.912109375
 20
493.642578125
 30
0.0
 10
645.912109375
 20
493.03515625
 30
0.0
 10
645.912109375
 20
493.03515625
 30
0.0
 10
645.912109375
 20
493.03515625
 30
0.0
 10
643.994140625
 20
491.568359375
 30
0.0
 10
643.994140625
 20
491.568359375
 30
0.0
 10
643.994140625
 20
491.568359375
 30
0.0
 10
643.994140625
 20
491.4990234375
 30
0.0
 10
643.994140625
 20
491.4990234375
 30
0.0
 10
643.994140625
 20
491.4990234375
 30
0.0
 10
645.912109375
 20
491.4990234375
 30
0.0
 10
645.912109375
 20
491.4990234375
 30
0.0
 10
645.912109375
 20
491.4990234375
 30
0.0
 10
645.912109375
 20
491.0322265625
 30
0.0
 10
645.912109375
 20
491.0322265625
 30
0.0
  0
SPLINE
  5
A9
330
97
100
AcDbEntity
  8
CAPA_1
 62
     7
100
AcDbSpline
210
0.0
220
0.0
230
1.0
 70
    11
 71
     3
 72
    26
 73
    22
 74
     0
 42
0.0000000001
 43
0.0000000001
 40
0.0
 40
0.0
 40
0.0
 40
0.0
 40
1.0
 40
1.0
 40
1.0
 40
2.0
 40
2.0
 40
2.0
 40
3.0
 40
3.0
 40
3.0
 40
4.0
 40
4.0
 40
4.0
 40
5.0
 40
5.0
 40
5.0
 40
6.0
 40
6.0
 40
6.0
 40
7.0
 40
7.0
 40
7.0
 40
7.0
 10
642.2939453125
 20
491.4990234375
 30
0.0
 10
642.2939453125
 20
491.4990234375
 30
0.0
 10
643.640625
 20
491.4990234375
 30
0.0
 10
643.640625
 20
491.4990234375
 30
0.0
 10
643.640625
 20
491.4990234375
 30
0.0
 10
643.640625
 20
491.8642578125
 30
0.0
 10
643.640625
 20
491.8642578125
 30
0.0
 10
643.640625
 20
492.23828125
 30
0.0
 10
643.591796875
 20
492.48828125
 30
0.0
 10
643.49609375
 20
492.6142578125
 30
0.0
 10
643.3994140625
 20
492.7412109375
 30
0.0
 10
643.2314453125
 20
492.8046875
 30
0.0
 10
642.9921875
 20
492.8046875
 30
0.0
 10
642.7333984375
 20
492.8046875
 30
0.0
 10
642.552734375
 20
492.7392578125
 30
0.0
 10
642.44921875
 20
492.609375
 30
0.0
 10
642.345703125
 20
492.4794921875
 30
0.0
 10
642.2939453125
 20
492.2314453125
 30
0.0
 10
642.2939453125
 20
491.8642578125
 30
0.0
 10
642.2939453125
 20
491.8642578125
 30
0.0
 10
642.2939453125
 20
491.4990234375
 30
0.0
 10
642.2939453125
 20
491.4990234375
 30
0.0
  0
POLYLINE
  5
AA
330
97
100
AcDbEntity
  8
CAPA_1
 62
     7
100
AcDb2dPolyline
 66
     1
 10
0.0
 20
0.0
 30
0.0
  0
VERTEX
  5
AB
330
AA
100
AcDbEntity
  8
CAPA_1
 62
     7
100
AcDbVertex
100
AcDb2dVertex
 10
646.068359375
 20
495.9169921875
 30
0.0
  0
VERTEX
  5
AC
330
AA
100
AcDbEntity
  8
CAPA_1
 62
     7
100
AcDbVertex
100
AcDb2dVertex
 10
643.1787109375
 20
494.6669921875
 30
0.0
  0
VERTEX
  5
AD
330
AA
100
AcDbEntity
  8
CAPA_1
 62
     7
100
AcDbVertex
100
AcDb2dVertex
 10
645.912109375
 20
494.1611328125
 30
0.0
  0
VERTEX
  5
AE
330
AA
100
AcDbEntity
  8
CAPA_1
 62
     7
100
AcDbVertex
100
AcDb2dVertex
 10
645.912109375
 20
493.6943359375
 30
0.0
  0
VERTEX
  5
AF
330
AA
100
AcDbEntity
  8
CAPA_1
 62
     7
100
AcDbVertex
100
AcDb2dVertex
 10
641.7314453125
 20
494.509765625
 30
0.0
  0
VERTEX
  5
B0
330
AA
100
AcDbEntity
  8
CAPA_1
 62
     7
100
AcDbVertex
100
AcDb2dVertex
 10
645.0576171875
 20
495.9169921875
 30
0.0
  0
VERTEX
  5
B1
330
AA
100
AcDbEntity
  8
CAPA_1
 62
     7
100
AcDbVertex
100
AcDb2dVertex
 10
641.7314453125
 20
497.3232421875
 30
0.0
  0
VERTEX
  5
B2
330
AA
100
AcDbEntity
  8
CAPA_1
 62
     7
100
AcDbVertex
100
AcDb2dVertex
 10
645.912109375
 20
498.138671875
 30
0.0
  0
VERTEX
  5
B3
330
AA
100
AcDbEntity
  8
CAPA_1
 62
     7
100
AcDbVertex
100
AcDb2dVertex
 10
645.912109375
 20
497.671875
 30
0.0
  0
VERTEX
  5
B4
330
AA
100
AcDbEntity
  8
CAPA_1
 62
     7
100
AcDbVertex
100
AcDb2dVertex
 10
643.1787109375
 20
497.1611328125
 30
0.0
  0
VERTEX
  5
B5
330
AA
100
AcDbEntity
  8
CAPA_1
 62
     7
100
AcDbVertex
100
AcDb2dVertex
 10
646.068359375
 20
495.9169921875
 30
0.0
  0
SEQEND
  5
B6
330
AA
100
AcDbEntity
  8
CAPA_1
  0
POLYLINE
  5
B7
330
97
100
AcDbEntity
  8
CAPA_1
 62
     7
100
AcDb2dPolyline
 66
     1
 10
0.0
 20
0.0
 30
0.0
  0
VERTEX
  5
B8
330
B7
100
AcDbEntity
  8
CAPA_1
 62
     7
100
AcDbVertex
100
AcDb2dVertex
 10
641.7314453125
 20
500.0302734375
 30
0.0
  0
VERTEX
  5
B9
330
B7
100
AcDbEntity
  8
CAPA_1
 62
     7
100
AcDbVertex
100
AcDb2dVertex
 10
645.912109375
 20
501.859375
 30
0.0
  0
VERTEX
  5
BA
330
B7
100
AcDbEntity
  8
CAPA_1
 62
     7
100
AcDbVertex
100
AcDb2dVertex
 10
645.912109375
 20
501.33984375
 30
0.0
  0
VERTEX
  5
BB
330
B7
100
AcDbEntity
  8
CAPA_1
 62
     7
100
AcDbVertex
100
AcDb2dVertex
 10
644.6787109375
 20
500.818359375
 30
0.0
  0
VERTEX
  5
BC
330
B7
100
AcDbEntity
  8
CAPA_1
 62
     7
100
AcDbVertex
100
AcDb2dVertex
 10
644.6787109375
 20
499.2470703125
 30
0.0
  0
VERTEX
  5
BD
330
B7
100
AcDbEntity
  8
CAPA_1
 62
     7
100
AcDbVertex
100
AcDb2dVertex
 10
645.912109375
 20
498.724609375
 30
0.0
  0
VERTEX
  5
BE
330
B7
100
AcDbEntity
  8
CAPA_1
 62
     7
100
AcDbVertex
100
AcDb2dVertex
 10
645.912109375
 20
498.2060546875
 30
0.0
  0
VERTEX
  5
BF
330
B7
100
AcDbEntity
  8
CAPA_1
 62
     7
100
AcDbVertex
100
AcDb2dVertex
 10
641.7314453125
 20
500.0302734375
 30
0.0
  0
SEQEND
  5
C0
330
B7
100
AcDbEntity
  8
CAPA_1
  0
POLYLINE
  5
C1
330
97
100
AcDbEntity
  8
CAPA_1
 62
     7
100
AcDb2dPolyline
 66
     1
 10
0.0
 20
0.0
 30
0.0
  0
VERTEX
  5
C2
330
C1
100
AcDbEntity
  8
CAPA_1
 62
     7
100
AcDbVertex
100
AcDb2dVertex
 10
642.7890625
 20
500.0302734375
 30
0.0
  0
VERTEX
  5
C3
330
C1
100
AcDbEntity
  8
CAPA_1
 62
     7
100
AcDbVertex
100
AcDb2dVertex
 10
644.26953125
 20
499.3896484375
 30
0.0
  0
VERTEX
  5
C4
330
C1
100
AcDbEntity
  8
CAPA_1
 62
     7
100
AcDbVertex
100
AcDb2dVertex
 10
644.26953125
 20
500.669921875
 30
0.0
  0
VERTEX
  5
C5
330
C1
100
AcDbEntity
  8
CAPA_1
 62
     7
100
AcDbVertex
100
AcDb2dVertex
 10
642.7890625
 20
500.0302734375
 30
0.0
  0
SEQEND
  5
C6
330
C1
100
AcDbEntity
  8
CAPA_1
  0
POLYLINE
  5
C7
330
97
100
AcDbEntity
  8
CAPA_1
 62
     7
100
AcDb2dPolyline
 66
     1
 10
0.0
 20
0.0
 30
0.0
  0
VERTEX
  5
C8
330
C7
100
AcDbEntity
  8
CAPA_1
 62
     7
100
AcDbVertex
100
AcDb2dVertex
 10
645.912109375
 20
502.2734375
 30
0.0
  0
VERTEX
  5
C9
330
C7
100
AcDbEntity
  8
CAPA_1
 62
     7
100
AcDbVertex
100
AcDb2dVertex
 10
641.890625
 20
502.2734375
 30
0.0
  0
VERTEX
  5
CA
330
C7
100
AcDbEntity
  8
CAPA_1
 62
     7
100
AcDbVertex
100
AcDb2dVertex
 10
641.890625
 20
502.751953125
 30
0.0
  0
VERTEX
  5
CB
330
C7
100
AcDbEntity
  8
CAPA_1
 62
     7
100
AcDbVertex
100
AcDb2dVertex
 10
645.4560546875
 20
502.751953125
 30
0.0
  0
VERTEX
  5
CC
330
C7
100
AcDbEntity
  8
CAPA_1
 62
     7
100
AcDbVertex
100
AcDb2dVertex
 10
645.4560546875
 20
504.2705078125
 30
0.0
  0
VERTEX
  5
CD
330
C7
100
AcDbEntity
  8
CAPA_1
 62
     7
100
AcDbVertex
100
AcDb2dVertex
 10
645.912109375
 20
504.2705078125
 30
0.0
  0
VERTEX
  5
CE
330
C7
100
AcDbEntity
  8
CAPA_1
 62
     7
100
AcDbVertex
100
AcDb2dVertex
 10
645.912109375
 20
502.2734375
 30
0.0
  0
SEQEND
  5
CF
330
C7
100
AcDbEntity
  8
CAPA_1
  0
ENDBLK
  5
9A
330
97
100
AcDbEntity
  8
0
100
AcDbBlockEnd
  0
BLOCK
  5
D2
330
D0
100
AcDbEntity
  8
0
100
AcDbBlockBegin
  2
BLOCK_15
 70
     0
 71
     0
 10
0.0
 20
0.0
 30
0.0
  3
BLOCK_15
  1

  0
INSERT
  5
D5
330
D0
100
AcDbEntity
  8
CAPA_1
100
AcDbBlockReference
  2
BLOCK_16
 10
0.0
 20
0.0
 30
0.0
  0
ENDBLK
  5
D3
330
D0
100
AcDbEntity
  8
0
100
AcDbBlockEnd
  0
BLOCK
  5
D6
330
D4
100
AcDbEntity
  8
0
100
AcDbBlockBegin
  2
BLOCK_16
 70
     0
 71
     0
 10
0.0
 20
0.0
 30
0.0
  3
BLOCK_16
  1

  0
POLYLINE
  5
D8
330
D4
100
AcDbEntity
  8
CAPA_1
 62
     7
100
AcDb2dPolyline
 66
     1
 10
0.0
 20
0.0
 30
0.0
  0
VERTEX
  5
D9
330
D8
100
AcDbEntity
  8
CAPA_1
 62
     7
100
AcDbVertex
100
AcDb2dVertex
 10
610.28173828125
 20
486.474609375
 30
0.0
  0
VERTEX
  5
DA
330
D8
100
AcDbEntity
  8
CAPA_1
 62
     7
100
AcDbVertex
100
AcDb2dVertex
 10
606.259765625
 20
486.474609375
 30
0.0
  0
VERTEX
  5
DB
330
D8
100
AcDbEntity
  8
CAPA_1
 62
     7
100
AcDbVertex
100
AcDb2dVertex
 10
606.259765625
 20
486.953125
 30
0.0
  0
VERTEX
  5
DC
330
D8
100
AcDbEntity
  8
CAPA_1
 62
     7
100
AcDbVertex
100
AcDb2dVertex
 10
607.806640625
 20
486.953125
 30
0.0
  0
VERTEX
  5
DD
330
D8
100
AcDbEntity
  8
CAPA_1
 62
     7
100
AcDbVertex
100
AcDb2dVertex
 10
607.806640625
 20
489.08984375
 30
0.0
  0
VERTEX
  5
DE
330
D8
100
AcDbEntity
  8
CAPA_1
 62
     7
100
AcDbVertex
100
AcDb2dVertex
 10
606.259765625
 20
489.08984375
 30
0.0
  0
VERTEX
  5
DF
330
D8
100
AcDbEntity
  8
CAPA_1
 62
     7
100
AcDbVertex
100
AcDb2dVertex
 10
606.259765625
 20
489.576171875
 30
0.0
  0
VERTEX
  5
E0
330
D8
100
AcDbEntity
  8
CAPA_1
 62
     7
100
AcDbVertex
100
AcDb2dVertex
 10
610.28173828125
 20
489.576171875
 30
0.0
  0
VERTEX
  5
E1
330
D8
100
AcDbEntity
  8
CAPA_1
 62
     7
100
AcDbVertex
100
AcDb2dVertex
 10
610.28173828125
 20
489.08984375
 30
0.0
  0
VERTEX
  5
E2
330
D8
100
AcDbEntity
  8
CAPA_1
 62
     7
100
AcDbVertex
100
AcDb2dVertex
 10
608.2626953125
 20
489.08984375
 30
0.0
  0
VERTEX
  5
E3
330
D8
100
AcDbEntity
  8
CAPA_1
 62
     7
100
AcDbVertex
100
AcDb2dVertex
 10
608.2626953125
 20
486.953125
 30
0.0
  0
VERTEX
  5
E4
330
D8
100
AcDbEntity
  8
CAPA_1
 62
     7
100
AcDbVertex
100
AcDb2dVertex
 10
610.28173828125
 20
486.953125
 30
0.0
  0
VERTEX
  5
E5
330
D8
100
AcDbEntity
  8
CAPA_1
 62
     7
100
AcDbVertex
100
AcDb2dVertex
 10
610.28173828125
 20
486.474609375
 30
0.0
  0
SEQEND
  5
E6
330
D8
100
AcDbEntity
  8
CAPA_1
  0
SPLINE
  5
E7
330
D4
100
AcDbEntity
  8
CAPA_1
 62
     7
100
AcDbSpline
210
0.0
220
0.0
230
1.0
 70
    11
 71
     3
 72
    47
 73
    43
 74
     0
 42
0.0000000001
 43
0.0000000001
 40
0.0
 40
0.0
 40
0.0
 40
0.0
 40
1.0
 40
1.0
 40
1.0
 40
2.0
 40
2.0
 40
2.0
 40
3.0
 40
3.0
 40
3.0
 40
4.0
 40
4.0
 40
4.0
 40
5.0
 40
5.0
 40
5.0
 40
6.0
 40
6.0
 40
6.0
 40
7.0
 40
7.0
 40
7.0
 40
8.0
 40
8.0
 40
8.0
 40
9.0
 40
9.0
 40
9.0
 40
10.0
 40
10.0
 40
10.0
 40
11.0
 40
11.0
 40
11.0
 40
12.0
 40
12.0
 40
12.0
 40
13.0
 40
13.0
 40
13.0
 40
14.0
 40
14.0
 40
14.0
 40
14.0
 10
606.259765625
 20
490.521484375
 30
0.0
 10
606.259765625
 20
490.521484375
 30
0.0
 10
606.259765625
 20
491.0048828125
 30
0.0
 10
606.259765625
 20
491.0048828125
 30
0.0
 10
606.259765625
 20
491.0048828125
 30
0.0
 10
608.7626953125
 20
491.0048828125
 30
0.0
 10
608.7626953125
 20
491.0048828125
 30
0.0
 10
609.1689453125
 20
491.0048828125
 30
0.0
 10
609.4677734375
 20
491.091796875
 30
0.0
 10
609.658203125
 20
491.2646484375
 30
0.0
 10
609.8486328125
 20
491.4375
 30
0.0
 10
609.94384765625
 20
491.708984375
 30
0.0
 10
609.94384765625
 20
492.0791015625
 30
0.0
 10
609.94384765625
 20
492.44921875
 30
0.0
 10
609.8486328125
 20
492.720703125
 30
0.0
 10
609.658203125
 20
492.8935546875
 30
0.0
 10
609.4677734375
 20
493.0673828125
 30
0.0
 10
609.1689453125
 20
493.1533203125
 30
0.0
 10
608.7626953125
 20
493.1533203125
 30
0.0
 10
608.7626953125
 20
493.1533203125
 30
0.0
 10
606.259765625
 20
493.1533203125
 30
0.0
 10
606.259765625
 20
493.1533203125
 30
0.0
 10
606.259765625
 20
493.1533203125
 30
0.0
 10
606.259765625
 20
493.6396484375
 30
0.0
 10
606.259765625
 20
493.6396484375
 30
0.0
 10
606.259765625
 20
493.6396484375
 30
0.0
 10
608.7626953125
 20
493.6396484375
 30
0.0
 10
608.7626953125
 20
493.6396484375
 30
0.0
 10
609.306640625
 20
493.6396484375
 30
0.0
 10
609.71337890625
 20
493.509765625
 30
0.0
 10
609.98388671875
 20
493.2509765625
 30
0.0
 10
610.25390625
 20
492.9921875
 30
0.0
 10
610.388671875
 20
492.6015625
 30
0.0
 10
610.388671875
 20
492.0791015625
 30
0.0
 10
610.388671875
 20
491.5595703125
 30
0.0
 10
610.25390625
 20
491.169921875
 30
0.0
 10
609.98388671875
 20
490.91015625
 30
0.0
 10
609.71337890625
 20
490.6513671875
 30
0.0
 10
609.306640625
 20
490.521484375
 30
0.0
 10
608.7626953125
 20
490.521484375
 30
0.0
 10
608.7626953125
 20
490.521484375
 30
0.0
 10
606.259765625
 20
490.521484375
 30
0.0
 10
606.259765625
 20
490.521484375
 30
0.0
  0
POLYLINE
  5
E8
330
D4
100
AcDbEntity
  8
CAPA_1
 62
     7
100
AcDb2dPolyline
 66
     1
 10
0.0
 20
0.0
 30
0.0
  0
VERTEX
  5
E9
330
E8
100
AcDbEntity
  8
CAPA_1
 62
     7
100
AcDbVertex
100
AcDb2dVertex
 10
610.4384765625
 20
496.4638671875
 30
0.0
  0
VERTEX
  5
EA
330
E8
100
AcDbEntity
  8
CAPA_1
 62
     7
100
AcDbVertex
100
AcDb2dVertex
 10
607.54833984375
 20
495.2138671875
 30
0.0
  0
VERTEX
  5
EB
330
E8
100
AcDbEntity
  8
CAPA_1
 62
     7
100
AcDbVertex
100
AcDb2dVertex
 10
610.28173828125
 20
494.7080078125
 30
0.0
  0
VERTEX
  5
EC
330
E8
100
AcDbEntity
  8
CAPA_1
 62
     7
100
AcDbVertex
100
AcDb2dVertex
 10
610.28173828125
 20
494.2412109375
 30
0.0
  0
VERTEX
  5
ED
330
E8
100
AcDbEntity
  8
CAPA_1
 62
     7
100
AcDbVertex
100
AcDb2dVertex
 10
606.1005859375
 20
495.056640625
 30
0.0
  0
VERTEX
  5
EE
330
E8
100
AcDbEntity
  8
CAPA_1
 62
     7
100
AcDbVertex
100
AcDb2dVertex
 10
609.42724609375
 20
496.4638671875
 30
0.0
  0
VERTEX
  5
EF
330
E8
100
AcDbEntity
  8
CAPA_1
 62
     7
100
AcDbVertex
100
AcDb2dVertex
 10
606.1005859375
 20
497.8701171875
 30
0.0
  0
VERTEX
  5
F0
330
E8
100
AcDbEntity
  8
CAPA_1
 62
     7
100
AcDbVertex
100
AcDb2dVertex
 10
610.28173828125
 20
498.685546875
 30
0.0
  0
VERTEX
  5
F1
330
E8
100
AcDbEntity
  8
CAPA_1
 62
     7
100
AcDbVertex
100
AcDb2dVertex
 10
610.28173828125
 20
498.21875
 30
0.0
  0
VERTEX
  5
F2
330
E8
100
AcDbEntity
  8
CAPA_1
 62
     7
100
AcDbVertex
100
AcDb2dVertex
 10
607.54833984375
 20
497.7080078125
 30
0.0
  0
VERTEX
  5
F3
330
E8
100
AcDbEntity
  8
CAPA_1
 62
     7
100
AcDbVertex
100
AcDb2dVertex
 10
610.4384765625
 20
496.4638671875
 30
0.0
  0
SEQEND
  5
F4
330
E8
100
AcDbEntity
  8
CAPA_1
  0
POLYLINE
  5
F5
330
D4
100
AcDbEntity
  8
CAPA_1
 62
     7
100
AcDb2dPolyline
 66
     1
 10
0.0
 20
0.0
 30
0.0
  0
VERTEX
  5
F6
330
F5
100
AcDbEntity
  8
CAPA_1
 62
     7
100
AcDbVertex
100
AcDb2dVertex
 10
610.28173828125
 20
499.3095703125
 30
0.0
  0
VERTEX
  5
F7
330
F5
100
AcDbEntity
  8
CAPA_1
 62
     7
100
AcDbVertex
100
AcDb2dVertex
 10
606.259765625
 20
499.3095703125
 30
0.0
  0
VERTEX
  5
F8
330
F5
100
AcDbEntity
  8
CAPA_1
 62
     7
100
AcDbVertex
100
AcDb2dVertex
 10
606.259765625
 20
499.787109375
 30
0.0
  0
VERTEX
  5
F9
330
F5
100
AcDbEntity
  8
CAPA_1
 62
     7
100
AcDbVertex
100
AcDb2dVertex
 10
610.28173828125
 20
499.787109375
 30
0.0
  0
VERTEX
  5
FA
330
F5
100
AcDbEntity
  8
CAPA_1
 62
     7
100
AcDbVertex
100
AcDb2dVertex
 10
610.28173828125
 20
499.3095703125
 30
0.0
  0
SEQEND
  5
FB
330
F5
100
AcDbEntity
  8
CAPA_1
  0
SPLINE
  5
FC
330
D4
100
AcDbEntity
  8
CAPA_1
 62
     7
100
AcDbSpline
210
0.0
220
0.0
230
1.0
 70
    11
 71
     3
 72
    41
 73
    37
 74
     0
 42
0.0000000001
 43
0.0000000001
 40
0.0
 40
0.0
 40
0.0
 40
0.0
 40
1.0
 40
1.0
 40
1.0
 40
2.0
 40
2.0
 40
2.0
 40
3.0
 40
3.0
 40
3.0
 40
4.0
 40
4.0
 40
4.0
 40
5.0
 40
5.0
 40
5.0
 40
6.0
 40
6.0
 40
6.0
 40
7.0
 40
7.0
 40
7.0
 40
8.0
 40
8.0
 40
8.0
 40
9.0
 40
9.0
 40
9.0
 40
10.0
 40
10.0
 40
10.0
 40
11.0
 40
11.0
 40
11.0
 40
12.0
 40
12.0
 40
12.0
 40
12.0
 10
610.28173828125
 20
500.759765625
 30
0.0
 10
610.28173828125
 20
500.759765625
 30
0.0
 10
606.259765625
 20
500.759765625
 30
0.0
 10
606.259765625
 20
500.759765625
 30
0.0
 10
606.259765625
 20
500.759765625
 30
0.0
 10
606.259765625
 20
501.5322265625
 30
0.0
 10
606.259765625
 20
501.5322265625
 30
0.0
 10
606.259765625
 20
502.103515625
 30
0.0
 10
606.28857421875
 20
502.505859375
 30
0.0
 10
606.3466796875
 20
502.7392578125
 30
0.0
 10
606.404296875
 20
502.97265625
 30
0.0
 10
606.5009765625
 20
503.177734375
 30
0.0
 10
606.63623046875
 20
503.353515625
 30
0.0
 10
606.81396484375
 20
503.583984375
 30
0.0
 10
607.041015625
 20
503.7587890625
 30
0.0
 10
607.3173828125
 20
503.8779296875
 30
0.0
 10
607.59423828125
 20
503.9970703125
 30
0.0
 10
607.91259765625
 20
504.056640625
 30
0.0
 10
608.2734375
 20
504.056640625
 30
0.0
 10
608.63232421875
 20
504.056640625
 30
0.0
 10
608.94970703125
 20
503.9970703125
 30
0.0
 10
609.2255859375
 20
503.87890625
 30
0.0
 10
609.5009765625
 20
503.7607421875
 30
0.0
 10
609.7275390625
 20
503.5859375
 30
0.0
 10
609.9052734375
 20
503.353515625
 30
0.0
 10
610.041015625
 20
503.177734375
 30
0.0
 10
610.1376953125
 20
502.9775390625
 30
0.0
 10
610.1953125
 20
502.7529296875
 30
0.0
 10
610.2529296875
 20
502.5283203125
 30
0.0
 10
610.28173828125
 20
502.1787109375
 30
0.0
 10
610.28173828125
 20
501.705078125
 30
0.0
 10
610.28173828125
 20
501.705078125
 30
0.0
 10
610.28173828125
 20
501.5322265625
 30
0.0
 10
610.28173828125
 20
501.5322265625
 30
0.0
 10
610.28173828125
 20
501.5322265625
 30
0.0
 10
610.28173828125
 20
500.759765625
 30
0.0
 10
610.28173828125
 20
500.759765625
 30
0.0
  0
SPLINE
  5
FD
330
D4
100
AcDbEntity
  8
CAPA_1
 62
     7
100
AcDbSpline
210
0.0
220
0.0
230
1.0
 70
    11
 71
     3
 72
    38
 73
    34
 74
     0
 42
0.0000000001
 43
0.0000000001
 40
0.0
 40
0.0
 40
0.0
 40
0.0
 40
1.0
 40
1.0
 40
1.0
 40
2.0
 40
2.0
 40
2.0
 40
3.0
 40
3.0
 40
3.0
 40
4.0
 40
4.0
 40
4.0
 40
5.0
 40
5.0
 40
5.0
 40
6.0
 40
6.0
 40
6.0
 40
7.0
 40
7.0
 40
7.0
 40
8.0
 40
8.0
 40
8.0
 40
9.0
 40
9.0
 40
9.0
 40
10.0
 40
10.0
 40
10.0
 40
11.0
 40
11.0
 40
11.0
 40
11.0
 10
609.8310546875
 20
501.2431640625
 30
0.0
 10
609.8310546875
 20
501.2431640625
 30
0.0
 10
609.8310546875
 20
501.5478515625
 30
0.0
 10
609.8310546875
 20
501.5478515625
 30
0.0
 10
609.8310546875
 20
502.04296875
 30
0.0
 10
609.8095703125
 20
502.384765625
 30
0.0
 10
609.7666015625
 20
502.576171875
 30
0.0
 10
609.7236328125
 20
502.7666015625
 30
0.0
 10
609.64990234375
 20
502.9248046875
 30
0.0
 10
609.54541015625
 20
503.05078125
 30
0.0
 10
609.408203125
 20
503.2158203125
 30
0.0
 10
609.23095703125
 20
503.3408203125
 30
0.0
 10
609.01416015625
 20
503.427734375
 30
0.0
 10
608.796875
 20
503.513671875
 30
0.0
 10
608.54833984375
 20
503.556640625
 30
0.0
 10
608.26806640625
 20
503.556640625
 30
0.0
 10
607.98583984375
 20
503.556640625
 30
0.0
 10
607.73828125
 20
503.513671875
 30
0.0
 10
607.52490234375
 20
503.4287109375
 30
0.0
 10
607.3115234375
 20
503.34375
 30
0.0
 10
607.13525390625
 20
503.2177734375
 30
0.0
 10
606.99609375
 20
503.05078125
 30
0.0
 10
606.89013671875
 20
502.9248046875
 30
0.0
 10
606.814453125
 20
502.763671875
 30
0.0
 10
606.76953125
 20
502.5693359375
 30
0.0
 10
606.724609375
 20
502.3740234375
 30
0.0
 10
606.7021484375
 20
502.033203125
 30
0.0
 10
606.7021484375
 20
501.5478515625
 30
0.0
 10
606.7021484375
 20
501.5478515625
 30
0.0
 10
606.7021484375
 20
501.2431640625
 30
0.0
 10
606.7021484375
 20
501.2431640625
 30
0.0
 10
606.7021484375
 20
501.2431640625
 30
0.0
 10
609.8310546875
 20
501.2431640625
 30
0.0
 10
609.8310546875
 20
501.2431640625
 30
0.0
  0
ENDBLK
  5
D7
330
D4
100
AcDbEntity
  8
0
100
AcDbBlockEnd
  0
BLOCK
  5
100
330
FE
100
AcDbEntity
  8
0
100
AcDbBlockBegin
  2
BLOCK_17
 70
     0
 71
     0
 10
0.0
 20
0.0
 30
0.0
  3
BLOCK_17
  1

  0
INSERT
  5
103
330
FE
100
AcDbEntity
  8
CAPA_1
100
AcDbBlockReference
  2
BLOCK_18
 10
0.0
 20
0.0
 30
0.0
  0
ENDBLK
  5
101
330
FE
100
AcDbEntity
  8
0
100
AcDbBlockEnd
  0
BLOCK
  5
104
330
102
100
AcDbEntity
  8
0
100
AcDbBlockBegin
  2
BLOCK_18
 70
     0
 71
     0
 10
0.0
 20
0.0
 30
0.0
  3
BLOCK_18
  1

  0
SPLINE
  5
106
330
102
100
AcDbEntity
  8
CAPA_1
 62
     7
100
AcDbSpline
210
0.0
220
0.0
230
1.0
 70
    11
 71
     3
 72
    53
 73
    49
 74
     0
 42
0.0000000001
 43
0.0000000001
 40
0.0
 40
0.0
 40
0.0
 40
0.0
 40
1.0
 40
1.0
 40
1.0
 40
2.0
 40
2.0
 40
2.0
 40
3.0
 40
3.0
 40
3.0
 40
4.0
 40
4.0
 40
4.0
 40
5.0
 40
5.0
 40
5.0
 40
6.0
 40
6.0
 40
6.0
 40
7.0
 40
7.0
 40
7.0
 40
8.0
 40
8.0
 40
8.0
 40
9.0
 40
9.0
 40
9.0
 40
10.0
 40
10.0
 40
10.0
 40
11.0
 40
11.0
 40
11.0
 40
12.0
 40
12.0
 40
12.0
 40
13.0
 40
13.0
 40
13.0
 40
14.0
 40
14.0
 40
14.0
 40
15.0
 40
15.0
 40
15.0
 40
16.0
 40
16.0
 40
16.0
 40
16.0
 10
631.86181640625
 20
494.193359375
 30
0.0
 10
632.24072265625
 20
494.14453125
 30
0.0
 10
632.53857421875
 20
494.0107421875
 30
0.0
 10
632.75732421875
 20
493.79296875
 30
0.0
 10
632.97607421875
 20
493.5751953125
 30
0.0
 10
633.08642578125
 20
493.310546875
 30
0.0
 10
633.08642578125
 20
492.9990234375
 30
0.0
 10
633.08642578125
 20
492.8076171875
 30
0.0
 10
633.05126953125
 20
492.6513671875
 30
0.0
 10
632.98291015625
 20
492.53125
 30
0.0
 10
632.91455078125
 20
492.4111328125
 30
0.0
 10
632.79638671875
 20
492.3193359375
 30
0.0
 10
632.62939453125
 20
492.2548828125
 30
0.0
 10
632.62939453125
 20
492.2548828125
 30
0.0
 10
632.62451171875
 20
492.091796875
 30
0.0
 10
632.62451171875
 20
492.091796875
 30
0.0
 10
632.62451171875
 20
492.091796875
 30
0.0
 10
634.20458984375
 20
491.8759765625
 30
0.0
 10
634.20458984375
 20
491.8759765625
 30
0.0
 10
634.20458984375
 20
491.8759765625
 30
0.0
 10
634.20556640625
 20
491.7236328125
 30
0.0
 10
634.20556640625
 20
491.7236328125
 30
0.0
 10
634.20556640625
 20
491.7236328125
 30
0.0
 10
630.72900390625
 20
492.1845703125
 30
0.0
 10
630.72900390625
 20
492.1845703125
 30
0.0
 10
630.72900390625
 20
492.1845703125
 30
0.0
 10
630.72900390625
 20
492.341796875
 30
0.0
 10
630.72900390625
 20
492.341796875
 30
0.0
 10
630.72900390625
 20
492.341796875
 30
0.0
 10
631.09423828125
 20
492.291015625
 30
0.0
 10
631.09423828125
 20
492.291015625
 30
0.0
 10
631.09423828125
 20
492.291015625
 30
0.0
 10
631.08837890625
 20
492.392578125
 30
0.0
 10
631.08837890625
 20
492.392578125
 30
0.0
 10
630.94287109375
 20
492.486328125
 30
0.0
 10
630.83056640625
 20
492.6171875
 30
0.0
 10
630.75439453125
 20
492.783203125
 30
0.0
 10
630.67724609375
 20
492.9501953125
 30
0.0
 10
630.63818359375
 20
493.1240234375
 30
0.0
 10
630.63818359375
 20
493.3037109375
 30
0.0
 10
630.63818359375
 20
493.58203125
 30
0.0
 10
630.72705078125
 20
493.8017578125
 30
0.0
 10
630.90478515625
 20
493.96484375
 30
0.0
 10
631.08251953125
 20
494.1279296875
 30
0.0
 10
631.32373046875
 20
494.2099609375
 30
0.0
 10
631.62646484375
 20
494.2099609375
 30
0.0
 10
631.69775390625
 20
494.2099609375
 30
0.0
 10
631.77587890625
 20
494.2041015625
 30
0.0
 10
631.86181640625
 20
494.193359375
 30
0.0
  0
SPLINE
  5
107
330
102
100
AcDbEntity
  8
CAPA_1
 62
     7
100
AcDbSpline
210
0.0
220
0.0
230
1.0
 70
    11
 71
     3
 72
    35
 73
    31
 74
     0
 42
0.0000000001
 43
0.0000000001
 40
0.0
 40
0.0
 40
0.0
 40
0.0
 40
1.0
 40
1.0
 40
1.0
 40
2.0
 40
2.0
 40
2.0
 40
3.0
 40
3.0
 40
3.0
 40
4.0
 40
4.0
 40
4.0
 40
5.0
 40
5.0
 40
5.0
 40
6.0
 40
6.0
 40
6.0
 40
7.0
 40
7.0
 40
7.0
 40
8.0
 40
8.0
 40
8.0
 40
9.0
 40
9.0
 40
9.0
 40
10.0
 40
10.0
 40
10.0
 40
10.0
 10
631.87060546875
 20
494.0078125
 30
0.0
 10
631.78466796875
 20
494.0185546875
 30
0.0
 10
631.70458984375
 20
494.0244140625
 30
0.0
 10
631.63037109375
 20
494.0244140625
 30
0.0
 10
631.35791015625
 20
494.0244140625
 30
0.0
 10
631.14697265625
 20
493.95703125
 30
0.0
 10
630.99755859375
 20
493.8212890625
 30
0.0
 10
630.84814453125
 20
493.6865234375
 30
0.0
 10
630.77392578125
 20
493.4970703125
 30
0.0
 10
630.77392578125
 20
493.25390625
 30
0.0
 10
630.77392578125
 20
492.9716796875
 30
0.0
 10
630.86572265625
 20
492.736328125
 30
0.0
 10
631.05029296875
 20
492.5478515625
 30
0.0
 10
631.23583984375
 20
492.3583984375
 30
0.0
 10
631.49951171875
 20
492.2412109375
 30
0.0
 10
631.84228515625
 20
492.1953125
 30
0.0
 10
631.92138671875
 20
492.1845703125
 30
0.0
 10
631.99365234375
 20
492.1787109375
 30
0.0
 10
632.06103515625
 20
492.1787109375
 30
0.0
 10
632.34130859375
 20
492.1787109375
 30
0.0
 10
632.55908203125
 20
492.25390625
 30
0.0
 10
632.71630859375
 20
492.404296875
 30
0.0
 10
632.87255859375
 20
492.5537109375
 30
0.0
 10
632.95068359375
 20
492.7529296875
 30
0.0
 10
632.95068359375
 20
493.0
 30
0.0
 10
632.95068359375
 20
493.2705078125
 30
0.0
 10
632.85791015625
 20
493.494140625
 30
0.0
 10
632.67138671875
 20
493.6728515625
 30
0.0
 10
632.48486328125
 20
493.8505859375
 30
0.0
 10
632.21826171875
 20
493.9619140625
 30
0.0
 10
631.87060546875
 20
494.0078125
 30
0.0
  0
POLYLINE
  5
108
330
102
100
AcDbEntity
  8
CAPA_1
 62
     7
100
AcDb2dPolyline
 66
     1
 10
0.0
 20
0.0
 30
0.0
  0
VERTEX
  5
109
330
108
100
AcDbEntity
  8
CAPA_1
 62
     7
100
AcDbVertex
100
AcDb2dVertex
 10
632.99072265625
 20
494.9423828125
 30
0.0
  0
VERTEX
  5
10A
330
108
100
AcDbEntity
  8
CAPA_1
 62
     7
100
AcDbVertex
100
AcDb2dVertex
 10
632.99072265625
 20
494.783203125
 30
0.0
  0
VERTEX
  5
10B
330
108
100
AcDbEntity
  8
CAPA_1
 62
     7
100
AcDbVertex
100
AcDb2dVertex
 10
628.90625
 20
495.32421875
 30
0.0
  0
VERTEX
  5
10C
330
108
100
AcDbEntity
  8
CAPA_1
 62
     7
100
AcDbVertex
100
AcDb2dVertex
 10
628.90625
 20
495.482421875
 30
0.0
  0
VERTEX
  5
10D
330
108
100
AcDbEntity
  8
CAPA_1
 62
     7
100
AcDbVertex
100
AcDb2dVertex
 10
632.99072265625
 20
494.9423828125
 30
0.0
  0
SEQEND
  5
10E
330
108
100
AcDbEntity
  8
CAPA_1
  0
SPLINE
  5
10F
330
102
100
AcDbEntity
  8
CAPA_1
 62
     7
100
AcDbSpline
210
0.0
220
0.0
230
1.0
 70
    11
 71
     3
 72
    50
 73
    46
 74
     0
 42
0.0000000001
 43
0.0000000001
 40
0.0
 40
0.0
 40
0.0
 40
0.0
 40
1.0
 40
1.0
 40
1.0
 40
2.0
 40
2.0
 40
2.0
 40
3.0
 40
3.0
 40
3.0
 40
4.0
 40
4.0
 40
4.0
 40
5.0
 40
5.0
 40
5.0
 40
6.0
 40
6.0
 40
6.0
 40
7.0
 40
7.0
 40
7.0
 40
8.0
 40
8.0
 40
8.0
 40
9.0
 40
9.0
 40
9.0
 40
10.0
 40
10.0
 40
10.0
 40
11.0
 40
11.0
 40
11.0
 40
12.0
 40
12.0
 40
12.0
 40
13.0
 40
13.0
 40
13.0
 40
14.0
 40
14.0
 40
14.0
 40
15.0
 40
15.0
 40
15.0
 40
15.0
 10
632.98486328125
 20
497.8212890625
 30
0.0
 10
632.98486328125
 20
497.8212890625
 30
0.0
 10
632.98486328125
 20
497.6630859375
 30
0.0
 10
632.98486328125
 20
497.6630859375
 30
0.0
 10
632.98486328125
 20
497.6630859375
 30
0.0
 10
632.37158203125
 20
497.744140625
 30
0.0
 10
632.37158203125
 20
497.744140625
 30
0.0
 10
632.37158203125
 20
497.744140625
 30
0.0
 10
632.60595703125
 20
497.5634765625
 30
0.0
 10
632.60595703125
 20
497.5634765625
 30
0.0
 10
632.77001953125
 20
497.4208984375
 30
0.0
 10
632.88720703125
 20
497.2919921875
 30
0.0
 10
632.95751953125
 20
497.17578125
 30
0.0
 10
633.04345703125
 20
497.0361328125
 30
0.0
 10
633.08642578125
 20
496.880859375
 30
0.0
 10
633.08642578125
 20
496.7080078125
 30
0.0
 10
633.08642578125
 20
496.4189453125
 30
0.0
 10
632.99755859375
 20
496.19140625
 30
0.0
 10
632.81884765625
 20
496.0244140625
 30
0.0
 10
632.64111328125
 20
495.857421875
 30
0.0
 10
632.39892578125
 20
495.7734375
 30
0.0
 10
632.09228515625
 20
495.7734375
 30
0.0
 10
632.02099609375
 20
495.7734375
 30
0.0
 10
631.94677734375
 20
495.779296875
 30
0.0
 10
631.86767578125
 20
495.791015625
 30
0.0
 10
631.50537109375
 20
495.83984375
 30
0.0
 10
631.20947265625
 20
495.9765625
 30
0.0
 10
630.98095703125
 20
496.201171875
 30
0.0
 10
630.75244140625
 20
496.4267578125
 30
0.0
 10
630.63818359375
 20
496.6904296875
 30
0.0
 10
630.63818359375
 20
496.994140625
 30
0.0
 10
630.63818359375
 20
497.3916015625
 30
0.0
 10
630.80029296875
 20
497.65625
 30
0.0
 10
631.12255859375
 20
497.787109375
 30
0.0
 10
631.12255859375
 20
497.787109375
 30
0.0
 10
631.31884765625
 20
497.89453125
 30
0.0
 10
631.31884765625
 20
497.89453125
 30
0.0
 10
631.31884765625
 20
497.89453125
 30
0.0
 10
630.72802734375
 20
497.9609375
 30
0.0
 10
630.72802734375
 20
497.9609375
 30
0.0
 10
630.72802734375
 20
497.9609375
 30
0.0
 10
630.72900390625
 20
498.1201171875
 30
0.0
 10
630.72900390625
 20
498.1201171875
 30
0.0
 10
630.72900390625
 20
498.1201171875
 30
0.0
 10
632.98486328125
 20
497.8212890625
 30
0.0
 10
632.98486328125
 20
497.8212890625
 30
0.0
  0
SPLINE
  5
110
330
102
100
AcDbEntity
  8
CAPA_1
 62
     7
100
AcDbSpline
210
0.0
220
0.0
230
1.0
 70
    11
 71
     3
 72
    35
 73
    31
 74
     0
 42
0.0000000001
 43
0.0000000001
 40
0.0
 40
0.0
 40
0.0
 40
0.0
 40
1.0
 40
1.0
 40
1.0
 40
2.0
 40
2.0
 40
2.0
 40
3.0
 40
3.0
 40
3.0
 40
4.0
 40
4.0
 40
4.0
 40
5.0
 40
5.0
 40
5.0
 40
6.0
 40
6.0
 40
6.0
 40
7.0
 40
7.0
 40
7.0
 40
8.0
 40
8.0
 40
8.0
 40
9.0
 40
9.0
 40
9.0
 40
10.0
 40
10.0
 40
10.0
 40
10.0
 10
631.81982421875
 20
497.8212890625
 30
0.0
 10
631.74169921875
 20
497.8330078125
 30
0.0
 10
631.66943359375
 20
497.8388671875
 30
0.0
 10
631.60205078125
 20
497.8388671875
 30
0.0
 10
631.33740234375
 20
497.8388671875
 30
0.0
 10
631.13232421875
 20
497.7705078125
 30
0.0
 10
630.98876953125
 20
497.6328125
 30
0.0
 10
630.84521484375
 20
497.49609375
 30
0.0
 10
630.77392578125
 20
497.3017578125
 30
0.0
 10
630.77392578125
 20
497.05078125
 30
0.0
 10
630.77392578125
 20
496.7734375
 30
0.0
 10
630.87158203125
 20
496.5380859375
 30
0.0
 10
631.06787109375
 20
496.3447265625
 30
0.0
 10
631.26318359375
 20
496.1513671875
 30
0.0
 10
631.53466796875
 20
496.0322265625
 30
0.0
 10
631.88232421875
 20
495.9873046875
 30
0.0
 10
631.96728515625
 20
495.9765625
 30
0.0
 10
632.04833984375
 20
495.970703125
 30
0.0
 10
632.12255859375
 20
495.970703125
 30
0.0
 10
632.39111328125
 20
495.970703125
 30
0.0
 10
632.59619140625
 20
496.0380859375
 30
0.0
 10
632.73876953125
 20
496.1728515625
 30
0.0
 10
632.88037109375
 20
496.30859375
 30
0.0
 10
632.95068359375
 20
496.5029296875
 30
0.0
 10
632.95068359375
 20
496.7587890625
 30
0.0
 10
632.95068359375
 20
497.0322265625
 30
0.0
 10
632.85205078125
 20
497.2666015625
 30
0.0
 10
632.65478515625
 20
497.4619140625
 30
0.0
 10
632.45654296875
 20
497.65625
 30
0.0
 10
632.17822265625
 20
497.7763671875
 30
0.0
 10
631.81982421875
 20
497.8212890625
 30
0.0
  0
SPLINE
  5
111
330
102
100
AcDbEntity
  8
CAPA_1
 62
     7
100
AcDbSpline
210
0.0
220
0.0
230
1.0
 70
    11
 71
     3
 72
    59
 73
    55
 74
     0
 42
0.0000000001
 43
0.0000000001
 40
0.0
 40
0.0
 40
0.0
 40
0.0
 40
1.0
 40
1.0
 40
1.0
 40
2.0
 40
2.0
 40
2.0
 40
3.0
 40
3.0
 40
3.0
 40
4.0
 40
4.0
 40
4.0
 40
5.0
 40
5.0
 40
5.0
 40
6.0
 40
6.0
 40
6.0
 40
7.0
 40
7.0
 40
7.0
 40
8.0
 40
8.0
 40
8.0
 40
9.0
 40
9.0
 40
9.0
 40
10.0
 40
10.0
 40
10.0
 40
11.0
 40
11.0
 40
11.0
 40
12.0
 40
12.0
 40
12.0
 40
13.0
 40
13.0
 40
13.0
 40
14.0
 40
14.0
 40
14.0
 40
15.0
 40
15.0
 40
15.0
 40
16.0
 40
16.0
 40
16.0
 40
17.0
 40
17.0
 40
17.0
 40
18.0
 40
18.0
 40
18.0
 40
18.0
 10
632.99072265625
 20
500.6064453125
 30
0.0
 10
632.99072265625
 20
500.6064453125
 30
0.0
 10
632.98974609375
 20
500.447265625
 30
0.0
 10
632.98974609375
 20
500.447265625
 30
0.0
 10
632.98974609375
 20
500.447265625
 30
0.0
 10
631.57373046875
 20
500.6455078125
 30
0.0
 10
631.57373046875
 20
500.6455078125
 30
0.0
 10
631.49853515625
 20
500.6494140625
 30
0.0
 10
631.42919921875
 20
500.6513671875
 30
0.0
 10
631.36572265625
 20
500.6513671875
 30
0.0
 10
630.96337890625
 20
500.6513671875
 30
0.0
 10
630.76220703125
 20
500.44140625
 30
0.0
 10
630.76220703125
 20
500.021484375
 30
0.0
 10
630.76220703125
 20
499.732421875
 30
0.0
 10
630.84814453125
 20
499.5087890625
 30
0.0
 10
631.01806640625
 20
499.3486328125
 30
0.0
 10
631.18896484375
 20
499.189453125
 30
0.0
 10
631.45068359375
 20
499.087890625
 30
0.0
 10
631.80322265625
 20
499.04296875
 30
0.0
 10
631.80322265625
 20
499.04296875
 30
0.0
 10
632.99072265625
 20
498.8857421875
 30
0.0
 10
632.99072265625
 20
498.8857421875
 30
0.0
 10
632.99072265625
 20
498.8857421875
 30
0.0
 10
632.99072265625
 20
498.7275390625
 30
0.0
 10
632.99072265625
 20
498.7275390625
 30
0.0
 10
632.99072265625
 20
498.7275390625
 30
0.0
 10
630.72900390625
 20
499.025390625
 30
0.0
 10
630.72900390625
 20
499.025390625
 30
0.0
 10
630.72900390625
 20
499.025390625
 30
0.0
 10
630.72900390625
 20
499.1669921875
 30
0.0
 10
630.72900390625
 20
499.1669921875
 30
0.0
 10
630.72900390625
 20
499.1669921875
 30
0.0
 10
631.31982421875
 20
499.0888671875
 30
0.0
 10
631.31982421875
 20
499.0888671875
 30
0.0
 10
631.04931640625
 20
499.220703125
 30
0.0
 10
630.86181640625
 20
499.38671875
 30
0.0
 10
630.75634765625
 20
499.58984375
 30
0.0
 10
630.67822265625
 20
499.7392578125
 30
0.0
 10
630.63818359375
 20
499.9189453125
 30
0.0
 10
630.63818359375
 20
500.12890625
 30
0.0
 10
630.63818359375
 20
500.345703125
 30
0.0
 10
630.69287109375
 20
500.5166015625
 30
0.0
 10
630.80126953125
 20
500.640625
 30
0.0
 10
630.91064453125
 20
500.763671875
 30
0.0
 10
631.06787109375
 20
500.826171875
 30
0.0
 10
631.27392578125
 20
500.826171875
 30
0.0
 10
631.29638671875
 20
500.826171875
 30
0.0
 10
631.31982421875
 20
500.826171875
 30
0.0
 10
631.34228515625
 20
500.826171875
 30
0.0
 10
631.37939453125
 20
500.826171875
 30
0.0
 10
631.40576171875
 20
500.826171875
 30
0.0
 10
631.42041015625
 20
500.826171875
 30
0.0
 10
631.42041015625
 20
500.826171875
 30
0.0
 10
632.99072265625
 20
500.6064453125
 30
0.0
 10
632.99072265625
 20
500.6064453125
 30
0.0
  0
POLYLINE
  5
112
330
102
100
AcDbEntity
  8
CAPA_1
 62
     7
100
AcDb2dPolyline
 66
     1
 10
0.0
 20
0.0
 30
0.0
  0
VERTEX
  5
113
330
112
100
AcDbEntity
  8
CAPA_1
 62
     7
100
AcDbVertex
100
AcDb2dVertex
 10
630.83544921875
 20
502.474609375
 30
0.0
  0
VERTEX
  5
114
330
112
100
AcDbEntity
  8
CAPA_1
 62
     7
100
AcDbVertex
100
AcDb2dVertex
 10
630.83544921875
 20
501.9921875
 30
0.0
  0
VERTEX
  5
115
330
112
100
AcDbEntity
  8
CAPA_1
 62
     7
100
AcDbVertex
100
AcDb2dVertex
 10
632.99072265625
 20
501.7099609375
 30
0.0
  0
VERTEX
  5
116
330
112
100
AcDbEntity
  8
CAPA_1
 62
     7
100
AcDbVertex
100
AcDb2dVertex
 10
632.98974609375
 20
501.55078125
 30
0.0
  0
VERTEX
  5
117
330
112
100
AcDbEntity
  8
CAPA_1
 62
     7
100
AcDbVertex
100
AcDb2dVertex
 10
630.83544921875
 20
501.8330078125
 30
0.0
  0
VERTEX
  5
118
330
112
100
AcDbEntity
  8
CAPA_1
 62
     7
100
AcDbVertex
100
AcDb2dVertex
 10
630.83544921875
 20
501.3837890625
 30
0.0
  0
VERTEX
  5
119
330
112
100
AcDbEntity
  8
CAPA_1
 62
     7
100
AcDbVertex
100
AcDb2dVertex
 10
630.72900390625
 20
501.400390625
 30
0.0
  0
VERTEX
  5
11A
330
112
100
AcDbEntity
  8
CAPA_1
 62
     7
100
AcDbVertex
100
AcDb2dVertex
 10
630.72900390625
 20
501.84765625
 30
0.0
  0
VERTEX
  5
11B
330
112
100
AcDbEntity
  8
CAPA_1
 62
     7
100
AcDbVertex
100
AcDb2dVertex
 10
629.72705078125
 20
501.978515625
 30
0.0
  0
VERTEX
  5
11C
330
112
100
AcDbEntity
  8
CAPA_1
 62
     7
100
AcDbVertex
100
AcDb2dVertex
 10
629.72705078125
 20
502.1357421875
 30
0.0
  0
VERTEX
  5
11D
330
112
100
AcDbEntity
  8
CAPA_1
 62
     7
100
AcDbVertex
100
AcDb2dVertex
 10
630.72900390625
 20
502.005859375
 30
0.0
  0
VERTEX
  5
11E
330
112
100
AcDbEntity
  8
CAPA_1
 62
     7
100
AcDbVertex
100
AcDb2dVertex
 10
630.72900390625
 20
502.4921875
 30
0.0
  0
VERTEX
  5
11F
330
112
100
AcDbEntity
  8
CAPA_1
 62
     7
100
AcDbVertex
100
AcDb2dVertex
 10
630.83544921875
 20
502.474609375
 30
0.0
  0
SEQEND
  5
120
330
112
100
AcDbEntity
  8
CAPA_1
  0
SPLINE
  5
121
330
102
100
AcDbEntity
  8
CAPA_1
 62
     7
100
AcDbSpline
210
0.0
220
0.0
230
1.0
 70
    11
 71
     3
 72
    86
 73
    82
 74
     0
 42
0.0000000001
 43
0.0000000001
 40
0.0
 40
0.0
 40
0.0
 40
0.0
 40
1.0
 40
1.0
 40
1.0
 40
2.0
 40
2.0
 40
2.0
 40
3.0
 40
3.0
 40
3.0
 40
4.0
 40
4.0
 40
4.0
 40
5.0
 40
5.0
 40
5.0
 40
6.0
 40
6.0
 40
6.0
 40
7.0
 40
7.0
 40
7.0
 40
8.0
 40
8.0
 40
8.0
 40
9.0
 40
9.0
 40
9.0
 40
10.0
 40
10.0
 40
10.0
 40
11.0
 40
11.0
 40
11.0
 40
12.0
 40
12.0
 40
12.0
 40
13.0
 40
13.0
 40
13.0
 40
14.0
 40
14.0
 40
14.0
 40
15.0
 40
15.0
 40
15.0
 40
16.0
 40
16.0
 40
16.0
 40
17.0
 40
17.0
 40
17.0
 40
18.0
 40
18.0
 40
18.0
 40
19.0
 40
19.0
 40
19.0
 40
20.0
 40
20.0
 40
20.0
 40
21.0
 40
21.0
 40
21.0
 40
22.0
 40
22.0
 40
22.0
 40
23.0
 40
23.0
 40
23.0
 40
24.0
 40
24.0
 40
24.0
 40
25.0
 40
25.0
 40
25.0
 40
26.0
 40
26.0
 40
26.0
 40
27.0
 40
27.0
 40
27.0
 40
27.0
 10
632.44189453125
 20
504.0498046875
 30
0.0
 10
632.63623046875
 20
504.0234375
 30
0.0
 10
632.79248046875
 20
503.931640625
 30
0.0
 10
632.90966796875
 20
503.7744140625
 30
0.0
 10
633.02685546875
 20
503.6162109375
 30
0.0
 10
633.08642578125
 20
503.416015625
 30
0.0
 10
633.08642578125
 20
503.171875
 30
0.0
 10
633.08642578125
 20
503.0
 30
0.0
 10
633.05126953125
 20
502.853515625
 30
0.0
 10
632.97998046875
 20
502.7333984375
 30
0.0
 10
632.90966796875
 20
502.61328125
 30
0.0
 10
632.81005859375
 20
502.53125
 30
0.0
 10
632.68017578125
 20
502.4853515625
 30
0.0
 10
632.68017578125
 20
502.4853515625
 30
0.0
 10
632.58544921875
 20
502.66015625
 30
0.0
 10
632.58544921875
 20
502.66015625
 30
0.0
 10
632.82861328125
 20
502.7685546875
 30
0.0
 10
632.95068359375
 20
502.9677734375
 30
0.0
 10
632.95068359375
 20
503.2568359375
 30
0.0
 10
632.95068359375
 20
503.4287109375
 30
0.0
 10
632.90576171875
 20
503.5703125
 30
0.0
 10
632.81689453125
 20
503.681640625
 30
0.0
 10
632.72705078125
 20
503.7919921875
 30
0.0
 10
632.60986328125
 20
503.8564453125
 30
0.0
 10
632.46337890625
 20
503.875
 30
0.0
 10
632.44873046875
 20
503.87890625
 30
0.0
 10
632.43408203125
 20
503.880859375
 30
0.0
 10
632.41943359375
 20
503.880859375
 30
0.0
 10
632.40380859375
 20
503.880859375
 30
0.0
 10
632.39306640625
 20
503.880859375
 30
0.0
 10
632.38525390625
 20
503.880859375
 30
0.0
 10
632.22900390625
 20
503.880859375
 30
0.0
 10
632.10205078125
 20
503.78515625
 30
0.0
 10
632.00439453125
 20
503.59375
 30
0.0
 10
631.93408203125
 20
503.4365234375
 30
0.0
 10
631.87744140625
 20
503.310546875
 30
0.0
 10
631.83642578125
 20
503.216796875
 30
0.0
 10
631.77001953125
 20
503.0634765625
 30
0.0
 10
631.69677734375
 20
502.94921875
 30
0.0
 10
631.61865234375
 20
502.8740234375
 30
0.0
 10
631.53955078125
 20
502.798828125
 30
0.0
 10
631.44482421875
 20
502.76171875
 30
0.0
 10
631.33251953125
 20
502.76171875
 30
0.0
 10
631.29931640625
 20
502.76171875
 30
0.0
 10
631.27294921875
 20
502.763671875
 30
0.0
 10
631.25439453125
 20
502.7666015625
 30
0.0
 10
631.07568359375
 20
502.7900390625
 30
0.0
 10
630.92822265625
 20
502.8720703125
 30
0.0
 10
630.81201171875
 20
503.0146484375
 30
0.0
 10
630.69677734375
 20
503.1572265625
 30
0.0
 10
630.63818359375
 20
503.3330078125
 30
0.0
 10
630.63818359375
 20
503.5439453125
 30
0.0
 10
630.63818359375
 20
503.876953125
 30
0.0
 10
630.75927734375
 20
504.0927734375
 30
0.0
 10
630.99951171875
 20
504.1904296875
 30
0.0
 10
630.99951171875
 20
504.1904296875
 30
0.0
 10
631.08349609375
 20
504.033203125
 30
0.0
 10
631.08349609375
 20
504.033203125
 30
0.0
 10
630.87646484375
 20
503.9462890625
 30
0.0
 10
630.77392578125
 20
503.7705078125
 30
0.0
 10
630.77392578125
 20
503.50390625
 30
0.0
 10
630.77392578125
 20
503.357421875
 30
0.0
 10
630.81689453125
 20
503.2333984375
 30
0.0
 10
630.90283203125
 20
503.1298828125
 30
0.0
 10
630.98876953125
 20
503.0263671875
 30
0.0
 10
631.09423828125
 20
502.9658203125
 30
0.0
 10
631.22119140625
 20
502.947265625
 30
0.0
 10
631.34814453125
 20
502.931640625
 30
0.0
 10
631.45263671875
 20
502.9697265625
 30
0.0
 10
631.53466796875
 20
503.0595703125
 30
0.0
 10
631.61669921875
 20
503.1494140625
 30
0.0
 10
631.69482421875
 20
503.296875
 30
0.0
 10
631.76708984375
 20
503.5009765625
 30
0.0
 10
631.84033203125
 20
503.7060546875
 30
0.0
 10
631.90869140625
 20
503.84375
 30
0.0
 10
631.97216796875
 20
503.9150390625
 30
0.0
 10
632.05810546875
 20
504.0087890625
 30
0.0
 10
632.17724609375
 20
504.0556640625
 30
0.0
 10
632.33056640625
 20
504.0556640625
 30
0.0
 10
632.37841796875
 20
504.0556640625
 30
0.0
 10
632.41552734375
 20
504.0537109375
 30
0.0
 10
632.44189453125
 20
504.0498046875
 30
0.0
  0
ENDBLK
  5
105
330
102
100
AcDbEntity
  8
0
100
AcDbBlockEnd
  0
BLOCK
  5
124
330
122
100
AcDbEntity
  8
0
100
AcDbBlockBegin
  2
BLOCK_19
 70
     0
 71
     0
 10
0.0
 20
0.0
 30
0.0
  3
BLOCK_19
  1

  0
INSERT
  5
127
330
122
100
AcDbEntity
  8
CAPA_1
100
AcDbBlockReference
  2
BLOCK_20
 10
0.0
 20
0.0
 30
0.0
  0
ENDBLK
  5
125
330
122
100
AcDbEntity
  8
0
100
AcDbBlockEnd
  0
BLOCK
  5
128
330
126
100
AcDbEntity
  8
0
100
AcDbBlockBegin
  2
BLOCK_20
 70
     0
 71
     0
 10
0.0
 20
0.0
 30
0.0
  3
BLOCK_20
  1

  0
SPLINE
  5
12A
330
126
100
AcDbEntity
  8
CAPA_1
 62
     7
100
AcDbSpline
210
0.0
220
0.0
230
1.0
 70
    11
 71
     3
 72
    53
 73
    49
 74
     0
 42
0.0000000001
 43
0.0000000001
 40
0.0
 40
0.0
 40
0.0
 40
0.0
 40
1.0
 40
1.0
 40
1.0
 40
2.0
 40
2.0
 40
2.0
 40
3.0
 40
3.0
 40
3.0
 40
4.0
 40
4.0
 40
4.0
 40
5.0
 40
5.0
 40
5.0
 40
6.0
 40
6.0
 40
6.0
 40
7.0
 40
7.0
 40
7.0
 40
8.0
 40
8.0
 40
8.0
 40
9.0
 40
9.0
 40
9.0
 40
10.0
 40
10.0
 40
10.0
 40
11.0
 40
11.0
 40
11.0
 40
12.0
 40
12.0
 40
12.0
 40
13.0
 40
13.0
 40
13.0
 40
14.0
 40
14.0
 40
14.0
 40
15.0
 40
15.0
 40
15.0
 40
16.0
 40
16.0
 40
16.0
 40
16.0
 10
612.7978515625
 20
494.818359375
 30
0.0
 10
613.17578125
 20
494.76953125
 30
0.0
 10
613.47412109375
 20
494.6357421875
 30
0.0
 10
613.693359375
 20
494.41796875
 30
0.0
 10
613.912109375
 20
494.2001953125
 30
0.0
 10
614.021484375
 20
493.935546875
 30
0.0
 10
614.021484375
 20
493.6240234375
 30
0.0
 10
614.021484375
 20
493.4326171875
 30
0.0
 10
613.9873046875
 20
493.2763671875
 30
0.0
 10
613.91845703125
 20
493.15625
 30
0.0
 10
613.85009765625
 20
493.0361328125
 30
0.0
 10
613.732421875
 20
492.9443359375
 30
0.0
 10
613.5654296875
 20
492.8798828125
 30
0.0
 10
613.5654296875
 20
492.8798828125
 30
0.0
 10
613.5595703125
 20
492.716796875
 30
0.0
 10
613.5595703125
 20
492.716796875
 30
0.0
 10
613.5595703125
 20
492.716796875
 30
0.0
 10
615.140625
 20
492.5009765625
 30
0.0
 10
615.140625
 20
492.5009765625
 30
0.0
 10
615.140625
 20
492.5009765625
 30
0.0
 10
615.14111328125
 20
492.3486328125
 30
0.0
 10
615.14111328125
 20
492.3486328125
 30
0.0
 10
615.14111328125
 20
492.3486328125
 30
0.0
 10
611.6640625
 20
492.8095703125
 30
0.0
 10
611.6640625
 20
492.8095703125
 30
0.0
 10
611.6640625
 20
492.8095703125
 30
0.0
 10
611.6640625
 20
492.966796875
 30
0.0
 10
611.6640625
 20
492.966796875
 30
0.0
 10
611.6640625
 20
492.966796875
 30
0.0
 10
612.02978515625
 20
492.916015625
 30
0.0
 10
612.02978515625
 20
492.916015625
 30
0.0
 10
612.02978515625
 20
492.916015625
 30
0.0
 10
612.0244140625
 20
493.017578125
 30
0.0
 10
612.0244140625
 20
493.017578125
 30
0.0
 10
611.8779296875
 20
493.111328125
 30
0.0
 10
611.7666015625
 20
493.2421875
 30
0.0
 10
611.689453125
 20
493.408203125
 30
0.0
 10
611.61279296875
 20
493.5751953125
 30
0.0
 10
611.57421875
 20
493.7490234375
 30
0.0
 10
611.57421875
 20
493.9287109375
 30
0.0
 10
611.57421875
 20
494.20703125
 30
0.0
 10
611.6630859375
 20
494.4267578125
 30
0.0
 10
611.8408203125
 20
494.58984375
 30
0.0
 10
612.0185546875
 20
494.7529296875
 30
0.0
 10
612.2587890625
 20
494.8349609375
 30
0.0
 10
612.56201171875
 20
494.8349609375
 30
0.0
 10
612.63330078125
 20
494.8349609375
 30
0.0
 10
612.7119140625
 20
494.8291015625
 30
0.0
 10
612.7978515625
 20
494.818359375
 30
0.0
  0
SPLINE
  5
12B
330
126
100
AcDbEntity
  8
CAPA_1
 62
     7
100
AcDbSpline
210
0.0
220
0.0
230
1.0
 70
    11
 71
     3
 72
    35
 73
    31
 74
     0
 42
0.0000000001
 43
0.0000000001
 40
0.0
 40
0.0
 40
0.0
 40
0.0
 40
1.0
 40
1.0
 40
1.0
 40
2.0
 40
2.0
 40
2.0
 40
3.0
 40
3.0
 40
3.0
 40
4.0
 40
4.0
 40
4.0
 40
5.0
 40
5.0
 40
5.0
 40
6.0
 40
6.0
 40
6.0
 40
7.0
 40
7.0
 40
7.0
 40
8.0
 40
8.0
 40
8.0
 40
9.0
 40
9.0
 40
9.0
 40
10.0
 40
10.0
 40
10.0
 40
10.0
 10
612.80615234375
 20
494.6328125
 30
0.0
 10
612.720703125
 20
494.6435546875
 30
0.0
 10
612.64013671875
 20
494.6494140625
 30
0.0
 10
612.5654296875
 20
494.6494140625
 30
0.0
 10
612.29345703125
 20
494.6494140625
 30
0.0
 10
612.08251953125
 20
494.58203125
 30
0.0
 10
611.93310546875
 20
494.4462890625
 30
0.0
 10
611.78369140625
 20
494.3115234375
 30
0.0
 10
611.708984375
 20
494.1220703125
 30
0.0
 10
611.708984375
 20
493.87890625
 30
0.0
 10
611.708984375
 20
493.5966796875
 30
0.0
 10
611.8017578125
 20
493.361328125
 30
0.0
 10
611.986328125
 20
493.1728515625
 30
0.0
 10
612.1708984375
 20
492.9833984375
 30
0.0
 10
612.43505859375
 20
492.8662109375
 30
0.0
 10
612.7783203125
 20
492.8203125
 30
0.0
 10
612.8564453125
 20
492.8095703125
 30
0.0
 10
612.92919921875
 20
492.8037109375
 30
0.0
 10
612.99658203125
 20
492.8037109375
 30
0.0
 10
613.2763671875
 20
492.8037109375
 30
0.0
 10
613.49462890625
 20
492.87890625
 30
0.0
 10
613.6513671875
 20
493.029296875
 30
0.0
 10
613.80810546875
 20
493.1787109375
 30
0.0
 10
613.88671875
 20
493.3779296875
 30
0.0
 10
613.88671875
 20
493.625
 30
0.0
 10
613.88671875
 20
493.8955078125
 30
0.0
 10
613.79296875
 20
494.119140625
 30
0.0
 10
613.6064453125
 20
494.2978515625
 30
0.0
 10
613.419921875
 20
494.4755859375
 30
0.0
 10
613.1533203125
 20
494.5869140625
 30
0.0
 10
612.80615234375
 20
494.6328125
 30
0.0
  0
POLYLINE
  5
12C
330
126
100
AcDbEntity
  8
CAPA_1
 62
     7
100
AcDb2dPolyline
 66
     1
 10
0.0
 20
0.0
 30
0.0
  0
VERTEX
  5
12D
330
12C
100
AcDbEntity
  8
CAPA_1
 62
     7
100
AcDbVertex
100
AcDb2dVertex
 10
613.92626953125
 20
495.5673828125
 30
0.0
  0
VERTEX
  5
12E
330
12C
100
AcDbEntity
  8
CAPA_1
 62
     7
100
AcDbVertex
100
AcDb2dVertex
 10
613.92578125
 20
495.408203125
 30
0.0
  0
VERTEX
  5
12F
330
12C
100
AcDbEntity
  8
CAPA_1
 62
     7
100
AcDbVertex
100
AcDb2dVertex
 10
609.84130859375
 20
495.94921875
 30
0.0
  0
VERTEX
  5
130
330
12C
100
AcDbEntity
  8
CAPA_1
 62
     7
100
AcDbVertex
100
AcDb2dVertex
 10
609.84130859375
 20
496.107421875
 30
0.0
  0
VERTEX
  5
131
330
12C
100
AcDbEntity
  8
CAPA_1
 62
     7
100
AcDbVertex
100
AcDb2dVertex
 10
613.92626953125
 20
495.5673828125
 30
0.0
  0
SEQEND
  5
132
330
12C
100
AcDbEntity
  8
CAPA_1
  0
SPLINE
  5
133
330
126
100
AcDbEntity
  8
CAPA_1
 62
     7
100
AcDbSpline
210
0.0
220
0.0
230
1.0
 70
    11
 71
     3
 72
    50
 73
    46
 74
     0
 42
0.0000000001
 43
0.0000000001
 40
0.0
 40
0.0
 40
0.0
 40
0.0
 40
1.0
 40
1.0
 40
1.0
 40
2.0
 40
2.0
 40
2.0
 40
3.0
 40
3.0
 40
3.0
 40
4.0
 40
4.0
 40
4.0
 40
5.0
 40
5.0
 40
5.0
 40
6.0
 40
6.0
 40
6.0
 40
7.0
 40
7.0
 40
7.0
 40
8.0
 40
8.0
 40
8.0
 40
9.0
 40
9.0
 40
9.0
 40
10.0
 40
10.0
 40
10.0
 40
11.0
 40
11.0
 40
11.0
 40
12.0
 40
12.0
 40
12.0
 40
13.0
 40
13.0
 40
13.0
 40
14.0
 40
14.0
 40
14.0
 40
15.0
 40
15.0
 40
15.0
 40
15.0
 10
613.92041015625
 20
498.4462890625
 30
0.0
 10
613.92041015625
 20
498.4462890625
 30
0.0
 10
613.919921875
 20
498.2880859375
 30
0.0
 10
613.919921875
 20
498.2880859375
 30
0.0
 10
613.919921875
 20
498.2880859375
 30
0.0
 10
613.30712890625
 20
498.369140625
 30
0.0
 10
613.30712890625
 20
498.369140625
 30
0.0
 10
613.30712890625
 20
498.369140625
 30
0.0
 10
613.54150390625
 20
498.1884765625
 30
0.0
 10
613.54150390625
 20
498.1884765625
 30
0.0
 10
613.705078125
 20
498.0458984375
 30
0.0
 10
613.822265625
 20
497.9169921875
 30
0.0
 10
613.89306640625
 20
497.80078125
 30
0.0
 10
613.97900390625
 20
497.6611328125
 30
0.0
 10
614.021484375
 20
497.505859375
 30
0.0
 10
614.021484375
 20
497.3330078125
 30
0.0
 10
614.021484375
 20
497.0439453125
 30
0.0
 10
613.9326171875
 20
496.81640625
 30
0.0
 10
613.7548828125
 20
496.6494140625
 30
0.0
 10
613.5771484375
 20
496.482421875
 30
0.0
 10
613.3349609375
 20
496.3984375
 30
0.0
 10
613.02783203125
 20
496.3984375
 30
0.0
 10
612.95703125
 20
496.3984375
 30
0.0
 10
612.8818359375
 20
496.404296875
 30
0.0
 10
612.80322265625
 20
496.416015625
 30
0.0
 10
612.4404296875
 20
496.46484375
 30
0.0
 10
612.14501953125
 20
496.6015625
 30
0.0
 10
611.91650390625
 20
496.826171875
 30
0.0
 10
611.6884765625
 20
497.0517578125
 30
0.0
 10
611.57421875
 20
497.3154296875
 30
0.0
 10
611.57421875
 20
497.619140625
 30
0.0
 10
611.57421875
 20
498.0166015625
 30
0.0
 10
611.7353515625
 20
498.28125
 30
0.0
 10
612.05810546875
 20
498.412109375
 30
0.0
 10
612.05810546875
 20
498.412109375
 30
0.0
 10
612.2548828125
 20
498.51953125
 30
0.0
 10
612.2548828125
 20
498.51953125
 30
0.0
 10
612.2548828125
 20
498.51953125
 30
0.0
 10
611.6640625
 20
498.5859375
 30
0.0
 10
611.6640625
 20
498.5859375
 30
0.0
 10
611.6640625
 20
498.5859375
 30
0.0
 10
611.6640625
 20
498.7451171875
 30
0.0
 10
611.6640625
 20
498.7451171875
 30
0.0
 10
611.6640625
 20
498.7451171875
 30
0.0
 10
613.92041015625
 20
498.4462890625
 30
0.0
 10
613.92041015625
 20
498.4462890625
 30
0.0
  0
SPLINE
  5
134
330
126
100
AcDbEntity
  8
CAPA_1
 62
     7
100
AcDbSpline
210
0.0
220
0.0
230
1.0
 70
    11
 71
     3
 72
    35
 73
    31
 74
     0
 42
0.0000000001
 43
0.0000000001
 40
0.0
 40
0.0
 40
0.0
 40
0.0
 40
1.0
 40
1.0
 40
1.0
 40
2.0
 40
2.0
 40
2.0
 40
3.0
 40
3.0
 40
3.0
 40
4.0
 40
4.0
 40
4.0
 40
5.0
 40
5.0
 40
5.0
 40
6.0
 40
6.0
 40
6.0
 40
7.0
 40
7.0
 40
7.0
 40
8.0
 40
8.0
 40
8.0
 40
9.0
 40
9.0
 40
9.0
 40
10.0
 40
10.0
 40
10.0
 40
10.0
 10
612.755859375
 20
498.4462890625
 30
0.0
 10
612.67724609375
 20
498.4580078125
 30
0.0
 10
612.6044921875
 20
498.4638671875
 30
0.0
 10
612.53759765625
 20
498.4638671875
 30
0.0
 10
612.2724609375
 20
498.4638671875
 30
0.0
 10
612.068359375
 20
498.3955078125
 30
0.0
 10
611.9248046875
 20
498.2578125
 30
0.0
 10
611.78125
 20
498.12109375
 30
0.0
 10
611.708984375
 20
497.9267578125
 30
0.0
 10
611.708984375
 20
497.67578125
 30
0.0
 10
611.708984375
 20
497.3984375
 30
0.0
 10
611.80712890625
 20
497.1630859375
 30
0.0
 10
612.0029296875
 20
496.9697265625
 30
0.0
 10
612.19873046875
 20
496.7763671875
 30
0.0
 10
612.47021484375
 20
496.6572265625
 30
0.0
 10
612.8173828125
 20
496.6123046875
 30
0.0
 10
612.9033203125
 20
496.6015625
 30
0.0
 10
612.9833984375
 20
496.595703125
 30
0.0
 10
613.05810546875
 20
496.595703125
 30
0.0
 10
613.32666015625
 20
496.595703125
 30
0.0
 10
613.5322265625
 20
496.6630859375
 30
0.0
 10
613.673828125
 20
496.7978515625
 30
0.0
 10
613.8154296875
 20
496.93359375
 30
0.0
 10
613.88671875
 20
497.1279296875
 30
0.0
 10
613.88671875
 20
497.3837890625
 30
0.0
 10
613.88671875
 20
497.6572265625
 30
0.0
 10
613.78759765625
 20
497.8916015625
 30
0.0
 10
613.58984375
 20
498.0869140625
 30
0.0
 10
613.39208984375
 20
498.28125
 30
0.0
 10
613.1142578125
 20
498.4013671875
 30
0.0
 10
612.755859375
 20
498.4462890625
 30
0.0
  0
SPLINE
  5
135
330
126
100
AcDbEntity
  8
CAPA_1
 62
     7
100
AcDbSpline
210
0.0
220
0.0
230
1.0
 70
    11
 71
     3
 72
    59
 73
    55
 74
     0
 42
0.0000000001
 43
0.0000000001
 40
0.0
 40
0.0
 40
0.0
 40
0.0
 40
1.0
 40
1.0
 40
1.0
 40
2.0
 40
2.0
 40
2.0
 40
3.0
 40
3.0
 40
3.0
 40
4.0
 40
4.0
 40
4.0
 40
5.0
 40
5.0
 40
5.0
 40
6.0
 40
6.0
 40
6.0
 40
7.0
 40
7.0
 40
7.0
 40
8.0
 40
8.0
 40
8.0
 40
9.0
 40
9.0
 40
9.0
 40
10.0
 40
10.0
 40
10.0
 40
11.0
 40
11.0
 40
11.0
 40
12.0
 40
12.0
 40
12.0
 40
13.0
 40
13.0
 40
13.0
 40
14.0
 40
14.0
 40
14.0
 40
15.0
 40
15.0
 40
15.0
 40
16.0
 40
16.0
 40
16.0
 40
17.0
 40
17.0
 40
17.0
 40
18.0
 40
18.0
 40
18.0
 40
18.0
 10
613.92578125
 20
501.2314453125
 30
0.0
 10
613.92578125
 20
501.2314453125
 30
0.0
 10
613.92578125
 20
501.072265625
 30
0.0
 10
613.92578125
 20
501.072265625
 30
0.0
 10
613.92578125
 20
501.072265625
 30
0.0
 10
612.509765625
 20
501.2705078125
 30
0.0
 10
612.509765625
 20
501.2705078125
 30
0.0
 10
612.4345703125
 20
501.2744140625
 30
0.0
 10
612.36474609375
 20
501.2763671875
 30
0.0
 10
612.30126953125
 20
501.2763671875
 30
0.0
 10
611.89892578125
 20
501.2763671875
 30
0.0
 10
611.69775390625
 20
501.06640625
 30
0.0
 10
611.69775390625
 20
500.646484375
 30
0.0
 10
611.69775390625
 20
500.357421875
 30
0.0
 10
611.783203125
 20
500.1337890625
 30
0.0
 10
611.9541015625
 20
499.9736328125
 30
0.0
 10
612.12451171875
 20
499.814453125
 30
0.0
 10
612.38623046875
 20
499.712890625
 30
0.0
 10
612.73876953125
 20
499.66796875
 30
0.0
 10
612.73876953125
 20
499.66796875
 30
0.0
 10
613.92626953125
 20
499.5107421875
 30
0.0
 10
613.92626953125
 20
499.5107421875
 30
0.0
 10
613.92626953125
 20
499.5107421875
 30
0.0
 10
613.92578125
 20
499.3525390625
 30
0.0
 10
613.92578125
 20
499.3525390625
 30
0.0
 10
613.92578125
 20
499.3525390625
 30
0.0
 10
611.6640625
 20
499.650390625
 30
0.0
 10
611.6640625
 20
499.650390625
 30
0.0
 10
611.6640625
 20
499.650390625
 30
0.0
 10
611.66455078125
 20
499.7919921875
 30
0.0
 10
611.66455078125
 20
499.7919921875
 30
0.0
 10
611.66455078125
 20
499.7919921875
 30
0.0
 10
612.25537109375
 20
499.7138671875
 30
0.0
 10
612.25537109375
 20
499.7138671875
 30
0.0
 10
611.98486328125
 20
499.845703125
 30
0.0
 10
611.79736328125
 20
500.01171875
 30
0.0
 10
611.6923828125
 20
500.21484375
 30
0.0
 10
611.61376953125
 20
500.3642578125
 30
0.0
 10
611.57421875
 20
500.5439453125
 30
0.0
 10
611.57421875
 20
500.75390625
 30
0.0
 10
611.57421875
 20
500.970703125
 30
0.0
 10
611.62841796875
 20
501.1416015625
 30
0.0
 10
611.7373046875
 20
501.265625
 30
0.0
 10
611.84619140625
 20
501.388671875
 30
0.0
 10
612.00341796875
 20
501.451171875
 30
0.0
 10
612.2099609375
 20
501.451171875
 30
0.0
 10
612.232421875
 20
501.451171875
 30
0.0
 10
612.2548828125
 20
501.451171875
 30
0.0
 10
612.27734375
 20
501.451171875
 30
0.0
 10
612.31494140625
 20
501.451171875
 30
0.0
 10
612.34130859375
 20
501.451171875
 30
0.0
 10
612.35595703125
 20
501.451171875
 30
0.0
 10
612.35595703125
 20
501.451171875
 30
0.0
 10
613.92578125
 20
501.2314453125
 30
0.0
 10
613.92578125
 20
501.2314453125
 30
0.0
  0
POLYLINE
  5
136
330
126
100
AcDbEntity
  8
CAPA_1
 62
     7
100
AcDb2dPolyline
 66
     1
 10
0.0
 20
0.0
 30
0.0
  0
VERTEX
  5
137
330
136
100
AcDbEntity
  8
CAPA_1
 62
     7
100
AcDbVertex
100
AcDb2dVertex
 10
611.77099609375
 20
503.099609375
 30
0.0
  0
VERTEX
  5
138
330
136
100
AcDbEntity
  8
CAPA_1
 62
     7
100
AcDbVertex
100
AcDb2dVertex
 10
611.77099609375
 20
502.6171875
 30
0.0
  0
VERTEX
  5
139
330
136
100
AcDbEntity
  8
CAPA_1
 62
     7
100
AcDbVertex
100
AcDb2dVertex
 10
613.92578125
 20
502.3349609375
 30
0.0
  0
VERTEX
  5
13A
330
136
100
AcDbEntity
  8
CAPA_1
 62
     7
100
AcDbVertex
100
AcDb2dVertex
 10
613.92578125
 20
502.17578125
 30
0.0
  0
VERTEX
  5
13B
330
136
100
AcDbEntity
  8
CAPA_1
 62
     7
100
AcDbVertex
100
AcDb2dVertex
 10
611.77099609375
 20
502.4580078125
 30
0.0
  0
VERTEX
  5
13C
330
136
100
AcDbEntity
  8
CAPA_1
 62
     7
100
AcDbVertex
100
AcDb2dVertex
 10
611.77099609375
 20
502.0087890625
 30
0.0
  0
VERTEX
  5
13D
330
136
100
AcDbEntity
  8
CAPA_1
 62
     7
100
AcDbVertex
100
AcDb2dVertex
 10
611.6640625
 20
502.025390625
 30
0.0
  0
VERTEX
  5
13E
330
136
100
AcDbEntity
  8
CAPA_1
 62
     7
100
AcDbVertex
100
AcDb2dVertex
 10
611.6640625
 20
502.47265625
 30
0.0
  0
VERTEX
  5
13F
330
136
100
AcDbEntity
  8
CAPA_1
 62
     7
100
AcDbVertex
100
AcDb2dVertex
 10
610.66259765625
 20
502.603515625
 30
0.0
  0
VERTEX
  5
140
330
136
100
AcDbEntity
  8
CAPA_1
 62
     7
100
AcDbVertex
100
AcDb2dVertex
 10
610.66259765625
 20
502.7607421875
 30
0.0
  0
VERTEX
  5
141
330
136
100
AcDbEntity
  8
CAPA_1
 62
     7
100
AcDbVertex
100
AcDb2dVertex
 10
611.6640625
 20
502.630859375
 30
0.0
  0
VERTEX
  5
142
330
136
100
AcDbEntity
  8
CAPA_1
 62
     7
100
AcDbVertex
100
AcDb2dVertex
 10
611.6640625
 20
503.1171875
 30
0.0
  0
VERTEX
  5
143
330
136
100
AcDbEntity
  8
CAPA_1
 62
     7
100
AcDbVertex
100
AcDb2dVertex
 10
611.77099609375
 20
503.099609375
 30
0.0
  0
SEQEND
  5
144
330
136
100
AcDbEntity
  8
CAPA_1
  0
SPLINE
  5
145
330
126
100
AcDbEntity
  8
CAPA_1
 62
     7
100
AcDbSpline
210
0.0
220
0.0
230
1.0
 70
    11
 71
     3
 72
    86
 73
    82
 74
     0
 42
0.0000000001
 43
0.0000000001
 40
0.0
 40
0.0
 40
0.0
 40
0.0
 40
1.0
 40
1.0
 40
1.0
 40
2.0
 40
2.0
 40
2.0
 40
3.0
 40
3.0
 40
3.0
 40
4.0
 40
4.0
 40
4.0
 40
5.0
 40
5.0
 40
5.0
 40
6.0
 40
6.0
 40
6.0
 40
7.0
 40
7.0
 40
7.0
 40
8.0
 40
8.0
 40
8.0
 40
9.0
 40
9.0
 40
9.0
 40
10.0
 40
10.0
 40
10.0
 40
11.0
 40
11.0
 40
11.0
 40
12.0
 40
12.0
 40
12.0
 40
13.0
 40
13.0
 40
13.0
 40
14.0
 40
14.0
 40
14.0
 40
15.0
 40
15.0
 40
15.0
 40
16.0
 40
16.0
 40
16.0
 40
17.0
 40
17.0
 40
17.0
 40
18.0
 40
18.0
 40
18.0
 40
19.0
 40
19.0
 40
19.0
 40
20.0
 40
20.0
 40
20.0
 40
21.0
 40
21.0
 40
21.0
 40
22.0
 40
22.0
 40
22.0
 40
23.0
 40
23.0
 40
23.0
 40
24.0
 40
24.0
 40
24.0
 40
25.0
 40
25.0
 40
25.0
 40
26.0
 40
26.0
 40
26.0
 40
27.0
 40
27.0
 40
27.0
 40
27.0
 10
613.37744140625
 20
504.6748046875
 30
0.0
 10
613.57177734375
 20
504.6484375
 30
0.0
 10
613.7275390625
 20
504.556640625
 30
0.0
 10
613.84521484375
 20
504.3994140625
 30
0.0
 10
613.962890625
 20
504.2412109375
 30
0.0
 10
614.021484375
 20
504.041015625
 30
0.0
 10
614.021484375
 20
503.796875
 30
0.0
 10
614.021484375
 20
503.625
 30
0.0
 10
613.986328125
 20
503.478515625
 30
0.0
 10
613.916015625
 20
503.3583984375
 30
0.0
 10
613.84521484375
 20
503.23828125
 30
0.0
 10
613.7451171875
 20
503.15625
 30
0.0
 10
613.615234375
 20
503.1103515625
 30
0.0
 10
613.615234375
 20
503.1103515625
 30
0.0
 10
613.52099609375
 20
503.28515625
 30
0.0
 10
613.52099609375
 20
503.28515625
 30
0.0
 10
613.7646484375
 20
503.3935546875
 30
0.0
 10
613.88671875
 20
503.5927734375
 30
0.0
 10
613.88671875
 20
503.8818359375
 30
0.0
 10
613.88671875
 20
504.0537109375
 30
0.0
 10
613.841796875
 20
504.1953125
 30
0.0
 10
613.751953125
 20
504.306640625
 30
0.0
 10
613.66259765625
 20
504.4169921875
 30
0.0
 10
613.544921875
 20
504.4814453125
 30
0.0
 10
613.3994140625
 20
504.5
 30
0.0
 10
613.38427734375
 20
504.50390625
 30
0.0
 10
613.36962890625
 20
504.505859375
 30
0.0
 10
613.3544921875
 20
504.505859375
 30
0.0
 10
613.33984375
 20
504.505859375
 30
0.0
 10
613.32861328125
 20
504.505859375
 30
0.0
 10
613.32080078125
 20
504.505859375
 30
0.0
 10
613.1640625
 20
504.505859375
 30
0.0
 10
613.037109375
 20
504.41015625
 30
0.0
 10
612.9404296875
 20
504.21875
 30
0.0
 10
612.869140625
 20
504.0615234375
 30
0.0
 10
612.8134765625
 20
503.935546875
 30
0.0
 10
612.7724609375
 20
503.841796875
 30
0.0
 10
612.705078125
 20
503.6884765625
 30
0.0
 10
612.63232421875
 20
503.57421875
 30
0.0
 10
612.55419921875
 20
503.4990234375
 30
0.0
 10
612.4755859375
 20
503.423828125
 30
0.0
 10
612.38037109375
 20
503.38671875
 30
0.0
 10
612.2685546875
 20
503.38671875
 30
0.0
 10
612.23486328125
 20
503.38671875
 30
0.0
 10
612.20849609375
 20
503.388671875
 30
0.0
 10
612.18994140625
 20
503.3916015625
 30
0.0
 10
612.0107421875
 20
503.4150390625
 30
0.0
 10
611.86328125
 20
503.4970703125
 30
0.0
 10
611.74755859375
 20
503.6396484375
 30
0.0
 10
611.6318359375
 20
503.7822265625
 30
0.0
 10
611.57421875
 20
503.9580078125
 30
0.0
 10
611.57421875
 20
504.1689453125
 30
0.0
 10
611.57421875
 20
504.501953125
 30
0.0
 10
611.6943359375
 20
504.7177734375
 30
0.0
 10
611.93505859375
 20
504.8154296875
 30
0.0
 10
611.93505859375
 20
504.8154296875
 30
0.0
 10
612.0185546875
 20
504.658203125
 30
0.0
 10
612.0185546875
 20
504.658203125
 30
0.0
 10
611.8125
 20
504.5712890625
 30
0.0
 10
611.708984375
 20
504.3955078125
 30
0.0
 10
611.708984375
 20
504.12890625
 30
0.0
 10
611.708984375
 20
503.982421875
 30
0.0
 10
611.751953125
 20
503.8583984375
 30
0.0
 10
611.837890625
 20
503.7548828125
 30
0.0
 10
611.923828125
 20
503.6513671875
 30
0.0
 10
612.0302734375
 20
503.5908203125
 30
0.0
 10
612.1572265625
 20
503.572265625
 30
0.0
 10
612.2841796875
 20
503.556640625
 30
0.0
 10
612.388671875
 20
503.5947265625
 30
0.0
 10
612.470703125
 20
503.6845703125
 30
0.0
 10
612.552734375
 20
503.7744140625
 30
0.0
 10
612.63037109375
 20
503.921875
 30
0.0
 10
612.703125
 20
504.1259765625
 30
0.0
 10
612.77587890625
 20
504.3310546875
 30
0.0
 10
612.84375
 20
504.46875
 30
0.0
 10
612.9072265625
 20
504.5400390625
 30
0.0
 10
612.9931640625
 20
504.6337890625
 30
0.0
 10
613.11279296875
 20
504.6806640625
 30
0.0
 10
613.265625
 20
504.6806640625
 30
0.0
 10
613.31396484375
 20
504.6806640625
 30
0.0
 10
613.3515625
 20
504.6787109375
 30
0.0
 10
613.37744140625
 20
504.6748046875
 30
0.0
  0
ENDBLK
  5
129
330
126
100
AcDbEntity
  8
0
100
AcDbBlockEnd
  0
BLOCK
  5
148
330
146
100
AcDbEntity
  8
0
100
AcDbBlockBegin
  2
BLOCK_21
 70
     0
 71
     0
 10
0.0
 20
0.0
 30
0.0
  3
BLOCK_21
  1

  0
INSERT
  5
14B
330
146
100
AcDbEntity
  8
CAPA_1
100
AcDbBlockReference
  2
BLOCK_22
 10
0.0
 20
0.0
 30
0.0
  0
ENDBLK
  5
149
330
146
100
AcDbEntity
  8
0
100
AcDbBlockEnd
  0
BLOCK
  5
14C
330
14A
100
AcDbEntity
  8
0
100
AcDbBlockBegin
  2
BLOCK_22
 70
     0
 71
     0
 10
0.0
 20
0.0
 30
0.0
  3
BLOCK_22
  1

  0
SPLINE
  5
14E
330
14A
100
AcDbEntity
  8
CAPA_1
 62
     7
100
AcDbSpline
210
0.0
220
0.0
230
1.0
 70
    11
 71
     3
 72
    53
 73
    49
 74
     0
 42
0.0000000001
 43
0.0000000001
 40
0.0
 40
0.0
 40
0.0
 40
0.0
 40
1.0
 40
1.0
 40
1.0
 40
2.0
 40
2.0
 40
2.0
 40
3.0
 40
3.0
 40
3.0
 40
4.0
 40
4.0
 40
4.0
 40
5.0
 40
5.0
 40
5.0
 40
6.0
 40
6.0
 40
6.0
 40
7.0
 40
7.0
 40
7.0
 40
8.0
 40
8.0
 40
8.0
 40
9.0
 40
9.0
 40
9.0
 40
10.0
 40
10.0
 40
10.0
 40
11.0
 40
11.0
 40
11.0
 40
12.0
 40
12.0
 40
12.0
 40
13.0
 40
13.0
 40
13.0
 40
14.0
 40
14.0
 40
14.0
 40
15.0
 40
15.0
 40
15.0
 40
16.0
 40
16.0
 40
16.0
 40
16.0
 10
649.677734375
 20
494.818359375
 30
0.0
 10
650.056640625
 20
494.76953125
 30
0.0
 10
650.3544921875
 20
494.6357421875
 30
0.0
 10
650.5732421875
 20
494.41796875
 30
0.0
 10
650.7919921875
 20
494.2001953125
 30
0.0
 10
650.90234375
 20
493.935546875
 30
0.0
 10
650.90234375
 20
493.6240234375
 30
0.0
 10
650.90234375
 20
493.4326171875
 30
0.0
 10
650.8671875
 20
493.2763671875
 30
0.0
 10
650.798828125
 20
493.15625
 30
0.0
 10
650.73046875
 20
493.0361328125
 30
0.0
 10
650.6123046875
 20
492.9443359375
 30
0.0
 10
650.4453125
 20
492.8798828125
 30
0.0
 10
650.4453125
 20
492.8798828125
 30
0.0
 10
650.4404296875
 20
492.716796875
 30
0.0
 10
650.4404296875
 20
492.716796875
 30
0.0
 10
650.4404296875
 20
492.716796875
 30
0.0
 10
652.0205078125
 20
492.5009765625
 30
0.0
 10
652.0205078125
 20
492.5009765625
 30
0.0
 10
652.0205078125
 20
492.5009765625
 30
0.0
 10
652.021484375
 20
492.3486328125
 30
0.0
 10
652.021484375
 20
492.3486328125
 30
0.0
 10
652.021484375
 20
492.3486328125
 30
0.0
 10
648.544921875
 20
492.8095703125
 30
0.0
 10
648.544921875
 20
492.8095703125
 30
0.0
 10
648.544921875
 20
492.8095703125
 30
0.0
 10
648.544921875
 20
492.966796875
 30
0.0
 10
648.544921875
 20
492.966796875
 30
0.0
 10
648.544921875
 20
492.966796875
 30
0.0
 10
648.91015625
 20
492.916015625
 30
0.0
 10
648.91015625
 20
492.916015625
 30
0.0
 10
648.91015625
 20
492.916015625
 30
0.0
 10
648.904296875
 20
493.017578125
 30
0.0
 10
648.904296875
 20
493.017578125
 30
0.0
 10
648.7587890625
 20
493.111328125
 30
0.0
 10
648.646484375
 20
493.2421875
 30
0.0
 10
648.5703125
 20
493.408203125
 30
0.0
 10
648.4931640625
 20
493.5751953125
 30
0.0
 10
648.4541015625
 20
493.7490234375
 30
0.0
 10
648.4541015625
 20
493.9287109375
 30
0.0
 10
648.4541015625
 20
494.20703125
 30
0.0
 10
648.54296875
 20
494.4267578125
 30
0.0
 10
648.720703125
 20
494.58984375
 30
0.0
 10
648.8984375
 20
494.7529296875
 30
0.0
 10
649.1396484375
 20
494.8349609375
 30
0.0
 10
649.4423828125
 20
494.8349609375
 30
0.0
 10
649.513671875
 20
494.8349609375
 30
0.0
 10
649.591796875
 20
494.8291015625
 30
0.0
 10
649.677734375
 20
494.818359375
 30
0.0
  0
SPLINE
  5
14F
330
14A
100
AcDbEntity
  8
CAPA_1
 62
     7
100
AcDbSpline
210
0.0
220
0.0
230
1.0
 70
    11
 71
     3
 72
    35
 73
    31
 74
     0
 42
0.0000000001
 43
0.0000000001
 40
0.0
 40
0.0
 40
0.0
 40
0.0
 40
1.0
 40
1.0
 40
1.0
 40
2.0
 40
2.0
 40
2.0
 40
3.0
 40
3.0
 40
3.0
 40
4.0
 40
4.0
 40
4.0
 40
5.0
 40
5.0
 40
5.0
 40
6.0
 40
6.0
 40
6.0
 40
7.0
 40
7.0
 40
7.0
 40
8.0
 40
8.0
 40
8.0
 40
9.0
 40
9.0
 40
9.0
 40
10.0
 40
10.0
 40
10.0
 40
10.0
 10
649.6865234375
 20
494.6328125
 30
0.0
 10
649.6005859375
 20
494.6435546875
 30
0.0
 10
649.5205078125
 20
494.6494140625
 30
0.0
 10
649.4462890625
 20
494.6494140625
 30
0.0
 10
649.173828125
 20
494.6494140625
 30
0.0
 10
648.962890625
 20
494.58203125
 30
0.0
 10
648.8134765625
 20
494.4462890625
 30
0.0
 10
648.6640625
 20
494.3115234375
 30
0.0
 10
648.58984375
 20
494.1220703125
 30
0.0
 10
648.58984375
 20
493.87890625
 30
0.0
 10
648.58984375
 20
493.5966796875
 30
0.0
 10
648.681640625
 20
493.361328125
 30
0.0
 10
648.8662109375
 20
493.1728515625
 30
0.0
 10
649.0517578125
 20
492.9833984375
 30
0.0
 10
649.3154296875
 20
492.8662109375
 30
0.0
 10
649.658203125
 20
492.8203125
 30
0.0
 10
649.7373046875
 20
492.8095703125
 30
0.0
 10
649.8095703125
 20
492.8037109375
 30
0.0
 10
649.876953125
 20
492.8037109375
 30
0.0
 10
650.1572265625
 20
492.8037109375
 30
0.0
 10
650.375
 20
492.87890625
 30
0.0
 10
650.5322265625
 20
493.029296875
 30
0.0
 10
650.6884765625
 20
493.1787109375
 30
0.0
 10
650.7666015625
 20
493.3779296875
 30
0.0
 10
650.7666015625
 20
493.625
 30
0.0
 10
650.7666015625
 20
493.8955078125
 30
0.0
 10
650.673828125
 20
494.119140625
 30
0.0
 10
650.4873046875
 20
494.2978515625
 30
0.0
 10
650.30078125
 20
494.4755859375
 30
0.0
 10
650.0341796875
 20
494.5869140625
 30
0.0
 10
649.6865234375
 20
494.6328125
 30
0.0
  0
POLYLINE
  5
150
330
14A
100
AcDbEntity
  8
CAPA_1
 62
     7
100
AcDb2dPolyline
 66
     1
 10
0.0
 20
0.0
 30
0.0
  0
VERTEX
  5
151
330
150
100
AcDbEntity
  8
CAPA_1
 62
     7
100
AcDbVertex
100
AcDb2dVertex
 10
650.806640625
 20
495.5673828125
 30
0.0
  0
VERTEX
  5
152
330
150
100
AcDbEntity
  8
CAPA_1
 62
     7
100
AcDbVertex
100
AcDb2dVertex
 10
650.806640625
 20
495.408203125
 30
0.0
  0
VERTEX
  5
153
330
150
100
AcDbEntity
  8
CAPA_1
 62
     7
100
AcDbVertex
100
AcDb2dVertex
 10
646.7216796875
 20
495.94921875
 30
0.0
  0
VERTEX
  5
154
330
150
100
AcDbEntity
  8
CAPA_1
 62
     7
100
AcDbVertex
100
AcDb2dVertex
 10
646.7216796875
 20
496.107421875
 30
0.0
  0
VERTEX
  5
155
330
150
100
AcDbEntity
  8
CAPA_1
 62
     7
100
AcDbVertex
100
AcDb2dVertex
 10
650.806640625
 20
495.5673828125
 30
0.0
  0
SEQEND
  5
156
330
150
100
AcDbEntity
  8
CAPA_1
  0
SPLINE
  5
157
330
14A
100
AcDbEntity
  8
CAPA_1
 62
     7
100
AcDbSpline
210
0.0
220
0.0
230
1.0
 70
    11
 71
     3
 72
    50
 73
    46
 74
     0
 42
0.0000000001
 43
0.0000000001
 40
0.0
 40
0.0
 40
0.0
 40
0.0
 40
1.0
 40
1.0
 40
1.0
 40
2.0
 40
2.0
 40
2.0
 40
3.0
 40
3.0
 40
3.0
 40
4.0
 40
4.0
 40
4.0
 40
5.0
 40
5.0
 40
5.0
 40
6.0
 40
6.0
 40
6.0
 40
7.0
 40
7.0
 40
7.0
 40
8.0
 40
8.0
 40
8.0
 40
9.0
 40
9.0
 40
9.0
 40
10.0
 40
10.0
 40
10.0
 40
11.0
 40
11.0
 40
11.0
 40
12.0
 40
12.0
 40
12.0
 40
13.0
 40
13.0
 40
13.0
 40
14.0
 40
14.0
 40
14.0
 40
15.0
 40
15.0
 40
15.0
 40
15.0
 10
650.80078125
 20
498.4462890625
 30
0.0
 10
650.80078125
 20
498.4462890625
 30
0.0
 10
650.80078125
 20
498.2880859375
 30
0.0
 10
650.80078125
 20
498.2880859375
 30
0.0
 10
650.80078125
 20
498.2880859375
 30
0.0
 10
650.1875
 20
498.369140625
 30
0.0
 10
650.1875
 20
498.369140625
 30
0.0
 10
650.1875
 20
498.369140625
 30
0.0
 10
650.421875
 20
498.1884765625
 30
0.0
 10
650.421875
 20
498.1884765625
 30
0.0
 10
650.5859375
 20
498.0458984375
 30
0.0
 10
650.703125
 20
497.9169921875
 30
0.0
 10
650.7734375
 20
497.80078125
 30
0.0
 10
650.859375
 20
497.6611328125
 30
0.0
 10
650.90234375
 20
497.505859375
 30
0.0
 10
650.90234375
 20
497.3330078125
 30
0.0
 10
650.90234375
 20
497.0439453125
 30
0.0
 10
650.8134765625
 20
496.81640625
 30
0.0
 10
650.634765625
 20
496.6494140625
 30
0.0
 10
650.45703125
 20
496.482421875
 30
0.0
 10
650.21484375
 20
496.3984375
 30
0.0
 10
649.908203125
 20
496.3984375
 30
0.0
 10
649.8369140625
 20
496.3984375
 30
0.0
 10
649.7626953125
 20
496.404296875
 30
0.0
 10
649.68359375
 20
496.416015625
 30
0.0
 10
649.3212890625
 20
496.46484375
 30
0.0
 10
649.025390625
 20
496.6015625
 30
0.0
 10
648.796875
 20
496.826171875
 30
0.0
 10
648.568359375
 20
497.0517578125
 30
0.0
 10
648.4541015625
 20
497.3154296875
 30
0.0
 10
648.4541015625
 20
497.619140625
 30
0.0
 10
648.4541015625
 20
498.0166015625
 30
0.0
 10
648.6162109375
 20
498.28125
 30
0.0
 10
648.9384765625
 20
498.412109375
 30
0.0
 10
648.9384765625
 20
498.412109375
 30
0.0
 10
649.134765625
 20
498.51953125
 30
0.0
 10
649.134765625
 20
498.51953125
 30
0.0
 10
649.134765625
 20
498.51953125
 30
0.0
 10
648.5439453125
 20
498.5859375
 30
0.0
 10
648.5439453125
 20
498.5859375
 30
0.0
 10
648.5439453125
 20
498.5859375
 30
0.0
 10
648.544921875
 20
498.7451171875
 30
0.0
 10
648.544921875
 20
498.7451171875
 30
0.0
 10
648.544921875
 20
498.7451171875
 30
0.0
 10
650.80078125
 20
498.4462890625
 30
0.0
 10
650.80078125
 20
498.4462890625
 30
0.0
  0
SPLINE
  5
158
330
14A
100
AcDbEntity
  8
CAPA_1
 62
     7
100
AcDbSpline
210
0.0
220
0.0
230
1.0
 70
    11
 71
     3
 72
    35
 73
    31
 74
     0
 42
0.0000000001
 43
0.0000000001
 40
0.0
 40
0.0
 40
0.0
 40
0.0
 40
1.0
 40
1.0
 40
1.0
 40
2.0
 40
2.0
 40
2.0
 40
3.0
 40
3.0
 40
3.0
 40
4.0
 40
4.0
 40
4.0
 40
5.0
 40
5.0
 40
5.0
 40
6.0
 40
6.0
 40
6.0
 40
7.0
 40
7.0
 40
7.0
 40
8.0
 40
8.0
 40
8.0
 40
9.0
 40
9.0
 40
9.0
 40
10.0
 40
10.0
 40
10.0
 40
10.0
 10
649.6357421875
 20
498.4462890625
 30
0.0
 10
649.5576171875
 20
498.4580078125
 30
0.0
 10
649.4853515625
 20
498.4638671875
 30
0.0
 10
649.41796875
 20
498.4638671875
 30
0.0
 10
649.1533203125
 20
498.4638671875
 30
0.0
 10
648.9482421875
 20
498.3955078125
 30
0.0
 10
648.8046875
 20
498.2578125
 30
0.0
 10
648.6611328125
 20
498.12109375
 30
0.0
 10
648.58984375
 20
497.9267578125
 30
0.0
 10
648.58984375
 20
497.67578125
 30
0.0
 10
648.58984375
 20
497.3984375
 30
0.0
 10
648.6875
 20
497.1630859375
 30
0.0
 10
648.8837890625
 20
496.9697265625
 30
0.0
 10
649.0791015625
 20
496.7763671875
 30
0.0
 10
649.3505859375
 20
496.6572265625
 30
0.0
 10
649.6982421875
 20
496.6123046875
 30
0.0
 10
649.783203125
 20
496.6015625
 30
0.0
 10
649.8642578125
 20
496.595703125
 30
0.0
 10
649.9384765625
 20
496.595703125
 30
0.0
 10
650.20703125
 20
496.595703125
 30
0.0
 10
650.412109375
 20
496.6630859375
 30
0.0
 10
650.5546875
 20
496.7978515625
 30
0.0
 10
650.6962890625
 20
496.93359375
 30
0.0
 10
650.7666015625
 20
497.1279296875
 30
0.0
 10
650.7666015625
 20
497.3837890625
 30
0.0
 10
650.7666015625
 20
497.6572265625
 30
0.0
 10
650.66796875
 20
497.8916015625
 30
0.0
 10
650.470703125
 20
498.0869140625
 30
0.0
 10
650.2724609375
 20
498.28125
 30
0.0
 10
649.994140625
 20
498.4013671875
 30
0.0
 10
649.6357421875
 20
498.4462890625
 30
0.0
  0
SPLINE
  5
159
330
14A
100
AcDbEntity
  8
CAPA_1
 62
     7
100
AcDbSpline
210
0.0
220
0.0
230
1.0
 70
    11
 71
     3
 72
    59
 73
    55
 74
     0
 42
0.0000000001
 43
0.0000000001
 40
0.0
 40
0.0
 40
0.0
 40
0.0
 40
1.0
 40
1.0
 40
1.0
 40
2.0
 40
2.0
 40
2.0
 40
3.0
 40
3.0
 40
3.0
 40
4.0
 40
4.0
 40
4.0
 40
5.0
 40
5.0
 40
5.0
 40
6.0
 40
6.0
 40
6.0
 40
7.0
 40
7.0
 40
7.0
 40
8.0
 40
8.0
 40
8.0
 40
9.0
 40
9.0
 40
9.0
 40
10.0
 40
10.0
 40
10.0
 40
11.0
 40
11.0
 40
11.0
 40
12.0
 40
12.0
 40
12.0
 40
13.0
 40
13.0
 40
13.0
 40
14.0
 40
14.0
 40
14.0
 40
15.0
 40
15.0
 40
15.0
 40
16.0
 40
16.0
 40
16.0
 40
17.0
 40
17.0
 40
17.0
 40
18.0
 40
18.0
 40
18.0
 40
18.0
 10
650.806640625
 20
501.2314453125
 30
0.0
 10
650.806640625
 20
501.2314453125
 30
0.0
 10
650.8056640625
 20
501.072265625
 30
0.0
 10
650.8056640625
 20
501.072265625
 30
0.0
 10
650.8056640625
 20
501.072265625
 30
0.0
 10
649.3896484375
 20
501.2705078125
 30
0.0
 10
649.3896484375
 20
501.2705078125
 30
0.0
 10
649.314453125
 20
501.2744140625
 30
0.0
 10
649.2451171875
 20
501.2763671875
 30
0.0
 10
649.181640625
 20
501.2763671875
 30
0.0
 10
648.779296875
 20
501.2763671875
 30
0.0
 10
648.578125
 20
501.06640625
 30
0.0
 10
648.578125
 20
500.646484375
 30
0.0
 10
648.578125
 20
500.357421875
 30
0.0
 10
648.6640625
 20
500.1337890625
 30
0.0
 10
648.833984375
 20
499.9736328125
 30
0.0
 10
649.0048828125
 20
499.814453125
 30
0.0
 10
649.2666015625
 20
499.712890625
 30
0.0
 10
649.619140625
 20
499.66796875
 30
0.0
 10
649.619140625
 20
499.66796875
 30
0.0
 10
650.806640625
 20
499.5107421875
 30
0.0
 10
650.806640625
 20
499.5107421875
 30
0.0
 10
650.806640625
 20
499.5107421875
 30
0.0
 10
650.806640625
 20
499.3525390625
 30
0.0
 10
650.806640625
 20
499.3525390625
 30
0.0
 10
650.806640625
 20
499.3525390625
 30
0.0
 10
648.544921875
 20
499.650390625
 30
0.0
 10
648.544921875
 20
499.650390625
 30
0.0
 10
648.544921875
 20
499.650390625
 30
0.0
 10
648.544921875
 20
499.7919921875
 30
0.0
 10
648.544921875
 20
499.7919921875
 30
0.0
 10
648.544921875
 20
499.7919921875
 30
0.0
 10
649.1357421875
 20
499.7138671875
 30
0.0
 10
649.1357421875
 20
499.7138671875
 30
0.0
 10
648.865234375
 20
499.845703125
 30
0.0
 10
648.677734375
 20
500.01171875
 30
0.0
 10
648.572265625
 20
500.21484375
 30
0.0
 10
648.494140625
 20
500.3642578125
 30
0.0
 10
648.4541015625
 20
500.5439453125
 30
0.0
 10
648.4541015625
 20
500.75390625
 30
0.0
 10
648.4541015625
 20
500.970703125
 30
0.0
 10
648.5087890625
 20
501.1416015625
 30
0.0
 10
648.6171875
 20
501.265625
 30
0.0
 10
648.7265625
 20
501.388671875
 30
0.0
 10
648.8837890625
 20
501.451171875
 30
0.0
 10
649.08984375
 20
501.451171875
 30
0.0
 10
649.1123046875
 20
501.451171875
 30
0.0
 10
649.1357421875
 20
501.451171875
 30
0.0
 10
649.158203125
 20
501.451171875
 30
0.0
 10
649.1953125
 20
501.451171875
 30
0.0
 10
649.2216796875
 20
501.451171875
 30
0.0
 10
649.236328125
 20
501.451171875
 30
0.0
 10
649.236328125
 20
501.451171875
 30
0.0
 10
650.806640625
 20
501.2314453125
 30
0.0
 10
650.806640625
 20
501.2314453125
 30
0.0
  0
POLYLINE
  5
15A
330
14A
100
AcDbEntity
  8
CAPA_1
 62
     7
100
AcDb2dPolyline
 66
     1
 10
0.0
 20
0.0
 30
0.0
  0
VERTEX
  5
15B
330
15A
100
AcDbEntity
  8
CAPA_1
 62
     7
100
AcDbVertex
100
AcDb2dVertex
 10
648.6513671875
 20
503.099609375
 30
0.0
  0
VERTEX
  5
15C
330
15A
100
AcDbEntity
  8
CAPA_1
 62
     7
100
AcDbVertex
100
AcDb2dVertex
 10
648.6513671875
 20
502.6171875
 30
0.0
  0
VERTEX
  5
15D
330
15A
100
AcDbEntity
  8
CAPA_1
 62
     7
100
AcDbVertex
100
AcDb2dVertex
 10
650.806640625
 20
502.3349609375
 30
0.0
  0
VERTEX
  5
15E
330
15A
100
AcDbEntity
  8
CAPA_1
 62
     7
100
AcDbVertex
100
AcDb2dVertex
 10
650.8056640625
 20
502.17578125
 30
0.0
  0
VERTEX
  5
15F
330
15A
100
AcDbEntity
  8
CAPA_1
 62
     7
100
AcDbVertex
100
AcDb2dVertex
 10
648.6513671875
 20
502.4580078125
 30
0.0
  0
VERTEX
  5
160
330
15A
100
AcDbEntity
  8
CAPA_1
 62
     7
100
AcDbVertex
100
AcDb2dVertex
 10
648.6513671875
 20
502.0087890625
 30
0.0
  0
VERTEX
  5
161
330
15A
100
AcDbEntity
  8
CAPA_1
 62
     7
100
AcDbVertex
100
AcDb2dVertex
 10
648.544921875
 20
502.025390625
 30
0.0
  0
VERTEX
  5
162
330
15A
100
AcDbEntity
  8
CAPA_1
 62
     7
100
AcDbVertex
100
AcDb2dVertex
 10
648.544921875
 20
502.47265625
 30
0.0
  0
VERTEX
  5
163
330
15A
100
AcDbEntity
  8
CAPA_1
 62
     7
100
AcDbVertex
100
AcDb2dVertex
 10
647.54296875
 20
502.603515625
 30
0.0
  0
VERTEX
  5
164
330
15A
100
AcDbEntity
  8
CAPA_1
 62
     7
100
AcDbVertex
100
AcDb2dVertex
 10
647.54296875
 20
502.7607421875
 30
0.0
  0
VERTEX
  5
165
330
15A
100
AcDbEntity
  8
CAPA_1
 62
     7
100
AcDbVertex
100
AcDb2dVertex
 10
648.544921875
 20
502.630859375
 30
0.0
  0
VERTEX
  5
166
330
15A
100
AcDbEntity
  8
CAPA_1
 62
     7
100
AcDbVertex
100
AcDb2dVertex
 10
648.544921875
 20
503.1171875
 30
0.0
  0
VERTEX
  5
167
330
15A
100
AcDbEntity
  8
CAPA_1
 62
     7
100
AcDbVertex
100
AcDb2dVertex
 10
648.6513671875
 20
503.099609375
 30
0.0
  0
SEQEND
  5
168
330
15A
100
AcDbEntity
  8
CAPA_1
  0
SPLINE
  5
169
330
14A
100
AcDbEntity
  8
CAPA_1
 62
     7
100
AcDbSpline
210
0.0
220
0.0
230
1.0
 70
    11
 71
     3
 72
    86
 73
    82
 74
     0
 42
0.0000000001
 43
0.0000000001
 40
0.0
 40
0.0
 40
0.0
 40
0.0
 40
1.0
 40
1.0
 40
1.0
 40
2.0
 40
2.0
 40
2.0
 40
3.0
 40
3.0
 40
3.0
 40
4.0
 40
4.0
 40
4.0
 40
5.0
 40
5.0
 40
5.0
 40
6.0
 40
6.0
 40
6.0
 40
7.0
 40
7.0
 40
7.0
 40
8.0
 40
8.0
 40
8.0
 40
9.0
 40
9.0
 40
9.0
 40
10.0
 40
10.0
 40
10.0
 40
11.0
 40
11.0
 40
11.0
 40
12.0
 40
12.0
 40
12.0
 40
13.0
 40
13.0
 40
13.0
 40
14.0
 40
14.0
 40
14.0
 40
15.0
 40
15.0
 40
15.0
 40
16.0
 40
16.0
 40
16.0
 40
17.0
 40
17.0
 40
17.0
 40
18.0
 40
18.0
 40
18.0
 40
19.0
 40
19.0
 40
19.0
 40
20.0
 40
20.0
 40
20.0
 40
21.0
 40
21.0
 40
21.0
 40
22.0
 40
22.0
 40
22.0
 40
23.0
 40
23.0
 40
23.0
 40
24.0
 40
24.0
 40
24.0
 40
25.0
 40
25.0
 40
25.0
 40
26.0
 40
26.0
 40
26.0
 40
27.0
 40
27.0
 40
27.0
 40
27.0
 10
650.2578125
 20
504.6748046875
 30
0.0
 10
650.4521484375
 20
504.6484375
 30
0.0
 10
650.6083984375
 20
504.556640625
 30
0.0
 10
650.7255859375
 20
504.3994140625
 30
0.0
 10
650.8427734375
 20
504.2412109375
 30
0.0
 10
650.90234375
 20
504.041015625
 30
0.0
 10
650.90234375
 20
503.796875
 30
0.0
 10
650.90234375
 20
503.625
 30
0.0
 10
650.8671875
 20
503.478515625
 30
0.0
 10
650.7958984375
 20
503.3583984375
 30
0.0
 10
650.7255859375
 20
503.23828125
 30
0.0
 10
650.6259765625
 20
503.15625
 30
0.0
 10
650.49609375
 20
503.1103515625
 30
0.0
 10
650.49609375
 20
503.1103515625
 30
0.0
 10
650.4013671875
 20
503.28515625
 30
0.0
 10
650.4013671875
 20
503.28515625
 30
0.0
 10
650.64453125
 20
503.3935546875
 30
0.0
 10
650.7666015625
 20
503.5927734375
 30
0.0
 10
650.7666015625
 20
503.8818359375
 30
0.0
 10
650.7666015625
 20
504.0537109375
 30
0.0
 10
650.7216796875
 20
504.1953125
 30
0.0
 10
650.6328125
 20
504.306640625
 30
0.0
 10
650.54296875
 20
504.4169921875
 30
0.0
 10
650.42578125
 20
504.4814453125
 30
0.0
 10
650.279296875
 20
504.5
 30
0.0
 10
650.2646484375
 20
504.50390625
 30
0.0
 10
650.25
 20
504.505859375
 30
0.0
 10
650.2353515625
 20
504.505859375
 30
0.0
 10
650.2197265625
 20
504.505859375
 30
0.0
 10
650.208984375
 20
504.505859375
 30
0.0
 10
650.201171875
 20
504.505859375
 30
0.0
 10
650.044921875
 20
504.505859375
 30
0.0
 10
649.91796875
 20
504.41015625
 30
0.0
 10
649.8203125
 20
504.21875
 30
0.0
 10
649.75
 20
504.0615234375
 30
0.0
 10
649.693359375
 20
503.935546875
 30
0.0
 10
649.65234375
 20
503.841796875
 30
0.0
 10
649.5859375
 20
503.6884765625
 30
0.0
 10
649.5126953125
 20
503.57421875
 30
0.0
 10
649.4345703125
 20
503.4990234375
 30
0.0
 10
649.35546875
 20
503.423828125
 30
0.0
 10
649.2607421875
 20
503.38671875
 30
0.0
 10
649.1484375
 20
503.38671875
 30
0.0
 10
649.115234375
 20
503.38671875
 30
0.0
 10
649.0888671875
 20
503.388671875
 30
0.0
 10
649.0703125
 20
503.3916015625
 30
0.0
 10
648.8916015625
 20
503.4150390625
 30
0.0
 10
648.744140625
 20
503.4970703125
 30
0.0
 10
648.6279296875
 20
503.6396484375
 30
0.0
 10
648.5126953125
 20
503.7822265625
 30
0.0
 10
648.4541015625
 20
503.9580078125
 30
0.0
 10
648.4541015625
 20
504.1689453125
 30
0.0
 10
648.4541015625
 20
504.501953125
 30
0.0
 10
648.5751953125
 20
504.7177734375
 30
0.0
 10
648.8154296875
 20
504.8154296875
 30
0.0
 10
648.8154296875
 20
504.8154296875
 30
0.0
 10
648.8994140625
 20
504.658203125
 30
0.0
 10
648.8994140625
 20
504.658203125
 30
0.0
 10
648.6923828125
 20
504.5712890625
 30
0.0
 10
648.58984375
 20
504.3955078125
 30
0.0
 10
648.58984375
 20
504.12890625
 30
0.0
 10
648.58984375
 20
503.982421875
 30
0.0
 10
648.6328125
 20
503.8583984375
 30
0.0
 10
648.71875
 20
503.7548828125
 30
0.0
 10
648.8046875
 20
503.6513671875
 30
0.0
 10
648.91015625
 20
503.5908203125
 30
0.0
 10
649.037109375
 20
503.572265625
 30
0.0
 10
649.1640625
 20
503.556640625
 30
0.0
 10
649.2685546875
 20
503.5947265625
 30
0.0
 10
649.3505859375
 20
503.6845703125
 30
0.0
 10
649.4326171875
 20
503.7744140625
 30
0.0
 10
649.5107421875
 20
503.921875
 30
0.0
 10
649.5830078125
 20
504.1259765625
 30
0.0
 10
649.65625
 20
504.3310546875
 30
0.0
 10
649.724609375
 20
504.46875
 30
0.0
 10
649.7880859375
 20
504.5400390625
 30
0.0
 10
649.8740234375
 20
504.6337890625
 30
0.0
 10
649.9931640625
 20
504.6806640625
 30
0.0
 10
650.146484375
 20
504.6806640625
 30
0.0
 10
650.1943359375
 20
504.6806640625
 30
0.0
 10
650.2314453125
 20
504.6787109375
 30
0.0
 10
650.2578125
 20
504.6748046875
 30
0.0
  0
ENDBLK
  5
14D
330
14A
100
AcDbEntity
  8
0
100
AcDbBlockEnd
  0
ENDSEC
  0
SECTION
  2
ENTITIES
  0
INSERT
  5
3D
330
1F
100
AcDbEntity
  8
CAPA_1
100
AcDbBlockReference
  2
BLOCK_2
 10
0.0
 20
0.0
 30
0.0
  0
INSERT
  5
52
330
1F
100
AcDbEntity
  8
CAPA_1
100
AcDbBlockReference
  2
BLOCK_5
 10
0.0
 20
0.0
 30
0.0
  0
INSERT
  5
67
330
1F
100
AcDbEntity
  8
CAPA_1
100
AcDbBlockReference
  2
BLOCK_8
 10
0.0
 20
0.0
 30
0.0
  0
INSERT
  5
7C
330
1F
100
AcDbEntity
  8
CAPA_1
100
AcDbBlockReference
  2
BLOCK_11
 10
0.0
 20
0.0
 30
0.0
  0
INSERT
  5
94
330
1F
100
AcDbEntity
  8
CAPA_1
100
AcDbBlockReference
  2
BLOCK_13
 10
0.0
 20
0.0
 30
0.0
  0
INSERT
  5
D1
330
1F
100
AcDbEntity
  8
CAPA_1
100
AcDbBlockReference
  2
BLOCK_15
 10
0.0
 20
0.0
 30
0.0
  0
INSERT
  5
FF
330
1F
100
AcDbEntity
  8
CAPA_1
100
AcDbBlockReference
  2
BLOCK_17
 10
0.0
 20
0.0
 30
0.0
  0
INSERT
  5
123
330
1F
100
AcDbEntity
  8
CAPA_1
100
AcDbBlockReference
  2
BLOCK_19
 10
0.0
 20
0.0
 30
0.0
  0
INSERT
  5
147
330
1F
100
AcDbEntity
  8
CAPA_1
100
AcDbBlockReference
  2
BLOCK_21
 10
0.0
 20
0.0
 30
0.0
  0
ENDSEC
  0
SECTION
  2
OBJECTS
  0
DICTIONARY
  5
C
330
0
100
AcDbDictionary
  3
ACAD_GROUP
350
D
  3
ACAD_LAYOUT
350
1A
  3
ACAD_MLINESTYLE
350
17
  3
ACAD_PLOTSETTINGS
350
19
  3
ACAD_TABLESTYLE
350
18A
  3
ACAD_VISUALSTYLE
350
2A
  3
ACDBHEADERROUNDTRIPXREC
350
16A
  0
DICTIONARY
  5
D
102
{ACAD_REACTORS
330
C
102
}
330
C
100
AcDbDictionary
  0
DICTIONARY
  5
1A
102
{ACAD_REACTORS
330
C
102
}
330
C
100
AcDbDictionary
  0
DICTIONARY
  5
17
102
{ACAD_REACTORS
330
C
102
}
330
C
100
AcDbDictionary
  3
STANDARD
350
18
  0
DICTIONARY
  5
19
102
{ACAD_REACTORS
330
C
102
}
330
C
100
AcDbDictionary
  0
DICTIONARY
  5
18A
102
{ACAD_REACTORS
330
C
102
}
330
C
100
AcDbDictionary
  0
DICTIONARY
  5
2A
102
{ACAD_REACTORS
330
C
102
}
330
C
100
AcDbDictionary
  3
2DWIREFRAME
350
2F
  3
3D_HIDDEN
350
31
  3
3DWIREFRAME
350
30
  3
BASIC
350
32
  3
BRIGHTEN
350
36
  3
COLORCHANGE
350
3A
  3
CONCEPTUAL
350
34
  3
DIM
350
35
  3
FACEPATTERN
350
39
  3
FLAT
350
2B
  3
FLATWITHEDGES
350
2C
  3
GOURAUD
350
2D
  3
GOURAUDWITHEDGES
350
2E
  3
LINEPATTERN
350
38
  3
REALISTIC
350
33
  3
THICKEN
350
37
  0
DICTIONARY
  5
16A
102
{ACAD_REACTORS
330
C
102
}
330
C
100
AcDbDictionary
  3
CEPSNTYPE
350
173
  3
DIMSTYLEDATA
350
189
  3
FINGERPRINTGUID
350
174
  3
HYPERLINKBASE
350
16D
  3
INSUNITS
350
172
  3
LAYOUTDICT
350
16F
  3
LWETCUNION
350
171
  3
PLOTSETDICT
350
170
  3
PSVPSCALE
350
176
  3
PUCSBASE
350
179
  3
PUCSORGBACK
350
17F
  3
PUCSORGBOTTOM
350
17B
  3
PUCSORGFRONT
350
17E
  3
PUCSORGLEFT
350
17C
  3
PUCSORGRIGHT
350
17D
  3
PUCSORGTOP
350
17A
  3
PUCSORTHOREF
350
177
  3
PUCSORTHOVIEW
350
178
  3
STYLESHEET
350
16E
  3
TSTACKALIGN
350
16B
  3
TSTACKSIZE
350
16C
  3
UCSBASE
350
182
  3
UCSORGBACK
350
188
  3
UCSORGBOTTOM
350
184
  3
UCSORGFRONT
350
187
  3
UCSORGLEFT
350
185
  3
UCSORGRIGHT
350
186
  3
UCSORGTOP
350
183
  3
UCSORTHOREF
350
180
  3
UCSORTHOVIEW
350
181
  3
VERSIONGUID
350
175
  0
MLINESTYLE
  5
18
102
{ACAD_REACTORS
330
17
102
}
330
17
100
AcDbMlineStyle
  2
Standard
 70
     0
  3

 62
   256
 51
90.0
 52
90.0
 71
     2
 49
0.5
 62
   256
  6
BYLAYER
 49
-0.5
 62
   256
  6
BYLAYER
  0
VISUALSTYLE
  5
2F
102
{ACAD_REACTORS
330
2A
102
}
330
2A
100
AcDbVisualStyle
  2
2dWireframe
 70
     4
 71
     0
 72
     2
 73
     0
 90
        0
 40
-0.6
 41
-30.0
 62
     5
 63
     7
 74
     1
 91
        4
 64
     7
 65
   257
 75
     1
175
     1
 42
1.0
 92
        0
 66
   257
 43
1.0
 76
     1
 77
     6
 78
     2
 67
     7
 79
     5
170
     0
171
     0
290
     0
174
     0
 93
        1
 44
0.0
173
     0
291
     0
 45
0.0
1001
ACAD
1000
AcDbSavedByObjectVersion
1070
     0
  0
VISUALSTYLE
  5
31
102
{ACAD_REACTORS
330
2A
102
}
330
2A
100
AcDbVisualStyle
  2
3D Hidden
 70
     6
 71
     1
 72
     2
 73
     2
 90
        0
 40
-0.6
 41
-30.0
 62
     5
 63
     7
 74
     2
 91
        2
 64
     7
 65
   257
 75
     2
175
     1
 42
40.0
 92
        0
 66
   257
 43
1.0
 76
     1
 77
     6
 78
     2
 67
     7
 79
     3
170
     0
171
     0
290
     0
174
     0
 93
        1
 44
0.0
173
     0
291
     0
 45
0.0
1001
ACAD
1000
AcDbSavedByObjectVersion
1070
     0
  0
VISUALSTYLE
  5
30
102
{ACAD_REACTORS
330
2A
102
}
330
2A
100
AcDbVisualStyle
  2
3dWireframe
 70
     5
 71
     0
 72
     2
 73
     0
 90
        0
 40
-0.6
 41
-30.0
 62
     5
 63
     7
 74
     1
 91
        4
 64
     7
 65
   257
 75
     1
175
     1
 42
1.0
 92
        0
 66
   257
 43
1.0
 76
     1
 77
     6
 78
     2
 67
     7
 79
     5
170
     0
171
     0
290
     0
174
     0
 93
        1
 44
0.0
173
     0
291
     0
 45
0.0
1001
ACAD
1000
AcDbSavedByObjectVersion
1070
     0
  0
VISUALSTYLE
  5
32
102
{ACAD_REACTORS
330
2A
102
}
330
2A
100
AcDbVisualStyle
  2
Basic
 70
     7
 71
     1
 72
     0
 73
     1
 90
        0
 40
-0.6
 41
-30.0
 62
     5
 63
     7
 74
     0
 91
        4
 64
     7
 65
   257
 75
     1
175
     1
 42
1.0
 92
        8
 66
     7
 43
1.0
 76
     1
 77
     6
 78
     2
 67
     7
 79
     5
170
     0
171
     0
290
     0
174
     0
 93
        1
 44
0.0
173
     0
291
     1
 45
0.0
1001
ACAD
1000
AcDbSavedByObjectVersion
1070
     0
  0
VISUALSTYLE
  5
36
102
{ACAD_REACTORS
330
2A
102
}
330
2A
100
AcDbVisualStyle
  2
Brighten
 70
    12
 71
     2
 72
     2
 73
     0
 90
        0
 40
-0.6
 41
-30.0
 62
     5
 63
     7
 74
     1
 91
        4
 64
     7
 65
   257
 75
     1
175
     1
 42
1.0
 92
        8
 66
     7
 43
1.0
 76
     1
 77
     6
 78
     2
 67
     7
 79
     5
170
     0
171
     0
290
     0
174
     0
 93
        1
 44
50.0
173
     0
291
     1
 45
0.0
1001
ACAD
1000
AcDbSavedByObjectVersion
1070
     0
  0
VISUALSTYLE
  5
3A
102
{ACAD_REACTORS
330
2A
102
}
330
2A
100
AcDbVisualStyle
  2
ColorChange
 70
    16
 71
     2
 72
     2
 73
     3
 90
        0
 40
-0.6
 41
-30.0
 62
     5
 63
     8
 74
     1
 91
        4
 64
     7
 65
   257
 75
     1
175
     1
 42
1.0
 92
        8
 66
     8
 43
1.0
 76
     1
 77
     6
 78
     2
 67
     7
 79
     5
170
     0
171
     0
290
     0
174
     0
 93
        1
 44
0.0
173
     0
291
     1
 45
0.0
1001
ACAD
1000
AcDbSavedByObjectVersion
1070
     0
  0
VISUALSTYLE
  5
34
102
{ACAD_REACTORS
330
2A
102
}
330
2A
100
AcDbVisualStyle
  2
Conceptual
 70
     9
 71
     3
 72
     2
 73
     0
 90
        0
 40
-0.6
 41
-30.0
 62
     5
 63
     7
 74
     2
 91
        2
 64
     7
 65
   257
 75
     1
175
     1
 42
40.0
 92
        8
 66
     7
 43
1.0
 76
     1
 77
     6
 78
     2
 67
     7
 79
     3
170
     0
171
     0
290
     0
174
     0
 93
        1
 44
0.0
173
     0
291
     0
 45
0.0
1001
ACAD
1000
AcDbSavedByObjectVersion
1070
     0
  0
VISUALSTYLE
  5
35
102
{ACAD_REACTORS
330
2A
102
}
330
2A
100
AcDbVisualStyle
  2
Dim
 70
    11
 71
     2
 72
     2
 73
     0
 90
        0
 40
-0.6
 41
-30.0
 62
     5
 63
     7
 74
     1
 91
        4
 64
     7
 65
   257
 75
     1
175
     1
 42
1.0
 92
        8
 66
     7
 43
1.0
 76
     1
 77
     6
 78
     2
 67
     7
 79
     5
170
     0
171
     0
290
     0
174
     0
 93
        1
 44
-50.0
173
     0
291
     1
 45
0.0
1001
ACAD
1000
AcDbSavedByObjectVersion
1070
     0
  0
VISUALSTYLE
  5
39
102
{ACAD_REACTORS
330
2A
102
}
330
2A
100
AcDbVisualStyle
  2
Facepattern
 70
    15
 71
     2
 72
     2
 73
     0
 90
        0
 40
-0.6
 41
-30.0
 62
     5
 63
     7
 74
     1
 91
        4
 64
     7
 65
   257
 75
     1
175
     1
 42
1.0
 92
        8
 66
     7
 43
1.0
 76
     1
 77
     6
 78
     2
 67
     7
 79
     5
170
     0
171
     0
290
     0
174
     0
 93
        1
 44
0.0
173
     0
291
     1
 45
0.0
1001
ACAD
1000
AcDbSavedByObjectVersion
1070
     0
  0
VISUALSTYLE
  5
2B
102
{ACAD_REACTORS
330
2A
102
}
330
2A
100
AcDbVisualStyle
  2
Flat
 70
     0
 71
     2
 72
     1
 73
     1
 90
        2
 40
-0.6
 41
30.0
 62
     5
 63
     7
 74
     0
 91
        4
 64
     7
 65
   257
 75
     1
175
     1
 42
1.0
 92
        8
 66
     7
 43
1.0
 76
     1
 77
     6
 78
     2
 67
     7
 79
     5
170
     0
171
     0
290
     0
174
     0
 93
       13
 44
0.0
173
     0
291
     1
 45
0.0
1001
ACAD
1000
AcDbSavedByObjectVersion
1070
     0
  0
VISUALSTYLE
  5
2C
102
{ACAD_REACTORS
330
2A
102
}
330
2A
100
AcDbVisualStyle
  2
FlatWithEdges
 70
     1
 71
     2
 72
     1
 73
     1
 90
        2
 40
-0.6
 41
30.0
 62
     5
 63
     7
 74
     1
 91
        4
 64
     7
 65
   257
 75
     1
175
     1
 42
1.0
 92
        0
 66
   257
 43
1.0
 76
     1
 77
     6
 78
     2
 67
     7
 79
     5
170
     0
171
     0
290
     0
174
     0
 93
       13
 44
0.0
173
     0
291
     1
 45
0.0
1001
ACAD
1000
AcDbSavedByObjectVersion
1070
     0
  0
VISUALSTYLE
  5
2D
102
{ACAD_REACTORS
330
2A
102
}
330
2A
100
AcDbVisualStyle
  2
Gouraud
 70
     2
 71
     2
 72
     2
 73
     1
 90
        2
 40
-0.6
 41
30.0
 62
     5
 63
     7
 74
     0
 91
        4
 64
     7
 65
   257
 75
     1
175
     1
 42
1.0
 92
        0
 66
     7
 43
1.0
 76
     1
 77
     6
 78
     2
 67
     7
 79
     5
170
     0
171
     0
290
     0
174
     0
 93
       13
 44
0.0
173
     0
291
     1
 45
0.0
1001
ACAD
1000
AcDbSavedByObjectVersion
1070
     0
  0
VISUALSTYLE
  5
2E
102
{ACAD_REACTORS
330
2A
102
}
330
2A
100
AcDbVisualStyle
  2
GouraudWithEdges
 70
     3
 71
     2
 72
     2
 73
     1
 90
        2
 40
-0.6
 41
30.0
 62
     5
 63
     7
 74
     1
 91
        4
 64
     7
 65
   257
 75
     1
175
     1
 42
1.0
 92
        0
 66
   257
 43
1.0
 76
     1
 77
     6
 78
     2
 67
     7
 79
     5
170
     0
171
     0
290
     0
174
     0
 93
       13
 44
0.0
173
     0
291
     1
 45
0.0
1001
ACAD
1000
AcDbSavedByObjectVersion
1070
     0
  0
VISUALSTYLE
  5
38
102
{ACAD_REACTORS
330
2A
102
}
330
2A
100
AcDbVisualStyle
  2
Linepattern
 70
    14
 71
     2
 72
     2
 73
     0
 90
        0
 40
-0.6
 41
-30.0
 62
     5
 63
     7
 74
     1
 91
        4
 64
     7
 65
   257
 75
     7
175
     7
 42
1.0
 92
        8
 66
     7
 43
1.0
 76
     1
 77
     6
 78
     2
 67
     7
 79
     5
170
     0
171
     0
290
     0
174
     0
 93
        1
 44
0.0
173
     0
291
     1
 45
0.0
1001
ACAD
1000
AcDbSavedByObjectVersion
1070
     0
  0
VISUALSTYLE
  5
33
102
{ACAD_REACTORS
330
2A
102
}
330
2A
100
AcDbVisualStyle
  2
Realistic
 70
     8
 71
     2
 72
     2
 73
     0
 90
        0
 40
-0.6
 41
-30.0
 62
     5
 63
     7
 74
     1
 91
        0
 64
     7
 65
   257
 75
     1
175
     1
 42
1.0
 92
        8
 66
     8
 43
1.0
 76
     1
 77
     6
 78
     2
 67
     7
 79
     5
170
     0
171
     0
290
     0
174
     0
 93
       13
 44
0.0
173
     0
291
     0
 45
0.0
1001
ACAD
1000
AcDbSavedByObjectVersion
1070
     0
  0
VISUALSTYLE
  5
37
102
{ACAD_REACTORS
330
2A
102
}
330
2A
100
AcDbVisualStyle
  2
Thicken
 70
    13
 71
     2
 72
     2
 73
     0
 90
        0
 40
-0.6
 41
-30.0
 62
     5
 63
     7
 74
     1
 91
        4
 64
     7
 65
   257
 75
     1
175
     1
 42
1.0
 92
       12
 66
     7
 43
1.0
 76
     1
 77
     6
 78
     2
 67
     7
 79
     5
170
     0
171
     0
290
     0
174
     0
 93
        1
 44
0.0
173
     0
291
     1
 45
0.0
1001
ACAD
1000
AcDbSavedByObjectVersion
1070
     0
  0
XRECORD
  5
173
102
{ACAD_REACTORS
330
16A
102
}
330
16A
100
AcDbXrecord
 90
        0
  0
XRECORD
  5
189
102
{ACAD_REACTORS
330
16A
102
}
330
16A
100
AcDbXrecord
1000
DSTYLE
1002
{
1070
   340
340
11
1002
}
  0
XRECORD
  5
174
102
{ACAD_REACTORS
330
16A
102
}
330
16A
100
AcDbXrecord
  1
{CC166485-5FEB-4448-9CE5-2A41862430F6}
  0
XRECORD
  5
16D
102
{ACAD_REACTORS
330
16A
102
}
330
16A
100
AcDbXrecord
  1

  0
XRECORD
  5
172
102
{ACAD_REACTORS
330
16A
102
}
330
16A
100
AcDbXrecord
 90
        1
  0
XRECORD
  5
16F
102
{ACAD_REACTORS
330
16A
102
}
330
16A
100
AcDbXrecord
340
1A
  0
XRECORD
  5
171
102
{ACAD_REACTORS
330
16A
102
}
330
16A
100
AcDbXrecord
 90
    10269
  0
XRECORD
  5
170
102
{ACAD_REACTORS
330
16A
102
}
330
16A
100
AcDbXrecord
340
19
  0
XRECORD
  5
176
102
{ACAD_REACTORS
330
16A
102
}
330
16A
100
AcDbXrecord
 40
0.0
  0
XRECORD
  5
179
102
{ACAD_REACTORS
330
16A
102
}
330
16A
100
AcDbXrecord
340
0
  0
XRECORD
  5
17F
102
{ACAD_REACTORS
330
16A
102
}
330
16A
100
AcDbXrecord
 10
0.0
 20
0.0
 30
0.0
  0
XRECORD
  5
17B
102
{ACAD_REACTORS
330
16A
102
}
330
16A
100
AcDbXrecord
 10
0.0
 20
0.0
 30
0.0
  0
XRECORD
  5
17E
102
{ACAD_REACTORS
330
16A
102
}
330
16A
100
AcDbXrecord
 10
0.0
 20
0.0
 30
0.0
  0
XRECORD
  5
17C
102
{ACAD_REACTORS
330
16A
102
}
330
16A
100
AcDbXrecord
 10
0.0
 20
0.0
 30
0.0
  0
XRECORD
  5
17D
102
{ACAD_REACTORS
330
16A
102
}
330
16A
100
AcDbXrecord
 10
0.0
 20
0.0
 30
0.0
  0
XRECORD
  5
17A
102
{ACAD_REACTORS
330
16A
102
}
330
16A
100
AcDbXrecord
 10
0.0
 20
0.0
 30
0.0
  0
XRECORD
  5
177
102
{ACAD_REACTORS
330
16A
102
}
330
16A
100
AcDbXrecord
340
0
  0
XRECORD
  5
178
102
{ACAD_REACTORS
330
16A
102
}
330
16A
100
AcDbXrecord
 70
     0
  0
XRECORD
  5
16E
102
{ACAD_REACTORS
330
16A
102
}
330
16A
100
AcDbXrecord
  1

  0
XRECORD
  5
16B
102
{ACAD_REACTORS
330
16A
102
}
330
16A
100
AcDbXrecord
 90
        1
  0
XRECORD
  5
16C
102
{ACAD_REACTORS
330
16A
102
}
330
16A
100
AcDbXrecord
 90
       70
  0
XRECORD
  5
182
102
{ACAD_REACTORS
330
16A
102
}
330
16A
100
AcDbXrecord
340
0
  0
XRECORD
  5
188
102
{ACAD_REACTORS
330
16A
102
}
330
16A
100
AcDbXrecord
 10
0.0
 20
0.0
 30
0.0
  0
XRECORD
  5
184
102
{ACAD_REACTORS
330
16A
102
}
330
16A
100
AcDbXrecord
 10
0.0
 20
0.0
 30
0.0
  0
XRECORD
  5
187
102
{ACAD_REACTORS
330
16A
102
}
330
16A
100
AcDbXrecord
 10
0.0
 20
0.0
 30
0.0
  0
XRECORD
  5
185
102
{ACAD_REACTORS
330
16A
102
}
330
16A
100
AcDbXrecord
 10
0.0
 20
0.0
 30
0.0
  0
XRECORD
  5
186
102
{ACAD_REACTORS
330
16A
102
}
330
16A
100
AcDbXrecord
 10
0.0
 20
0.0
 30
0.0
  0
XRECORD
  5
183
102
{ACAD_REACTORS
330
16A
102
}
330
16A
100
AcDbXrecord
 10
0.0
 20
0.0
 30
0.0
  0
XRECORD
  5
180
102
{ACAD_REACTORS
330
16A
102
}
330
16A
100
AcDbXrecord
340
0
  0
XRECORD
  5
181
102
{ACAD_REACTORS
330
16A
102
}
330
16A
100
AcDbXrecord
 70
     0
  0
XRECORD
  5
175
102
{ACAD_REACTORS
330
16A
102
}
330
16A
100
AcDbXrecord
  1
{FAEB1C32-E019-11D5-929B-00C0DF256EC4}
  0
ENDSEC
  0
EOF
