  0
SECTION
  2
HEADER
  9
$ACADVER
  1
AC1018
  9
$ACADMAINTVER
 70
     0
  9
$DWGCODEPAGE
  3
ANSI_1252
  9
$INSBASE
 10
0.0
 20
0.0
 30
0.0
  9
$EXTMIN
 10
-671.1385016490636
 20
-0.0000000000001634
 30
0.0
  9
$EXTMAX
 10
3276.235998548671
 20
900.7100262845117
 30
0.0
  9
$LIMMIN
 10
0.0
 20
0.0
  9
$LIMMAX
 10
12.0
 20
9.0
  9
$ORTHOMODE
 70
     0
  9
$REGENMODE
 70
     1
  9
$FILLMODE
 70
     1
  9
$QTEXTMODE
 70
     0
  9
$MIRRTEXT
 70
     1
  9
$LTSCALE
 40
1.0
  9
$ATTMODE
 70
     1
  9
$TEXTSIZE
 40
0.2
  9
$TRACEWID
 40
0.05
  9
$TEXTSTYLE
  7
Standard
  9
$CLAYER
  8
Vector
  9
$CELTYPE
  6
ByLayer
  9
$CECOLOR
 62
   256
  9
$CELTSCALE
 40
1.0
  9
$DISPSILH
 70
     0
  9
$DIMSCALE
 40
1.0
  9
$DIMASZ
 40
0.18
  9
$DIMEXO
 40
0.0625
  9
$DIMDLI
 40
0.38
  9
$DIMRND
 40
0.0
  9
$DIMDLE
 40
0.0
  9
$DIMEXE
 40
0.18
  9
$DIMTP
 40
0.0
  9
$DIMTM
 40
0.0
  9
$DIMTXT
 40
0.18
  9
$DIMCEN
 40
0.09
  9
$DIMTSZ
 40
0.0
  9
$DIMTOL
 70
     0
  9
$DIMLIM
 70
     0
  9
$DIMTIH
 70
     1
  9
$DIMTOH
 70
     1
  9
$DIMSE1
 70
     0
  9
$DIMSE2
 70
     0
  9
$DIMTAD
 70
     0
  9
$DIMZIN
 70
     0
  9
$DIMBLK
  1

  9
$DIMASO
 70
     1
  9
$DIMSHO
 70
     1
  9
$DIMPOST
  1

  9
$DIMAPOST
  1

  9
$DIMALT
 70
     0
  9
$DIMALTD
 70
     2
  9
$DIMALTF
 40
25.4
  9
$DIMLFAC
 40
1.0
  9
$DIMTOFL
 70
     0
  9
$DIMTVP
 40
0.0
  9
$DIMTIX
 70
     0
  9
$DIMSOXD
 70
     0
  9
$DIMSAH
 70
     0
  9
$DIMBLK1
  1

  9
$DIMBLK2
  1

  9
$DIMSTYLE
  2
Standard
  9
$DIMCLRD
 70
     0
  9
$DIMCLRE
 70
     0
  9
$DIMCLRT
 70
     0
  9
$DIMTFAC
 40
1.0
  9
$DIMGAP
 40
0.09
  9
$DIMJUST
 70
     0
  9
$DIMSD1
 70
     0
  9
$DIMSD2
 70
     0
  9
$DIMTOLJ
 70
     1
  9
$DIMTZIN
 70
     0
  9
$DIMALTZ
 70
     0
  9
$DIMALTTZ
 70
     0
  9
$DIMUPT
 70
     0
  9
$DIMDEC
 70
     4
  9
$DIMTDEC
 70
     4
  9
$DIMALTU
 70
     2
  9
$DIMALTTD
 70
     2
  9
$DIMTXSTY
  7
Standard
  9
$DIMAUNIT
 70
     0
  9
$DIMADEC
 70
     0
  9
$DIMALTRND
 40
0.0
  9
$DIMAZIN
 70
     0
  9
$DIMDSEP
 70
    46
  9
$DIMATFIT
 70
     3
  9
$DIMFRAC
 70
     0
  9
$DIMLDRBLK
  1

  9
$DIMLUNIT
 70
     2
  9
$DIMLWD
 70
    -2
  9
$DIMLWE
 70
    -2
  9
$DIMTMOVE
 70
     2
  9
$LUNITS
 70
     2
  9
$LUPREC
 70
     3
  9
$SKETCHINC
 40
0.1
  9
$FILLETRAD
 40
0.5
  9
$AUNITS
 70
     0
  9
$AUPREC
 70
     0
  9
$MENU
  1
.
  9
$ELEVATION
 40
0.0
  9
$PELEVATION
 40
0.0
  9
$THICKNESS
 40
0.0
  9
$LIMCHECK
 70
     0
  9
$CHAMFERA
 40
0.0
  9
$CHAMFERB
 40
0.0
  9
$CHAMFERC
 40
0.0
  9
$CHAMFERD
 40
0.0
  9
$SKPOLY
 70
     0
  9
$TDCREATE
 40
2457434.59457125
  9
$TDUCREATE
 40
2457434.552904584
  9
$TDUPDATE
 40
2457434.594595058
  9
$TDUUPDATE
 40
2457434.552928391
  9
$TDINDWG
 40
0.0000000116
  9
$TDUSRTIMER
 40
0.0000000116
  9
$USRTIMER
 70
     1
  9
$ANGBASE
 50
0.0
  9
$ANGDIR
 70
     0
  9
$PDMODE
 70
     0
  9
$PDSIZE
 40
0.0
  9
$PLINEWID
 40
0.0
  9
$SPLFRAME
 70
     0
  9
$SPLINETYPE
 70
     6
  9
$SPLINESEGS
 70
     8
  9
$HANDSEED
  5
317
  9
$SURFTAB1
 70
     6
  9
$SURFTAB2
 70
     6
  9
$SURFTYPE
 70
     6
  9
$SURFU
 70
     6
  9
$SURFV
 70
     6
  9
$UCSBASE
  2

  9
$UCSNAME
  2

  9
$UCSORG
 10
0.0
 20
0.0
 30
0.0
  9
$UCSXDIR
 10
1.0
 20
0.0
 30
0.0
  9
$UCSYDIR
 10
0.0
 20
1.0
 30
0.0
  9
$UCSORTHOREF
  2

  9
$UCSORTHOVIEW
 70
     0
  9
$UCSORGTOP
 10
0.0
 20
0.0
 30
0.0
  9
$UCSORGBOTTOM
 10
0.0
 20
0.0
 30
0.0
  9
$UCSORGLEFT
 10
0.0
 20
0.0
 30
0.0
  9
$UCSORGRIGHT
 10
0.0
 20
0.0
 30
0.0
  9
$UCSORGFRONT
 10
0.0
 20
0.0
 30
0.0
  9
$UCSORGBACK
 10
0.0
 20
0.0
 30
0.0
  9
$PUCSBASE
  2

  9
$PUCSNAME
  2

  9
$PUCSORG
 10
0.0
 20
0.0
 30
0.0
  9
$PUCSXDIR
 10
1.0
 20
0.0
 30
0.0
  9
$PUCSYDIR
 10
0.0
 20
1.0
 30
0.0
  9
$PUCSORTHOREF
  2

  9
$PUCSORTHOVIEW
 70
     0
  9
$PUCSORGTOP
 10
0.0
 20
0.0
 30
0.0
  9
$PUCSORGBOTTOM
 10
0.0
 20
0.0
 30
0.0
  9
$PUCSORGLEFT
 10
0.0
 20
0.0
 30
0.0
  9
$PUCSORGRIGHT
 10
0.0
 20
0.0
 30
0.0
  9
$PUCSORGFRONT
 10
0.0
 20
0.0
 30
0.0
  9
$PUCSORGBACK
 10
0.0
 20
0.0
 30
0.0
  9
$USERI1
 70
     0
  9
$USERI2
 70
     0
  9
$USERI3
 70
     0
  9
$USERI4
 70
     0
  9
$USERI5
 70
     0
  9
$USERR1
 40
0.0
  9
$USERR2
 40
0.0
  9
$USERR3
 40
0.0
  9
$USERR4
 40
0.0
  9
$USERR5
 40
0.0
  9
$WORLDVIEW
 70
     1
  9
$SHADEDGE
 70
     3
  9
$SHADEDIF
 70
    70
  9
$TILEMODE
 70
     1
  9
$MAXACTVP
 70
    64
  9
$PINSBASE
 10
0.0
 20
0.0
 30
0.0
  9
$PLIMCHECK
 70
     0
  9
$PEXTMIN
 10
1.000000000000000E+20
 20
1.000000000000000E+20
 30
1.000000000000000E+20
  9
$PEXTMAX
 10
-1.000000000000000E+20
 20
-1.000000000000000E+20
 30
-1.000000000000000E+20
  9
$PLIMMIN
 10
0.0
 20
0.0
  9
$PLIMMAX
 10
12.0
 20
9.0
  9
$UNITMODE
 70
     0
  9
$VISRETAIN
 70
     1
  9
$PLINEGEN
 70
     0
  9
$PSLTSCALE
 70
     1
  9
$TREEDEPTH
 70
  3020
  9
$CMLSTYLE
  2
Standard
  9
$CMLJUST
 70
     0
  9
$CMLSCALE
 40
1.0
  9
$PROXYGRAPHICS
 70
     1
  9
$MEASUREMENT
 70
     0
  9
$CELWEIGHT
370
    -1
  9
$ENDCAPS
280
     0
  9
$JOINSTYLE
280
     0
  9
$LWDISPLAY
290
     0
  9
$INSUNITS
 70
     4
  9
$HYPERLINKBASE
  1

  9
$STYLESHEET
  1

  9
$XEDIT
290
     1
  9
$CEPSNTYPE
380
     0
  9
$PSTYLEMODE
290
     1
  9
$FINGERPRINTGUID
  2
{4AA090C0-B981-40FC-8673-3359B947579F}
  9
$VERSIONGUID
  2
{FAEB1C32-E019-11D5-929B-00C0DF256EC4}
  9
$EXTNAMES
290
     1
  9
$PSVPSCALE
 40
0.0
  9
$OLESTARTUP
290
     0
  9
$SORTENTS
280
   127
  9
$INDEXCTL
280
     0
  9
$HIDETEXT
280
     1
  9
$XCLIPFRAME
290
     0
  9
$HALOGAP
280
     0
  9
$OBSCOLOR
 70
   257
  9
$OBSLTYPE
280
     0
  9
$INTERSECTIONDISPLAY
280
     0
  9
$INTERSECTIONCOLOR
 70
   257
  9
$DIMASSOC
280
     2
  9
$PROJECTNAME
  1

  0
ENDSEC
  0
SECTION
  2
CLASSES
  0
CLASS
  1
ACDBDICTIONARYWDFLT
  2
AcDbDictionaryWithDefault
  3
ObjectDBX Classes
 90
        0
 91
        4
280
     0
281
     0
  0
CLASS
  1
VISUALSTYLE
  2
AcDbVisualStyle
  3
ObjectDBX Classes
 90
     4095
 91
        4
280
     0
281
     0
  0
CLASS
  1
MATERIAL
  2
AcDbMaterial
  3
ObjectDBX Classes
 90
     1153
 91
        4
280
     0
281
     0
  0
CLASS
  1
SCALE
  2
AcDbScale
  3
ObjectDBX Classes
 90
     1153
 91
        4
280
     0
281
     0
  0
CLASS
  1
SUN
  2
AcDbSun
  3
SCENEOE
 90
     1153
 91
        4
280
     0
281
     0
  0
CLASS
  1
DICTIONARYVAR
  2
AcDbDictionaryVar
  3
ObjectDBX Classes
 90
        0
 91
        4
280
     0
281
     0
  0
ENDSEC
  0
SECTION
  2
TABLES
  0
TABLE
  2
VPORT
  5
8
330
0
100
AcDbSymbolTable
 70
     1
  0
VPORT
  5
29
330
8
100
AcDbSymbolTableRecord
100
AcDbViewportTableRecord
  2
*Active
 70
     0
 10
0.0
 20
0.0
 11
1.0
 21
1.0
 12
1302.548748449804
 22
450.3550131422558
 13
0.0
 23
0.0
 14
0.5
 24
0.5
 15
0.5
 25
0.5
 16
0.0
 26
0.0
 36
1.0
 17
0.0
 27
0.0
 37
0.0
 40
918.7242268102023
 41
4.382514222119759
 42
50.0
 43
0.0
 44
0.0
 50
0.0
 51
0.0
 71
     0
 72
   100
 73
     1
 74
     3
 75
     0
 76
     0
 77
     0
 78
     0
281
     0
 65
     1
110
0.0
120
0.0
130
0.0
111
1.0
121
0.0
131
0.0
112
0.0
122
1.0
132
0.0
 79
     0
146
0.0
  0
ENDTAB
  0
TABLE
  2
LTYPE
  5
5
330
0
100
AcDbSymbolTable
 70
     1
  0
LTYPE
  5
14
330
5
100
AcDbSymbolTableRecord
100
AcDbLinetypeTableRecord
  2
ByBlock
 70
     0
  3

 72
    65
 73
     0
 40
0.0
  0
LTYPE
  5
15
330
5
100
AcDbSymbolTableRecord
100
AcDbLinetypeTableRecord
  2
ByLayer
 70
     0
  3

 72
    65
 73
     0
 40
0.0
  0
LTYPE
  5
16
330
5
100
AcDbSymbolTableRecord
100
AcDbLinetypeTableRecord
  2
Continuous
 70
     0
  3
Solid line
 72
    65
 73
     0
 40
0.0
  0
ENDTAB
  0
TABLE
  2
LAYER
  5
2
330
0
100
AcDbSymbolTable
 70
     3
  0
LAYER
  5
10
330
2
100
AcDbSymbolTableRecord
100
AcDbLayerTableRecord
  2
0
 70
     0
 62
     7
  6
Continuous
370
    -3
390
F
  0
LAYER
  5
6A
330
2
100
AcDbSymbolTableRecord
100
AcDbLayerTableRecord
  2
Vector
 70
     0
 62
    18
420
        0
  6
Continuous
370
    -3
390
F
  0
LAYER
  5
F0
330
2
100
AcDbSymbolTableRecord
100
AcDbLayerTableRecord
  2
artboard
 70
     0
 62
     1
420
 16711680
  6
Continuous
370
    -3
390
F
  0
ENDTAB
  0
TABLE
  2
STYLE
  5
3
330
0
100
AcDbSymbolTable
 70
     1
  0
STYLE
  5
11
330
3
100
AcDbSymbolTableRecord
100
AcDbTextStyleTableRecord
  2
Standard
 70
     0
 40
0.0
 41
1.0
 50
0.0
 71
     0
 42
0.2
  3
txt
  4

  0
ENDTAB
  0
TABLE
  2
VIEW
  5
6
330
0
100
AcDbSymbolTable
 70
     0
  0
ENDTAB
  0
TABLE
  2
UCS
  5
7
330
0
100
AcDbSymbolTable
 70
     0
  0
ENDTAB
  0
TABLE
  2
APPID
  5
9
330
0
100
AcDbSymbolTable
 70
     1
  0
APPID
  5
12
330
9
100
AcDbSymbolTableRecord
100
AcDbRegAppTableRecord
  2
ACAD
 70
     0
  0
ENDTAB
  0
TABLE
  2
DIMSTYLE
  5
A
330
0
100
AcDbSymbolTable
 70
     1
100
AcDbDimStyleTable
  0
DIMSTYLE
105
27
330
A
100
AcDbSymbolTableRecord
100
AcDbDimStyleTableRecord
  2
Standard
 70
     0
178
     0
340
11
  0
ENDTAB
  0
TABLE
  2
BLOCK_RECORD
  5
1
330
0
100
AcDbSymbolTable
 70
     1
  0
BLOCK_RECORD
  5
1F
330
1
100
AcDbSymbolTableRecord
100
AcDbBlockTableRecord
  2
*Model_Space
340
22
  0
BLOCK_RECORD
  5
1B
330
1
100
AcDbSymbolTableRecord
100
AcDbBlockTableRecord
  2
*Paper_Space
340
1E
  0
BLOCK_RECORD
  5
23
330
1
100
AcDbSymbolTableRecord
100
AcDbBlockTableRecord
  2
*Paper_Space0
340
26
  0
ENDTAB
  0
ENDSEC
  0
SECTION
  2
BLOCKS
  0
BLOCK
  5
20
330
1F
100
AcDbEntity
  8
0
100
AcDbBlockBegin
  2
*Model_Space
 70
     0
 10
0.0
 20
0.0
 30
0.0
  3
*Model_Space
  1
*Model_Space
  0
ENDBLK
  5
21
330
1F
100
AcDbEntity
  8
0
100
AcDbBlockEnd
  0
BLOCK
  5
1C
330
1B
100
AcDbEntity
 67
     1
  8
0
100
AcDbBlockBegin
  2
*Paper_Space
 70
     0
 10
0.0
 20
0.0
 30
0.0
  3
*Paper_Space
  1
*Paper_Space
  0
ENDBLK
  5
1D
330
1B
100
AcDbEntity
 67
     1
  8
0
100
AcDbBlockEnd
  0
BLOCK
  5
24
330
23
100
AcDbEntity
  8
0
100
AcDbBlockBegin
  2
*Paper_Space0
 70
     0
 10
0.0
 20
0.0
 30
0.0
  3
*Paper_Space0
  1
*Paper_Space0
  0
ENDBLK
  5
25
330
23
100
AcDbEntity
  8
0
100
AcDbBlockEnd
  0
ENDSEC
  0
SECTION
  2
ENTITIES
  0
POLYLINE
  5
6B
330
1F
100
AcDbEntity
  8
Vector
100
AcDb2dPolyline
 66
     1
 10
0.0
 20
0.0
 30
0.0
 70
     1
  0
VERTEX
  5
6C
330
6B
100
AcDbEntity
  8
Vector
100
AcDbVertex
100
AcDb2dVertex
 10
1648.020645241141
 20
900.0000000000057
 30
0.0
  0
VERTEX
  5
6D
330
6B
100
AcDbEntity
  8
Vector
100
AcDbVertex
100
AcDb2dVertex
 10
1648.020645241141
 20
900.7100262844851
 30
0.0
  0
VERTEX
  5
6E
330
6B
100
AcDbEntity
  8
Vector
100
AcDbVertex
100
AcDb2dVertex
 10
1569.020231301575
 20
900.7100262844924
 30
0.0
  0
VERTEX
  5
6F
330
6B
100
AcDbEntity
  8
Vector
100
AcDbVertex
100
AcDb2dVertex
 10
1569.020231301549
 20
600.6657267123016
 30
0.0
  0
VERTEX
  5
70
330
6B
100
AcDbEntity
  8
Vector
100
AcDbVertex
100
AcDb2dVertex
 10
1563.020231301549
 20
600.6657267123023
 30
0.0
  0
VERTEX
  5
71
330
6B
100
AcDbEntity
  8
Vector
100
AcDbVertex
100
AcDb2dVertex
 10
1563.020231301575
 20
900.7100262844933
 30
0.0
  0
VERTEX
  5
72
330
6B
100
AcDbEntity
  8
Vector
100
AcDbVertex
100
AcDb2dVertex
 10
1484.020645241141
 20
900.7100262844992
 30
0.0
  0
VERTEX
  5
73
330
6B
100
AcDbEntity
  8
Vector
100
AcDbVertex
100
AcDb2dVertex
 10
1484.020645241115
 20
600.6657267123016
 30
0.0
  0
VERTEX
  5
74
330
6B
100
AcDbEntity
  8
Vector
100
AcDbVertex
100
AcDb2dVertex
 10
1478.020645241115
 20
600.6657267123023
 30
0.0
  0
VERTEX
  5
75
330
6B
100
AcDbEntity
  8
Vector
100
AcDbVertex
100
AcDb2dVertex
 10
1478.020645241141
 20
900.7100262844997
 30
0.0
  0
VERTEX
  5
76
330
6B
100
AcDbEntity
  8
Vector
100
AcDbVertex
100
AcDb2dVertex
 10
1414.020645241141
 20
900.7100262845051
 30
0.0
  0
VERTEX
  5
77
330
6B
100
AcDbEntity
  8
Vector
100
AcDbVertex
100
AcDb2dVertex
 10
1414.020645241115
 20
600.6657267123078
 30
0.0
  0
VERTEX
  5
78
330
6B
100
AcDbEntity
  8
Vector
100
AcDbVertex
100
AcDb2dVertex
 10
1408.020645241116
 20
600.6657267123082
 30
0.0
  0
VERTEX
  5
79
330
6B
100
AcDbEntity
  8
Vector
100
AcDbVertex
100
AcDb2dVertex
 10
1408.020645241141
 20
900.7100262845056
 30
0.0
  0
VERTEX
  5
7A
330
6B
100
AcDbEntity
  8
Vector
100
AcDbVertex
100
AcDb2dVertex
 10
1338.020645241141
 20
900.7100262845117
 30
0.0
  0
VERTEX
  5
7B
330
6B
100
AcDbEntity
  8
Vector
100
AcDbVertex
100
AcDb2dVertex
 10
1338.020645241105
 20
475.0000000000326
 30
0.0
 42
0.4142135623731428
  0
VERTEX
  5
7C
330
6B
100
AcDbEntity
  8
Vector
100
AcDbVertex
100
AcDb2dVertex
 10
1363.020645241102
 20
450.0000000000304
 30
0.0
  0
VERTEX
  5
7D
330
6B
100
AcDbEntity
  8
Vector
100
AcDbVertex
100
AcDb2dVertex
 10
1414.020231301547
 20
450.000000000026
 30
0.0
  0
VERTEX
  5
7E
330
6B
100
AcDbEntity
  8
Vector
100
AcDbVertex
100
AcDb2dVertex
 10
1478.020231301549
 20
465.0000000000228
 30
0.0
  0
VERTEX
  5
7F
330
6B
100
AcDbEntity
  8
Vector
100
AcDbVertex
100
AcDb2dVertex
 10
1654.020231301549
 20
465.0000000000139
 30
0.0
  0
VERTEX
  5
80
330
6B
100
AcDbEntity
  8
Vector
100
AcDbVertex
100
AcDb2dVertex
 10
1718.020231301547
 20
449.9999999999999
 30
0.0
  0
VERTEX
  5
81
330
6B
100
AcDbEntity
  8
Vector
100
AcDbVertex
100
AcDb2dVertex
 10
1763.020645241103
 20
449.9999999999963
 30
0.0
 42
0.4142135623730838
  0
VERTEX
  5
82
330
6B
100
AcDbEntity
  8
Vector
100
AcDbVertex
100
AcDb2dVertex
 10
1788.020645241105
 20
474.9999999999939
 30
0.0
  0
VERTEX
  5
83
330
6B
100
AcDbEntity
  8
Vector
100
AcDbVertex
100
AcDb2dVertex
 10
1788.020645241141
 20
900.7100262844731
 30
0.0
  0
VERTEX
  5
84
330
6B
100
AcDbEntity
  8
Vector
100
AcDbVertex
100
AcDb2dVertex
 10
1724.02064524114
 20
900.7100262844785
 30
0.0
  0
VERTEX
  5
85
330
6B
100
AcDbEntity
  8
Vector
100
AcDbVertex
100
AcDb2dVertex
 10
1724.020645241115
 20
600.6657267122814
 30
0.0
  0
VERTEX
  5
86
330
6B
100
AcDbEntity
  8
Vector
100
AcDbVertex
100
AcDb2dVertex
 10
1718.020645241115
 20
600.6657267122816
 30
0.0
  0
VERTEX
  5
87
330
6B
100
AcDbEntity
  8
Vector
100
AcDbVertex
100
AcDb2dVertex
 10
1718.020645241141
 20
900.710026284479
 30
0.0
  0
VERTEX
  5
88
330
6B
100
AcDbEntity
  8
Vector
100
AcDbVertex
100
AcDb2dVertex
 10
1654.020645241141
 20
900.7100262844845
 30
0.0
  0
VERTEX
  5
89
330
6B
100
AcDbEntity
  8
Vector
100
AcDbVertex
100
AcDb2dVertex
 10
1654.020645241115
 20
600.6657267122873
 30
0.0
  0
VERTEX
  5
8A
330
6B
100
AcDbEntity
  8
Vector
100
AcDbVertex
100
AcDb2dVertex
 10
1648.020645241115
 20
600.6657267122878
 30
0.0
  0
SEQEND
  5
8B
330
6B
100
AcDbEntity
  8
Vector
  0
POLYLINE
  5
8C
330
1F
100
AcDbEntity
  8
Vector
100
AcDb2dPolyline
 66
     1
 10
0.0
 20
0.0
 30
0.0
 70
     1
  0
VERTEX
  5
8D
330
8C
100
AcDbEntity
  8
Vector
100
AcDbVertex
100
AcDb2dVertex
 10
2327.964602778121
 20
899.289973715494
 30
0.0
  0
VERTEX
  5
8E
330
8C
100
AcDbEntity
  8
Vector
100
AcDbVertex
100
AcDb2dVertex
 10
2327.964602778121
 20
899.9999999999735
 30
0.0
  0
VERTEX
  5
8F
330
8C
100
AcDbEntity
  8
Vector
100
AcDbVertex
100
AcDb2dVertex
 10
2248.964188838555
 20
899.9999999999807
 30
0.0
  0
VERTEX
  5
90
330
8C
100
AcDbEntity
  8
Vector
100
AcDbVertex
100
AcDb2dVertex
 10
2248.964188838529
 20
599.95570042779
 30
0.0
  0
VERTEX
  5
91
330
8C
100
AcDbEntity
  8
Vector
100
AcDbVertex
100
AcDb2dVertex
 10
2242.964188838529
 20
599.9557004277907
 30
0.0
  0
VERTEX
  5
92
330
8C
100
AcDbEntity
  8
Vector
100
AcDbVertex
100
AcDb2dVertex
 10
2242.964188838555
 20
899.9999999999816
 30
0.0
  0
VERTEX
  5
93
330
8C
100
AcDbEntity
  8
Vector
100
AcDbVertex
100
AcDb2dVertex
 10
2163.964602778121
 20
899.9999999999875
 30
0.0
  0
VERTEX
  5
94
330
8C
100
AcDbEntity
  8
Vector
100
AcDbVertex
100
AcDb2dVertex
 10
2163.964602778095
 20
599.95570042779
 30
0.0
  0
VERTEX
  5
95
330
8C
100
AcDbEntity
  8
Vector
100
AcDbVertex
100
AcDb2dVertex
 10
2157.964602778095
 20
599.9557004277907
 30
0.0
  0
VERTEX
  5
96
330
8C
100
AcDbEntity
  8
Vector
100
AcDbVertex
100
AcDb2dVertex
 10
2157.964602778121
 20
899.999999999988
 30
0.0
  0
VERTEX
  5
97
330
8C
100
AcDbEntity
  8
Vector
100
AcDbVertex
100
AcDb2dVertex
 10
2093.964602778121
 20
899.9999999999935
 30
0.0
  0
VERTEX
  5
98
330
8C
100
AcDbEntity
  8
Vector
100
AcDbVertex
100
AcDb2dVertex
 10
2093.964602778095
 20
599.9557004277962
 30
0.0
  0
VERTEX
  5
99
330
8C
100
AcDbEntity
  8
Vector
100
AcDbVertex
100
AcDb2dVertex
 10
2087.964602778096
 20
599.9557004277966
 30
0.0
  0
VERTEX
  5
9A
330
8C
100
AcDbEntity
  8
Vector
100
AcDbVertex
100
AcDb2dVertex
 10
2087.964602778121
 20
899.999999999994
 30
0.0
  0
VERTEX
  5
9B
330
8C
100
AcDbEntity
  8
Vector
100
AcDbVertex
100
AcDb2dVertex
 10
2017.964602778121
 20
900.0
 30
0.0
  0
VERTEX
  5
9C
330
8C
100
AcDbEntity
  8
Vector
100
AcDbVertex
100
AcDb2dVertex
 10
2017.964602778085
 20
474.2899737155209
 30
0.0
 42
0.4142135623731436
  0
VERTEX
  5
9D
330
8C
100
AcDbEntity
  8
Vector
100
AcDbVertex
100
AcDb2dVertex
 10
2042.964602778083
 20
449.2899737155187
 30
0.0
  0
VERTEX
  5
9E
330
8C
100
AcDbEntity
  8
Vector
100
AcDbVertex
100
AcDb2dVertex
 10
2093.964188838528
 20
449.2899737155143
 30
0.0
  0
VERTEX
  5
9F
330
8C
100
AcDbEntity
  8
Vector
100
AcDbVertex
100
AcDb2dVertex
 10
2157.964188838529
 20
464.2899737155111
 30
0.0
  0
VERTEX
  5
A0
330
8C
100
AcDbEntity
  8
Vector
100
AcDbVertex
100
AcDb2dVertex
 10
2333.964188838529
 20
464.2899737155022
 30
0.0
  0
VERTEX
  5
A1
330
8C
100
AcDbEntity
  8
Vector
100
AcDbVertex
100
AcDb2dVertex
 10
2397.964188838528
 20
449.2899737154882
 30
0.0
  0
VERTEX
  5
A2
330
8C
100
AcDbEntity
  8
Vector
100
AcDbVertex
100
AcDb2dVertex
 10
2442.964602778083
 20
449.2899737154846
 30
0.0
 42
0.4142135623730884
  0
VERTEX
  5
A3
330
8C
100
AcDbEntity
  8
Vector
100
AcDbVertex
100
AcDb2dVertex
 10
2467.964602778085
 20
474.2899737154822
 30
0.0
  0
VERTEX
  5
A4
330
8C
100
AcDbEntity
  8
Vector
100
AcDbVertex
100
AcDb2dVertex
 10
2467.964602778121
 20
899.9999999999615
 30
0.0
  0
VERTEX
  5
A5
330
8C
100
AcDbEntity
  8
Vector
100
AcDbVertex
100
AcDb2dVertex
 10
2403.96460277812
 20
899.9999999999669
 30
0.0
  0
VERTEX
  5
A6
330
8C
100
AcDbEntity
  8
Vector
100
AcDbVertex
100
AcDb2dVertex
 10
2403.964602778095
 20
599.9557004277697
 30
0.0
  0
VERTEX
  5
A7
330
8C
100
AcDbEntity
  8
Vector
100
AcDbVertex
100
AcDb2dVertex
 10
2397.964602778095
 20
599.95570042777
 30
0.0
  0
VERTEX
  5
A8
330
8C
100
AcDbEntity
  8
Vector
100
AcDbVertex
100
AcDb2dVertex
 10
2397.964602778121
 20
899.9999999999674
 30
0.0
  0
VERTEX
  5
A9
330
8C
100
AcDbEntity
  8
Vector
100
AcDbVertex
100
AcDb2dVertex
 10
2333.964602778121
 20
899.9999999999727
 30
0.0
  0
VERTEX
  5
AA
330
8C
100
AcDbEntity
  8
Vector
100
AcDbVertex
100
AcDb2dVertex
 10
2333.964602778095
 20
599.9557004277756
 30
0.0
  0
VERTEX
  5
AB
330
8C
100
AcDbEntity
  8
Vector
100
AcDbVertex
100
AcDb2dVertex
 10
2327.964602778095
 20
599.955700427776
 30
0.0
  0
SEQEND
  5
AC
330
8C
100
AcDbEntity
  8
Vector
  0
POLYLINE
  5
AD
330
1F
100
AcDbEntity
  8
Vector
100
AcDb2dPolyline
 66
     1
 10
0.0
 20
0.0
 30
0.0
 70
     1
  0
VERTEX
  5
AE
330
AD
100
AcDbEntity
  8
Vector
100
AcDbVertex
100
AcDb2dVertex
 10
-371.9693512877052
 20
0.0
 30
0.0
  0
VERTEX
  5
AF
330
AD
100
AcDbEntity
  8
Vector
100
AcDbVertex
100
AcDb2dVertex
 10
-356.9693512877115
 20
0.0
 30
0.0
  0
VERTEX
  5
B0
330
AD
100
AcDbEntity
  8
Vector
100
AcDbVertex
100
AcDb2dVertex
 10
-356.9693512877114
 20
310.0
 30
0.0
  0
VERTEX
  5
B1
330
AD
100
AcDbEntity
  8
Vector
100
AcDbVertex
100
AcDb2dVertex
 10
-350.9693512877115
 20
310.0
 30
0.0
  0
VERTEX
  5
B2
330
AD
100
AcDbEntity
  8
Vector
100
AcDbVertex
100
AcDb2dVertex
 10
-350.9693512877115
 20
0.0
 30
0.0
  0
VERTEX
  5
B3
330
AD
100
AcDbEntity
  8
Vector
100
AcDbVertex
100
AcDb2dVertex
 10
-271.9693512877052
 20
0.0
 30
0.0
  0
VERTEX
  5
B4
330
AD
100
AcDbEntity
  8
Vector
100
AcDbVertex
100
AcDb2dVertex
 10
-271.9693512877051
 20
310.0
 30
0.0
  0
VERTEX
  5
B5
330
AD
100
AcDbEntity
  8
Vector
100
AcDbVertex
100
AcDb2dVertex
 10
-265.9693512877052
 20
310.0
 30
0.0
  0
VERTEX
  5
B6
330
AD
100
AcDbEntity
  8
Vector
100
AcDbVertex
100
AcDb2dVertex
 10
-265.9693512877052
 20
0.0
 30
0.0
  0
VERTEX
  5
B7
330
AD
100
AcDbEntity
  8
Vector
100
AcDbVertex
100
AcDb2dVertex
 10
-201.9693512877056
 20
0.0
 30
0.0
  0
VERTEX
  5
B8
330
AD
100
AcDbEntity
  8
Vector
100
AcDbVertex
100
AcDb2dVertex
 10
-201.9693512877052
 20
310.0
 30
0.0
  0
VERTEX
  5
B9
330
AD
100
AcDbEntity
  8
Vector
100
AcDbVertex
100
AcDb2dVertex
 10
-195.9693512877052
 20
310.0
 30
0.0
  0
VERTEX
  5
BA
330
AD
100
AcDbEntity
  8
Vector
100
AcDbVertex
100
AcDb2dVertex
 10
-195.9693512877052
 20
0.0000000000000142
 30
0.0
  0
VERTEX
  5
BB
330
AD
100
AcDbEntity
  8
Vector
100
AcDbVertex
100
AcDb2dVertex
 10
-131.9693512877052
 20
0.0
 30
0.0
  0
VERTEX
  5
BC
330
AD
100
AcDbEntity
  8
Vector
100
AcDbVertex
100
AcDb2dVertex
 10
-131.9693512877052
 20
434.9999999999999
 30
0.0
 42
0.4142135623730969
  0
VERTEX
  5
BD
330
AD
100
AcDbEntity
  8
Vector
100
AcDbVertex
100
AcDb2dVertex
 10
-156.9693512877052
 20
460.0
 30
0.0
  0
VERTEX
  5
BE
330
AD
100
AcDbEntity
  8
Vector
100
AcDbVertex
100
AcDb2dVertex
 10
-201.9693512877118
 20
460.0
 30
0.0
  0
VERTEX
  5
BF
330
AD
100
AcDbEntity
  8
Vector
100
AcDbVertex
100
AcDb2dVertex
 10
-265.9693512877113
 20
445.0
 30
0.0
  0
VERTEX
  5
C0
330
AD
100
AcDbEntity
  8
Vector
100
AcDbVertex
100
AcDb2dVertex
 10
-441.9693512877116
 20
445.0
 30
0.0
  0
VERTEX
  5
C1
330
AD
100
AcDbEntity
  8
Vector
100
AcDbVertex
100
AcDb2dVertex
 10
-505.9693512877125
 20
460.0
 30
0.0
  0
VERTEX
  5
C2
330
AD
100
AcDbEntity
  8
Vector
100
AcDbVertex
100
AcDb2dVertex
 10
-556.9693512877052
 20
460.0
 30
0.0
 42
0.4142135623730951
  0
VERTEX
  5
C3
330
AD
100
AcDbEntity
  8
Vector
100
AcDbVertex
100
AcDb2dVertex
 10
-581.9693512877052
 20
435.0
 30
0.0
  0
VERTEX
  5
C4
330
AD
100
AcDbEntity
  8
Vector
100
AcDbVertex
100
AcDb2dVertex
 10
-581.9693512877052
 20
0.0
 30
0.0
  0
VERTEX
  5
C5
330
AD
100
AcDbEntity
  8
Vector
100
AcDbVertex
100
AcDb2dVertex
 10
-511.9693512877054
 20
0.0
 30
0.0
  0
VERTEX
  5
C6
330
AD
100
AcDbEntity
  8
Vector
100
AcDbVertex
100
AcDb2dVertex
 10
-511.9693512877052
 20
310.0
 30
0.0
  0
VERTEX
  5
C7
330
AD
100
AcDbEntity
  8
Vector
100
AcDbVertex
100
AcDb2dVertex
 10
-505.9693512877052
 20
310.0
 30
0.0
  0
VERTEX
  5
C8
330
AD
100
AcDbEntity
  8
Vector
100
AcDbVertex
100
AcDb2dVertex
 10
-505.9693512877054
 20
0.0
 30
0.0
  0
VERTEX
  5
C9
330
AD
100
AcDbEntity
  8
Vector
100
AcDbVertex
100
AcDb2dVertex
 10
-441.9693512877052
 20
0.0
 30
0.0
  0
VERTEX
  5
CA
330
AD
100
AcDbEntity
  8
Vector
100
AcDbVertex
100
AcDb2dVertex
 10
-441.9693512877052
 20
310.0
 30
0.0
  0
VERTEX
  5
CB
330
AD
100
AcDbEntity
  8
Vector
100
AcDbVertex
100
AcDb2dVertex
 10
-435.9693512877052
 20
310.0
 30
0.0
  0
VERTEX
  5
CC
330
AD
100
AcDbEntity
  8
Vector
100
AcDbVertex
100
AcDb2dVertex
 10
-435.9693512877052
 20
0.0
 30
0.0
  0
SEQEND
  5
CD
330
AD
100
AcDbEntity
  8
Vector
  0
POLYLINE
  5
CE
330
1F
100
AcDbEntity
  8
Vector
100
AcDb2dPolyline
 66
     1
 10
0.0
 20
0.0
 30
0.0
 70
     1
  0
VERTEX
  5
CF
330
CE
100
AcDbEntity
  8
Vector
100
AcDbVertex
100
AcDb2dVertex
 10
-350.9693512877117
 20
460.0
 30
0.0
  0
VERTEX
  5
D0
330
CE
100
AcDbEntity
  8
Vector
100
AcDbVertex
100
AcDb2dVertex
 10
-271.9693512877119
 20
460.0
 30
0.0
  0
VERTEX
  5
D1
330
CE
100
AcDbEntity
  8
Vector
100
AcDbVertex
100
AcDb2dVertex
 10
-271.969351287712
 20
560.0442995721949
 30
0.0
  0
VERTEX
  5
D2
330
CE
100
AcDbEntity
  8
Vector
100
AcDbVertex
100
AcDb2dVertex
 10
-265.9693512877121
 20
560.0442995721949
 30
0.0
  0
VERTEX
  5
D3
330
CE
100
AcDbEntity
  8
Vector
100
AcDbVertex
100
AcDb2dVertex
 10
-265.9693512877121
 20
460.0
 30
0.0
  0
VERTEX
  5
D4
330
CE
100
AcDbEntity
  8
Vector
100
AcDbVertex
100
AcDb2dVertex
 10
-201.9693512877124
 20
460.0
 30
0.0
  0
VERTEX
  5
D5
330
CE
100
AcDbEntity
  8
Vector
100
AcDbVertex
100
AcDb2dVertex
 10
-201.9693512877121
 20
560.0442995721949
 30
0.0
  0
VERTEX
  5
D6
330
CE
100
AcDbEntity
  8
Vector
100
AcDbVertex
100
AcDb2dVertex
 10
-195.9693512877121
 20
560.0442995721949
 30
0.0
  0
VERTEX
  5
D7
330
CE
100
AcDbEntity
  8
Vector
100
AcDbVertex
100
AcDb2dVertex
 10
-195.9693512877124
 20
460.0
 30
0.0
  0
VERTEX
  5
D8
330
CE
100
AcDbEntity
  8
Vector
100
AcDbVertex
100
AcDb2dVertex
 10
-156.9693512877052
 20
460.0
 30
0.0
 42
0.4142135623730141
  0
VERTEX
  5
D9
330
CE
100
AcDbEntity
  8
Vector
100
AcDbVertex
100
AcDb2dVertex
 10
-131.9693512877121
 20
485.0
 30
0.0
  0
VERTEX
  5
DA
330
CE
100
AcDbEntity
  8
Vector
100
AcDbVertex
100
AcDb2dVertex
 10
-131.9693512877119
 20
635.7100262844765
 30
0.0
 42
0.4142135623730971
  0
VERTEX
  5
DB
330
CE
100
AcDbEntity
  8
Vector
100
AcDbVertex
100
AcDb2dVertex
 10
-156.9693512877119
 20
660.7100262844767
 30
0.0
  0
VERTEX
  5
DC
330
CE
100
AcDbEntity
  8
Vector
100
AcDbVertex
100
AcDb2dVertex
 10
-201.9693512877119
 20
660.7100262844767
 30
0.0
  0
VERTEX
  5
DD
330
CE
100
AcDbEntity
  8
Vector
100
AcDbVertex
100
AcDb2dVertex
 10
-265.9693512877114
 20
645.7100262844767
 30
0.0
  0
VERTEX
  5
DE
330
CE
100
AcDbEntity
  8
Vector
100
AcDbVertex
100
AcDb2dVertex
 10
-441.9693512877117
 20
645.7100262844767
 30
0.0
  0
VERTEX
  5
DF
330
CE
100
AcDbEntity
  8
Vector
100
AcDbVertex
100
AcDb2dVertex
 10
-505.9693512877126
 20
660.7100262844767
 30
0.0
  0
VERTEX
  5
E0
330
CE
100
AcDbEntity
  8
Vector
100
AcDbVertex
100
AcDb2dVertex
 10
-556.9693512877119
 20
660.7100262844767
 30
0.0
 42
0.4142135623730951
  0
VERTEX
  5
E1
330
CE
100
AcDbEntity
  8
Vector
100
AcDbVertex
100
AcDb2dVertex
 10
-581.9693512877119
 20
635.7100262844767
 30
0.0
  0
VERTEX
  5
E2
330
CE
100
AcDbEntity
  8
Vector
100
AcDbVertex
100
AcDb2dVertex
 10
-581.9693512877118
 20
485.0000000000002
 30
0.0
 42
0.4142135623732113
  0
VERTEX
  5
E3
330
CE
100
AcDbEntity
  8
Vector
100
AcDbVertex
100
AcDb2dVertex
 10
-556.9693512877045
 20
460.0000000000001
 30
0.0
  0
VERTEX
  5
E4
330
CE
100
AcDbEntity
  8
Vector
100
AcDbVertex
100
AcDb2dVertex
 10
-511.9693512877112
 20
460.0
 30
0.0
  0
VERTEX
  5
E5
330
CE
100
AcDbEntity
  8
Vector
100
AcDbVertex
100
AcDb2dVertex
 10
-511.9693512877119
 20
560.0442995721949
 30
0.0
  0
VERTEX
  5
E6
330
CE
100
AcDbEntity
  8
Vector
100
AcDbVertex
100
AcDb2dVertex
 10
-505.9693512877121
 20
560.0442995721949
 30
0.0
  0
VERTEX
  5
E7
330
CE
100
AcDbEntity
  8
Vector
100
AcDbVertex
100
AcDb2dVertex
 10
-505.9693512877121
 20
460.0
 30
0.0
  0
VERTEX
  5
E8
330
CE
100
AcDbEntity
  8
Vector
100
AcDbVertex
100
AcDb2dVertex
 10
-441.9693512877124
 20
460.0
 30
0.0
  0
VERTEX
  5
E9
330
CE
100
AcDbEntity
  8
Vector
100
AcDbVertex
100
AcDb2dVertex
 10
-441.9693512877121
 20
560.0442995721949
 30
0.0
  0
VERTEX
  5
EA
330
CE
100
AcDbEntity
  8
Vector
100
AcDbVertex
100
AcDb2dVertex
 10
-435.9693512877121
 20
560.0442995721949
 30
0.0
  0
VERTEX
  5
EB
330
CE
100
AcDbEntity
  8
Vector
100
AcDbVertex
100
AcDb2dVertex
 10
-435.9693512877121
 20
460.0
 30
0.0
  0
VERTEX
  5
EC
330
CE
100
AcDbEntity
  8
Vector
100
AcDbVertex
100
AcDb2dVertex
 10
-356.9693512877116
 20
460.0
 30
0.0
  0
VERTEX
  5
ED
330
CE
100
AcDbEntity
  8
Vector
100
AcDbVertex
100
AcDb2dVertex
 10
-356.9693512877117
 20
560.0442995721949
 30
0.0
  0
VERTEX
  5
EE
330
CE
100
AcDbEntity
  8
Vector
100
AcDbVertex
100
AcDb2dVertex
 10
-350.9693512877117
 20
560.0442995721949
 30
0.0
  0
SEQEND
  5
EF
330
CE
100
AcDbEntity
  8
Vector
  0
POLYLINE
  5
F1
330
1F
100
AcDbEntity
  8
artboard
100
AcDb2dPolyline
 66
     1
 10
0.0
 20
0.0
 30
0.0
 70
     1
  0
VERTEX
  5
F2
330
F1
100
AcDbEntity
  8
artboard
100
AcDbVertex
100
AcDb2dVertex
 10
-71.13850164906364
 20
0.0
 30
0.0
  0
VERTEX
  5
F3
330
F1
100
AcDbEntity
  8
artboard
100
AcDbVertex
100
AcDb2dVertex
 10
-71.13850164906364
 20
900.0
 30
0.0
  0
VERTEX
  5
F4
330
F1
100
AcDbEntity
  8
artboard
100
AcDbVertex
100
AcDb2dVertex
 10
-671.1385016490636
 20
900.0
 30
0.0
  0
VERTEX
  5
F5
330
F1
100
AcDbEntity
  8
artboard
100
AcDbVertex
100
AcDb2dVertex
 10
-671.1385016490636
 20
0.0
 30
0.0
  0
SEQEND
  5
F6
330
F1
100
AcDbEntity
  8
artboard
  0
POLYLINE
  5
F7
330
1F
100
AcDbEntity
  8
artboard
100
AcDb2dPolyline
 66
     1
 10
0.0
 20
0.0
 30
0.0
 70
     1
  0
VERTEX
  5
F8
330
F7
100
AcDbEntity
  8
artboard
100
AcDbVertex
100
AcDb2dVertex
 10
3276.235998548671
 20
0.0
 30
0.0
  0
VERTEX
  5
F9
330
F7
100
AcDbEntity
  8
artboard
100
AcDbVertex
100
AcDb2dVertex
 10
3276.235998548671
 20
900.0
 30
0.0
  0
VERTEX
  5
FA
330
F7
100
AcDbEntity
  8
artboard
100
AcDbVertex
100
AcDb2dVertex
 10
2676.235998548671
 20
900.0
 30
0.0
  0
VERTEX
  5
FB
330
F7
100
AcDbEntity
  8
artboard
100
AcDbVertex
100
AcDb2dVertex
 10
2676.235998548671
 20
0.0
 30
0.0
  0
SEQEND
  5
FC
330
F7
100
AcDbEntity
  8
artboard
  0
POLYLINE
  5
FD
330
1F
100
AcDbEntity
  8
Vector
100
AcDb2dPolyline
 66
     1
 10
0.0
 20
0.0
 30
0.0
 70
     1
  0
VERTEX
  5
FE
330
FD
100
AcDbEntity
  8
Vector
100
AcDbVertex
100
AcDb2dVertex
 10
233.6573022174398
 20
449.9999999999999
 30
0.0
  0
VERTEX
  5
FF
330
FD
100
AcDbEntity
  8
Vector
100
AcDbVertex
100
AcDb2dVertex
 10
312.6573022174396
 20
449.9999999999999
 30
0.0
  0
VERTEX
  5
100
330
FD
100
AcDbEntity
  8
Vector
100
AcDbVertex
100
AcDb2dVertex
 10
312.6573022174395
 20
550.0442995721949
 30
0.0
  0
VERTEX
  5
101
330
FD
100
AcDbEntity
  8
Vector
100
AcDbVertex
100
AcDb2dVertex
 10
318.6573022174393
 20
550.0442995721949
 30
0.0
  0
VERTEX
  5
102
330
FD
100
AcDbEntity
  8
Vector
100
AcDbVertex
100
AcDb2dVertex
 10
318.6573022174393
 20
449.9999999999999
 30
0.0
  0
VERTEX
  5
103
330
FD
100
AcDbEntity
  8
Vector
100
AcDbVertex
100
AcDb2dVertex
 10
382.6573022174391
 20
449.9999999999999
 30
0.0
  0
VERTEX
  5
104
330
FD
100
AcDbEntity
  8
Vector
100
AcDbVertex
100
AcDb2dVertex
 10
382.6573022174393
 20
550.0442995721949
 30
0.0
  0
VERTEX
  5
105
330
FD
100
AcDbEntity
  8
Vector
100
AcDbVertex
100
AcDb2dVertex
 10
388.6573022174393
 20
550.0442995721949
 30
0.0
  0
VERTEX
  5
106
330
FD
100
AcDbEntity
  8
Vector
100
AcDbVertex
100
AcDb2dVertex
 10
388.6573022174391
 20
449.9999999999999
 30
0.0
  0
VERTEX
  5
107
330
FD
100
AcDbEntity
  8
Vector
100
AcDbVertex
100
AcDb2dVertex
 10
427.6573022174463
 20
449.9999999999999
 30
0.0
 42
0.4142135623730147
  0
VERTEX
  5
108
330
FD
100
AcDbEntity
  8
Vector
100
AcDbVertex
100
AcDb2dVertex
 10
452.6573022174393
 20
474.9999999999999
 30
0.0
  0
VERTEX
  5
109
330
FD
100
AcDbEntity
  8
Vector
100
AcDbVertex
100
AcDb2dVertex
 10
452.6573022174396
 20
625.7100262844765
 30
0.0
 42
0.4142135623730975
  0
VERTEX
  5
10A
330
FD
100
AcDbEntity
  8
Vector
100
AcDbVertex
100
AcDb2dVertex
 10
427.6573022174396
 20
650.7100262844767
 30
0.0
  0
VERTEX
  5
10B
330
FD
100
AcDbEntity
  8
Vector
100
AcDbVertex
100
AcDb2dVertex
 10
382.6573022174396
 20
650.7100262844767
 30
0.0
  0
VERTEX
  5
10C
330
FD
100
AcDbEntity
  8
Vector
100
AcDbVertex
100
AcDb2dVertex
 10
318.65730221744
 20
635.7100262844767
 30
0.0
  0
VERTEX
  5
10D
330
FD
100
AcDbEntity
  8
Vector
100
AcDbVertex
100
AcDb2dVertex
 10
142.6573022174397
 20
635.7100262844767
 30
0.0
  0
VERTEX
  5
10E
330
FD
100
AcDbEntity
  8
Vector
100
AcDbVertex
100
AcDb2dVertex
 10
78.65730221743887
 20
650.7100262844767
 30
0.0
  0
VERTEX
  5
10F
330
FD
100
AcDbEntity
  8
Vector
100
AcDbVertex
100
AcDb2dVertex
 10
27.65730221743956
 20
650.7100262844767
 30
0.0
 42
0.4142135623730945
  0
VERTEX
  5
110
330
FD
100
AcDbEntity
  8
Vector
100
AcDbVertex
100
AcDb2dVertex
 10
2.657302217439565
 20
625.7100262844767
 30
0.0
  0
VERTEX
  5
111
330
FD
100
AcDbEntity
  8
Vector
100
AcDbVertex
100
AcDb2dVertex
 10
2.657302217439501
 20
475.0000000000001
 30
0.0
 42
0.4142135623731819
  0
VERTEX
  5
112
330
FD
100
AcDbEntity
  8
Vector
100
AcDbVertex
100
AcDb2dVertex
 10
27.65730221744707
 20
450.0000000000001
 30
0.0
  0
VERTEX
  5
113
330
FD
100
AcDbEntity
  8
Vector
100
AcDbVertex
100
AcDb2dVertex
 10
72.65730221744013
 20
449.9999999999999
 30
0.0
  0
VERTEX
  5
114
330
FD
100
AcDbEntity
  8
Vector
100
AcDbVertex
100
AcDb2dVertex
 10
72.65730221743956
 20
550.0442995721949
 30
0.0
  0
VERTEX
  5
115
330
FD
100
AcDbEntity
  8
Vector
100
AcDbVertex
100
AcDb2dVertex
 10
78.65730221743945
 20
550.0442995721949
 30
0.0
  0
VERTEX
  5
116
330
FD
100
AcDbEntity
  8
Vector
100
AcDbVertex
100
AcDb2dVertex
 10
78.65730221743934
 20
449.9999999999999
 30
0.0
  0
VERTEX
  5
117
330
FD
100
AcDbEntity
  8
Vector
100
AcDbVertex
100
AcDb2dVertex
 10
142.6573022174391
 20
449.9999999999999
 30
0.0
  0
VERTEX
  5
118
330
FD
100
AcDbEntity
  8
Vector
100
AcDbVertex
100
AcDb2dVertex
 10
142.6573022174393
 20
550.0442995721949
 30
0.0
  0
VERTEX
  5
119
330
FD
100
AcDbEntity
  8
Vector
100
AcDbVertex
100
AcDb2dVertex
 10
148.6573022174393
 20
550.0442995721949
 30
0.0
  0
VERTEX
  5
11A
330
FD
100
AcDbEntity
  8
Vector
100
AcDbVertex
100
AcDb2dVertex
 10
148.6573022174393
 20
449.9999999999999
 30
0.0
  0
VERTEX
  5
11B
330
FD
100
AcDbEntity
  8
Vector
100
AcDbVertex
100
AcDb2dVertex
 10
227.6573022174399
 20
449.9999999999999
 30
0.0
  0
VERTEX
  5
11C
330
FD
100
AcDbEntity
  8
Vector
100
AcDbVertex
100
AcDb2dVertex
 10
227.6573022174398
 20
550.0442995721949
 30
0.0
  0
VERTEX
  5
11D
330
FD
100
AcDbEntity
  8
Vector
100
AcDbVertex
100
AcDb2dVertex
 10
233.6573022174398
 20
550.0442995721949
 30
0.0
  0
SEQEND
  5
11E
330
FD
100
AcDbEntity
  8
Vector
  0
POLYLINE
  5
11F
330
1F
100
AcDbEntity
  8
Vector
100
AcDb2dPolyline
 66
     1
 10
0.0
 20
0.0
 30
0.0
 70
     1
  0
VERTEX
  5
120
330
11F
100
AcDbEntity
  8
Vector
100
AcDbVertex
100
AcDb2dVertex
 10
898.2267256312884
 20
700.9802952644313
 30
0.0
  0
VERTEX
  5
121
330
11F
100
AcDbEntity
  8
Vector
100
AcDbVertex
100
AcDb2dVertex
 10
819.2267256312883
 20
700.9802952644313
 30
0.0
  0
VERTEX
  5
122
330
11F
100
AcDbEntity
  8
Vector
100
AcDbVertex
100
AcDb2dVertex
 10
819.2267256312886
 20
763.9802952644313
 30
0.0
  0
VERTEX
  5
123
330
11F
100
AcDbEntity
  8
Vector
100
AcDbVertex
100
AcDb2dVertex
 10
813.2267256312886
 20
763.9802952644313
 30
0.0
  0
VERTEX
  5
124
330
11F
100
AcDbEntity
  8
Vector
100
AcDbVertex
100
AcDb2dVertex
 10
813.2267256312886
 20
700.9802952644313
 30
0.0
  0
VERTEX
  5
125
330
11F
100
AcDbEntity
  8
Vector
100
AcDbVertex
100
AcDb2dVertex
 10
749.2267256312886
 20
700.9802952644313
 30
0.0
  0
VERTEX
  5
126
330
11F
100
AcDbEntity
  8
Vector
100
AcDbVertex
100
AcDb2dVertex
 10
749.2267256312886
 20
763.9802952644313
 30
0.0
  0
VERTEX
  5
127
330
11F
100
AcDbEntity
  8
Vector
100
AcDbVertex
100
AcDb2dVertex
 10
743.2267256312886
 20
763.9802952644313
 30
0.0
  0
VERTEX
  5
128
330
11F
100
AcDbEntity
  8
Vector
100
AcDbVertex
100
AcDb2dVertex
 10
743.2267256312886
 20
700.9802952644313
 30
0.0
  0
VERTEX
  5
129
330
11F
100
AcDbEntity
  8
Vector
100
AcDbVertex
100
AcDb2dVertex
 10
698.2267256312886
 20
700.9802952644313
 30
0.0
 42
-0.4142135623730952
  0
VERTEX
  5
12A
330
11F
100
AcDbEntity
  8
Vector
100
AcDbVertex
100
AcDb2dVertex
 10
673.2267256312886
 20
725.9802952644314
 30
0.0
  0
VERTEX
  5
12B
330
11F
100
AcDbEntity
  8
Vector
100
AcDbVertex
100
AcDb2dVertex
 10
673.2267256312886
 20
808.9802952644314
 30
0.0
 42
-0.4142135623730929
  0
VERTEX
  5
12C
330
11F
100
AcDbEntity
  8
Vector
100
AcDbVertex
100
AcDb2dVertex
 10
698.2267256312886
 20
833.9802952644313
 30
0.0
  0
VERTEX
  5
12D
330
11F
100
AcDbEntity
  8
Vector
100
AcDbVertex
100
AcDb2dVertex
 10
749.2267256312876
 20
833.9802952644313
 30
0.0
  0
VERTEX
  5
12E
330
11F
100
AcDbEntity
  8
Vector
100
AcDbVertex
100
AcDb2dVertex
 10
813.2267256312884
 20
818.9802952644313
 30
0.0
  0
VERTEX
  5
12F
330
11F
100
AcDbEntity
  8
Vector
100
AcDbVertex
100
AcDb2dVertex
 10
989.2267256312887
 20
818.9802952644313
 30
0.0
  0
VERTEX
  5
130
330
11F
100
AcDbEntity
  8
Vector
100
AcDbVertex
100
AcDb2dVertex
 10
1053.226725631288
 20
833.9802952644313
 30
0.0
  0
VERTEX
  5
131
330
11F
100
AcDbEntity
  8
Vector
100
AcDbVertex
100
AcDb2dVertex
 10
1098.226725631288
 20
833.9802952644313
 30
0.0
 42
-0.4142135623730943
  0
VERTEX
  5
132
330
11F
100
AcDbEntity
  8
Vector
100
AcDbVertex
100
AcDb2dVertex
 10
1123.226725631288
 20
808.9802952644313
 30
0.0
  0
VERTEX
  5
133
330
11F
100
AcDbEntity
  8
Vector
100
AcDbVertex
100
AcDb2dVertex
 10
1123.226725631289
 20
725.980295264432
 30
0.0
 42
-0.4142135623731019
  0
VERTEX
  5
134
330
11F
100
AcDbEntity
  8
Vector
100
AcDbVertex
100
AcDb2dVertex
 10
1098.226725631288
 20
700.9802952644313
 30
0.0
  0
VERTEX
  5
135
330
11F
100
AcDbEntity
  8
Vector
100
AcDbVertex
100
AcDb2dVertex
 10
1059.226725631288
 20
700.9802952644313
 30
0.0
  0
VERTEX
  5
136
330
11F
100
AcDbEntity
  8
Vector
100
AcDbVertex
100
AcDb2dVertex
 10
1059.226725631288
 20
763.9802952644314
 30
0.0
  0
VERTEX
  5
137
330
11F
100
AcDbEntity
  8
Vector
100
AcDbVertex
100
AcDb2dVertex
 10
1053.226725631288
 20
763.9802952644313
 30
0.0
  0
VERTEX
  5
138
330
11F
100
AcDbEntity
  8
Vector
100
AcDbVertex
100
AcDb2dVertex
 10
1053.226725631289
 20
700.9802952644313
 30
0.0
  0
VERTEX
  5
139
330
11F
100
AcDbEntity
  8
Vector
100
AcDbVertex
100
AcDb2dVertex
 10
989.2267256312888
 20
700.9802952644313
 30
0.0
  0
VERTEX
  5
13A
330
11F
100
AcDbEntity
  8
Vector
100
AcDbVertex
100
AcDb2dVertex
 10
989.2267256312886
 20
763.9802952644312
 30
0.0
  0
VERTEX
  5
13B
330
11F
100
AcDbEntity
  8
Vector
100
AcDbVertex
100
AcDb2dVertex
 10
983.2267256312886
 20
763.9802952644313
 30
0.0
  0
VERTEX
  5
13C
330
11F
100
AcDbEntity
  8
Vector
100
AcDbVertex
100
AcDb2dVertex
 10
983.2267256312887
 20
700.9802952644313
 30
0.0
  0
VERTEX
  5
13D
330
11F
100
AcDbEntity
  8
Vector
100
AcDbVertex
100
AcDb2dVertex
 10
904.226725631288
 20
700.9802952644313
 30
0.0
  0
VERTEX
  5
13E
330
11F
100
AcDbEntity
  8
Vector
100
AcDbVertex
100
AcDb2dVertex
 10
904.2267256312884
 20
763.9802952644313
 30
0.0
  0
VERTEX
  5
13F
330
11F
100
AcDbEntity
  8
Vector
100
AcDbVertex
100
AcDb2dVertex
 10
898.2267256312884
 20
763.9802952644313
 30
0.0
  0
SEQEND
  5
140
330
11F
100
AcDbEntity
  8
Vector
  0
POLYLINE
  5
141
330
1F
100
AcDbEntity
  8
Vector
100
AcDb2dPolyline
 66
     1
 10
0.0
 20
0.0
 30
0.0
 70
     1
  0
VERTEX
  5
142
330
141
100
AcDbEntity
  8
Vector
100
AcDbVertex
100
AcDb2dVertex
 10
898.2267256312887
 20
567.9802952644313
 30
0.0
  0
VERTEX
  5
143
330
141
100
AcDbEntity
  8
Vector
100
AcDbVertex
100
AcDb2dVertex
 10
819.2267256312886
 20
567.9802952644313
 30
0.0
  0
VERTEX
  5
144
330
141
100
AcDbEntity
  8
Vector
100
AcDbVertex
100
AcDb2dVertex
 10
819.2267256312888
 20
630.9802952644313
 30
0.0
  0
VERTEX
  5
145
330
141
100
AcDbEntity
  8
Vector
100
AcDbVertex
100
AcDb2dVertex
 10
813.2267256312888
 20
630.9802952644313
 30
0.0
  0
VERTEX
  5
146
330
141
100
AcDbEntity
  8
Vector
100
AcDbVertex
100
AcDb2dVertex
 10
813.2267256312888
 20
567.9802952644313
 30
0.0
  0
VERTEX
  5
147
330
141
100
AcDbEntity
  8
Vector
100
AcDbVertex
100
AcDb2dVertex
 10
749.2267256312888
 20
567.9802952644313
 30
0.0
  0
VERTEX
  5
148
330
141
100
AcDbEntity
  8
Vector
100
AcDbVertex
100
AcDb2dVertex
 10
749.2267256312888
 20
630.9802952644313
 30
0.0
  0
VERTEX
  5
149
330
141
100
AcDbEntity
  8
Vector
100
AcDbVertex
100
AcDb2dVertex
 10
743.2267256312888
 20
630.9802952644313
 30
0.0
  0
VERTEX
  5
14A
330
141
100
AcDbEntity
  8
Vector
100
AcDbVertex
100
AcDb2dVertex
 10
743.2267256312888
 20
567.9802952644313
 30
0.0
  0
VERTEX
  5
14B
330
141
100
AcDbEntity
  8
Vector
100
AcDbVertex
100
AcDb2dVertex
 10
698.2267256312888
 20
567.9802952644313
 30
0.0
 42
-0.4142135623730952
  0
VERTEX
  5
14C
330
141
100
AcDbEntity
  8
Vector
100
AcDbVertex
100
AcDb2dVertex
 10
673.2267256312888
 20
592.9802952644314
 30
0.0
  0
VERTEX
  5
14D
330
141
100
AcDbEntity
  8
Vector
100
AcDbVertex
100
AcDb2dVertex
 10
673.2267256312888
 20
675.9802952644314
 30
0.0
 42
-0.4142135623730929
  0
VERTEX
  5
14E
330
141
100
AcDbEntity
  8
Vector
100
AcDbVertex
100
AcDb2dVertex
 10
698.2267256312888
 20
700.9802952644313
 30
0.0
  0
VERTEX
  5
14F
330
141
100
AcDbEntity
  8
Vector
100
AcDbVertex
100
AcDb2dVertex
 10
749.2267256312879
 20
700.9802952644313
 30
0.0
  0
VERTEX
  5
150
330
141
100
AcDbEntity
  8
Vector
100
AcDbVertex
100
AcDb2dVertex
 10
813.2267256312887
 20
685.9802952644313
 30
0.0
  0
VERTEX
  5
151
330
141
100
AcDbEntity
  8
Vector
100
AcDbVertex
100
AcDb2dVertex
 10
989.2267256312889
 20
685.9802952644313
 30
0.0
  0
VERTEX
  5
152
330
141
100
AcDbEntity
  8
Vector
100
AcDbVertex
100
AcDb2dVertex
 10
1053.226725631289
 20
700.9802952644313
 30
0.0
  0
VERTEX
  5
153
330
141
100
AcDbEntity
  8
Vector
100
AcDbVertex
100
AcDb2dVertex
 10
1098.226725631289
 20
700.9802952644313
 30
0.0
 42
-0.4142135623730959
  0
VERTEX
  5
154
330
141
100
AcDbEntity
  8
Vector
100
AcDbVertex
100
AcDb2dVertex
 10
1123.226725631289
 20
675.9802952644313
 30
0.0
  0
VERTEX
  5
155
330
141
100
AcDbEntity
  8
Vector
100
AcDbVertex
100
AcDb2dVertex
 10
1123.226725631289
 20
592.980295264432
 30
0.0
 42
-0.4142135623731037
  0
VERTEX
  5
156
330
141
100
AcDbEntity
  8
Vector
100
AcDbVertex
100
AcDb2dVertex
 10
1098.226725631288
 20
567.9802952644313
 30
0.0
  0
VERTEX
  5
157
330
141
100
AcDbEntity
  8
Vector
100
AcDbVertex
100
AcDb2dVertex
 10
1059.226725631289
 20
567.9802952644313
 30
0.0
  0
VERTEX
  5
158
330
141
100
AcDbEntity
  8
Vector
100
AcDbVertex
100
AcDb2dVertex
 10
1059.226725631289
 20
630.9802952644314
 30
0.0
  0
VERTEX
  5
159
330
141
100
AcDbEntity
  8
Vector
100
AcDbVertex
100
AcDb2dVertex
 10
1053.226725631289
 20
630.9802952644313
 30
0.0
  0
VERTEX
  5
15A
330
141
100
AcDbEntity
  8
Vector
100
AcDbVertex
100
AcDb2dVertex
 10
1053.226725631289
 20
567.9802952644313
 30
0.0
  0
VERTEX
  5
15B
330
141
100
AcDbEntity
  8
Vector
100
AcDbVertex
100
AcDb2dVertex
 10
989.226725631289
 20
567.9802952644313
 30
0.0
  0
VERTEX
  5
15C
330
141
100
AcDbEntity
  8
Vector
100
AcDbVertex
100
AcDb2dVertex
 10
989.2267256312888
 20
630.9802952644312
 30
0.0
  0
VERTEX
  5
15D
330
141
100
AcDbEntity
  8
Vector
100
AcDbVertex
100
AcDb2dVertex
 10
983.2267256312888
 20
630.9802952644313
 30
0.0
  0
VERTEX
  5
15E
330
141
100
AcDbEntity
  8
Vector
100
AcDbVertex
100
AcDb2dVertex
 10
983.2267256312889
 20
567.9802952644313
 30
0.0
  0
VERTEX
  5
15F
330
141
100
AcDbEntity
  8
Vector
100
AcDbVertex
100
AcDb2dVertex
 10
904.2267256312882
 20
567.9802952644313
 30
0.0
  0
VERTEX
  5
160
330
141
100
AcDbEntity
  8
Vector
100
AcDbVertex
100
AcDb2dVertex
 10
904.2267256312887
 20
630.9802952644313
 30
0.0
  0
VERTEX
  5
161
330
141
100
AcDbEntity
  8
Vector
100
AcDbVertex
100
AcDb2dVertex
 10
898.2267256312887
 20
630.9802952644313
 30
0.0
  0
SEQEND
  5
162
330
141
100
AcDbEntity
  8
Vector
  0
POLYLINE
  5
163
330
1F
100
AcDbEntity
  8
Vector
100
AcDb2dPolyline
 66
     1
 10
0.0
 20
0.0
 30
0.0
 70
     1
  0
VERTEX
  5
164
330
163
100
AcDbEntity
  8
Vector
100
AcDbVertex
100
AcDb2dVertex
 10
898.2267256312889
 20
434.9802952644313
 30
0.0
  0
VERTEX
  5
165
330
163
100
AcDbEntity
  8
Vector
100
AcDbVertex
100
AcDb2dVertex
 10
819.2267256312888
 20
434.9802952644313
 30
0.0
  0
VERTEX
  5
166
330
163
100
AcDbEntity
  8
Vector
100
AcDbVertex
100
AcDb2dVertex
 10
819.226725631289
 20
497.9802952644313
 30
0.0
  0
VERTEX
  5
167
330
163
100
AcDbEntity
  8
Vector
100
AcDbVertex
100
AcDb2dVertex
 10
813.226725631289
 20
497.9802952644313
 30
0.0
  0
VERTEX
  5
168
330
163
100
AcDbEntity
  8
Vector
100
AcDbVertex
100
AcDb2dVertex
 10
813.226725631289
 20
434.9802952644313
 30
0.0
  0
VERTEX
  5
169
330
163
100
AcDbEntity
  8
Vector
100
AcDbVertex
100
AcDb2dVertex
 10
749.226725631289
 20
434.9802952644313
 30
0.0
  0
VERTEX
  5
16A
330
163
100
AcDbEntity
  8
Vector
100
AcDbVertex
100
AcDb2dVertex
 10
749.226725631289
 20
497.9802952644313
 30
0.0
  0
VERTEX
  5
16B
330
163
100
AcDbEntity
  8
Vector
100
AcDbVertex
100
AcDb2dVertex
 10
743.226725631289
 20
497.9802952644313
 30
0.0
  0
VERTEX
  5
16C
330
163
100
AcDbEntity
  8
Vector
100
AcDbVertex
100
AcDb2dVertex
 10
743.226725631289
 20
434.9802952644313
 30
0.0
  0
VERTEX
  5
16D
330
163
100
AcDbEntity
  8
Vector
100
AcDbVertex
100
AcDb2dVertex
 10
698.226725631289
 20
434.9802952644313
 30
0.0
 42
-0.4142135623730942
  0
VERTEX
  5
16E
330
163
100
AcDbEntity
  8
Vector
100
AcDbVertex
100
AcDb2dVertex
 10
673.226725631289
 20
459.9802952644314
 30
0.0
  0
VERTEX
  5
16F
330
163
100
AcDbEntity
  8
Vector
100
AcDbVertex
100
AcDb2dVertex
 10
673.226725631289
 20
542.9802952644314
 30
0.0
 42
-0.4142135623730929
  0
VERTEX
  5
170
330
163
100
AcDbEntity
  8
Vector
100
AcDbVertex
100
AcDb2dVertex
 10
698.226725631289
 20
567.9802952644313
 30
0.0
  0
VERTEX
  5
171
330
163
100
AcDbEntity
  8
Vector
100
AcDbVertex
100
AcDb2dVertex
 10
749.2267256312881
 20
567.9802952644313
 30
0.0
  0
VERTEX
  5
172
330
163
100
AcDbEntity
  8
Vector
100
AcDbVertex
100
AcDb2dVertex
 10
813.2267256312889
 20
552.9802952644313
 30
0.0
  0
VERTEX
  5
173
330
163
100
AcDbEntity
  8
Vector
100
AcDbVertex
100
AcDb2dVertex
 10
989.2267256312891
 20
552.9802952644313
 30
0.0
  0
VERTEX
  5
174
330
163
100
AcDbEntity
  8
Vector
100
AcDbVertex
100
AcDb2dVertex
 10
1053.226725631289
 20
567.9802952644313
 30
0.0
  0
VERTEX
  5
175
330
163
100
AcDbEntity
  8
Vector
100
AcDbVertex
100
AcDb2dVertex
 10
1098.226725631289
 20
567.9802952644313
 30
0.0
 42
-0.4142135623730943
  0
VERTEX
  5
176
330
163
100
AcDbEntity
  8
Vector
100
AcDbVertex
100
AcDb2dVertex
 10
1123.226725631289
 20
542.9802952644313
 30
0.0
  0
VERTEX
  5
177
330
163
100
AcDbEntity
  8
Vector
100
AcDbVertex
100
AcDb2dVertex
 10
1123.226725631289
 20
459.980295264432
 30
0.0
 42
-0.414213562373103
  0
VERTEX
  5
178
330
163
100
AcDbEntity
  8
Vector
100
AcDbVertex
100
AcDb2dVertex
 10
1098.226725631289
 20
434.9802952644313
 30
0.0
  0
VERTEX
  5
179
330
163
100
AcDbEntity
  8
Vector
100
AcDbVertex
100
AcDb2dVertex
 10
1059.226725631289
 20
434.9802952644313
 30
0.0
  0
VERTEX
  5
17A
330
163
100
AcDbEntity
  8
Vector
100
AcDbVertex
100
AcDb2dVertex
 10
1059.226725631289
 20
497.9802952644314
 30
0.0
  0
VERTEX
  5
17B
330
163
100
AcDbEntity
  8
Vector
100
AcDbVertex
100
AcDb2dVertex
 10
1053.226725631289
 20
497.9802952644313
 30
0.0
  0
VERTEX
  5
17C
330
163
100
AcDbEntity
  8
Vector
100
AcDbVertex
100
AcDb2dVertex
 10
1053.226725631289
 20
434.9802952644313
 30
0.0
  0
VERTEX
  5
17D
330
163
100
AcDbEntity
  8
Vector
100
AcDbVertex
100
AcDb2dVertex
 10
989.2267256312892
 20
434.9802952644313
 30
0.0
  0
VERTEX
  5
17E
330
163
100
AcDbEntity
  8
Vector
100
AcDbVertex
100
AcDb2dVertex
 10
989.226725631289
 20
497.9802952644312
 30
0.0
  0
VERTEX
  5
17F
330
163
100
AcDbEntity
  8
Vector
100
AcDbVertex
100
AcDb2dVertex
 10
983.226725631289
 20
497.9802952644313
 30
0.0
  0
VERTEX
  5
180
330
163
100
AcDbEntity
  8
Vector
100
AcDbVertex
100
AcDb2dVertex
 10
983.2267256312891
 20
434.9802952644313
 30
0.0
  0
VERTEX
  5
181
330
163
100
AcDbEntity
  8
Vector
100
AcDbVertex
100
AcDb2dVertex
 10
904.2267256312884
 20
434.9802952644313
 30
0.0
  0
VERTEX
  5
182
330
163
100
AcDbEntity
  8
Vector
100
AcDbVertex
100
AcDb2dVertex
 10
904.2267256312889
 20
497.9802952644313
 30
0.0
  0
VERTEX
  5
183
330
163
100
AcDbEntity
  8
Vector
100
AcDbVertex
100
AcDb2dVertex
 10
898.2267256312889
 20
497.9802952644313
 30
0.0
  0
SEQEND
  5
184
330
163
100
AcDbEntity
  8
Vector
  0
POLYLINE
  5
185
330
1F
100
AcDbEntity
  8
Vector
100
AcDb2dPolyline
 66
     1
 10
0.0
 20
0.0
 30
0.0
 70
     1
  0
VERTEX
  5
186
330
185
100
AcDbEntity
  8
Vector
100
AcDbVertex
100
AcDb2dVertex
 10
1103.167099542175
 20
434.9745165682292
 30
0.0
  0
VERTEX
  5
187
330
185
100
AcDbEntity
  8
Vector
100
AcDbVertex
100
AcDb2dVertex
 10
1118.827518595036
 20
305.9998629045717
 30
0.0
  0
VERTEX
  5
188
330
185
100
AcDbEntity
  8
Vector
100
AcDbVertex
100
AcDb2dVertex
 10
1124.646920423643
 20
306.7064689599804
 30
0.0
  0
VERTEX
  5
189
330
185
100
AcDbEntity
  8
Vector
100
AcDbVertex
100
AcDb2dVertex
 10
1108.996673335606
 20
436.5948706682701
 30
0.0
 42
0.2815998901964566
  0
VERTEX
  5
18A
330
185
100
AcDbEntity
  8
Vector
100
AcDbVertex
100
AcDb2dVertex
 10
1124.994162551622
 20
457.2060616898528
 30
0.0
  0
VERTEX
  5
18B
330
185
100
AcDbEntity
  8
Vector
100
AcDbVertex
100
AcDb2dVertex
 10
1128.52760289248
 20
488.8941271593766
 30
0.0
  0
VERTEX
  5
18C
330
185
100
AcDbEntity
  8
Vector
100
AcDbVertex
100
AcDb2dVertex
 10
1183.22511399752
 20
482.7949731270797
 30
0.0
  0
VERTEX
  5
18D
330
185
100
AcDbEntity
  8
Vector
100
AcDbVertex
100
AcDb2dVertex
 10
1183.890034872533
 20
488.7580159937688
 30
0.0
  0
VERTEX
  5
18E
330
185
100
AcDbEntity
  8
Vector
100
AcDbVertex
100
AcDb2dVertex
 10
1129.192523767493
 20
494.8571700260658
 30
0.0
  0
VERTEX
  5
18F
330
185
100
AcDbEntity
  8
Vector
100
AcDbVertex
100
AcDb2dVertex
 10
1132.960408725902
 20
528.647746270645
 30
0.0
  0
VERTEX
  5
190
330
185
100
AcDbEntity
  8
Vector
100
AcDbVertex
100
AcDb2dVertex
 10
1187.640219915303
 20
522.5505659024058
 30
0.0
  0
VERTEX
  5
191
330
185
100
AcDbEntity
  8
Vector
100
AcDbVertex
100
AcDb2dVertex
 10
1188.305140790316
 20
528.5136087690978
 30
0.0
  0
VERTEX
  5
192
330
185
100
AcDbEntity
  8
Vector
100
AcDbVertex
100
AcDb2dVertex
 10
1133.625329600915
 20
534.6107891373345
 30
0.0
  0
VERTEX
  5
193
330
185
100
AcDbEntity
  8
Vector
100
AcDbVertex
100
AcDb2dVertex
 10
1137.393214559323
 20
568.4013653819064
 30
0.0
  0
VERTEX
  5
194
330
185
100
AcDbEntity
  8
Vector
100
AcDbVertex
100
AcDb2dVertex
 10
1192.073025748723
 20
562.3041850136696
 30
0.0
  0
VERTEX
  5
195
330
185
100
AcDbEntity
  8
Vector
100
AcDbVertex
100
AcDb2dVertex
 10
1192.737946623735
 20
568.2672278803586
 30
0.0
  0
VERTEX
  5
196
330
185
100
AcDbEntity
  8
Vector
100
AcDbVertex
100
AcDb2dVertex
 10
1138.058135434336
 20
574.3644082485984
 30
0.0
  0
VERTEX
  5
197
330
185
100
AcDbEntity
  8
Vector
100
AcDbVertex
100
AcDb2dVertex
 10
1139.055516746855
 20
583.3089725486211
 30
0.0
 42
-0.4142135623732411
  0
VERTEX
  5
198
330
185
100
AcDbEntity
  8
Vector
100
AcDbVertex
100
AcDb2dVertex
 10
1166.672032337292
 20
605.3844808472696
 30
0.0
  0
VERTEX
  5
199
330
185
100
AcDbEntity
  8
Vector
100
AcDbVertex
100
AcDb2dVertex
 10
1236.981547640136
 20
597.5444794449256
 30
0.0
 42
-0.382049885703261
  0
VERTEX
  5
19A
330
185
100
AcDbEntity
  8
Vector
100
AcDbVertex
100
AcDb2dVertex
 10
1259.211043994237
 20
572.698467500388
 30
0.0
  0
VERTEX
  5
19B
330
185
100
AcDbEntity
  8
Vector
100
AcDbVertex
100
AcDb2dVertex
 10
1259.211043994237
 20
24.99999999999978
 30
0.0
 42
-0.4142135623730807
  0
VERTEX
  5
19C
330
185
100
AcDbEntity
  8
Vector
100
AcDbVertex
100
AcDb2dVertex
 10
1234.211043994236
 20
0.0000000000000995
 30
0.0
  0
VERTEX
  5
19D
330
185
100
AcDbEntity
  8
Vector
100
AcDbVertex
100
AcDb2dVertex
 10
1057.949494812544
 20
0.0
 30
0.0
  0
VERTEX
  5
19E
330
185
100
AcDbEntity
  8
Vector
100
AcDbVertex
100
AcDb2dVertex
 10
1032.323566516887
 20
227.7947635038088
 30
0.0
 42
0.381770164716385
  0
VERTEX
  5
19F
330
185
100
AcDbEntity
  8
Vector
100
AcDbVertex
100
AcDb2dVertex
 10
1007.480271708074
 20
250.0000000000034
 30
0.0
  0
VERTEX
  5
1A0
330
185
100
AcDbEntity
  8
Vector
100
AcDbVertex
100
AcDb2dVertex
 10
935.4418248417346
 20
250.0000000000002
 30
0.0
 42
0.4142135623730958
  0
VERTEX
  5
1A1
330
185
100
AcDbEntity
  8
Vector
100
AcDbVertex
100
AcDb2dVertex
 10
910.4418248417346
 20
225.0000000000002
 30
0.0
  0
VERTEX
  5
1A2
330
185
100
AcDbEntity
  8
Vector
100
AcDbVertex
100
AcDb2dVertex
 10
910.4418248417346
 20
0.0
 30
0.0
  0
VERTEX
  5
1A3
330
185
100
AcDbEntity
  8
Vector
100
AcDbVertex
100
AcDb2dVertex
 10
709.2110439942364
 20
0.0
 30
0.0
  0
VERTEX
  5
1A4
330
185
100
AcDbEntity
  8
Vector
100
AcDbVertex
100
AcDb2dVertex
 10
709.2110439942368
 20
410.018677747583
 30
0.0
 42
-0.4142487089966119
  0
VERTEX
  5
1A5
330
185
100
AcDbEntity
  8
Vector
100
AcDbVertex
100
AcDb2dVertex
 10
734.2140439089186
 20
435.0186775675932
 30
0.0
  0
VERTEX
  5
1A6
330
185
100
AcDbEntity
  8
Vector
100
AcDbVertex
100
AcDb2dVertex
 10
779.2110439942364
 20
435.0132780811106
 30
0.0
  0
VERTEX
  5
1A7
330
185
100
AcDbEntity
  8
Vector
100
AcDbVertex
100
AcDb2dVertex
 10
779.2110439942364
 20
300.0442995721975
 30
0.0
  0
VERTEX
  5
1A8
330
185
100
AcDbEntity
  8
Vector
100
AcDbVertex
100
AcDb2dVertex
 10
785.2110439942364
 20
300.0442995721975
 30
0.0
  0
VERTEX
  5
1A9
330
185
100
AcDbEntity
  8
Vector
100
AcDbVertex
100
AcDb2dVertex
 10
785.2110439942364
 20
435.012558101582
 30
0.0
  0
VERTEX
  5
1AA
330
185
100
AcDbEntity
  8
Vector
100
AcDbVertex
100
AcDb2dVertex
 10
849.2110439942364
 20
435.0048783199455
 30
0.0
  0
VERTEX
  5
1AB
330
185
100
AcDbEntity
  8
Vector
100
AcDbVertex
100
AcDb2dVertex
 10
849.2110439942364
 20
300.0442995721975
 30
0.0
  0
VERTEX
  5
1AC
330
185
100
AcDbEntity
  8
Vector
100
AcDbVertex
100
AcDb2dVertex
 10
855.2110439942364
 20
300.0442995721975
 30
0.0
  0
VERTEX
  5
1AD
330
185
100
AcDbEntity
  8
Vector
100
AcDbVertex
100
AcDb2dVertex
 10
855.2110439942364
 20
435.0041583404171
 30
0.0
  0
VERTEX
  5
1AE
330
185
100
AcDbEntity
  8
Vector
100
AcDbVertex
100
AcDb2dVertex
 10
919.2110439942364
 20
434.9964785587812
 30
0.0
  0
VERTEX
  5
1AF
330
185
100
AcDbEntity
  8
Vector
100
AcDbVertex
100
AcDb2dVertex
 10
919.2110439942364
 20
350.0442995721974
 30
0.0
  0
VERTEX
  5
1B0
330
185
100
AcDbEntity
  8
Vector
100
AcDbVertex
100
AcDb2dVertex
 10
925.2110439942364
 20
350.0442995721975
 30
0.0
  0
VERTEX
  5
1B1
330
185
100
AcDbEntity
  8
Vector
100
AcDbVertex
100
AcDb2dVertex
 10
925.2110439942364
 20
434.9957585792523
 30
0.0
  0
VERTEX
  5
1B2
330
185
100
AcDbEntity
  8
Vector
100
AcDbVertex
100
AcDb2dVertex
 10
989.2110439942364
 20
434.9883739796558
 30
0.0
  0
VERTEX
  5
1B3
330
185
100
AcDbEntity
  8
Vector
100
AcDbVertex
100
AcDb2dVertex
 10
989.2110439942364
 20
350.0442995721975
 30
0.0
  0
VERTEX
  5
1B4
330
185
100
AcDbEntity
  8
Vector
100
AcDbVertex
100
AcDb2dVertex
 10
995.2110439942364
 20
350.0442995721974
 30
0.0
  0
VERTEX
  5
1B5
330
185
100
AcDbEntity
  8
Vector
100
AcDbVertex
100
AcDb2dVertex
 10
995.2110439942364
 20
434.9876816734435
 30
0.0
  0
VERTEX
  5
1B6
330
185
100
AcDbEntity
  8
Vector
100
AcDbVertex
100
AcDb2dVertex
 10
1059.226725631289
 20
434.9802952644313
 30
0.0
  0
VERTEX
  5
1B7
330
185
100
AcDbEntity
  8
Vector
100
AcDbVertex
100
AcDb2dVertex
 10
1059.226725631289
 20
349.4614127079232
 30
0.0
  0
VERTEX
  5
1B8
330
185
100
AcDbEntity
  8
Vector
100
AcDbVertex
100
AcDb2dVertex
 10
1065.226725631289
 20
349.4614127079231
 30
0.0
  0
VERTEX
  5
1B9
330
185
100
AcDbEntity
  8
Vector
100
AcDbVertex
100
AcDb2dVertex
 10
1065.226725631289
 20
434.9794985369685
 30
0.0
  0
VERTEX
  5
1BA
330
185
100
AcDbEntity
  8
Vector
100
AcDbVertex
100
AcDb2dVertex
 10
1100.148150607084
 20
434.9765653357404
 30
0.0
 42
0.0300493948377423
  0
VERTEX
  5
1BB
330
185
100
AcDbEntity
  8
Vector
100
AcDbVertex
100
AcDb2dVertex
 10
1103.144962250014
 20
435.1568328638384
 30
0.0
  0
SEQEND
  5
1BC
330
185
100
AcDbEntity
  8
Vector
  0
POLYLINE
  5
1BD
330
1F
100
AcDbEntity
  8
Vector
100
AcDb2dPolyline
 66
     1
 10
0.0
 20
0.0
 30
0.0
 70
     1
  0
VERTEX
  5
1BE
330
1BD
100
AcDbEntity
  8
Vector
100
AcDbVertex
100
AcDb2dVertex
 10
3070.19205409661
 20
434.9745165682292
 30
0.0
  0
VERTEX
  5
1BF
330
1BD
100
AcDbEntity
  8
Vector
100
AcDbVertex
100
AcDb2dVertex
 10
3085.852473149471
 20
305.9998629045717
 30
0.0
  0
VERTEX
  5
1C0
330
1BD
100
AcDbEntity
  8
Vector
100
AcDbVertex
100
AcDb2dVertex
 10
3091.671874978078
 20
306.7064689599804
 30
0.0
  0
VERTEX
  5
1C1
330
1BD
100
AcDbEntity
  8
Vector
100
AcDbVertex
100
AcDb2dVertex
 10
3076.021627890041
 20
436.5948706682703
 30
0.0
 42
0.2815998901964463
  0
VERTEX
  5
1C2
330
1BD
100
AcDbEntity
  8
Vector
100
AcDbVertex
100
AcDb2dVertex
 10
3092.019117106056
 20
457.2060616898528
 30
0.0
  0
VERTEX
  5
1C3
330
1BD
100
AcDbEntity
  8
Vector
100
AcDbVertex
100
AcDb2dVertex
 10
3095.552557446915
 20
488.8941271593766
 30
0.0
  0
VERTEX
  5
1C4
330
1BD
100
AcDbEntity
  8
Vector
100
AcDbVertex
100
AcDb2dVertex
 10
3150.250068551955
 20
482.7949731270797
 30
0.0
  0
VERTEX
  5
1C5
330
1BD
100
AcDbEntity
  8
Vector
100
AcDbVertex
100
AcDb2dVertex
 10
3150.914989426968
 20
488.7580159937688
 30
0.0
  0
VERTEX
  5
1C6
330
1BD
100
AcDbEntity
  8
Vector
100
AcDbVertex
100
AcDb2dVertex
 10
3096.217478321928
 20
494.8571700260658
 30
0.0
  0
VERTEX
  5
1C7
330
1BD
100
AcDbEntity
  8
Vector
100
AcDbVertex
100
AcDb2dVertex
 10
3099.985363280337
 20
528.647746270645
 30
0.0
  0
VERTEX
  5
1C8
330
1BD
100
AcDbEntity
  8
Vector
100
AcDbVertex
100
AcDb2dVertex
 10
3154.665174469738
 20
522.5505659024058
 30
0.0
  0
VERTEX
  5
1C9
330
1BD
100
AcDbEntity
  8
Vector
100
AcDbVertex
100
AcDb2dVertex
 10
3155.330095344751
 20
528.5136087690978
 30
0.0
  0
VERTEX
  5
1CA
330
1BD
100
AcDbEntity
  8
Vector
100
AcDbVertex
100
AcDb2dVertex
 10
3100.65028415535
 20
534.6107891373345
 30
0.0
  0
VERTEX
  5
1CB
330
1BD
100
AcDbEntity
  8
Vector
100
AcDbVertex
100
AcDb2dVertex
 10
3104.418169113758
 20
568.4013653819064
 30
0.0
  0
VERTEX
  5
1CC
330
1BD
100
AcDbEntity
  8
Vector
100
AcDbVertex
100
AcDb2dVertex
 10
3159.097980303157
 20
562.3041850136696
 30
0.0
  0
VERTEX
  5
1CD
330
1BD
100
AcDbEntity
  8
Vector
100
AcDbVertex
100
AcDb2dVertex
 10
3159.76290117817
 20
568.2672278803586
 30
0.0
  0
VERTEX
  5
1CE
330
1BD
100
AcDbEntity
  8
Vector
100
AcDbVertex
100
AcDb2dVertex
 10
3105.083089988771
 20
574.3644082485984
 30
0.0
  0
VERTEX
  5
1CF
330
1BD
100
AcDbEntity
  8
Vector
100
AcDbVertex
100
AcDb2dVertex
 10
3106.080471301289
 20
583.3089725486211
 30
0.0
 42
-0.4142135623732493
  0
VERTEX
  5
1D0
330
1BD
100
AcDbEntity
  8
Vector
100
AcDbVertex
100
AcDb2dVertex
 10
3133.696986891727
 20
605.3844808472696
 30
0.0
  0
VERTEX
  5
1D1
330
1BD
100
AcDbEntity
  8
Vector
100
AcDbVertex
100
AcDb2dVertex
 10
3204.006502194571
 20
597.5444794449256
 30
0.0
 42
-0.382049885703261
  0
VERTEX
  5
1D2
330
1BD
100
AcDbEntity
  8
Vector
100
AcDbVertex
100
AcDb2dVertex
 10
3226.235998548672
 20
572.698467500388
 30
0.0
  0
VERTEX
  5
1D3
330
1BD
100
AcDbEntity
  8
Vector
100
AcDbVertex
100
AcDb2dVertex
 10
3226.235998548672
 20
24.99999999999977
 30
0.0
 42
-0.4142135623730787
  0
VERTEX
  5
1D4
330
1BD
100
AcDbEntity
  8
Vector
100
AcDbVertex
100
AcDb2dVertex
 10
3201.235998548671
 20
0.0000000000000995
 30
0.0
  0
VERTEX
  5
1D5
330
1BD
100
AcDbEntity
  8
Vector
100
AcDbVertex
100
AcDb2dVertex
 10
3024.974449366979
 20
0.0
 30
0.0
  0
VERTEX
  5
1D6
330
1BD
100
AcDbEntity
  8
Vector
100
AcDbVertex
100
AcDb2dVertex
 10
2999.348521071322
 20
227.7947635038088
 30
0.0
 42
0.3817701647165177
  0
VERTEX
  5
1D7
330
1BD
100
AcDbEntity
  8
Vector
100
AcDbVertex
100
AcDb2dVertex
 10
2974.505226262509
 20
250.0000000000034
 30
0.0
  0
VERTEX
  5
1D8
330
1BD
100
AcDbEntity
  8
Vector
100
AcDbVertex
100
AcDb2dVertex
 10
2902.466779396169
 20
250.0000000000002
 30
0.0
 42
0.4142135623730905
  0
VERTEX
  5
1D9
330
1BD
100
AcDbEntity
  8
Vector
100
AcDbVertex
100
AcDb2dVertex
 10
2877.466779396169
 20
225.0000000000002
 30
0.0
  0
VERTEX
  5
1DA
330
1BD
100
AcDbEntity
  8
Vector
100
AcDbVertex
100
AcDb2dVertex
 10
2877.466779396169
 20
0.0
 30
0.0
  0
VERTEX
  5
1DB
330
1BD
100
AcDbEntity
  8
Vector
100
AcDbVertex
100
AcDb2dVertex
 10
2676.235998548671
 20
0.0
 30
0.0
  0
VERTEX
  5
1DC
330
1BD
100
AcDbEntity
  8
Vector
100
AcDbVertex
100
AcDb2dVertex
 10
2676.235998548671
 20
410.018677747583
 30
0.0
 42
-0.4142487089966106
  0
VERTEX
  5
1DD
330
1BD
100
AcDbEntity
  8
Vector
100
AcDbVertex
100
AcDb2dVertex
 10
2701.238998463353
 20
435.0186775675932
 30
0.0
  0
VERTEX
  5
1DE
330
1BD
100
AcDbEntity
  8
Vector
100
AcDbVertex
100
AcDb2dVertex
 10
2746.235998548671
 20
435.0132780811106
 30
0.0
  0
VERTEX
  5
1DF
330
1BD
100
AcDbEntity
  8
Vector
100
AcDbVertex
100
AcDb2dVertex
 10
2746.235998548671
 20
300.0442995721975
 30
0.0
  0
VERTEX
  5
1E0
330
1BD
100
AcDbEntity
  8
Vector
100
AcDbVertex
100
AcDb2dVertex
 10
2752.235998548671
 20
300.0442995721975
 30
0.0
  0
VERTEX
  5
1E1
330
1BD
100
AcDbEntity
  8
Vector
100
AcDbVertex
100
AcDb2dVertex
 10
2752.235998548671
 20
435.012558101582
 30
0.0
  0
VERTEX
  5
1E2
330
1BD
100
AcDbEntity
  8
Vector
100
AcDbVertex
100
AcDb2dVertex
 10
2816.235998548671
 20
435.0048783199455
 30
0.0
  0
VERTEX
  5
1E3
330
1BD
100
AcDbEntity
  8
Vector
100
AcDbVertex
100
AcDb2dVertex
 10
2816.235998548671
 20
300.0442995721975
 30
0.0
  0
VERTEX
  5
1E4
330
1BD
100
AcDbEntity
  8
Vector
100
AcDbVertex
100
AcDb2dVertex
 10
2822.235998548671
 20
300.0442995721975
 30
0.0
  0
VERTEX
  5
1E5
330
1BD
100
AcDbEntity
  8
Vector
100
AcDbVertex
100
AcDb2dVertex
 10
2822.235998548671
 20
435.0041583404171
 30
0.0
  0
VERTEX
  5
1E6
330
1BD
100
AcDbEntity
  8
Vector
100
AcDbVertex
100
AcDb2dVertex
 10
2886.235998548671
 20
434.9964785587812
 30
0.0
  0
VERTEX
  5
1E7
330
1BD
100
AcDbEntity
  8
Vector
100
AcDbVertex
100
AcDb2dVertex
 10
2886.235998548671
 20
350.0442995721974
 30
0.0
  0
VERTEX
  5
1E8
330
1BD
100
AcDbEntity
  8
Vector
100
AcDbVertex
100
AcDb2dVertex
 10
2892.235998548671
 20
350.0442995721975
 30
0.0
  0
VERTEX
  5
1E9
330
1BD
100
AcDbEntity
  8
Vector
100
AcDbVertex
100
AcDb2dVertex
 10
2892.235998548671
 20
434.9957585792523
 30
0.0
  0
VERTEX
  5
1EA
330
1BD
100
AcDbEntity
  8
Vector
100
AcDbVertex
100
AcDb2dVertex
 10
2956.235998548671
 20
434.9883739796558
 30
0.0
  0
VERTEX
  5
1EB
330
1BD
100
AcDbEntity
  8
Vector
100
AcDbVertex
100
AcDb2dVertex
 10
2956.235998548671
 20
350.0442995721975
 30
0.0
  0
VERTEX
  5
1EC
330
1BD
100
AcDbEntity
  8
Vector
100
AcDbVertex
100
AcDb2dVertex
 10
2962.235998548671
 20
350.0442995721974
 30
0.0
  0
VERTEX
  5
1ED
330
1BD
100
AcDbEntity
  8
Vector
100
AcDbVertex
100
AcDb2dVertex
 10
2962.235998548671
 20
434.9876816734435
 30
0.0
  0
VERTEX
  5
1EE
330
1BD
100
AcDbEntity
  8
Vector
100
AcDbVertex
100
AcDb2dVertex
 10
3026.251680185724
 20
434.9802952644313
 30
0.0
  0
VERTEX
  5
1EF
330
1BD
100
AcDbEntity
  8
Vector
100
AcDbVertex
100
AcDb2dVertex
 10
3026.251680185724
 20
349.4614127079232
 30
0.0
  0
VERTEX
  5
1F0
330
1BD
100
AcDbEntity
  8
Vector
100
AcDbVertex
100
AcDb2dVertex
 10
3032.251680185724
 20
349.4614127079231
 30
0.0
  0
VERTEX
  5
1F1
330
1BD
100
AcDbEntity
  8
Vector
100
AcDbVertex
100
AcDb2dVertex
 10
3032.251680185724
 20
434.9794985369685
 30
0.0
  0
VERTEX
  5
1F2
330
1BD
100
AcDbEntity
  8
Vector
100
AcDbVertex
100
AcDb2dVertex
 10
3067.173105161518
 20
434.9765653357402
 30
0.0
 42
0.0300493948378558
  0
VERTEX
  5
1F3
330
1BD
100
AcDbEntity
  8
Vector
100
AcDbVertex
100
AcDb2dVertex
 10
3070.169916804449
 20
435.1568328638384
 30
0.0
  0
SEQEND
  5
1F4
330
1BD
100
AcDbEntity
  8
Vector
  0
POLYLINE
  5
1F5
330
1F
100
AcDbEntity
  8
artboard
100
AcDb2dPolyline
 66
     1
 10
0.0
 20
0.0
 30
0.0
 70
     1
  0
VERTEX
  5
1F6
330
1F5
100
AcDbEntity
  8
artboard
100
AcDbVertex
100
AcDb2dVertex
 10
600.0
 20
0.0
 30
0.0
  0
VERTEX
  5
1F7
330
1F5
100
AcDbEntity
  8
artboard
100
AcDbVertex
100
AcDb2dVertex
 10
600.0
 20
900.0
 30
0.0
  0
VERTEX
  5
1F8
330
1F5
100
AcDbEntity
  8
artboard
100
AcDbVertex
100
AcDb2dVertex
 10
0.0
 20
900.0
 30
0.0
  0
VERTEX
  5
1F9
330
1F5
100
AcDbEntity
  8
artboard
100
AcDbVertex
100
AcDb2dVertex
 10
0.0
 20
0.0
 30
0.0
  0
SEQEND
  5
1FA
330
1F5
100
AcDbEntity
  8
artboard
  0
POLYLINE
  5
1FB
330
1F
100
AcDbEntity
  8
Vector
100
AcDb2dPolyline
 66
     1
 10
0.0
 20
0.0
 30
0.0
  0
VERTEX
  5
1FC
330
1FB
100
AcDbEntity
  8
Vector
100
AcDbVertex
100
AcDb2dVertex
 10
266.0
 20
449.9999999999999
 30
0.0
  0
VERTEX
  5
1FD
330
1FB
100
AcDbEntity
  8
Vector
100
AcDbVertex
100
AcDb2dVertex
 10
330.0
 20
450.0
 30
0.0
  0
VERTEX
  5
1FE
330
1FB
100
AcDbEntity
  8
Vector
100
AcDbVertex
100
AcDb2dVertex
 10
330.0
 20
350.0442995721975
 30
0.0
  0
VERTEX
  5
1FF
330
1FB
100
AcDbEntity
  8
Vector
100
AcDbVertex
100
AcDb2dVertex
 10
336.0
 20
350.0442995721974
 30
0.0
  0
VERTEX
  5
200
330
1FB
100
AcDbEntity
  8
Vector
100
AcDbVertex
100
AcDb2dVertex
 10
336.0
 20
449.9999999999999
 30
0.0
  0
VERTEX
  5
201
330
1FB
100
AcDbEntity
  8
Vector
100
AcDbVertex
100
AcDb2dVertex
 10
400.0156816370525
 20
449.9999999999999
 30
0.0
  0
VERTEX
  5
202
330
1FB
100
AcDbEntity
  8
Vector
100
AcDbVertex
100
AcDb2dVertex
 10
400.0156816370525
 20
349.4614127079232
 30
0.0
  0
VERTEX
  5
203
330
1FB
100
AcDbEntity
  8
Vector
100
AcDbVertex
100
AcDb2dVertex
 10
406.0156816370525
 20
349.4614127079231
 30
0.0
  0
VERTEX
  5
204
330
1FB
100
AcDbEntity
  8
Vector
100
AcDbVertex
100
AcDb2dVertex
 10
406.0156816370525
 20
449.9248014550333
 30
0.0
  0
VERTEX
  5
205
330
1FB
100
AcDbEntity
  8
Vector
100
AcDbVertex
100
AcDb2dVertex
 10
427.6573022174464
 20
449.9999999999999
 30
0.0
 42
0.1492243670742466
  0
VERTEX
  5
206
330
1FB
100
AcDbEntity
  8
Vector
100
AcDbVertex
100
AcDb2dVertex
 10
441.6111533360368
 20
454.2864487479716
 30
0.0
  0
VERTEX
  5
207
330
1FB
100
AcDbEntity
  8
Vector
100
AcDbVertex
100
AcDb2dVertex
 10
459.6164746007998
 20
305.9998629045717
 30
0.0
  0
VERTEX
  5
208
330
1FB
100
AcDbEntity
  8
Vector
100
AcDbVertex
100
AcDb2dVertex
 10
465.4358764294069
 20
306.7064689599804
 30
0.0
  0
VERTEX
  5
209
330
1FB
100
AcDbEntity
  8
Vector
100
AcDbVertex
100
AcDb2dVertex
 10
447.0522776401183
 20
459.2801791995193
 30
0.0
 42
0.1432044218611484
  0
VERTEX
  5
20A
330
1FB
100
AcDbEntity
  8
Vector
100
AcDbVertex
100
AcDb2dVertex
 10
452.458935882315
 20
472.2294569654492
 30
0.0
  0
VERTEX
  5
20B
330
1FB
100
AcDbEntity
  8
Vector
100
AcDbVertex
100
AcDb2dVertex
 10
454.4850613687647
 20
490.5479425914573
 30
0.0
  0
VERTEX
  5
20C
330
1FB
100
AcDbEntity
  8
Vector
100
AcDbVertex
100
AcDb2dVertex
 10
524.0140700032835
 20
482.7949731270797
 30
0.0
  0
VERTEX
  5
20D
330
1FB
100
AcDbEntity
  8
Vector
100
AcDbVertex
100
AcDb2dVertex
 10
524.6789908782964
 20
488.7580159937688
 30
0.0
  0
VERTEX
  5
20E
330
1FB
100
AcDbEntity
  8
Vector
100
AcDbVertex
100
AcDb2dVertex
 10
455.1446722690868
 20
496.5115775573643
 30
0.0
  0
VERTEX
  5
20F
330
1FB
100
AcDbEntity
  8
Vector
100
AcDbVertex
100
AcDb2dVertex
 10
458.8824673709126
 20
530.305509030846
 30
0.0
  0
VERTEX
  5
210
330
1FB
100
AcDbEntity
  8
Vector
100
AcDbVertex
100
AcDb2dVertex
 10
528.4291759210669
 20
522.5505659024058
 30
0.0
  0
VERTEX
  5
211
330
1FB
100
AcDbEntity
  8
Vector
100
AcDbVertex
100
AcDb2dVertex
 10
529.0940967960801
 20
528.5136087690978
 30
0.0
  0
VERTEX
  5
212
330
1FB
100
AcDbEntity
  8
Vector
100
AcDbVertex
100
AcDb2dVertex
 10
459.542078271235
 20
536.2691439967529
 30
0.0
  0
VERTEX
  5
213
330
1FB
100
AcDbEntity
  8
Vector
100
AcDbVertex
100
AcDb2dVertex
 10
460.2016891715532
 20
542.2327789626295
 30
0.0
  0
VERTEX
  5
214
330
1FB
100
AcDbEntity
  8
Vector
100
AcDbVertex
100
AcDb2dVertex
 10
463.2931483097826
 20
570.0615952221817
 30
0.0
  0
VERTEX
  5
215
330
1FB
100
AcDbEntity
  8
Vector
100
AcDbVertex
100
AcDb2dVertex
 10
532.861981754486
 20
562.3041850136696
 30
0.0
  0
VERTEX
  5
216
330
1FB
100
AcDbEntity
  8
Vector
100
AcDbVertex
100
AcDb2dVertex
 10
533.5269026294989
 20
568.2672278803586
 30
0.0
  0
VERTEX
  5
217
330
1FB
100
AcDbEntity
  8
Vector
100
AcDbVertex
100
AcDb2dVertex
 10
463.939484273378
 20
576.0267104361335
 30
0.0
  0
VERTEX
  5
218
330
1FB
100
AcDbEntity
  8
Vector
100
AcDbVertex
100
AcDb2dVertex
 10
464.9264532465464
 20
584.9500358023224
 30
0.0
 42
-0.4144744021248778
  0
VERTEX
  5
219
330
1FB
100
AcDbEntity
  8
Vector
100
AcDbVertex
100
AcDb2dVertex
 10
492.545426065187
 20
607.0476700851915
 30
0.0
  0
VERTEX
  5
21A
330
1FB
100
AcDbEntity
  8
Vector
100
AcDbVertex
100
AcDb2dVertex
 10
577.7705036458993
 20
597.5444794449256
 30
0.0
 42
-0.382049885703259
  0
VERTEX
  5
21B
330
1FB
100
AcDbEntity
  8
Vector
100
AcDbVertex
100
AcDb2dVertex
 10
600.0000000000009
 20
572.698467500388
 30
0.0
  0
VERTEX
  5
21C
330
1FB
100
AcDbEntity
  8
Vector
100
AcDbVertex
100
AcDb2dVertex
 10
600.0000000000007
 20
24.99999999999977
 30
0.0
 42
-0.4142135623730831
  0
VERTEX
  5
21D
330
1FB
100
AcDbEntity
  8
Vector
100
AcDbVertex
100
AcDb2dVertex
 10
574.9999999999998
 20
-0.0000000000000853
 30
0.0
  0
VERTEX
  5
21E
330
1FB
100
AcDbEntity
  8
Vector
100
AcDbVertex
100
AcDb2dVertex
 10
398.7384508183077
 20
0.0
 30
0.0
  0
VERTEX
  5
21F
330
1FB
100
AcDbEntity
  8
Vector
100
AcDbVertex
100
AcDb2dVertex
 10
373.1125225226502
 20
227.7947635038088
 30
0.0
 42
0.3817701647164191
  0
VERTEX
  5
220
330
1FB
100
AcDbEntity
  8
Vector
100
AcDbVertex
100
AcDb2dVertex
 10
348.2692277138373
 20
250.0000000000034
 30
0.0
  0
VERTEX
  5
221
330
1FB
100
AcDbEntity
  8
Vector
100
AcDbVertex
100
AcDb2dVertex
 10
276.2307808474981
 20
250.0000000000003
 30
0.0
 42
0.4142135623730939
  0
VERTEX
  5
222
330
1FB
100
AcDbEntity
  8
Vector
100
AcDbVertex
100
AcDb2dVertex
 10
251.2307808474981
 20
225.0000000000002
 30
0.0
  0
VERTEX
  5
223
330
1FB
100
AcDbEntity
  8
Vector
100
AcDbVertex
100
AcDb2dVertex
 10
251.2307808474982
 20
0.0
 30
0.0
  0
VERTEX
  5
224
330
1FB
100
AcDbEntity
  8
Vector
100
AcDbVertex
100
AcDb2dVertex
 10
50.0
 20
0.0
 30
0.0
  0
VERTEX
  5
225
330
1FB
100
AcDbEntity
  8
Vector
100
AcDbVertex
100
AcDb2dVertex
 10
50.0
 20
425.0443389608555
 30
0.0
 42
-0.413693733734281
  0
VERTEX
  5
226
330
1FB
100
AcDbEntity
  8
Vector
100
AcDbVertex
100
AcDb2dVertex
 10
74.95562172033762
 20
450.0442995721903
 30
0.0
  0
VERTEX
  5
227
330
1FB
100
AcDbEntity
  8
Vector
100
AcDbVertex
100
AcDb2dVertex
 10
120.0
 20
450.0442995721975
 30
0.0
  0
VERTEX
  5
228
330
1FB
100
AcDbEntity
  8
Vector
100
AcDbVertex
100
AcDb2dVertex
 10
120.0
 20
300.0442995721975
 30
0.0
  0
VERTEX
  5
229
330
1FB
100
AcDbEntity
  8
Vector
100
AcDbVertex
100
AcDb2dVertex
 10
126.0
 20
300.0442995721975
 30
0.0
  0
VERTEX
  5
22A
330
1FB
100
AcDbEntity
  8
Vector
100
AcDbVertex
100
AcDb2dVertex
 10
126.0
 20
450.0
 30
0.0
  0
VERTEX
  5
22B
330
1FB
100
AcDbEntity
  8
Vector
100
AcDbVertex
100
AcDb2dVertex
 10
190.0
 20
449.9999999999999
 30
0.0
  0
VERTEX
  5
22C
330
1FB
100
AcDbEntity
  8
Vector
100
AcDbVertex
100
AcDb2dVertex
 10
190.0
 20
300.0442995721975
 30
0.0
  0
VERTEX
  5
22D
330
1FB
100
AcDbEntity
  8
Vector
100
AcDbVertex
100
AcDb2dVertex
 10
196.0
 20
300.0442995721975
 30
0.0
  0
VERTEX
  5
22E
330
1FB
100
AcDbEntity
  8
Vector
100
AcDbVertex
100
AcDb2dVertex
 10
196.0
 20
449.9999999999999
 30
0.0
  0
VERTEX
  5
22F
330
1FB
100
AcDbEntity
  8
Vector
100
AcDbVertex
100
AcDb2dVertex
 10
260.0
 20
449.9999999999999
 30
0.0
  0
VERTEX
  5
230
330
1FB
100
AcDbEntity
  8
Vector
100
AcDbVertex
100
AcDb2dVertex
 10
260.0
 20
350.0442995721974
 30
0.0
  0
VERTEX
  5
231
330
1FB
100
AcDbEntity
  8
Vector
100
AcDbVertex
100
AcDb2dVertex
 10
266.0
 20
350.0442995721975
 30
0.0
  0
VERTEX
  5
232
330
1FB
100
AcDbEntity
  8
Vector
100
AcDbVertex
100
AcDb2dVertex
 10
266.0
 20
450.0442995721975
 30
0.0
  0
SEQEND
  5
233
330
1FB
100
AcDbEntity
  8
Vector
  0
POLYLINE
  5
234
330
1F
100
AcDbEntity
  8
artboard
100
AcDb2dPolyline
 66
     1
 10
0.0
 20
0.0
 30
0.0
 70
     1
  0
VERTEX
  5
235
330
234
100
AcDbEntity
  8
artboard
100
AcDbVertex
100
AcDb2dVertex
 10
1268.748770131908
 20
0.0
 30
0.0
  0
VERTEX
  5
236
330
234
100
AcDbEntity
  8
artboard
100
AcDbVertex
100
AcDb2dVertex
 10
1268.748770131908
 20
900.0
 30
0.0
  0
VERTEX
  5
237
330
234
100
AcDbEntity
  8
artboard
100
AcDbVertex
100
AcDb2dVertex
 10
668.7487701319083
 20
900.0
 30
0.0
  0
VERTEX
  5
238
330
234
100
AcDbEntity
  8
artboard
100
AcDbVertex
100
AcDb2dVertex
 10
668.7487701319083
 20
0.0
 30
0.0
  0
SEQEND
  5
239
330
234
100
AcDbEntity
  8
artboard
  0
POLYLINE
  5
23A
330
1F
100
AcDbEntity
  8
artboard
100
AcDb2dPolyline
 66
     1
 10
0.0
 20
0.0
 30
0.0
 70
     1
  0
VERTEX
  5
23B
330
23A
100
AcDbEntity
  8
artboard
100
AcDbVertex
100
AcDb2dVertex
 10
1938.020645241141
 20
0.0
 30
0.0
  0
VERTEX
  5
23C
330
23A
100
AcDbEntity
  8
artboard
100
AcDbVertex
100
AcDb2dVertex
 10
1938.020645241141
 20
900.0
 30
0.0
  0
VERTEX
  5
23D
330
23A
100
AcDbEntity
  8
artboard
100
AcDbVertex
100
AcDb2dVertex
 10
1338.020645241141
 20
900.0
 30
0.0
  0
VERTEX
  5
23E
330
23A
100
AcDbEntity
  8
artboard
100
AcDbVertex
100
AcDb2dVertex
 10
1338.020645241141
 20
0.0
 30
0.0
  0
SEQEND
  5
23F
330
23A
100
AcDbEntity
  8
artboard
  0
POLYLINE
  5
240
330
1F
100
AcDbEntity
  8
artboard
100
AcDb2dPolyline
 66
     1
 10
0.0
 20
0.0
 30
0.0
 70
     1
  0
VERTEX
  5
241
330
240
100
AcDbEntity
  8
artboard
100
AcDbVertex
100
AcDb2dVertex
 10
2617.964602778121
 20
0.0
 30
0.0
  0
VERTEX
  5
242
330
240
100
AcDbEntity
  8
artboard
100
AcDbVertex
100
AcDb2dVertex
 10
2617.964602778121
 20
900.0
 30
0.0
  0
VERTEX
  5
243
330
240
100
AcDbEntity
  8
artboard
100
AcDbVertex
100
AcDb2dVertex
 10
2017.964602778121
 20
900.0
 30
0.0
  0
VERTEX
  5
244
330
240
100
AcDbEntity
  8
artboard
100
AcDbVertex
100
AcDb2dVertex
 10
2017.964602778121
 20
0.0
 30
0.0
  0
SEQEND
  5
245
330
240
100
AcDbEntity
  8
artboard
  0
POLYLINE
  5
246
330
1F
100
AcDbEntity
  8
Vector
100
AcDb2dPolyline
 66
     1
 10
0.0
 20
0.0
 30
0.0
 70
     1
  0
VERTEX
  5
247
330
246
100
AcDbEntity
  8
Vector
100
AcDbVertex
100
AcDb2dVertex
 10
2461.920658326059
 20
434.9745165682292
 30
0.0
  0
VERTEX
  5
248
330
246
100
AcDbEntity
  8
Vector
100
AcDbVertex
100
AcDb2dVertex
 10
2477.58107737892
 20
305.9998629045717
 30
0.0
  0
VERTEX
  5
249
330
246
100
AcDbEntity
  8
Vector
100
AcDbVertex
100
AcDb2dVertex
 10
2483.400479207527
 20
306.7064689599804
 30
0.0
  0
VERTEX
  5
24A
330
246
100
AcDbEntity
  8
Vector
100
AcDbVertex
100
AcDb2dVertex
 10
2467.75023211949
 20
436.5948706682703
 30
0.0
 42
0.2815998901964463
  0
VERTEX
  5
24B
330
246
100
AcDbEntity
  8
Vector
100
AcDbVertex
100
AcDb2dVertex
 10
2483.747721335506
 20
457.2060616898528
 30
0.0
  0
VERTEX
  5
24C
330
246
100
AcDbEntity
  8
Vector
100
AcDbVertex
100
AcDb2dVertex
 10
2487.281161676364
 20
488.8941271593766
 30
0.0
  0
VERTEX
  5
24D
330
246
100
AcDbEntity
  8
Vector
100
AcDbVertex
100
AcDb2dVertex
 10
2541.978672781404
 20
482.7949731270797
 30
0.0
  0
VERTEX
  5
24E
330
246
100
AcDbEntity
  8
Vector
100
AcDbVertex
100
AcDb2dVertex
 10
2542.643593656417
 20
488.7580159937688
 30
0.0
  0
VERTEX
  5
24F
330
246
100
AcDbEntity
  8
Vector
100
AcDbVertex
100
AcDb2dVertex
 10
2487.946082551377
 20
494.8571700260658
 30
0.0
  0
VERTEX
  5
250
330
246
100
AcDbEntity
  8
Vector
100
AcDbVertex
100
AcDb2dVertex
 10
2491.713967509786
 20
528.647746270645
 30
0.0
  0
VERTEX
  5
251
330
246
100
AcDbEntity
  8
Vector
100
AcDbVertex
100
AcDb2dVertex
 10
2546.393778699187
 20
522.5505659024058
 30
0.0
  0
VERTEX
  5
252
330
246
100
AcDbEntity
  8
Vector
100
AcDbVertex
100
AcDb2dVertex
 10
2547.0586995742
 20
528.5136087690978
 30
0.0
  0
VERTEX
  5
253
330
246
100
AcDbEntity
  8
Vector
100
AcDbVertex
100
AcDb2dVertex
 10
2492.378888384799
 20
534.6107891373345
 30
0.0
  0
VERTEX
  5
254
330
246
100
AcDbEntity
  8
Vector
100
AcDbVertex
100
AcDb2dVertex
 10
2496.146773343207
 20
568.4013653819064
 30
0.0
  0
VERTEX
  5
255
330
246
100
AcDbEntity
  8
Vector
100
AcDbVertex
100
AcDb2dVertex
 10
2550.826584532606
 20
562.3041850136696
 30
0.0
  0
VERTEX
  5
256
330
246
100
AcDbEntity
  8
Vector
100
AcDbVertex
100
AcDb2dVertex
 10
2551.491505407619
 20
568.2672278803586
 30
0.0
  0
VERTEX
  5
257
330
246
100
AcDbEntity
  8
Vector
100
AcDbVertex
100
AcDb2dVertex
 10
2496.81169421822
 20
574.3644082485984
 30
0.0
  0
VERTEX
  5
258
330
246
100
AcDbEntity
  8
Vector
100
AcDbVertex
100
AcDb2dVertex
 10
2497.809075530739
 20
583.3089725486211
 30
0.0
 42
-0.4142135623732361
  0
VERTEX
  5
259
330
246
100
AcDbEntity
  8
Vector
100
AcDbVertex
100
AcDb2dVertex
 10
2525.425591121176
 20
605.3844808472696
 30
0.0
  0
VERTEX
  5
25A
330
246
100
AcDbEntity
  8
Vector
100
AcDbVertex
100
AcDb2dVertex
 10
2595.73510642402
 20
597.5444794449256
 30
0.0
 42
-0.382049885703261
  0
VERTEX
  5
25B
330
246
100
AcDbEntity
  8
Vector
100
AcDbVertex
100
AcDb2dVertex
 10
2617.964602778121
 20
572.698467500388
 30
0.0
  0
VERTEX
  5
25C
330
246
100
AcDbEntity
  8
Vector
100
AcDbVertex
100
AcDb2dVertex
 10
2617.964602778121
 20
24.99999999999977
 30
0.0
 42
-0.4142135623730787
  0
VERTEX
  5
25D
330
246
100
AcDbEntity
  8
Vector
100
AcDbVertex
100
AcDb2dVertex
 10
2592.96460277812
 20
0.0000000000000995
 30
0.0
  0
VERTEX
  5
25E
330
246
100
AcDbEntity
  8
Vector
100
AcDbVertex
100
AcDb2dVertex
 10
2416.703053596428
 20
0.0
 30
0.0
  0
VERTEX
  5
25F
330
246
100
AcDbEntity
  8
Vector
100
AcDbVertex
100
AcDb2dVertex
 10
2391.077125300771
 20
227.7947635038088
 30
0.0
 42
0.3817701647165177
  0
VERTEX
  5
260
330
246
100
AcDbEntity
  8
Vector
100
AcDbVertex
100
AcDb2dVertex
 10
2366.233830491958
 20
250.0000000000034
 30
0.0
  0
VERTEX
  5
261
330
246
100
AcDbEntity
  8
Vector
100
AcDbVertex
100
AcDb2dVertex
 10
2294.195383625618
 20
250.0000000000002
 30
0.0
 42
0.4142135623730905
  0
VERTEX
  5
262
330
246
100
AcDbEntity
  8
Vector
100
AcDbVertex
100
AcDb2dVertex
 10
2269.195383625618
 20
225.0000000000002
 30
0.0
  0
VERTEX
  5
263
330
246
100
AcDbEntity
  8
Vector
100
AcDbVertex
100
AcDb2dVertex
 10
2269.195383625618
 20
0.0
 30
0.0
  0
VERTEX
  5
264
330
246
100
AcDbEntity
  8
Vector
100
AcDbVertex
100
AcDb2dVertex
 10
2067.96460277812
 20
0.0
 30
0.0
  0
VERTEX
  5
265
330
246
100
AcDbEntity
  8
Vector
100
AcDbVertex
100
AcDb2dVertex
 10
2067.96460277812
 20
410.018677747583
 30
0.0
 42
-0.4142487089966106
  0
VERTEX
  5
266
330
246
100
AcDbEntity
  8
Vector
100
AcDbVertex
100
AcDb2dVertex
 10
2092.967602692802
 20
435.0186775675932
 30
0.0
  0
VERTEX
  5
267
330
246
100
AcDbEntity
  8
Vector
100
AcDbVertex
100
AcDb2dVertex
 10
2137.96460277812
 20
435.0132780811106
 30
0.0
  0
VERTEX
  5
268
330
246
100
AcDbEntity
  8
Vector
100
AcDbVertex
100
AcDb2dVertex
 10
2137.96460277812
 20
300.0442995721975
 30
0.0
  0
VERTEX
  5
269
330
246
100
AcDbEntity
  8
Vector
100
AcDbVertex
100
AcDb2dVertex
 10
2143.96460277812
 20
300.0442995721975
 30
0.0
  0
VERTEX
  5
26A
330
246
100
AcDbEntity
  8
Vector
100
AcDbVertex
100
AcDb2dVertex
 10
2143.96460277812
 20
435.012558101582
 30
0.0
  0
VERTEX
  5
26B
330
246
100
AcDbEntity
  8
Vector
100
AcDbVertex
100
AcDb2dVertex
 10
2207.96460277812
 20
435.0048783199455
 30
0.0
  0
VERTEX
  5
26C
330
246
100
AcDbEntity
  8
Vector
100
AcDbVertex
100
AcDb2dVertex
 10
2207.96460277812
 20
300.0442995721975
 30
0.0
  0
VERTEX
  5
26D
330
246
100
AcDbEntity
  8
Vector
100
AcDbVertex
100
AcDb2dVertex
 10
2213.96460277812
 20
300.0442995721975
 30
0.0
  0
VERTEX
  5
26E
330
246
100
AcDbEntity
  8
Vector
100
AcDbVertex
100
AcDb2dVertex
 10
2213.96460277812
 20
435.0041583404171
 30
0.0
  0
VERTEX
  5
26F
330
246
100
AcDbEntity
  8
Vector
100
AcDbVertex
100
AcDb2dVertex
 10
2277.96460277812
 20
434.9964785587812
 30
0.0
  0
VERTEX
  5
270
330
246
100
AcDbEntity
  8
Vector
100
AcDbVertex
100
AcDb2dVertex
 10
2277.96460277812
 20
350.0442995721974
 30
0.0
  0
VERTEX
  5
271
330
246
100
AcDbEntity
  8
Vector
100
AcDbVertex
100
AcDb2dVertex
 10
2283.96460277812
 20
350.0442995721975
 30
0.0
  0
VERTEX
  5
272
330
246
100
AcDbEntity
  8
Vector
100
AcDbVertex
100
AcDb2dVertex
 10
2283.96460277812
 20
434.9957585792523
 30
0.0
  0
VERTEX
  5
273
330
246
100
AcDbEntity
  8
Vector
100
AcDbVertex
100
AcDb2dVertex
 10
2347.96460277812
 20
434.9883739796558
 30
0.0
  0
VERTEX
  5
274
330
246
100
AcDbEntity
  8
Vector
100
AcDbVertex
100
AcDb2dVertex
 10
2347.96460277812
 20
350.0442995721975
 30
0.0
  0
VERTEX
  5
275
330
246
100
AcDbEntity
  8
Vector
100
AcDbVertex
100
AcDb2dVertex
 10
2353.96460277812
 20
350.0442995721974
 30
0.0
  0
VERTEX
  5
276
330
246
100
AcDbEntity
  8
Vector
100
AcDbVertex
100
AcDb2dVertex
 10
2353.96460277812
 20
434.9876816734435
 30
0.0
  0
VERTEX
  5
277
330
246
100
AcDbEntity
  8
Vector
100
AcDbVertex
100
AcDb2dVertex
 10
2417.980284415173
 20
434.9802952644313
 30
0.0
  0
VERTEX
  5
278
330
246
100
AcDbEntity
  8
Vector
100
AcDbVertex
100
AcDb2dVertex
 10
2417.980284415173
 20
349.4614127079232
 30
0.0
  0
VERTEX
  5
279
330
246
100
AcDbEntity
  8
Vector
100
AcDbVertex
100
AcDb2dVertex
 10
2423.980284415173
 20
349.4614127079231
 30
0.0
  0
VERTEX
  5
27A
330
246
100
AcDbEntity
  8
Vector
100
AcDbVertex
100
AcDb2dVertex
 10
2423.980284415173
 20
434.9794985369685
 30
0.0
  0
VERTEX
  5
27B
330
246
100
AcDbEntity
  8
Vector
100
AcDbVertex
100
AcDb2dVertex
 10
2458.901709390967
 20
434.9765653357408
 30
0.0
 42
0.0300493948378564
  0
VERTEX
  5
27C
330
246
100
AcDbEntity
  8
Vector
100
AcDbVertex
100
AcDb2dVertex
 10
2461.898521033898
 20
435.1568328638384
 30
0.0
  0
SEQEND
  5
27D
330
246
100
AcDbEntity
  8
Vector
  0
POLYLINE
  5
27E
330
1F
100
AcDbEntity
  8
Vector
100
AcDb2dPolyline
 66
     1
 10
0.0
 20
0.0
 30
0.0
  0
VERTEX
  5
27F
330
27E
100
AcDbEntity
  8
Vector
100
AcDbVertex
100
AcDb2dVertex
 10
1604.02064524114
 20
449.9999999999999
 30
0.0
  0
VERTEX
  5
280
330
27E
100
AcDbEntity
  8
Vector
100
AcDbVertex
100
AcDb2dVertex
 10
1668.02064524114
 20
450.0
 30
0.0
  0
VERTEX
  5
281
330
27E
100
AcDbEntity
  8
Vector
100
AcDbVertex
100
AcDb2dVertex
 10
1668.02064524114
 20
350.0442995721975
 30
0.0
  0
VERTEX
  5
282
330
27E
100
AcDbEntity
  8
Vector
100
AcDbVertex
100
AcDb2dVertex
 10
1674.02064524114
 20
350.0442995721974
 30
0.0
  0
VERTEX
  5
283
330
27E
100
AcDbEntity
  8
Vector
100
AcDbVertex
100
AcDb2dVertex
 10
1674.02064524114
 20
449.9999999999999
 30
0.0
  0
VERTEX
  5
284
330
27E
100
AcDbEntity
  8
Vector
100
AcDbVertex
100
AcDb2dVertex
 10
1738.036326878193
 20
449.9999999999999
 30
0.0
  0
VERTEX
  5
285
330
27E
100
AcDbEntity
  8
Vector
100
AcDbVertex
100
AcDb2dVertex
 10
1738.036326878193
 20
349.4614127079232
 30
0.0
  0
VERTEX
  5
286
330
27E
100
AcDbEntity
  8
Vector
100
AcDbVertex
100
AcDb2dVertex
 10
1744.036326878193
 20
349.4614127079231
 30
0.0
  0
VERTEX
  5
287
330
27E
100
AcDbEntity
  8
Vector
100
AcDbVertex
100
AcDb2dVertex
 10
1744.036326878193
 20
449.9248014550333
 30
0.0
  0
VERTEX
  5
288
330
27E
100
AcDbEntity
  8
Vector
100
AcDbVertex
100
AcDb2dVertex
 10
1765.677947458586
 20
449.9999999999998
 30
0.0
 42
0.1492243670742456
  0
VERTEX
  5
289
330
27E
100
AcDbEntity
  8
Vector
100
AcDbVertex
100
AcDb2dVertex
 10
1779.631798577177
 20
454.2864487479716
 30
0.0
  0
VERTEX
  5
28A
330
27E
100
AcDbEntity
  8
Vector
100
AcDbVertex
100
AcDb2dVertex
 10
1797.63711984194
 20
305.9998629045717
 30
0.0
  0
VERTEX
  5
28B
330
27E
100
AcDbEntity
  8
Vector
100
AcDbVertex
100
AcDb2dVertex
 10
1803.456521670547
 20
306.7064689599804
 30
0.0
  0
VERTEX
  5
28C
330
27E
100
AcDbEntity
  8
Vector
100
AcDbVertex
100
AcDb2dVertex
 10
1785.072922881258
 20
459.2801791995193
 30
0.0
 42
0.1432044218611415
  0
VERTEX
  5
28D
330
27E
100
AcDbEntity
  8
Vector
100
AcDbVertex
100
AcDb2dVertex
 10
1790.479581123455
 20
472.2294569654492
 30
0.0
  0
VERTEX
  5
28E
330
27E
100
AcDbEntity
  8
Vector
100
AcDbVertex
100
AcDb2dVertex
 10
1792.505706609905
 20
490.5479425914573
 30
0.0
  0
VERTEX
  5
28F
330
27E
100
AcDbEntity
  8
Vector
100
AcDbVertex
100
AcDb2dVertex
 10
1862.034715244424
 20
482.7949731270797
 30
0.0
  0
VERTEX
  5
290
330
27E
100
AcDbEntity
  8
Vector
100
AcDbVertex
100
AcDb2dVertex
 10
1862.699636119436
 20
488.7580159937688
 30
0.0
  0
VERTEX
  5
291
330
27E
100
AcDbEntity
  8
Vector
100
AcDbVertex
100
AcDb2dVertex
 10
1793.165317510227
 20
496.5115775573643
 30
0.0
  0
VERTEX
  5
292
330
27E
100
AcDbEntity
  8
Vector
100
AcDbVertex
100
AcDb2dVertex
 10
1795.364020511301
 20
516.3903607770627
 30
0.0
  0
VERTEX
  5
293
330
27E
100
AcDbEntity
  8
Vector
100
AcDbVertex
100
AcDb2dVertex
 10
1796.903112612053
 20
530.305509030846
 30
0.0
  0
VERTEX
  5
294
330
27E
100
AcDbEntity
  8
Vector
100
AcDbVertex
100
AcDb2dVertex
 10
1866.449821162207
 20
522.5505659024058
 30
0.0
  0
VERTEX
  5
295
330
27E
100
AcDbEntity
  8
Vector
100
AcDbVertex
100
AcDb2dVertex
 10
1867.11474203722
 20
528.5136087690978
 30
0.0
  0
VERTEX
  5
296
330
27E
100
AcDbEntity
  8
Vector
100
AcDbVertex
100
AcDb2dVertex
 10
1797.562723512375
 20
536.2691439967529
 30
0.0
  0
VERTEX
  5
297
330
27E
100
AcDbEntity
  8
Vector
100
AcDbVertex
100
AcDb2dVertex
 10
1798.222334412693
 20
542.2327789626295
 30
0.0
  0
VERTEX
  5
298
330
27E
100
AcDbEntity
  8
Vector
100
AcDbVertex
100
AcDb2dVertex
 10
1801.313793550923
 20
570.0615952221817
 30
0.0
  0
VERTEX
  5
299
330
27E
100
AcDbEntity
  8
Vector
100
AcDbVertex
100
AcDb2dVertex
 10
1870.882626995626
 20
562.3041850136696
 30
0.0
  0
VERTEX
  5
29A
330
27E
100
AcDbEntity
  8
Vector
100
AcDbVertex
100
AcDb2dVertex
 10
1871.547547870639
 20
568.2672278803586
 30
0.0
  0
VERTEX
  5
29B
330
27E
100
AcDbEntity
  8
Vector
100
AcDbVertex
100
AcDb2dVertex
 10
1801.960129514518
 20
576.0267104361335
 30
0.0
  0
VERTEX
  5
29C
330
27E
100
AcDbEntity
  8
Vector
100
AcDbVertex
100
AcDb2dVertex
 10
1802.947098487686
 20
584.9500358023226
 30
0.0
 42
-0.4144744021248435
  0
VERTEX
  5
29D
330
27E
100
AcDbEntity
  8
Vector
100
AcDbVertex
100
AcDb2dVertex
 10
1830.566071306327
 20
607.0476700851915
 30
0.0
  0
VERTEX
  5
29E
330
27E
100
AcDbEntity
  8
Vector
100
AcDbVertex
100
AcDb2dVertex
 10
1915.791148887039
 20
597.5444794449256
 30
0.0
 42
-0.382049885703261
  0
VERTEX
  5
29F
330
27E
100
AcDbEntity
  8
Vector
100
AcDbVertex
100
AcDb2dVertex
 10
1938.020645241141
 20
572.698467500388
 30
0.0
  0
VERTEX
  5
2A0
330
27E
100
AcDbEntity
  8
Vector
100
AcDbVertex
100
AcDb2dVertex
 10
1938.020645241141
 20
24.99999999999977
 30
0.0
 42
-0.4142135623730849
  0
VERTEX
  5
2A1
330
27E
100
AcDbEntity
  8
Vector
100
AcDbVertex
100
AcDb2dVertex
 10
1913.02064524114
 20
-0.0000000000001634
 30
0.0
  0
VERTEX
  5
2A2
330
27E
100
AcDbEntity
  8
Vector
100
AcDbVertex
100
AcDb2dVertex
 10
1736.759096059448
 20
0.0
 30
0.0
  0
VERTEX
  5
2A3
330
27E
100
AcDbEntity
  8
Vector
100
AcDbVertex
100
AcDb2dVertex
 10
1711.13316776379
 20
227.7947635038088
 30
0.0
 42
0.3817701647163832
  0
VERTEX
  5
2A4
330
27E
100
AcDbEntity
  8
Vector
100
AcDbVertex
100
AcDb2dVertex
 10
1686.289872954977
 20
250.0000000000034
 30
0.0
  0
VERTEX
  5
2A5
330
27E
100
AcDbEntity
  8
Vector
100
AcDbVertex
100
AcDb2dVertex
 10
1614.251426088638
 20
250.0000000000004
 30
0.0
 42
0.4142135623730758
  0
VERTEX
  5
2A6
330
27E
100
AcDbEntity
  8
Vector
100
AcDbVertex
100
AcDb2dVertex
 10
1589.251426088638
 20
225.0000000000002
 30
0.0
  0
VERTEX
  5
2A7
330
27E
100
AcDbEntity
  8
Vector
100
AcDbVertex
100
AcDb2dVertex
 10
1589.251426088638
 20
0.0
 30
0.0
  0
VERTEX
  5
2A8
330
27E
100
AcDbEntity
  8
Vector
100
AcDbVertex
100
AcDb2dVertex
 10
1388.02064524114
 20
0.0
 30
0.0
  0
VERTEX
  5
2A9
330
27E
100
AcDbEntity
  8
Vector
100
AcDbVertex
100
AcDb2dVertex
 10
1388.02064524114
 20
425.0443389608555
 30
0.0
 42
-0.4136937337343466
  0
VERTEX
  5
2AA
330
27E
100
AcDbEntity
  8
Vector
100
AcDbVertex
100
AcDb2dVertex
 10
1412.976266961478
 20
450.04429957219
 30
0.0
  0
VERTEX
  5
2AB
330
27E
100
AcDbEntity
  8
Vector
100
AcDbVertex
100
AcDb2dVertex
 10
1458.02064524114
 20
450.0442995721975
 30
0.0
  0
VERTEX
  5
2AC
330
27E
100
AcDbEntity
  8
Vector
100
AcDbVertex
100
AcDb2dVertex
 10
1458.02064524114
 20
300.0442995721975
 30
0.0
  0
VERTEX
  5
2AD
330
27E
100
AcDbEntity
  8
Vector
100
AcDbVertex
100
AcDb2dVertex
 10
1464.02064524114
 20
300.0442995721975
 30
0.0
  0
VERTEX
  5
2AE
330
27E
100
AcDbEntity
  8
Vector
100
AcDbVertex
100
AcDb2dVertex
 10
1464.02064524114
 20
450.0
 30
0.0
  0
VERTEX
  5
2AF
330
27E
100
AcDbEntity
  8
Vector
100
AcDbVertex
100
AcDb2dVertex
 10
1528.02064524114
 20
449.9999999999999
 30
0.0
  0
VERTEX
  5
2B0
330
27E
100
AcDbEntity
  8
Vector
100
AcDbVertex
100
AcDb2dVertex
 10
1528.02064524114
 20
300.0442995721975
 30
0.0
  0
VERTEX
  5
2B1
330
27E
100
AcDbEntity
  8
Vector
100
AcDbVertex
100
AcDb2dVertex
 10
1534.02064524114
 20
300.0442995721975
 30
0.0
  0
VERTEX
  5
2B2
330
27E
100
AcDbEntity
  8
Vector
100
AcDbVertex
100
AcDb2dVertex
 10
1534.02064524114
 20
449.9999999999999
 30
0.0
  0
VERTEX
  5
2B3
330
27E
100
AcDbEntity
  8
Vector
100
AcDbVertex
100
AcDb2dVertex
 10
1598.02064524114
 20
449.9999999999999
 30
0.0
  0
VERTEX
  5
2B4
330
27E
100
AcDbEntity
  8
Vector
100
AcDbVertex
100
AcDb2dVertex
 10
1598.02064524114
 20
350.0442995721974
 30
0.0
  0
VERTEX
  5
2B5
330
27E
100
AcDbEntity
  8
Vector
100
AcDbVertex
100
AcDb2dVertex
 10
1604.02064524114
 20
350.0442995721975
 30
0.0
  0
VERTEX
  5
2B6
330
27E
100
AcDbEntity
  8
Vector
100
AcDbVertex
100
AcDb2dVertex
 10
1604.02064524114
 20
450.0442995721975
 30
0.0
  0
SEQEND
  5
2B7
330
27E
100
AcDbEntity
  8
Vector
  0
POLYLINE
  5
2B8
330
1F
100
AcDbEntity
  8
Vector
100
AcDb2dPolyline
 66
     1
 10
0.0
 20
0.0
 30
0.0
 70
     1
  0
VERTEX
  5
2B9
330
2B8
100
AcDbEntity
  8
Vector
100
AcDbVertex
100
AcDb2dVertex
 10
233.6573022174398
 20
650.7100262844767
 30
0.0
  0
VERTEX
  5
2BA
330
2B8
100
AcDbEntity
  8
Vector
100
AcDbVertex
100
AcDb2dVertex
 10
312.6573022174396
 20
650.7100262844767
 30
0.0
  0
VERTEX
  5
2BB
330
2B8
100
AcDbEntity
  8
Vector
100
AcDbVertex
100
AcDb2dVertex
 10
312.6573022174395
 20
750.7543258566716
 30
0.0
  0
VERTEX
  5
2BC
330
2B8
100
AcDbEntity
  8
Vector
100
AcDbVertex
100
AcDb2dVertex
 10
318.6573022174393
 20
750.7543258566716
 30
0.0
  0
VERTEX
  5
2BD
330
2B8
100
AcDbEntity
  8
Vector
100
AcDbVertex
100
AcDb2dVertex
 10
318.6573022174393
 20
650.7100262844767
 30
0.0
  0
VERTEX
  5
2BE
330
2B8
100
AcDbEntity
  8
Vector
100
AcDbVertex
100
AcDb2dVertex
 10
382.6573022174391
 20
650.7100262844767
 30
0.0
  0
VERTEX
  5
2BF
330
2B8
100
AcDbEntity
  8
Vector
100
AcDbVertex
100
AcDb2dVertex
 10
382.6573022174393
 20
750.7543258566716
 30
0.0
  0
VERTEX
  5
2C0
330
2B8
100
AcDbEntity
  8
Vector
100
AcDbVertex
100
AcDb2dVertex
 10
388.6573022174393
 20
750.7543258566716
 30
0.0
  0
VERTEX
  5
2C1
330
2B8
100
AcDbEntity
  8
Vector
100
AcDbVertex
100
AcDb2dVertex
 10
388.6573022174391
 20
650.7100262844767
 30
0.0
  0
VERTEX
  5
2C2
330
2B8
100
AcDbEntity
  8
Vector
100
AcDbVertex
100
AcDb2dVertex
 10
427.6573022174463
 20
650.7100262844767
 30
0.0
 42
0.4142135623730147
  0
VERTEX
  5
2C3
330
2B8
100
AcDbEntity
  8
Vector
100
AcDbVertex
100
AcDb2dVertex
 10
452.6573022174393
 20
675.7100262844767
 30
0.0
  0
VERTEX
  5
2C4
330
2B8
100
AcDbEntity
  8
Vector
100
AcDbVertex
100
AcDb2dVertex
 10
452.6573022174396
 20
826.4200525689532
 30
0.0
 42
0.4142135623730975
  0
VERTEX
  5
2C5
330
2B8
100
AcDbEntity
  8
Vector
100
AcDbVertex
100
AcDb2dVertex
 10
427.6573022174396
 20
851.4200525689535
 30
0.0
  0
VERTEX
  5
2C6
330
2B8
100
AcDbEntity
  8
Vector
100
AcDbVertex
100
AcDb2dVertex
 10
382.6573022174396
 20
851.4200525689535
 30
0.0
  0
VERTEX
  5
2C7
330
2B8
100
AcDbEntity
  8
Vector
100
AcDbVertex
100
AcDb2dVertex
 10
318.65730221744
 20
836.4200525689535
 30
0.0
  0
VERTEX
  5
2C8
330
2B8
100
AcDbEntity
  8
Vector
100
AcDbVertex
100
AcDb2dVertex
 10
142.6573022174397
 20
836.4200525689535
 30
0.0
  0
VERTEX
  5
2C9
330
2B8
100
AcDbEntity
  8
Vector
100
AcDbVertex
100
AcDb2dVertex
 10
78.65730221743887
 20
851.4200525689535
 30
0.0
  0
VERTEX
  5
2CA
330
2B8
100
AcDbEntity
  8
Vector
100
AcDbVertex
100
AcDb2dVertex
 10
27.65730221743956
 20
851.4200525689535
 30
0.0
 42
0.4142135623730945
  0
VERTEX
  5
2CB
330
2B8
100
AcDbEntity
  8
Vector
100
AcDbVertex
100
AcDb2dVertex
 10
2.657302217439565
 20
826.4200525689535
 30
0.0
  0
VERTEX
  5
2CC
330
2B8
100
AcDbEntity
  8
Vector
100
AcDbVertex
100
AcDb2dVertex
 10
2.657302217439494
 20
675.710026284477
 30
0.0
 42
0.4142135623731831
  0
VERTEX
  5
2CD
330
2B8
100
AcDbEntity
  8
Vector
100
AcDbVertex
100
AcDb2dVertex
 10
27.65730221744707
 20
650.7100262844768
 30
0.0
  0
VERTEX
  5
2CE
330
2B8
100
AcDbEntity
  8
Vector
100
AcDbVertex
100
AcDb2dVertex
 10
72.65730221744013
 20
650.7100262844767
 30
0.0
  0
VERTEX
  5
2CF
330
2B8
100
AcDbEntity
  8
Vector
100
AcDbVertex
100
AcDb2dVertex
 10
72.65730221743956
 20
750.7543258566716
 30
0.0
  0
VERTEX
  5
2D0
330
2B8
100
AcDbEntity
  8
Vector
100
AcDbVertex
100
AcDb2dVertex
 10
78.65730221743945
 20
750.7543258566716
 30
0.0
  0
VERTEX
  5
2D1
330
2B8
100
AcDbEntity
  8
Vector
100
AcDbVertex
100
AcDb2dVertex
 10
78.65730221743934
 20
650.7100262844767
 30
0.0
  0
VERTEX
  5
2D2
330
2B8
100
AcDbEntity
  8
Vector
100
AcDbVertex
100
AcDb2dVertex
 10
142.6573022174391
 20
650.7100262844767
 30
0.0
  0
VERTEX
  5
2D3
330
2B8
100
AcDbEntity
  8
Vector
100
AcDbVertex
100
AcDb2dVertex
 10
142.6573022174393
 20
750.7543258566716
 30
0.0
  0
VERTEX
  5
2D4
330
2B8
100
AcDbEntity
  8
Vector
100
AcDbVertex
100
AcDb2dVertex
 10
148.6573022174393
 20
750.7543258566716
 30
0.0
  0
VERTEX
  5
2D5
330
2B8
100
AcDbEntity
  8
Vector
100
AcDbVertex
100
AcDb2dVertex
 10
148.6573022174393
 20
650.7100262844767
 30
0.0
  0
VERTEX
  5
2D6
330
2B8
100
AcDbEntity
  8
Vector
100
AcDbVertex
100
AcDb2dVertex
 10
227.6573022174399
 20
650.7100262844767
 30
0.0
  0
VERTEX
  5
2D7
330
2B8
100
AcDbEntity
  8
Vector
100
AcDbVertex
100
AcDb2dVertex
 10
227.6573022174398
 20
750.7543258566716
 30
0.0
  0
VERTEX
  5
2D8
330
2B8
100
AcDbEntity
  8
Vector
100
AcDbVertex
100
AcDb2dVertex
 10
233.6573022174398
 20
750.7543258566716
 30
0.0
  0
SEQEND
  5
2D9
330
2B8
100
AcDbEntity
  8
Vector
  0
ENDSEC
  0
SECTION
  2
OBJECTS
  0
DICTIONARY
  5
C
330
0
100
AcDbDictionary
281
     1
  3
ACAD_DETAILVIEWSTYLE
350
315
  3
ACAD_GROUP
350
D
  3
ACAD_LAYOUT
350
1A
  3
ACAD_MATERIAL
350
43
  3
ACAD_MLEADERSTYLE
350
314
  3
ACAD_MLINESTYLE
350
17
  3
ACAD_PLOTSETTINGS
350
19
  3
ACAD_PLOTSTYLENAME
350
E
  3
ACAD_SCALELIST
350
47
  3
ACAD_SECTIONVIEWSTYLE
350
316
  3
ACAD_TABLESTYLE
350
313
  3
ACAD_VISUALSTYLE
350
2A
  3
AcDbVariableDictionary
350
2DA
  0
DICTIONARY
  5
315
102
{ACAD_REACTORS
330
C
102
}
330
C
100
AcDbDictionary
281
     1
  0
DICTIONARY
  5
D
102
{ACAD_REACTORS
330
C
102
}
330
C
100
AcDbDictionary
281
     1
  0
DICTIONARY
  5
1A
102
{ACAD_REACTORS
330
C
102
}
330
C
100
AcDbDictionary
281
     1
  3
Layout1
350
1E
  3
Layout2
350
26
  3
Model
350
22
  0
DICTIONARY
  5
43
102
{ACAD_REACTORS
330
C
102
}
330
C
100
AcDbDictionary
281
     1
  3
ByBlock
350
45
  3
ByLayer
350
44
  3
Global
350
46
  0
DICTIONARY
  5
314
102
{ACAD_REACTORS
330
C
102
}
330
C
100
AcDbDictionary
281
     1
  0
DICTIONARY
  5
17
102
{ACAD_REACTORS
330
C
102
}
330
C
100
AcDbDictionary
281
     1
  3
Standard
350
18
  0
DICTIONARY
  5
19
102
{ACAD_REACTORS
330
C
102
}
330
C
100
AcDbDictionary
281
     1
  0
ACDBDICTIONARYWDFLT
  5
E
102
{ACAD_REACTORS
330
C
102
}
330
C
100
AcDbDictionary
281
     1
  3
Normal
350
F
100
AcDbDictionaryWithDefault
340
F
  0
DICTIONARY
  5
47
102
{ACAD_REACTORS
330
C
102
}
330
C
100
AcDbDictionary
281
     1
  3
A0
350
48
  3
A1
350
49
  3
A2
350
4A
  3
A3
350
4B
  3
A4
350
4C
  3
A5
350
4D
  3
A6
350
4E
  3
A7
350
4F
  3
A8
350
50
  3
A9
350
51
  3
B0
350
52
  3
B1
350
53
  3
B2
350
54
  3
B3
350
55
  3
B4
350
56
  3
B5
350
57
  3
B6
350
58
  3
B7
350
59
  3
B8
350
5A
  3
B9
350
5B
  3
C0
350
5C
  3
C1
350
5D
  3
C2
350
5E
  3
C3
350
5F
  3
C4
350
60
  3
C5
350
61
  3
C6
350
62
  3
C7
350
63
  3
C8
350
64
  3
C9
350
65
  3
D0
350
66
  3
D1
350
67
  3
D2
350
68
  0
DICTIONARY
  5
316
102
{ACAD_REACTORS
330
C
102
}
330
C
100
AcDbDictionary
281
     1
  0
DICTIONARY
  5
313
102
{ACAD_REACTORS
330
C
102
}
330
C
100
AcDbDictionary
281
     1
  0
DICTIONARY
  5
2A
102
{ACAD_REACTORS
330
C
102
}
330
C
100
AcDbDictionary
281
     1
  3
2dWireframe
350
2F
  3
Basic
350
32
  3
Brighten
350
36
  3
ColorChange
350
3A
  3
Conceptual
350
34
  3
Dim
350
35
  3
EdgeColorOff
350
3D
  3
Facepattern
350
39
  3
Flat
350
2B
  3
FlatWithEdges
350
2C
  3
Gouraud
350
2D
  3
GouraudWithEdges
350
2E
  3
Hidden
350
31
  3
JitterOff
350
3B
  3
Linepattern
350
38
  3
OverhangOff
350
3C
  3
Realistic
350
33
  3
Shaded
350
42
  3
Shaded with edges
350
41
  3
Shades of Gray
350
3E
  3
Sketchy
350
3F
  3
Thicken
350
37
  3
Wireframe
350
30
  3
X-Ray
350
40
  0
DICTIONARY
  5
2DA
102
{ACAD_REACTORS
330
C
102
}
330
C
100
AcDbDictionary
281
     1
  3
CANNOSCALE
350
2DB
  3
MSLTSCALE
350
2DC
  0
LAYOUT
  5
1E
102
{ACAD_REACTORS
330
1A
102
}
330
1A
100
AcDbPlotSettings
  1

  2
none_device
  4

  6

 40
0.0
 41
0.0
 42
0.0
 43
0.0
 44
0.0
 45
0.0
 46
0.0
 47
0.0
 48
0.0
 49
0.0
140
0.0
141
0.0
142
1.0
143
1.0
 70
   688
 72
     0
 73
     0
 74
     5
  7

 75
    16
 76
     0
 77
     2
 78
   300
147
1.0
148
0.0
149
0.0
100
AcDbLayout
  1
Layout1
 70
     1
 71
     1
 10
0.0
 20
0.0
 11
12.0
 21
9.0
 12
0.0
 22
0.0
 32
0.0
 14
1.000000000000000E+20
 24
1.000000000000000E+20
 34
1.000000000000000E+20
 15
-1.000000000000000E+20
 25
-1.000000000000000E+20
 35
-1.000000000000000E+20
146
0.0
 13
0.0
 23
0.0
 33
0.0
 16
1.0
 26
0.0
 36
0.0
 17
0.0
 27
1.0
 37
0.0
 76
     0
330
1B
  0
LAYOUT
  5
26
102
{ACAD_REACTORS
330
1A
102
}
330
1A
100
AcDbPlotSettings
  1

  2
none_device
  4

  6

 40
0.0
 41
0.0
 42
0.0
 43
0.0
 44
0.0
 45
0.0
 46
0.0
 47
0.0
 48
0.0
 49
0.0
140
0.0
141
0.0
142
1.0
143
1.0
 70
   688
 72
     0
 73
     0
 74
     5
  7

 75
    16
 76
     0
 77
     2
 78
   300
147
1.0
148
0.0
149
0.0
100
AcDbLayout
  1
Layout2
 70
     1
 71
     2
 10
0.0
 20
0.0
 11
0.0
 21
0.0
 12
0.0
 22
0.0
 32
0.0
 14
0.0
 24
0.0
 34
0.0
 15
0.0
 25
0.0
 35
0.0
146
0.0
 13
0.0
 23
0.0
 33
0.0
 16
1.0
 26
0.0
 36
0.0
 17
0.0
 27
1.0
 37
0.0
 76
     0
330
23
  0
LAYOUT
  5
22
102
{ACAD_REACTORS
330
1A
102
}
330
1A
100
AcDbPlotSettings
  1

  2
none_device
  4
Letter_(8.50_x_11.00_Inches)
  6

 40
6.35
 41
6.35
 42
6.35000508
 43
6.35000508
 44
215.9
 45
279.4
 46
0.0
 47
0.0
 48
0.0
 49
0.0
140
0.0
141
0.0
142
1.0
143
1.0
 70
  1712
 72
     0
 73
     0
 74
     0
  7

 75
     0
 76
     0
 77
     2
 78
   300
147
1.0
148
0.0
149
0.0
100
AcDbLayout
  1
Model
 70
     1
 71
     0
 10
0.0
 20
0.0
 11
12.0
 21
9.0
 12
0.0
 22
0.0
 32
0.0
 14
-671.1385016490636
 24
-0.0000000000001634
 34
0.0
 15
3276.235998548671
 25
900.7100262845117
 35
0.0
146
0.0
 13
0.0
 23
0.0
 33
0.0
 16
1.0
 26
0.0
 36
0.0
 17
0.0
 27
1.0
 37
0.0
 76
     0
330
1F
331
29
  0
MATERIAL
  5
45
102
{ACAD_REACTORS
330
43
102
}
102
{ACAD_XDICTIONARY
360
30F
102
}
330
43
100
AcDbMaterial
  1
ByBlock
  0
MATERIAL
  5
44
102
{ACAD_REACTORS
330
43
102
}
102
{ACAD_XDICTIONARY
360
30D
102
}
330
43
100
AcDbMaterial
  1
ByLayer
  0
MATERIAL
  5
46
102
{ACAD_REACTORS
330
43
102
}
102
{ACAD_XDICTIONARY
360
311
102
}
330
43
100
AcDbMaterial
  1
Global
  0
MLINESTYLE
  5
18
102
{ACAD_REACTORS
330
17
102
}
330
17
100
AcDbMlineStyle
  2
Standard
 70
     0
  3

 62
   256
 51
90.0
 52
90.0
 71
     2
 49
0.5
 62
   256
  6
BYLAYER
 49
-0.5
 62
   256
  6
BYLAYER
  0
ACDBPLACEHOLDER
  5
F
102
{ACAD_REACTORS
330
E
102
}
330
E
  0
SCALE
  5
48
102
{ACAD_REACTORS
330
47
102
}
330
47
100
AcDbScale
 70
     0
300
1:1
140
1.0
141
1.0
290
     1
  0
SCALE
  5
49
102
{ACAD_REACTORS
330
47
102
}
330
47
100
AcDbScale
 70
     0
300
1:2
140
1.0
141
2.0
290
     0
  0
SCALE
  5
4A
102
{ACAD_REACTORS
330
47
102
}
330
47
100
AcDbScale
 70
     0
300
1:4
140
1.0
141
4.0
290
     0
  0
SCALE
  5
4B
102
{ACAD_REACTORS
330
47
102
}
330
47
100
AcDbScale
 70
     0
300
1:5
140
1.0
141
5.0
290
     0
  0
SCALE
  5
4C
102
{ACAD_REACTORS
330
47
102
}
330
47
100
AcDbScale
 70
     0
300
1:8
140
1.0
141
8.0
290
     0
  0
SCALE
  5
4D
102
{ACAD_REACTORS
330
47
102
}
330
47
100
AcDbScale
 70
     0
300
1:10
140
1.0
141
10.0
290
     0
  0
SCALE
  5
4E
102
{ACAD_REACTORS
330
47
102
}
330
47
100
AcDbScale
 70
     0
300
1:16
140
1.0
141
16.0
290
     0
  0
SCALE
  5
4F
102
{ACAD_REACTORS
330
47
102
}
330
47
100
AcDbScale
 70
     0
300
1:20
140
1.0
141
20.0
290
     0
  0
SCALE
  5
50
102
{ACAD_REACTORS
330
47
102
}
330
47
100
AcDbScale
 70
     0
300
1:30
140
1.0
141
30.0
290
     0
  0
SCALE
  5
51
102
{ACAD_REACTORS
330
47
102
}
330
47
100
AcDbScale
 70
     0
300
1:40
140
1.0
141
40.0
290
     0
  0
SCALE
  5
52
102
{ACAD_REACTORS
330
47
102
}
330
47
100
AcDbScale
 70
     0
300
1:50
140
1.0
141
50.0
290
     0
  0
SCALE
  5
53
102
{ACAD_REACTORS
330
47
102
}
330
47
100
AcDbScale
 70
     0
300
1:100
140
1.0
141
100.0
290
     0
  0
SCALE
  5
54
102
{ACAD_REACTORS
330
47
102
}
330
47
100
AcDbScale
 70
     0
300
2:1
140
2.0
141
1.0
290
     0
  0
SCALE
  5
55
102
{ACAD_REACTORS
330
47
102
}
330
47
100
AcDbScale
 70
     0
300
4:1
140
4.0
141
1.0
290
     0
  0
SCALE
  5
56
102
{ACAD_REACTORS
330
47
102
}
330
47
100
AcDbScale
 70
     0
300
8:1
140
8.0
141
1.0
290
     0
  0
SCALE
  5
57
102
{ACAD_REACTORS
330
47
102
}
330
47
100
AcDbScale
 70
     0
300
10:1
140
10.0
141
1.0
290
     0
  0
SCALE
  5
58
102
{ACAD_REACTORS
330
47
102
}
330
47
100
AcDbScale
 70
     0
300
100:1
140
100.0
141
1.0
290
     0
  0
SCALE
  5
59
102
{ACAD_REACTORS
330
47
102
}
330
47
100
AcDbScale
 70
     0
300
1/128" = 1'-0"
140
0.0078125
141
12.0
290
     0
  0
SCALE
  5
5A
102
{ACAD_REACTORS
330
47
102
}
330
47
100
AcDbScale
 70
     0
300
1/64" = 1'-0"
140
0.015625
141
12.0
290
     0
  0
SCALE
  5
5B
102
{ACAD_REACTORS
330
47
102
}
330
47
100
AcDbScale
 70
     0
300
1/32" = 1'-0"
140
0.03125
141
12.0
290
     0
  0
SCALE
  5
5C
102
{ACAD_REACTORS
330
47
102
}
330
47
100
AcDbScale
 70
     0
300
1/16" = 1'-0"
140
0.0625
141
12.0
290
     0
  0
SCALE
  5
5D
102
{ACAD_REACTORS
330
47
102
}
330
47
100
AcDbScale
 70
     0
300
3/32" = 1'-0"
140
0.09375
141
12.0
290
     0
  0
SCALE
  5
5E
102
{ACAD_REACTORS
330
47
102
}
330
47
100
AcDbScale
 70
     0
300
1/8" = 1'-0"
140
0.125
141
12.0
290
     0
  0
SCALE
  5
5F
102
{ACAD_REACTORS
330
47
102
}
330
47
100
AcDbScale
 70
     0
300
3/16" = 1'-0"
140
0.1875
141
12.0
290
     0
  0
SCALE
  5
60
102
{ACAD_REACTORS
330
47
102
}
330
47
100
AcDbScale
 70
     0
300
1/4" = 1'-0"
140
0.25
141
12.0
290
     0
  0
SCALE
  5
61
102
{ACAD_REACTORS
330
47
102
}
330
47
100
AcDbScale
 70
     0
300
3/8" = 1'-0"
140
0.375
141
12.0
290
     0
  0
SCALE
  5
62
102
{ACAD_REACTORS
330
47
102
}
330
47
100
AcDbScale
 70
     0
300
1/2" = 1'-0"
140
0.5
141
12.0
290
     0
  0
SCALE
  5
63
102
{ACAD_REACTORS
330
47
102
}
330
47
100
AcDbScale
 70
     0
300
3/4" = 1'-0"
140
0.75
141
12.0
290
     0
  0
SCALE
  5
64
102
{ACAD_REACTORS
330
47
102
}
330
47
100
AcDbScale
 70
     0
300
1" = 1'-0"
140
1.0
141
12.0
290
     0
  0
SCALE
  5
65
102
{ACAD_REACTORS
330
47
102
}
330
47
100
AcDbScale
 70
     0
300
1-1/2" = 1'-0"
140
1.5
141
12.0
290
     0
  0
SCALE
  5
66
102
{ACAD_REACTORS
330
47
102
}
330
47
100
AcDbScale
 70
     0
300
3" = 1'-0"
140
3.0
141
12.0
290
     0
  0
SCALE
  5
67
102
{ACAD_REACTORS
330
47
102
}
330
47
100
AcDbScale
 70
     0
300
6" = 1'-0"
140
6.0
141
12.0
290
     0
  0
SCALE
  5
68
102
{ACAD_REACTORS
330
47
102
}
330
47
100
AcDbScale
 70
     0
300
1'-0" = 1'-0"
140
12.0
141
12.0
290
     0
  0
VISUALSTYLE
  5
2F
102
{ACAD_REACTORS
330
2A
102
}
102
{ACAD_XDICTIONARY
360
2E5
102
}
330
2A
100
AcDbVisualStyle
  2
2dWireframe
 70
     4
 71
     0
 72
     2
 73
     0
 90
        0
 40
0.6
 41
30.0
 62
     5
 63
     7
421
 16777215
 74
     1
 91
        4
 64
     7
 65
   257
 75
     1
175
     1
 42
1.0
 92
        0
 66
   257
 43
1.0
 76
     1
 77
     6
 78
     2
 67
     7
 79
     5
170
     0
171
     0
290
     0
174
     0
 93
        1
 44
0.0
173
     0
291
     0
 45
0.0
1001
ACAD
1000
AcDbSavedByObjectVersion
1070
     0
  0
VISUALSTYLE
  5
32
102
{ACAD_REACTORS
330
2A
102
}
102
{ACAD_XDICTIONARY
360
2EB
102
}
330
2A
100
AcDbVisualStyle
  2
Basic
 70
     7
 71
     1
 72
     0
 73
     1
 90
        0
 40
0.6
 41
30.0
 62
     5
 63
     7
421
 16777215
 74
     0
 91
        4
 64
     7
 65
   257
 75
     1
175
     1
 42
1.0
 92
        8
 66
     7
 43
1.0
 76
     1
 77
     6
 78
     2
 67
     7
 79
     5
170
     0
171
     0
290
     0
174
     0
 93
        1
 44
0.0
173
     0
291
     1
 45
0.0
1001
ACAD
1000
AcDbSavedByObjectVersion
1070
     0
  0
VISUALSTYLE
  5
36
102
{ACAD_REACTORS
330
2A
102
}
102
{ACAD_XDICTIONARY
360
2F3
102
}
330
2A
100
AcDbVisualStyle
  2
Brighten
 70
    12
 71
     2
 72
     2
 73
     0
 90
        0
 40
0.6
 41
30.0
 62
     5
 63
     7
421
 16777215
 74
     1
 91
        4
 64
     7
 65
   257
 75
     1
175
     1
 42
1.0
 92
        8
 66
     7
 43
1.0
 76
     1
 77
     6
 78
     2
 67
     7
 79
     5
170
     0
171
     0
290
     0
174
     0
 93
        1
 44
50.0
173
     0
291
     1
 45
0.0
1001
ACAD
1000
AcDbSavedByObjectVersion
1070
     0
  0
VISUALSTYLE
  5
3A
102
{ACAD_REACTORS
330
2A
102
}
102
{ACAD_XDICTIONARY
360
2FB
102
}
330
2A
100
AcDbVisualStyle
  2
ColorChange
 70
    16
 71
     2
 72
     2
 73
     3
 90
        0
 40
0.6
 41
30.0
 62
     5
 63
     8
421
  8421504
 74
     1
 91
        4
 64
     7
 65
   257
 75
     1
175
     1
 42
1.0
 92
        8
 66
     8
424
  8421504
 43
1.0
 76
     1
 77
     6
 78
     2
 67
     7
 79
     5
170
     0
171
     0
290
     0
174
     0
 93
        1
 44
0.0
173
     0
291
     1
 45
0.0
1001
ACAD
1000
AcDbSavedByObjectVersion
1070
     0
  0
VISUALSTYLE
  5
34
102
{ACAD_REACTORS
330
2A
102
}
102
{ACAD_XDICTIONARY
360
2EF
102
}
330
2A
100
AcDbVisualStyle
  2
Conceptual
 70
     9
 71
     3
 72
     2
 73
     0
 90
        0
 40
0.6
 41
30.0
 62
     5
 63
     7
421
 16777215
 74
     2
 91
        2
 64
     7
 65
   257
 75
     1
175
     1
 42
179.0
 92
        8
 66
     7
 43
1.0
 76
     1
 77
     6
 78
     2
 67
     7
 79
     3
170
     0
171
     0
290
     0
174
     0
 93
        1
 44
0.0
173
     0
291
     0
 45
0.0
1001
ACAD
1000
AcDbSavedByObjectVersion
1070
     0
  0
VISUALSTYLE
  5
35
102
{ACAD_REACTORS
330
2A
102
}
102
{ACAD_XDICTIONARY
360
2F1
102
}
330
2A
100
AcDbVisualStyle
  2
Dim
 70
    11
 71
     2
 72
     2
 73
     0
 90
        0
 40
0.6
 41
30.0
 62
     5
 63
     7
421
 16777215
 74
     1
 91
        4
 64
     7
 65
   257
 75
     1
175
     1
 42
1.0
 92
        8
 66
     7
 43
1.0
 76
     1
 77
     6
 78
     2
 67
     7
 79
     5
170
     0
171
     0
290
     0
174
     0
 93
        1
 44
-50.0
173
     0
291
     1
 45
0.0
1001
ACAD
1000
AcDbSavedByObjectVersion
1070
     0
  0
VISUALSTYLE
  5
3D
102
{ACAD_REACTORS
330
2A
102
}
102
{ACAD_XDICTIONARY
360
301
102
}
330
2A
100
AcDbVisualStyle
  2
EdgeColorOff
 70
    22
 71
     2
 72
     2
 73
     0
 90
        0
 40
0.6
 41
30.0
 62
     5
 63
     7
421
 16777215
 74
     1
 91
        4
 64
     7
 65
   257
 75
     1
175
     1
 42
1.0
 92
        8
 66
     7
 43
1.0
 76
     1
 77
     6
 78
     2
 67
     7
 79
     5
170
     0
171
     0
290
     0
174
     0
 93
        1
 44
0.0
173
     0
291
     1
 45
0.0
1001
ACAD
1000
AcDbSavedByObjectVersion
1070
     0
  0
VISUALSTYLE
  5
39
102
{ACAD_REACTORS
330
2A
102
}
102
{ACAD_XDICTIONARY
360
2F9
102
}
330
2A
100
AcDbVisualStyle
  2
Facepattern
 70
    15
 71
     2
 72
     2
 73
     0
 90
        0
 40
0.6
 41
30.0
 62
     5
 63
     7
421
 16777215
 74
     1
 91
        4
 64
     7
 65
   257
 75
     1
175
     1
 42
1.0
 92
        8
 66
     7
 43
1.0
 76
     1
 77
     6
 78
     2
 67
     7
 79
     5
170
     0
171
     0
290
     0
174
     0
 93
        1
 44
0.0
173
     0
291
     1
 45
0.0
1001
ACAD
1000
AcDbSavedByObjectVersion
1070
     0
  0
VISUALSTYLE
  5
2B
102
{ACAD_REACTORS
330
2A
102
}
102
{ACAD_XDICTIONARY
360
2DD
102
}
330
2A
100
AcDbVisualStyle
  2
Flat
 70
     0
 71
     2
 72
     1
 73
     1
 90
        2
 40
0.6
 41
30.0
 62
     5
 63
     7
421
 16777215
 74
     0
 91
        0
 64
     7
 65
   257
 75
     1
175
     1
 42
1.0
 92
        8
 66
     7
 43
1.0
 76
     1
 77
     6
 78
     2
 67
     7
 79
     5
170
     0
171
     0
290
     0
174
     0
 93
       13
 44
0.0
173
     0
291
     1
 45
0.0
1001
ACAD
1000
AcDbSavedByObjectVersion
1070
     0
  0
VISUALSTYLE
  5
2C
102
{ACAD_REACTORS
330
2A
102
}
102
{ACAD_XDICTIONARY
360
2DF
102
}
330
2A
100
AcDbVisualStyle
  2
FlatWithEdges
 70
     1
 71
     2
 72
     1
 73
     1
 90
        2
 40
0.6
 41
30.0
 62
     5
 63
     7
421
 16777215
 74
     1
 91
        0
 64
     7
 65
   257
 75
     1
175
     1
 42
1.0
 92
        0
 66
   257
 43
1.0
 76
     1
 77
     6
 78
     2
 67
     7
 79
     5
170
     0
171
     0
290
     0
174
     0
 93
       13
 44
0.0
173
     0
291
     1
 45
0.0
1001
ACAD
1000
AcDbSavedByObjectVersion
1070
     0
  0
VISUALSTYLE
  5
2D
102
{ACAD_REACTORS
330
2A
102
}
102
{ACAD_XDICTIONARY
360
2E1
102
}
330
2A
100
AcDbVisualStyle
  2
Gouraud
 70
     2
 71
     2
 72
     2
 73
     1
 90
        2
 40
0.6
 41
30.0
 62
     5
 63
     7
421
 16777215
 74
     0
 91
        0
 64
     7
 65
   257
 75
     1
175
     1
 42
1.0
 92
        0
 66
     7
 43
1.0
 76
     1
 77
     6
 78
     2
 67
     7
 79
     5
170
     0
171
     0
290
     0
174
     0
 93
       13
 44
0.0
173
     0
291
     1
 45
0.0
1001
ACAD
1000
AcDbSavedByObjectVersion
1070
     0
  0
VISUALSTYLE
  5
2E
102
{ACAD_REACTORS
330
2A
102
}
102
{ACAD_XDICTIONARY
360
2E3
102
}
330
2A
100
AcDbVisualStyle
  2
GouraudWithEdges
 70
     3
 71
     2
 72
     2
 73
     1
 90
        2
 40
0.6
 41
30.0
 62
     5
 63
     7
421
 16777215
 74
     1
 91
        0
 64
     7
 65
   257
 75
     1
175
     1
 42
1.0
 92
        0
 66
   257
 43
1.0
 76
     1
 77
     6
 78
     2
 67
     7
 79
     5
170
     0
171
     0
290
     0
174
     0
 93
       13
 44
0.0
173
     0
291
     1
 45
0.0
1001
ACAD
1000
AcDbSavedByObjectVersion
1070
     0
  0
VISUALSTYLE
  5
31
102
{ACAD_REACTORS
330
2A
102
}
102
{ACAD_XDICTIONARY
360
2E9
102
}
330
2A
100
AcDbVisualStyle
  2
Hidden
 70
     6
 71
     1
 72
     2
 73
     2
 90
        0
 40
0.6
 41
30.0
 62
     5
 63
     7
421
 16777215
 74
     2
 91
        2
 64
     7
 65
   257
 75
     2
175
     1
 42
40.0
 92
        0
 66
   257
 43
1.0
 76
     1
 77
     6
 78
     2
 67
     7
 79
     3
170
     0
171
     0
290
     0
174
     0
 93
        1
 44
0.0
173
     0
291
     0
 45
0.0
1001
ACAD
1000
AcDbSavedByObjectVersion
1070
     0
  0
VISUALSTYLE
  5
3B
102
{ACAD_REACTORS
330
2A
102
}
102
{ACAD_XDICTIONARY
360
2FD
102
}
330
2A
100
AcDbVisualStyle
  2
JitterOff
 70
    20
 71
     2
 72
     2
 73
     0
 90
        0
 40
0.6
 41
30.0
 62
     5
 63
     7
421
 16777215
 74
     1
 91
        4
 64
     7
 65
   257
 75
     1
175
     1
 42
1.0
 92
       10
 66
     7
 43
1.0
 76
     1
 77
     6
 78
     2
 67
     7
 79
     5
170
     0
171
     0
290
     0
174
     0
 93
        1
 44
0.0
173
     0
291
     1
 45
0.0
1001
ACAD
1000
AcDbSavedByObjectVersion
1070
     0
  0
VISUALSTYLE
  5
38
102
{ACAD_REACTORS
330
2A
102
}
102
{ACAD_XDICTIONARY
360
2F7
102
}
330
2A
100
AcDbVisualStyle
  2
Linepattern
 70
    14
 71
     2
 72
     2
 73
     0
 90
        0
 40
0.6
 41
30.0
 62
     5
 63
     7
421
 16777215
 74
     1
 91
        4
 64
     7
 65
   257
 75
     7
175
     7
 42
1.0
 92
        8
 66
     7
 43
1.0
 76
     1
 77
     6
 78
     2
 67
     7
 79
     5
170
     0
171
     0
290
     0
174
     0
 93
        1
 44
0.0
173
     0
291
     1
 45
0.0
1001
ACAD
1000
AcDbSavedByObjectVersion
1070
     0
  0
VISUALSTYLE
  5
3C
102
{ACAD_REACTORS
330
2A
102
}
102
{ACAD_XDICTIONARY
360
2FF
102
}
330
2A
100
AcDbVisualStyle
  2
OverhangOff
 70
    21
 71
     2
 72
     2
 73
     0
 90
        0
 40
0.6
 41
30.0
 62
     5
 63
     7
421
 16777215
 74
     1
 91
        4
 64
     7
 65
   257
 75
     1
175
     1
 42
1.0
 92
        9
 66
     7
 43
1.0
 76
     1
 77
     6
 78
     2
 67
     7
 79
     5
170
     0
171
     0
290
     0
174
     0
 93
        1
 44
0.0
173
     0
291
     1
 45
0.0
1001
ACAD
1000
AcDbSavedByObjectVersion
1070
     0
  0
VISUALSTYLE
  5
33
102
{ACAD_REACTORS
330
2A
102
}
102
{ACAD_XDICTIONARY
360
2ED
102
}
330
2A
100
AcDbVisualStyle
  2
Realistic
 70
     8
 71
     2
 72
     3
 73
     0
 90
        2
 40
0.6
 41
30.0
 62
     5
 63
     7
421
 16777215
 74
     0
 91
        0
 64
     7
 65
   257
 75
     1
175
     1
 42
1.0
 92
        8
 66
   257
 43
1.0
 76
     1
 77
     6
 78
     2
 67
     7
 79
     3
170
     0
171
     0
290
     0
174
     0
 93
       13
 44
0.0
173
     0
291
     0
 45
0.0
1001
ACAD
1000
AcDbSavedByObjectVersion
1070
     0
  0
VISUALSTYLE
  5
42
102
{ACAD_REACTORS
330
2A
102
}
102
{ACAD_XDICTIONARY
360
30B
102
}
330
2A
100
AcDbVisualStyle
  2
Shaded
 70
    27
 71
     2
 72
     2
 73
     1
 90
        2
 40
0.6
 41
30.0
 62
     5
 63
     7
421
 16777215
 74
     0
 91
        4
 64
     7
 65
   257
 75
     1
175
     1
 42
1.0
 92
        8
 66
   257
 43
1.0
 76
     1
 77
     6
 78
     2
 67
     8
425
  7895160
 79
     3
170
     0
171
     0
290
     0
174
     0
 93
        5
 44
0.0
173
     0
291
     0
 45
0.0
1001
ACAD
1000
AcDbSavedByObjectVersion
1070
     0
  0
VISUALSTYLE
  5
41
102
{ACAD_REACTORS
330
2A
102
}
102
{ACAD_XDICTIONARY
360
309
102
}
330
2A
100
AcDbVisualStyle
  2
Shaded with edges
 70
    26
 71
     2
 72
     2
 73
     1
 90
        2
 40
0.6
 41
30.0
 62
     5
 63
     7
421
 16777215
 74
     1
 91
       10
 64
     7
 65
   257
 75
     2
175
     1
 42
1.0
 92
        8
 66
   257
 43
1.0
 76
     1
 77
     6
 78
     2
 67
     7
 79
     3
170
     0
171
     0
290
     0
174
     0
 93
        5
 44
0.0
173
     0
291
     0
 45
0.0
1001
ACAD
1000
AcDbSavedByObjectVersion
1070
     0
  0
VISUALSTYLE
  5
3E
102
{ACAD_REACTORS
330
2A
102
}
102
{ACAD_XDICTIONARY
360
303
102
}
330
2A
100
AcDbVisualStyle
  2
Shades of Gray
 70
    23
 71
     2
 72
     2
 73
     3
 90
        0
 40
0.6
 41
30.0
 62
     5
 63
     7
421
 16777215
 74
     2
 91
        2
 64
     7
 65
     7
 75
     1
175
     1
 42
40.0
 92
        8
 66
     7
 43
1.0
 76
     1
 77
     6
 78
     2
 67
     7
 79
     3
170
     0
171
     0
290
     0
174
     0
 93
        1
 44
0.0
173
     0
291
     0
 45
0.0
1001
ACAD
1000
AcDbSavedByObjectVersion
1070
     0
  0
VISUALSTYLE
  5
3F
102
{ACAD_REACTORS
330
2A
102
}
102
{ACAD_XDICTIONARY
360
305
102
}
330
2A
100
AcDbVisualStyle
  2
Sketchy
 70
    24
 71
     1
 72
     2
 73
     2
 90
        0
 40
0.6
 41
30.0
 62
     5
 63
     7
421
 16777215
 74
     2
 91
        2
 64
     7
 65
     7
 75
     1
175
     1
 42
40.0
 92
       11
 66
     7
 43
1.0
 76
     1
 77
     6
 78
     2
 67
     7
 79
     6
170
     0
171
     0
290
     0
174
     0
 93
        1
 44
0.0
173
     0
291
     0
 45
0.0
1001
ACAD
1000
AcDbSavedByObjectVersion
1070
     0
  0
VISUALSTYLE
  5
37
102
{ACAD_REACTORS
330
2A
102
}
102
{ACAD_XDICTIONARY
360
2F5
102
}
330
2A
100
AcDbVisualStyle
  2
Thicken
 70
    13
 71
     2
 72
     2
 73
     0
 90
        0
 40
0.6
 41
30.0
 62
     5
 63
     7
421
 16777215
 74
     1
 91
        4
 64
     7
 65
   257
 75
     1
175
     1
 42
1.0
 92
       12
 66
     7
 43
1.0
 76
     1
 77
     6
 78
     2
 67
     7
 79
     5
170
     0
171
     0
290
     0
174
     0
 93
        1
 44
0.0
173
     0
291
     1
 45
0.0
1001
ACAD
1000
AcDbSavedByObjectVersion
1070
     0
  0
VISUALSTYLE
  5
30
102
{ACAD_REACTORS
330
2A
102
}
102
{ACAD_XDICTIONARY
360
2E7
102
}
330
2A
100
AcDbVisualStyle
  2
Wireframe
 70
     5
 71
     0
 72
     2
 73
     0
 90
        0
 40
0.6
 41
30.0
 62
     5
 63
     7
421
 16777215
 74
     1
 91
        4
 64
     7
 65
   257
 75
     1
175
     1
 42
1.0
 92
        0
 66
   257
 43
1.0
 76
     1
 77
     6
 78
     2
 67
     7
 79
     3
170
     0
171
     0
290
     0
174
     0
 93
        1
 44
0.0
173
     0
291
     0
 45
0.0
1001
ACAD
1000
AcDbSavedByObjectVersion
1070
     0
  0
VISUALSTYLE
  5
40
102
{ACAD_REACTORS
330
2A
102
}
102
{ACAD_XDICTIONARY
360
307
102
}
330
2A
100
AcDbVisualStyle
  2
X-Ray
 70
    25
 71
     2
 72
     2
 73
     1
 90
        1
 40
0.5
 41
30.0
 62
     5
 63
     7
421
 16777215
 74
     1
 91
        0
 64
     7
 65
   257
 75
     1
175
     1
 42
1.0
 92
        8
 66
     7
 43
1.0
 76
     1
 77
     6
 78
     2
 67
     7
 79
     3
170
     0
171
     0
290
     0
174
     0
 93
       13
 44
0.0
173
     0
291
     0
 45
0.0
1001
ACAD
1000
AcDbSavedByObjectVersion
1070
     0
  0
DICTIONARYVAR
  5
2DB
102
{ACAD_REACTORS
330
2DA
102
}
330
2DA
100
DictionaryVariables
280
     0
  1
1:1
  0
DICTIONARYVAR
  5
2DC
102
{ACAD_REACTORS
330
2DA
102
}
330
2DA
100
DictionaryVariables
280
     0
  1
1
  0
DICTIONARY
  5
30F
330
45
100
AcDbDictionary
280
     1
281
     1
  3
ACAD_XREC_ROUNDTRIP
360
310
  0
DICTIONARY
  5
30D
330
44
100
AcDbDictionary
280
     1
281
     1
  3
ACAD_XREC_ROUNDTRIP
360
30E
  0
DICTIONARY
  5
311
330
46
100
AcDbDictionary
280
     1
281
     1
  3
ACAD_XREC_ROUNDTRIP
360
312
  0
DICTIONARY
  5
2E5
330
2F
100
AcDbDictionary
280
     1
281
     1
  3
ACAD_XREC_ROUNDTRIP
360
2E6
  0
DICTIONARY
  5
2EB
330
32
100
AcDbDictionary
280
     1
281
     1
  3
ACAD_XREC_ROUNDTRIP
360
2EC
  0
DICTIONARY
  5
2F3
330
36
100
AcDbDictionary
280
     1
281
     1
  3
ACAD_XREC_ROUNDTRIP
360
2F4
  0
DICTIONARY
  5
2FB
330
3A
100
AcDbDictionary
280
     1
281
     1
  3
ACAD_XREC_ROUNDTRIP
360
2FC
  0
DICTIONARY
  5
2EF
330
34
100
AcDbDictionary
280
     1
281
     1
  3
ACAD_XREC_ROUNDTRIP
360
2F0
  0
DICTIONARY
  5
2F1
330
35
100
AcDbDictionary
280
     1
281
     1
  3
ACAD_XREC_ROUNDTRIP
360
2F2
  0
DICTIONARY
  5
301
330
3D
100
AcDbDictionary
280
     1
281
     1
  3
ACAD_XREC_ROUNDTRIP
360
302
  0
DICTIONARY
  5
2F9
330
39
100
AcDbDictionary
280
     1
281
     1
  3
ACAD_XREC_ROUNDTRIP
360
2FA
  0
DICTIONARY
  5
2DD
330
2B
100
AcDbDictionary
280
     1
281
     1
  3
ACAD_XREC_ROUNDTRIP
360
2DE
  0
DICTIONARY
  5
2DF
330
2C
100
AcDbDictionary
280
     1
281
     1
  3
ACAD_XREC_ROUNDTRIP
360
2E0
  0
DICTIONARY
  5
2E1
330
2D
100
AcDbDictionary
280
     1
281
     1
  3
ACAD_XREC_ROUNDTRIP
360
2E2
  0
DICTIONARY
  5
2E3
330
2E
100
AcDbDictionary
280
     1
281
     1
  3
ACAD_XREC_ROUNDTRIP
360
2E4
  0
DICTIONARY
  5
2E9
330
31
100
AcDbDictionary
280
     1
281
     1
  3
ACAD_XREC_ROUNDTRIP
360
2EA
  0
DICTIONARY
  5
2FD
330
3B
100
AcDbDictionary
280
     1
281
     1
  3
ACAD_XREC_ROUNDTRIP
360
2FE
  0
DICTIONARY
  5
2F7
330
38
100
AcDbDictionary
280
     1
281
     1
  3
ACAD_XREC_ROUNDTRIP
360
2F8
  0
DICTIONARY
  5
2FF
330
3C
100
AcDbDictionary
280
     1
281
     1
  3
ACAD_XREC_ROUNDTRIP
360
300
  0
DICTIONARY
  5
2ED
330
33
100
AcDbDictionary
280
     1
281
     1
  3
ACAD_XREC_ROUNDTRIP
360
2EE
  0
DICTIONARY
  5
30B
330
42
100
AcDbDictionary
280
     1
281
     1
  3
ACAD_XREC_ROUNDTRIP
360
30C
  0
DICTIONARY
  5
309
330
41
100
AcDbDictionary
280
     1
281
     1
  3
ACAD_XREC_ROUNDTRIP
360
30A
  0
DICTIONARY
  5
303
330
3E
100
AcDbDictionary
280
     1
281
     1
  3
ACAD_XREC_ROUNDTRIP
360
304
  0
DICTIONARY
  5
305
330
3F
100
AcDbDictionary
280
     1
281
     1
  3
ACAD_XREC_ROUNDTRIP
360
306
  0
DICTIONARY
  5
2F5
330
37
100
AcDbDictionary
280
     1
281
     1
  3
ACAD_XREC_ROUNDTRIP
360
2F6
  0
DICTIONARY
  5
2E7
330
30
100
AcDbDictionary
280
     1
281
     1
  3
ACAD_XREC_ROUNDTRIP
360
2E8
  0
DICTIONARY
  5
307
330
40
100
AcDbDictionary
280
     1
281
     1
  3
ACAD_XREC_ROUNDTRIP
360
308
  0
XRECORD
  5
310
102
{ACAD_REACTORS
330
30F
102
}
330
30F
100
AcDbXrecord
280
     1
102
MATERIAL
148
0.0
149
0.0
149
0.0
 93
        0
 94
      127
282
     0
 72
     1
 77
     1
171
     1
175
     1
179
     1
273
     0
  0
XRECORD
  5
30E
102
{ACAD_REACTORS
330
30D
102
}
330
30D
100
AcDbXrecord
280
     1
102
MATERIAL
148
0.0
149
0.0
149
0.0
 93
        0
 94
      127
282
     0
 72
     1
 77
     1
171
     1
175
     1
179
     1
273
     0
  0
XRECORD
  5
312
102
{ACAD_REACTORS
330
311
102
}
330
311
100
AcDbXrecord
280
     1
102
MATERIAL
148
0.0
149
0.0
149
0.0
 93
        0
 94
      127
282
     0
 72
     1
 77
     1
171
     1
175
     1
179
     1
273
     0
  0
XRECORD
  5
2E6
102
{ACAD_REACTORS
330
2E5
102
}
330
2E5
100
AcDbXrecord
280
     1
102
RTVSPropertyOp0
 70
     1
102
RTVSPropertyOp1
 70
     1
102
RTVSPropertyOp2
 70
     1
102
RTVSPropertyOp3
 70
     1
102
RTVSPropertyOp4
 70
     1
102
RTVSPropertyOp5
 70
     1
102
RTVSPropertyOp6
 70
     1
102
RTVSPropertyOp7
 70
     1
102
RTVSPropertyOp8
 70
     1
102
RTVSPropertyOp9
 70
     1
102
RTVSPropertyOp10
 70
     1
102
RTVSPropertyOp11
 70
     1
102
RTVSPropertyOp12
 70
     1
102
RTVSPropertyOp13
 70
     1
102
RTVSPropertyOp14
 70
     1
102
RTVSPropertyOp15
 70
     1
102
RTVSPropertyOp16
 70
     1
102
RTVSPropertyOp17
 70
     1
102
RTVSPropertyOp18
 70
     1
102
RTVSPropertyOp19
 70
     1
102
RTVSPropertyOp20
 70
     1
102
RTVSPropertyOp21
 70
     1
102
RTVSPropertyOp22
 70
     1
102
RTVSPropertyOp23
 70
     1
102
RTVSPropertyOp24
 70
     1
102
RTVSPropertyOp25
 70
     1
102
RTVSPropertyOp26
 70
     1
102
RTVSPropertyOp27
 70
     1
102
RTVSPropertyOp28
 70
     1
102
RTVSPropertyOp29
 70
     1
102
RTVSPropertyOp30
 70
     1
102
RTVSPropertyOp31
 70
     1
102
RTVSPropertyOp32
 70
     1
102
RTVSPropertyOp33
 70
     1
102
RTVSPropertyOp34
 70
     1
102
RTVSPropertyOp35
 70
     1
102
RTVSPropertyOp36
 70
     1
102
RTVSPropertyOp37
 70
     1
102
RTVSPropertyOp38
 70
     1
102
RTVSPropertyOp39
 70
     1
102
RTVSPropertyOp40
 70
     1
102
RTVSPropertyOp41
 70
     1
102
RTVSPropertyOp42
 70
     1
102
RTVSPropertyOp43
 70
     1
102
RTVSPropertyOp44
 70
     1
102
RTVSPropertyOp45
 70
     1
102
RTVSPropertyOp46
 70
     1
102
RTVSPropertyOp47
 70
     1
102
RTVSPropertyOp48
 70
     1
102
RTVSPropertyOp49
 70
     1
102
RTVSPropertyOp50
 70
     1
102
RTVSPropertyOp51
 70
     0
102
RTVSPropertyOp52
 70
     0
102
RTVSPropertyOp53
 70
     1
102
RTVSPropertyOp54
 70
     1
102
RTVSPropertyOp55
 70
     1
102
RTVSPropertyOp56
 70
     1
102
RTVSPropertyOp57
 70
     1
102
RTVSPost2010Prop28
280
     1
102
RTVSPost2010PropOp28
 70
     1
102
RTVSPost2010Prop29
280
     1
102
RTVSPost2010PropOp29
 70
     1
102
RTVSPost2010Prop30
280
     0
102
RTVSPost2010PropOp30
 70
     1
102
RTVSPost2010Prop31
280
     0
102
RTVSPost2010PropOp31
 70
     1
102
RTVSPost2010Prop32
280
     0
102
RTVSPost2010PropOp32
 70
     1
102
RTVSPost2010Prop33
280
     0
102
RTVSPost2010PropOp33
 70
     1
102
RTVSPost2010Prop34
280
     0
102
RTVSPost2010PropOp34
 70
     1
102
RTVSPost2010Prop35
280
     0
102
RTVSPost2010PropOp35
 70
     1
102
RTVSPost2010Prop36
280
     0
102
RTVSPost2010PropOp36
 70
     1
102
RTVSPost2010Prop37
 90
       50
102
RTVSPost2010PropOp37
 70
     1
102
RTVSPost2010Prop38
140
0.0
102
RTVSPost2010PropOp38
 70
     1
102
RTVSPost2010Prop39
140
1.0
102
RTVSPost2010PropOp39
 70
     1
102
RTVSPost2010Prop40
 90
        0
102
RTVSPost2010PropOp40
 70
     1
102
RTVSPost2010Prop41ColorIndex
 90
       18
102
RTVSPost2010Prop41ColorRGB
 90
        0
102
RTVSPost2010PropOp41
 70
     1
102
RTVSPost2010Prop42
 90
       50
102
RTVSPost2010PropOp42
 70
     1
102
RTVSPost2010Prop43
 90
        3
102
RTVSPost2010PropOp43
 70
     1
102
RTVSPost2010Prop44ColorIndex
 90
        5
102
RTVSPost2010Prop44ColorRGB
 90
      255
102
RTVSPost2010PropOp44
 70
     1
102
RTVSPost2010Prop45
280
     0
102
RTVSPost2010PropOp45
 70
     1
102
RTVSPost2010Prop46
 90
       50
102
RTVSPost2010PropOp46
 70
     1
102
RTVSPost2010Prop47
 90
       50
102
RTVSPost2010PropOp47
 70
     1
102
RTVSPost2010Prop48
 90
       50
102
RTVSPost2010PropOp48
 70
     1
102
RTVSPost2010Prop49
280
     0
102
RTVSPost2010PropOp49
 70
     1
102
RTVSPost2010Prop50
 90
       50
102
RTVSPost2010PropOp50
 70
     1
102
RTVSPost2010Prop51ColorIndex
 90
      256
102
RTVSPost2010Prop51ColorRGB
 90
-16777216
102
RTVSPost2010PropOp51
 70
     0
102
RTVSPost2010Prop52
140
1.0
102
RTVSPost2010PropOp52
 70
     0
102
RTVSPost2010Prop53
 90
        2
102
RTVSPost2010PropOp53
 70
     1
102
RTVSPost2010Prop54
  1
strokes_ogs.tif
102
RTVSPost2010PropOp54
 70
     1
102
RTVSPost2010Prop55
280
     0
102
RTVSPost2010PropOp55
 70
     1
102
RTVSPost2010Prop56
140
1.0
102
RTVSPost2010PropOp56
 70
     1
102
RTVSPost2010Prop57
140
1.0
102
RTVSPost2010PropOp57
 70
     1
  0
XRECORD
  5
2EC
102
{ACAD_REACTORS
330
2EB
102
}
330
2EB
100
AcDbXrecord
280
     1
102
RTVSPropertyOp0
 70
     1
102
RTVSPropertyOp1
 70
     1
102
RTVSPropertyOp2
 70
     1
102
RTVSPropertyOp3
 70
     1
102
RTVSPropertyOp4
 70
     1
102
RTVSPropertyOp5
 70
     1
102
RTVSPropertyOp6
 70
     1
102
RTVSPropertyOp7
 70
     1
102
RTVSPropertyOp8
 70
     1
102
RTVSPropertyOp9
 70
     1
102
RTVSPropertyOp10
 70
     1
102
RTVSPropertyOp11
 70
     1
102
RTVSPropertyOp12
 70
     1
102
RTVSPropertyOp13
 70
     1
102
RTVSPropertyOp14
 70
     1
102
RTVSPropertyOp15
 70
     1
102
RTVSPropertyOp16
 70
     1
102
RTVSPropertyOp17
 70
     1
102
RTVSPropertyOp18
 70
     1
102
RTVSPropertyOp19
 70
     1
102
RTVSPropertyOp20
 70
     1
102
RTVSPropertyOp21
 70
     1
102
RTVSPropertyOp22
 70
     1
102
RTVSPropertyOp23
 70
     1
102
RTVSPropertyOp24
 70
     1
102
RTVSPropertyOp25
 70
     1
102
RTVSPropertyOp26
 70
     1
102
RTVSPropertyOp27
 70
     1
102
RTVSPropertyOp28
 70
     1
102
RTVSPropertyOp29
 70
     1
102
RTVSPropertyOp30
 70
     1
102
RTVSPropertyOp31
 70
     1
102
RTVSPropertyOp32
 70
     1
102
RTVSPropertyOp33
 70
     1
102
RTVSPropertyOp34
 70
     1
102
RTVSPropertyOp35
 70
     1
102
RTVSPropertyOp36
 70
     1
102
RTVSPropertyOp37
 70
     1
102
RTVSPropertyOp38
 70
     1
102
RTVSPropertyOp39
 70
     1
102
RTVSPropertyOp40
 70
     1
102
RTVSPropertyOp41
 70
     1
102
RTVSPropertyOp42
 70
     1
102
RTVSPropertyOp43
 70
     1
102
RTVSPropertyOp44
 70
     1
102
RTVSPropertyOp45
 70
     1
102
RTVSPropertyOp46
 70
     1
102
RTVSPropertyOp47
 70
     1
102
RTVSPropertyOp48
 70
     1
102
RTVSPropertyOp49
 70
     1
102
RTVSPropertyOp50
 70
     1
102
RTVSPropertyOp51
 70
     0
102
RTVSPropertyOp52
 70
     0
102
RTVSPropertyOp53
 70
     1
102
RTVSPropertyOp54
 70
     1
102
RTVSPropertyOp55
 70
     1
102
RTVSPropertyOp56
 70
     1
102
RTVSPropertyOp57
 70
     1
102
RTVSPost2010Prop28
280
     0
102
RTVSPost2010PropOp28
 70
     1
102
RTVSPost2010Prop29
280
     1
102
RTVSPost2010PropOp29
 70
     1
102
RTVSPost2010Prop30
280
     1
102
RTVSPost2010PropOp30
 70
     1
102
RTVSPost2010Prop31
280
     0
102
RTVSPost2010PropOp31
 70
     1
102
RTVSPost2010Prop32
280
     0
102
RTVSPost2010PropOp32
 70
     1
102
RTVSPost2010Prop33
280
     0
102
RTVSPost2010PropOp33
 70
     1
102
RTVSPost2010Prop34
280
     0
102
RTVSPost2010PropOp34
 70
     1
102
RTVSPost2010Prop35
280
     0
102
RTVSPost2010PropOp35
 70
     1
102
RTVSPost2010Prop36
280
     0
102
RTVSPost2010PropOp36
 70
     1
102
RTVSPost2010Prop37
 90
       50
102
RTVSPost2010PropOp37
 70
     1
102
RTVSPost2010Prop38
140
0.0
102
RTVSPost2010PropOp38
 70
     1
102
RTVSPost2010Prop39
140
1.0
102
RTVSPost2010PropOp39
 70
     1
102
RTVSPost2010Prop40
 90
        0
102
RTVSPost2010PropOp40
 70
     1
102
RTVSPost2010Prop41ColorIndex
 90
       18
102
RTVSPost2010Prop41ColorRGB
 90
        0
102
RTVSPost2010PropOp41
 70
     1
102
RTVSPost2010Prop42
 90
       50
102
RTVSPost2010PropOp42
 70
     1
102
RTVSPost2010Prop43
 90
        3
102
RTVSPost2010PropOp43
 70
     1
102
RTVSPost2010Prop44ColorIndex
 90
        5
102
RTVSPost2010Prop44ColorRGB
 90
      255
102
RTVSPost2010PropOp44
 70
     1
102
RTVSPost2010Prop45
280
     0
102
RTVSPost2010PropOp45
 70
     1
102
RTVSPost2010Prop46
 90
       50
102
RTVSPost2010PropOp46
 70
     1
102
RTVSPost2010Prop47
 90
       50
102
RTVSPost2010PropOp47
 70
     1
102
RTVSPost2010Prop48
 90
       50
102
RTVSPost2010PropOp48
 70
     1
102
RTVSPost2010Prop49
280
     0
102
RTVSPost2010PropOp49
 70
     1
102
RTVSPost2010Prop50
 90
       50
102
RTVSPost2010PropOp50
 70
     1
102
RTVSPost2010Prop51ColorIndex
 90
      256
102
RTVSPost2010Prop51ColorRGB
 90
-16777216
102
RTVSPost2010PropOp51
 70
     0
102
RTVSPost2010Prop52
140
1.0
102
RTVSPost2010PropOp52
 70
     0
102
RTVSPost2010Prop53
 90
        2
102
RTVSPost2010PropOp53
 70
     1
102
RTVSPost2010Prop54
  1
strokes_ogs.tif
102
RTVSPost2010PropOp54
 70
     1
102
RTVSPost2010Prop55
280
     0
102
RTVSPost2010PropOp55
 70
     1
102
RTVSPost2010Prop56
140
1.0
102
RTVSPost2010PropOp56
 70
     1
102
RTVSPost2010Prop57
140
1.0
102
RTVSPost2010PropOp57
 70
     1
  0
XRECORD
  5
2F4
102
{ACAD_REACTORS
330
2F3
102
}
330
2F3
100
AcDbXrecord
280
     1
102
RTVSPropertyOp0
 70
     1
102
RTVSPropertyOp1
 70
     1
102
RTVSPropertyOp2
 70
     1
102
RTVSPropertyOp3
 70
     1
102
RTVSPropertyOp4
 70
     1
102
RTVSPropertyOp5
 70
     1
102
RTVSPropertyOp6
 70
     1
102
RTVSPropertyOp7
 70
     1
102
RTVSPropertyOp8
 70
     1
102
RTVSPropertyOp9
 70
     1
102
RTVSPropertyOp10
 70
     1
102
RTVSPropertyOp11
 70
     1
102
RTVSPropertyOp12
 70
     1
102
RTVSPropertyOp13
 70
     1
102
RTVSPropertyOp14
 70
     1
102
RTVSPropertyOp15
 70
     1
102
RTVSPropertyOp16
 70
     1
102
RTVSPropertyOp17
 70
     1
102
RTVSPropertyOp18
 70
     1
102
RTVSPropertyOp19
 70
     1
102
RTVSPropertyOp20
 70
     1
102
RTVSPropertyOp21
 70
     1
102
RTVSPropertyOp22
 70
     1
102
RTVSPropertyOp23
 70
     1
102
RTVSPropertyOp24
 70
     1
102
RTVSPropertyOp25
 70
     1
102
RTVSPropertyOp26
 70
     1
102
RTVSPropertyOp27
 70
     1
102
RTVSPropertyOp28
 70
     1
102
RTVSPropertyOp29
 70
     1
102
RTVSPropertyOp30
 70
     1
102
RTVSPropertyOp31
 70
     1
102
RTVSPropertyOp32
 70
     1
102
RTVSPropertyOp33
 70
     1
102
RTVSPropertyOp34
 70
     1
102
RTVSPropertyOp35
 70
     1
102
RTVSPropertyOp36
 70
     1
102
RTVSPropertyOp37
 70
     1
102
RTVSPropertyOp38
 70
     1
102
RTVSPropertyOp39
 70
     1
102
RTVSPropertyOp40
 70
     1
102
RTVSPropertyOp41
 70
     1
102
RTVSPropertyOp42
 70
     1
102
RTVSPropertyOp43
 70
     1
102
RTVSPropertyOp44
 70
     1
102
RTVSPropertyOp45
 70
     1
102
RTVSPropertyOp46
 70
     1
102
RTVSPropertyOp47
 70
     1
102
RTVSPropertyOp48
 70
     1
102
RTVSPropertyOp49
 70
     1
102
RTVSPropertyOp50
 70
     1
102
RTVSPropertyOp51
 70
     0
102
RTVSPropertyOp52
 70
     0
102
RTVSPropertyOp53
 70
     1
102
RTVSPropertyOp54
 70
     1
102
RTVSPropertyOp55
 70
     1
102
RTVSPropertyOp56
 70
     1
102
RTVSPropertyOp57
 70
     1
102
RTVSPost2010Prop28
280
     0
102
RTVSPost2010PropOp28
 70
     1
102
RTVSPost2010Prop29
280
     1
102
RTVSPost2010PropOp29
 70
     1
102
RTVSPost2010Prop30
280
     1
102
RTVSPost2010PropOp30
 70
     1
102
RTVSPost2010Prop31
280
     0
102
RTVSPost2010PropOp31
 70
     1
102
RTVSPost2010Prop32
280
     0
102
RTVSPost2010PropOp32
 70
     1
102
RTVSPost2010Prop33
280
     0
102
RTVSPost2010PropOp33
 70
     1
102
RTVSPost2010Prop34
280
     0
102
RTVSPost2010PropOp34
 70
     1
102
RTVSPost2010Prop35
280
     0
102
RTVSPost2010PropOp35
 70
     1
102
RTVSPost2010Prop36
280
     0
102
RTVSPost2010PropOp36
 70
     1
102
RTVSPost2010Prop37
 90
       50
102
RTVSPost2010PropOp37
 70
     1
102
RTVSPost2010Prop38
140
0.0
102
RTVSPost2010PropOp38
 70
     1
102
RTVSPost2010Prop39
140
1.0
102
RTVSPost2010PropOp39
 70
     1
102
RTVSPost2010Prop40
 90
        0
102
RTVSPost2010PropOp40
 70
     1
102
RTVSPost2010Prop41ColorIndex
 90
       18
102
RTVSPost2010Prop41ColorRGB
 90
        0
102
RTVSPost2010PropOp41
 70
     1
102
RTVSPost2010Prop42
 90
       50
102
RTVSPost2010PropOp42
 70
     1
102
RTVSPost2010Prop43
 90
        3
102
RTVSPost2010PropOp43
 70
     1
102
RTVSPost2010Prop44ColorIndex
 90
        5
102
RTVSPost2010Prop44ColorRGB
 90
      255
102
RTVSPost2010PropOp44
 70
     1
102
RTVSPost2010Prop45
280
     0
102
RTVSPost2010PropOp45
 70
     1
102
RTVSPost2010Prop46
 90
       50
102
RTVSPost2010PropOp46
 70
     1
102
RTVSPost2010Prop47
 90
       50
102
RTVSPost2010PropOp47
 70
     1
102
RTVSPost2010Prop48
 90
       50
102
RTVSPost2010PropOp48
 70
     1
102
RTVSPost2010Prop49
280
     0
102
RTVSPost2010PropOp49
 70
     1
102
RTVSPost2010Prop50
 90
       50
102
RTVSPost2010PropOp50
 70
     1
102
RTVSPost2010Prop51ColorIndex
 90
      256
102
RTVSPost2010Prop51ColorRGB
 90
-16777216
102
RTVSPost2010PropOp51
 70
     0
102
RTVSPost2010Prop52
140
1.0
102
RTVSPost2010PropOp52
 70
     0
102
RTVSPost2010Prop53
 90
        2
102
RTVSPost2010PropOp53
 70
     1
102
RTVSPost2010Prop54
  1
strokes_ogs.tif
102
RTVSPost2010PropOp54
 70
     1
102
RTVSPost2010Prop55
280
     0
102
RTVSPost2010PropOp55
 70
     1
102
RTVSPost2010Prop56
140
1.0
102
RTVSPost2010PropOp56
 70
     1
102
RTVSPost2010Prop57
140
1.0
102
RTVSPost2010PropOp57
 70
     1
  0
XRECORD
  5
2FC
102
{ACAD_REACTORS
330
2FB
102
}
330
2FB
100
AcDbXrecord
280
     1
102
RTVSPropertyOp0
 70
     1
102
RTVSPropertyOp1
 70
     1
102
RTVSPropertyOp2
 70
     1
102
RTVSPropertyOp3
 70
     1
102
RTVSPropertyOp4
 70
     1
102
RTVSPropertyOp5
 70
     1
102
RTVSPropertyOp6
 70
     1
102
RTVSPropertyOp7
 70
     1
102
RTVSPropertyOp8
 70
     1
102
RTVSPropertyOp9
 70
     1
102
RTVSPropertyOp10
 70
     1
102
RTVSPropertyOp11
 70
     1
102
RTVSPropertyOp12
 70
     1
102
RTVSPropertyOp13
 70
     1
102
RTVSPropertyOp14
 70
     1
102
RTVSPropertyOp15
 70
     1
102
RTVSPropertyOp16
 70
     1
102
RTVSPropertyOp17
 70
     1
102
RTVSPropertyOp18
 70
     1
102
RTVSPropertyOp19
 70
     1
102
RTVSPropertyOp20
 70
     1
102
RTVSPropertyOp21
 70
     1
102
RTVSPropertyOp22
 70
     1
102
RTVSPropertyOp23
 70
     1
102
RTVSPropertyOp24
 70
     1
102
RTVSPropertyOp25
 70
     1
102
RTVSPropertyOp26
 70
     1
102
RTVSPropertyOp27
 70
     1
102
RTVSPropertyOp28
 70
     1
102
RTVSPropertyOp29
 70
     1
102
RTVSPropertyOp30
 70
     1
102
RTVSPropertyOp31
 70
     1
102
RTVSPropertyOp32
 70
     1
102
RTVSPropertyOp33
 70
     1
102
RTVSPropertyOp34
 70
     1
102
RTVSPropertyOp35
 70
     1
102
RTVSPropertyOp36
 70
     1
102
RTVSPropertyOp37
 70
     1
102
RTVSPropertyOp38
 70
     1
102
RTVSPropertyOp39
 70
     1
102
RTVSPropertyOp40
 70
     1
102
RTVSPropertyOp41
 70
     1
102
RTVSPropertyOp42
 70
     1
102
RTVSPropertyOp43
 70
     1
102
RTVSPropertyOp44
 70
     1
102
RTVSPropertyOp45
 70
     1
102
RTVSPropertyOp46
 70
     1
102
RTVSPropertyOp47
 70
     1
102
RTVSPropertyOp48
 70
     1
102
RTVSPropertyOp49
 70
     1
102
RTVSPropertyOp50
 70
     1
102
RTVSPropertyOp51
 70
     0
102
RTVSPropertyOp52
 70
     0
102
RTVSPropertyOp53
 70
     1
102
RTVSPropertyOp54
 70
     1
102
RTVSPropertyOp55
 70
     1
102
RTVSPropertyOp56
 70
     1
102
RTVSPropertyOp57
 70
     1
102
RTVSPost2010Prop28
280
     0
102
RTVSPost2010PropOp28
 70
     1
102
RTVSPost2010Prop29
280
     1
102
RTVSPost2010PropOp29
 70
     1
102
RTVSPost2010Prop30
280
     1
102
RTVSPost2010PropOp30
 70
     1
102
RTVSPost2010Prop31
280
     0
102
RTVSPost2010PropOp31
 70
     1
102
RTVSPost2010Prop32
280
     0
102
RTVSPost2010PropOp32
 70
     1
102
RTVSPost2010Prop33
280
     0
102
RTVSPost2010PropOp33
 70
     1
102
RTVSPost2010Prop34
280
     0
102
RTVSPost2010PropOp34
 70
     1
102
RTVSPost2010Prop35
280
     0
102
RTVSPost2010PropOp35
 70
     1
102
RTVSPost2010Prop36
280
     0
102
RTVSPost2010PropOp36
 70
     1
102
RTVSPost2010Prop37
 90
       50
102
RTVSPost2010PropOp37
 70
     1
102
RTVSPost2010Prop38
140
0.0
102
RTVSPost2010PropOp38
 70
     1
102
RTVSPost2010Prop39
140
1.0
102
RTVSPost2010PropOp39
 70
     1
102
RTVSPost2010Prop40
 90
        0
102
RTVSPost2010PropOp40
 70
     1
102
RTVSPost2010Prop41ColorIndex
 90
       18
102
RTVSPost2010Prop41ColorRGB
 90
        0
102
RTVSPost2010PropOp41
 70
     1
102
RTVSPost2010Prop42
 90
       50
102
RTVSPost2010PropOp42
 70
     1
102
RTVSPost2010Prop43
 90
        3
102
RTVSPost2010PropOp43
 70
     1
102
RTVSPost2010Prop44ColorIndex
 90
        5
102
RTVSPost2010Prop44ColorRGB
 90
      255
102
RTVSPost2010PropOp44
 70
     1
102
RTVSPost2010Prop45
280
     0
102
RTVSPost2010PropOp45
 70
     1
102
RTVSPost2010Prop46
 90
       50
102
RTVSPost2010PropOp46
 70
     1
102
RTVSPost2010Prop47
 90
       50
102
RTVSPost2010PropOp47
 70
     1
102
RTVSPost2010Prop48
 90
       50
102
RTVSPost2010PropOp48
 70
     1
102
RTVSPost2010Prop49
280
     0
102
RTVSPost2010PropOp49
 70
     1
102
RTVSPost2010Prop50
 90
       50
102
RTVSPost2010PropOp50
 70
     1
102
RTVSPost2010Prop51ColorIndex
 90
      256
102
RTVSPost2010Prop51ColorRGB
 90
-16777216
102
RTVSPost2010PropOp51
 70
     0
102
RTVSPost2010Prop52
140
1.0
102
RTVSPost2010PropOp52
 70
     0
102
RTVSPost2010Prop53
 90
        2
102
RTVSPost2010PropOp53
 70
     1
102
RTVSPost2010Prop54
  1
strokes_ogs.tif
102
RTVSPost2010PropOp54
 70
     1
102
RTVSPost2010Prop55
280
     0
102
RTVSPost2010PropOp55
 70
     1
102
RTVSPost2010Prop56
140
1.0
102
RTVSPost2010PropOp56
 70
     1
102
RTVSPost2010Prop57
140
1.0
102
RTVSPost2010PropOp57
 70
     1
  0
XRECORD
  5
2F0
102
{ACAD_REACTORS
330
2EF
102
}
330
2EF
100
AcDbXrecord
280
     1
102
RTVSPropertyOp0
 70
     1
102
RTVSPropertyOp1
 70
     1
102
RTVSPropertyOp2
 70
     1
102
RTVSPropertyOp3
 70
     1
102
RTVSPropertyOp4
 70
     1
102
RTVSPropertyOp5
 70
     1
102
RTVSPropertyOp6
 70
     1
102
RTVSPropertyOp7
 70
     1
102
RTVSPropertyOp8
 70
     1
102
RTVSPropertyOp9
 70
     1
102
RTVSPropertyOp10
 70
     1
102
RTVSPropertyOp11
 70
     1
102
RTVSPropertyOp12
 70
     1
102
RTVSPropertyOp13
 70
     1
102
RTVSPropertyOp14
 70
     1
102
RTVSPropertyOp15
 70
     1
102
RTVSPropertyOp16
 70
     1
102
RTVSPropertyOp17
 70
     1
102
RTVSPropertyOp18
 70
     1
102
RTVSPropertyOp19
 70
     1
102
RTVSPropertyOp20
 70
     1
102
RTVSPropertyOp21
 70
     1
102
RTVSPropertyOp22
 70
     1
102
RTVSPropertyOp23
 70
     1
102
RTVSPropertyOp24
 70
     1
102
RTVSPropertyOp25
 70
     1
102
RTVSPropertyOp26
 70
     1
102
RTVSPropertyOp27
 70
     1
102
RTVSPropertyOp28
 70
     1
102
RTVSPropertyOp29
 70
     1
102
RTVSPropertyOp30
 70
     1
102
RTVSPropertyOp31
 70
     1
102
RTVSPropertyOp32
 70
     1
102
RTVSPropertyOp33
 70
     1
102
RTVSPropertyOp34
 70
     1
102
RTVSPropertyOp35
 70
     1
102
RTVSPropertyOp36
 70
     1
102
RTVSPropertyOp37
 70
     1
102
RTVSPropertyOp38
 70
     1
102
RTVSPropertyOp39
 70
     1
102
RTVSPropertyOp40
 70
     1
102
RTVSPropertyOp41
 70
     1
102
RTVSPropertyOp42
 70
     1
102
RTVSPropertyOp43
 70
     1
102
RTVSPropertyOp44
 70
     1
102
RTVSPropertyOp45
 70
     1
102
RTVSPropertyOp46
 70
     1
102
RTVSPropertyOp47
 70
     1
102
RTVSPropertyOp48
 70
     1
102
RTVSPropertyOp49
 70
     1
102
RTVSPropertyOp50
 70
     1
102
RTVSPropertyOp51
 70
     0
102
RTVSPropertyOp52
 70
     0
102
RTVSPropertyOp53
 70
     1
102
RTVSPropertyOp54
 70
     1
102
RTVSPropertyOp55
 70
     1
102
RTVSPropertyOp56
 70
     1
102
RTVSPropertyOp57
 70
     1
102
RTVSPost2010Prop28
280
     0
102
RTVSPost2010PropOp28
 70
     1
102
RTVSPost2010Prop29
280
     1
102
RTVSPost2010PropOp29
 70
     1
102
RTVSPost2010Prop30
280
     1
102
RTVSPost2010PropOp30
 70
     1
102
RTVSPost2010Prop31
280
     0
102
RTVSPost2010PropOp31
 70
     1
102
RTVSPost2010Prop32
280
     0
102
RTVSPost2010PropOp32
 70
     1
102
RTVSPost2010Prop33
280
     0
102
RTVSPost2010PropOp33
 70
     1
102
RTVSPost2010Prop34
280
     0
102
RTVSPost2010PropOp34
 70
     1
102
RTVSPost2010Prop35
280
     0
102
RTVSPost2010PropOp35
 70
     1
102
RTVSPost2010Prop36
280
     0
102
RTVSPost2010PropOp36
 70
     1
102
RTVSPost2010Prop37
 90
       50
102
RTVSPost2010PropOp37
 70
     1
102
RTVSPost2010Prop38
140
0.0
102
RTVSPost2010PropOp38
 70
     1
102
RTVSPost2010Prop39
140
1.0
102
RTVSPost2010PropOp39
 70
     1
102
RTVSPost2010Prop40
 90
        0
102
RTVSPost2010PropOp40
 70
     1
102
RTVSPost2010Prop41ColorIndex
 90
       18
102
RTVSPost2010Prop41ColorRGB
 90
        0
102
RTVSPost2010PropOp41
 70
     1
102
RTVSPost2010Prop42
 90
       50
102
RTVSPost2010PropOp42
 70
     1
102
RTVSPost2010Prop43
 90
        3
102
RTVSPost2010PropOp43
 70
     1
102
RTVSPost2010Prop44ColorIndex
 90
        5
102
RTVSPost2010Prop44ColorRGB
 90
      255
102
RTVSPost2010PropOp44
 70
     1
102
RTVSPost2010Prop45
280
     0
102
RTVSPost2010PropOp45
 70
     1
102
RTVSPost2010Prop46
 90
       50
102
RTVSPost2010PropOp46
 70
     1
102
RTVSPost2010Prop47
 90
       50
102
RTVSPost2010PropOp47
 70
     1
102
RTVSPost2010Prop48
 90
       50
102
RTVSPost2010PropOp48
 70
     1
102
RTVSPost2010Prop49
280
     0
102
RTVSPost2010PropOp49
 70
     1
102
RTVSPost2010Prop50
 90
       50
102
RTVSPost2010PropOp50
 70
     1
102
RTVSPost2010Prop51ColorIndex
 90
      256
102
RTVSPost2010Prop51ColorRGB
 90
-16777216
102
RTVSPost2010PropOp51
 70
     0
102
RTVSPost2010Prop52
140
1.0
102
RTVSPost2010PropOp52
 70
     0
102
RTVSPost2010Prop53
 90
        2
102
RTVSPost2010PropOp53
 70
     1
102
RTVSPost2010Prop54
  1
strokes_ogs.tif
102
RTVSPost2010PropOp54
 70
     1
102
RTVSPost2010Prop55
280
     0
102
RTVSPost2010PropOp55
 70
     1
102
RTVSPost2010Prop56
140
1.0
102
RTVSPost2010PropOp56
 70
     1
102
RTVSPost2010Prop57
140
1.0
102
RTVSPost2010PropOp57
 70
     1
  0
XRECORD
  5
2F2
102
{ACAD_REACTORS
330
2F1
102
}
330
2F1
100
AcDbXrecord
280
     1
102
RTVSPropertyOp0
 70
     1
102
RTVSPropertyOp1
 70
     1
102
RTVSPropertyOp2
 70
     1
102
RTVSPropertyOp3
 70
     1
102
RTVSPropertyOp4
 70
     1
102
RTVSPropertyOp5
 70
     1
102
RTVSPropertyOp6
 70
     1
102
RTVSPropertyOp7
 70
     1
102
RTVSPropertyOp8
 70
     1
102
RTVSPropertyOp9
 70
     1
102
RTVSPropertyOp10
 70
     1
102
RTVSPropertyOp11
 70
     1
102
RTVSPropertyOp12
 70
     1
102
RTVSPropertyOp13
 70
     1
102
RTVSPropertyOp14
 70
     1
102
RTVSPropertyOp15
 70
     1
102
RTVSPropertyOp16
 70
     1
102
RTVSPropertyOp17
 70
     1
102
RTVSPropertyOp18
 70
     1
102
RTVSPropertyOp19
 70
     1
102
RTVSPropertyOp20
 70
     1
102
RTVSPropertyOp21
 70
     1
102
RTVSPropertyOp22
 70
     1
102
RTVSPropertyOp23
 70
     1
102
RTVSPropertyOp24
 70
     1
102
RTVSPropertyOp25
 70
     1
102
RTVSPropertyOp26
 70
     1
102
RTVSPropertyOp27
 70
     1
102
RTVSPropertyOp28
 70
     1
102
RTVSPropertyOp29
 70
     1
102
RTVSPropertyOp30
 70
     1
102
RTVSPropertyOp31
 70
     1
102
RTVSPropertyOp32
 70
     1
102
RTVSPropertyOp33
 70
     1
102
RTVSPropertyOp34
 70
     1
102
RTVSPropertyOp35
 70
     1
102
RTVSPropertyOp36
 70
     1
102
RTVSPropertyOp37
 70
     1
102
RTVSPropertyOp38
 70
     1
102
RTVSPropertyOp39
 70
     1
102
RTVSPropertyOp40
 70
     1
102
RTVSPropertyOp41
 70
     1
102
RTVSPropertyOp42
 70
     1
102
RTVSPropertyOp43
 70
     1
102
RTVSPropertyOp44
 70
     1
102
RTVSPropertyOp45
 70
     1
102
RTVSPropertyOp46
 70
     1
102
RTVSPropertyOp47
 70
     1
102
RTVSPropertyOp48
 70
     1
102
RTVSPropertyOp49
 70
     1
102
RTVSPropertyOp50
 70
     1
102
RTVSPropertyOp51
 70
     0
102
RTVSPropertyOp52
 70
     0
102
RTVSPropertyOp53
 70
     1
102
RTVSPropertyOp54
 70
     1
102
RTVSPropertyOp55
 70
     1
102
RTVSPropertyOp56
 70
     1
102
RTVSPropertyOp57
 70
     1
102
RTVSPost2010Prop28
280
     0
102
RTVSPost2010PropOp28
 70
     1
102
RTVSPost2010Prop29
280
     1
102
RTVSPost2010PropOp29
 70
     1
102
RTVSPost2010Prop30
280
     1
102
RTVSPost2010PropOp30
 70
     1
102
RTVSPost2010Prop31
280
     0
102
RTVSPost2010PropOp31
 70
     1
102
RTVSPost2010Prop32
280
     0
102
RTVSPost2010PropOp32
 70
     1
102
RTVSPost2010Prop33
280
     0
102
RTVSPost2010PropOp33
 70
     1
102
RTVSPost2010Prop34
280
     0
102
RTVSPost2010PropOp34
 70
     1
102
RTVSPost2010Prop35
280
     0
102
RTVSPost2010PropOp35
 70
     1
102
RTVSPost2010Prop36
280
     0
102
RTVSPost2010PropOp36
 70
     1
102
RTVSPost2010Prop37
 90
       50
102
RTVSPost2010PropOp37
 70
     1
102
RTVSPost2010Prop38
140
0.0
102
RTVSPost2010PropOp38
 70
     1
102
RTVSPost2010Prop39
140
1.0
102
RTVSPost2010PropOp39
 70
     1
102
RTVSPost2010Prop40
 90
        0
102
RTVSPost2010PropOp40
 70
     1
102
RTVSPost2010Prop41ColorIndex
 90
       18
102
RTVSPost2010Prop41ColorRGB
 90
        0
102
RTVSPost2010PropOp41
 70
     1
102
RTVSPost2010Prop42
 90
       50
102
RTVSPost2010PropOp42
 70
     1
102
RTVSPost2010Prop43
 90
        3
102
RTVSPost2010PropOp43
 70
     1
102
RTVSPost2010Prop44ColorIndex
 90
        5
102
RTVSPost2010Prop44ColorRGB
 90
      255
102
RTVSPost2010PropOp44
 70
     1
102
RTVSPost2010Prop45
280
     0
102
RTVSPost2010PropOp45
 70
     1
102
RTVSPost2010Prop46
 90
       50
102
RTVSPost2010PropOp46
 70
     1
102
RTVSPost2010Prop47
 90
       50
102
RTVSPost2010PropOp47
 70
     1
102
RTVSPost2010Prop48
 90
       50
102
RTVSPost2010PropOp48
 70
     1
102
RTVSPost2010Prop49
280
     0
102
RTVSPost2010PropOp49
 70
     1
102
RTVSPost2010Prop50
 90
       50
102
RTVSPost2010PropOp50
 70
     1
102
RTVSPost2010Prop51ColorIndex
 90
      256
102
RTVSPost2010Prop51ColorRGB
 90
-16777216
102
RTVSPost2010PropOp51
 70
     0
102
RTVSPost2010Prop52
140
1.0
102
RTVSPost2010PropOp52
 70
     0
102
RTVSPost2010Prop53
 90
        2
102
RTVSPost2010PropOp53
 70
     1
102
RTVSPost2010Prop54
  1
strokes_ogs.tif
102
RTVSPost2010PropOp54
 70
     1
102
RTVSPost2010Prop55
280
     0
102
RTVSPost2010PropOp55
 70
     1
102
RTVSPost2010Prop56
140
1.0
102
RTVSPost2010PropOp56
 70
     1
102
RTVSPost2010Prop57
140
1.0
102
RTVSPost2010PropOp57
 70
     1
  0
XRECORD
  5
302
102
{ACAD_REACTORS
330
301
102
}
330
301
100
AcDbXrecord
280
     1
102
RTVSPropertyOp0
 70
     0
102
RTVSPropertyOp1
 70
     0
102
RTVSPropertyOp2
 70
     0
102
RTVSPropertyOp3
 70
     0
102
RTVSPropertyOp4
 70
     0
102
RTVSPropertyOp5
 70
     0
102
RTVSPropertyOp6
 70
     0
102
RTVSPropertyOp7
 70
     0
102
RTVSPropertyOp8
 70
     0
102
RTVSPropertyOp9
 70
     0
102
RTVSPropertyOp10
 70
     0
102
RTVSPropertyOp11
 70
     0
102
RTVSPropertyOp12
 70
     0
102
RTVSPropertyOp13
 70
     0
102
RTVSPropertyOp14
 70
     2
102
RTVSPropertyOp15
 70
     0
102
RTVSPropertyOp16
 70
     0
102
RTVSPropertyOp17
 70
     0
102
RTVSPropertyOp18
 70
     0
102
RTVSPropertyOp19
 70
     0
102
RTVSPropertyOp20
 70
     0
102
RTVSPropertyOp21
 70
     0
102
RTVSPropertyOp22
 70
     0
102
RTVSPropertyOp23
 70
     0
102
RTVSPropertyOp24
 70
     0
102
RTVSPropertyOp25
 70
     0
102
RTVSPropertyOp26
 70
     0
102
RTVSPropertyOp27
 70
     0
102
RTVSPropertyOp28
 70
     0
102
RTVSPropertyOp29
 70
     0
102
RTVSPropertyOp30
 70
     0
102
RTVSPropertyOp31
 70
     0
102
RTVSPropertyOp32
 70
     0
102
RTVSPropertyOp33
 70
     0
102
RTVSPropertyOp34
 70
     0
102
RTVSPropertyOp35
 70
     0
102
RTVSPropertyOp36
 70
     0
102
RTVSPropertyOp37
 70
     0
102
RTVSPropertyOp38
 70
     0
102
RTVSPropertyOp39
 70
     0
102
RTVSPropertyOp40
 70
     0
102
RTVSPropertyOp41
 70
     0
102
RTVSPropertyOp42
 70
     0
102
RTVSPropertyOp43
 70
     0
102
RTVSPropertyOp44
 70
     0
102
RTVSPropertyOp45
 70
     0
102
RTVSPropertyOp46
 70
     0
102
RTVSPropertyOp47
 70
     0
102
RTVSPropertyOp48
 70
     0
102
RTVSPropertyOp49
 70
     0
102
RTVSPropertyOp50
 70
     0
102
RTVSPropertyOp51
 70
     0
102
RTVSPropertyOp52
 70
     0
102
RTVSPropertyOp53
 70
     0
102
RTVSPropertyOp54
 70
     0
102
RTVSPropertyOp55
 70
     0
102
RTVSPropertyOp56
 70
     0
102
RTVSPropertyOp57
 70
     0
102
RTVSPost2010Prop28
280
     0
102
RTVSPost2010PropOp28
 70
     0
102
RTVSPost2010Prop29
280
     1
102
RTVSPost2010PropOp29
 70
     0
102
RTVSPost2010Prop30
280
     1
102
RTVSPost2010PropOp30
 70
     0
102
RTVSPost2010Prop31
280
     0
102
RTVSPost2010PropOp31
 70
     0
102
RTVSPost2010Prop32
280
     0
102
RTVSPost2010PropOp32
 70
     0
102
RTVSPost2010Prop33
280
     0
102
RTVSPost2010PropOp33
 70
     0
102
RTVSPost2010Prop34
280
     0
102
RTVSPost2010PropOp34
 70
     0
102
RTVSPost2010Prop35
280
     0
102
RTVSPost2010PropOp35
 70
     0
102
RTVSPost2010Prop36
280
     0
102
RTVSPost2010PropOp36
 70
     0
102
RTVSPost2010Prop37
 90
       50
102
RTVSPost2010PropOp37
 70
     0
102
RTVSPost2010Prop38
140
0.0
102
RTVSPost2010PropOp38
 70
     0
102
RTVSPost2010Prop39
140
1.0
102
RTVSPost2010PropOp39
 70
     0
102
RTVSPost2010Prop40
 90
        0
102
RTVSPost2010PropOp40
 70
     0
102
RTVSPost2010Prop41ColorIndex
 90
       18
102
RTVSPost2010Prop41ColorRGB
 90
        0
102
RTVSPost2010PropOp41
 70
     0
102
RTVSPost2010Prop42
 90
       50
102
RTVSPost2010PropOp42
 70
     0
102
RTVSPost2010Prop43
 90
        3
102
RTVSPost2010PropOp43
 70
     0
102
RTVSPost2010Prop44ColorIndex
 90
        5
102
RTVSPost2010Prop44ColorRGB
 90
      255
102
RTVSPost2010PropOp44
 70
     0
102
RTVSPost2010Prop45
280
     0
102
RTVSPost2010PropOp45
 70
     0
102
RTVSPost2010Prop46
 90
       50
102
RTVSPost2010PropOp46
 70
     0
102
RTVSPost2010Prop47
 90
       50
102
RTVSPost2010PropOp47
 70
     0
102
RTVSPost2010Prop48
 90
       50
102
RTVSPost2010PropOp48
 70
     0
102
RTVSPost2010Prop49
280
     0
102
RTVSPost2010PropOp49
 70
     0
102
RTVSPost2010Prop50
 90
       50
102
RTVSPost2010PropOp50
 70
     0
102
RTVSPost2010Prop51ColorIndex
 90
      256
102
RTVSPost2010Prop51ColorRGB
 90
-16777216
102
RTVSPost2010PropOp51
 70
     0
102
RTVSPost2010Prop52
140
1.0
102
RTVSPost2010PropOp52
 70
     0
102
RTVSPost2010Prop53
 90
        2
102
RTVSPost2010PropOp53
 70
     0
102
RTVSPost2010Prop54
  1
strokes_ogs.tif
102
RTVSPost2010PropOp54
 70
     0
102
RTVSPost2010Prop55
280
     0
102
RTVSPost2010PropOp55
 70
     0
102
RTVSPost2010Prop56
140
1.0
102
RTVSPost2010PropOp56
 70
     0
102
RTVSPost2010Prop57
140
1.0
102
RTVSPost2010PropOp57
 70
     0
  0
XRECORD
  5
2FA
102
{ACAD_REACTORS
330
2F9
102
}
330
2F9
100
AcDbXrecord
280
     1
102
RTVSPropertyOp0
 70
     1
102
RTVSPropertyOp1
 70
     1
102
RTVSPropertyOp2
 70
     1
102
RTVSPropertyOp3
 70
     1
102
RTVSPropertyOp4
 70
     1
102
RTVSPropertyOp5
 70
     1
102
RTVSPropertyOp6
 70
     1
102
RTVSPropertyOp7
 70
     1
102
RTVSPropertyOp8
 70
     1
102
RTVSPropertyOp9
 70
     1
102
RTVSPropertyOp10
 70
     1
102
RTVSPropertyOp11
 70
     1
102
RTVSPropertyOp12
 70
     1
102
RTVSPropertyOp13
 70
     1
102
RTVSPropertyOp14
 70
     1
102
RTVSPropertyOp15
 70
     1
102
RTVSPropertyOp16
 70
     1
102
RTVSPropertyOp17
 70
     1
102
RTVSPropertyOp18
 70
     1
102
RTVSPropertyOp19
 70
     1
102
RTVSPropertyOp20
 70
     1
102
RTVSPropertyOp21
 70
     1
102
RTVSPropertyOp22
 70
     1
102
RTVSPropertyOp23
 70
     1
102
RTVSPropertyOp24
 70
     1
102
RTVSPropertyOp25
 70
     1
102
RTVSPropertyOp26
 70
     1
102
RTVSPropertyOp27
 70
     1
102
RTVSPropertyOp28
 70
     1
102
RTVSPropertyOp29
 70
     1
102
RTVSPropertyOp30
 70
     1
102
RTVSPropertyOp31
 70
     1
102
RTVSPropertyOp32
 70
     1
102
RTVSPropertyOp33
 70
     1
102
RTVSPropertyOp34
 70
     1
102
RTVSPropertyOp35
 70
     1
102
RTVSPropertyOp36
 70
     1
102
RTVSPropertyOp37
 70
     1
102
RTVSPropertyOp38
 70
     1
102
RTVSPropertyOp39
 70
     1
102
RTVSPropertyOp40
 70
     1
102
RTVSPropertyOp41
 70
     1
102
RTVSPropertyOp42
 70
     1
102
RTVSPropertyOp43
 70
     1
102
RTVSPropertyOp44
 70
     1
102
RTVSPropertyOp45
 70
     1
102
RTVSPropertyOp46
 70
     1
102
RTVSPropertyOp47
 70
     1
102
RTVSPropertyOp48
 70
     1
102
RTVSPropertyOp49
 70
     1
102
RTVSPropertyOp50
 70
     1
102
RTVSPropertyOp51
 70
     0
102
RTVSPropertyOp52
 70
     0
102
RTVSPropertyOp53
 70
     1
102
RTVSPropertyOp54
 70
     1
102
RTVSPropertyOp55
 70
     1
102
RTVSPropertyOp56
 70
     1
102
RTVSPropertyOp57
 70
     1
102
RTVSPost2010Prop28
280
     0
102
RTVSPost2010PropOp28
 70
     1
102
RTVSPost2010Prop29
280
     1
102
RTVSPost2010PropOp29
 70
     1
102
RTVSPost2010Prop30
280
     1
102
RTVSPost2010PropOp30
 70
     1
102
RTVSPost2010Prop31
280
     0
102
RTVSPost2010PropOp31
 70
     1
102
RTVSPost2010Prop32
280
     0
102
RTVSPost2010PropOp32
 70
     1
102
RTVSPost2010Prop33
280
     0
102
RTVSPost2010PropOp33
 70
     1
102
RTVSPost2010Prop34
280
     0
102
RTVSPost2010PropOp34
 70
     1
102
RTVSPost2010Prop35
280
     0
102
RTVSPost2010PropOp35
 70
     1
102
RTVSPost2010Prop36
280
     0
102
RTVSPost2010PropOp36
 70
     1
102
RTVSPost2010Prop37
 90
       50
102
RTVSPost2010PropOp37
 70
     1
102
RTVSPost2010Prop38
140
0.0
102
RTVSPost2010PropOp38
 70
     1
102
RTVSPost2010Prop39
140
1.0
102
RTVSPost2010PropOp39
 70
     1
102
RTVSPost2010Prop40
 90
        0
102
RTVSPost2010PropOp40
 70
     1
102
RTVSPost2010Prop41ColorIndex
 90
       18
102
RTVSPost2010Prop41ColorRGB
 90
        0
102
RTVSPost2010PropOp41
 70
     1
102
RTVSPost2010Prop42
 90
       50
102
RTVSPost2010PropOp42
 70
     1
102
RTVSPost2010Prop43
 90
        3
102
RTVSPost2010PropOp43
 70
     1
102
RTVSPost2010Prop44ColorIndex
 90
        5
102
RTVSPost2010Prop44ColorRGB
 90
      255
102
RTVSPost2010PropOp44
 70
     1
102
RTVSPost2010Prop45
280
     0
102
RTVSPost2010PropOp45
 70
     1
102
RTVSPost2010Prop46
 90
       50
102
RTVSPost2010PropOp46
 70
     1
102
RTVSPost2010Prop47
 90
       50
102
RTVSPost2010PropOp47
 70
     1
102
RTVSPost2010Prop48
 90
       50
102
RTVSPost2010PropOp48
 70
     1
102
RTVSPost2010Prop49
280
     0
102
RTVSPost2010PropOp49
 70
     1
102
RTVSPost2010Prop50
 90
       50
102
RTVSPost2010PropOp50
 70
     1
102
RTVSPost2010Prop51ColorIndex
 90
      256
102
RTVSPost2010Prop51ColorRGB
 90
-16777216
102
RTVSPost2010PropOp51
 70
     0
102
RTVSPost2010Prop52
140
1.0
102
RTVSPost2010PropOp52
 70
     0
102
RTVSPost2010Prop53
 90
        2
102
RTVSPost2010PropOp53
 70
     1
102
RTVSPost2010Prop54
  1
strokes_ogs.tif
102
RTVSPost2010PropOp54
 70
     1
102
RTVSPost2010Prop55
280
     0
102
RTVSPost2010PropOp55
 70
     1
102
RTVSPost2010Prop56
140
1.0
102
RTVSPost2010PropOp56
 70
     1
102
RTVSPost2010Prop57
140
1.0
102
RTVSPost2010PropOp57
 70
     1
  0
XRECORD
  5
2DE
102
{ACAD_REACTORS
330
2DD
102
}
330
2DD
100
AcDbXrecord
280
     1
102
RTVSPropertyOp0
 70
     1
102
RTVSPropertyOp1
 70
     1
102
RTVSPropertyOp2
 70
     1
102
RTVSPropertyOp3
 70
     1
102
RTVSPropertyOp4
 70
     1
102
RTVSPropertyOp5
 70
     1
102
RTVSPropertyOp6
 70
     1
102
RTVSPropertyOp7
 70
     1
102
RTVSPropertyOp8
 70
     1
102
RTVSPropertyOp9
 70
     1
102
RTVSPropertyOp10
 70
     1
102
RTVSPropertyOp11
 70
     1
102
RTVSPropertyOp12
 70
     1
102
RTVSPropertyOp13
 70
     1
102
RTVSPropertyOp14
 70
     1
102
RTVSPropertyOp15
 70
     1
102
RTVSPropertyOp16
 70
     1
102
RTVSPropertyOp17
 70
     1
102
RTVSPropertyOp18
 70
     1
102
RTVSPropertyOp19
 70
     1
102
RTVSPropertyOp20
 70
     1
102
RTVSPropertyOp21
 70
     1
102
RTVSPropertyOp22
 70
     1
102
RTVSPropertyOp23
 70
     1
102
RTVSPropertyOp24
 70
     1
102
RTVSPropertyOp25
 70
     1
102
RTVSPropertyOp26
 70
     1
102
RTVSPropertyOp27
 70
     1
102
RTVSPropertyOp28
 70
     1
102
RTVSPropertyOp29
 70
     1
102
RTVSPropertyOp30
 70
     1
102
RTVSPropertyOp31
 70
     1
102
RTVSPropertyOp32
 70
     1
102
RTVSPropertyOp33
 70
     1
102
RTVSPropertyOp34
 70
     1
102
RTVSPropertyOp35
 70
     1
102
RTVSPropertyOp36
 70
     1
102
RTVSPropertyOp37
 70
     1
102
RTVSPropertyOp38
 70
     1
102
RTVSPropertyOp39
 70
     1
102
RTVSPropertyOp40
 70
     1
102
RTVSPropertyOp41
 70
     1
102
RTVSPropertyOp42
 70
     1
102
RTVSPropertyOp43
 70
     1
102
RTVSPropertyOp44
 70
     1
102
RTVSPropertyOp45
 70
     1
102
RTVSPropertyOp46
 70
     1
102
RTVSPropertyOp47
 70
     1
102
RTVSPropertyOp48
 70
     1
102
RTVSPropertyOp49
 70
     1
102
RTVSPropertyOp50
 70
     1
102
RTVSPropertyOp51
 70
     0
102
RTVSPropertyOp52
 70
     0
102
RTVSPropertyOp53
 70
     1
102
RTVSPropertyOp54
 70
     1
102
RTVSPropertyOp55
 70
     1
102
RTVSPropertyOp56
 70
     1
102
RTVSPropertyOp57
 70
     1
102
RTVSPost2010Prop28
280
     0
102
RTVSPost2010PropOp28
 70
     1
102
RTVSPost2010Prop29
280
     1
102
RTVSPost2010PropOp29
 70
     1
102
RTVSPost2010Prop30
280
     1
102
RTVSPost2010PropOp30
 70
     1
102
RTVSPost2010Prop31
280
     0
102
RTVSPost2010PropOp31
 70
     1
102
RTVSPost2010Prop32
280
     0
102
RTVSPost2010PropOp32
 70
     1
102
RTVSPost2010Prop33
280
     0
102
RTVSPost2010PropOp33
 70
     1
102
RTVSPost2010Prop34
280
     0
102
RTVSPost2010PropOp34
 70
     1
102
RTVSPost2010Prop35
280
     0
102
RTVSPost2010PropOp35
 70
     1
102
RTVSPost2010Prop36
280
     0
102
RTVSPost2010PropOp36
 70
     1
102
RTVSPost2010Prop37
 90
       50
102
RTVSPost2010PropOp37
 70
     1
102
RTVSPost2010Prop38
140
0.0
102
RTVSPost2010PropOp38
 70
     1
102
RTVSPost2010Prop39
140
1.0
102
RTVSPost2010PropOp39
 70
     1
102
RTVSPost2010Prop40
 90
        0
102
RTVSPost2010PropOp40
 70
     1
102
RTVSPost2010Prop41ColorIndex
 90
       18
102
RTVSPost2010Prop41ColorRGB
 90
        0
102
RTVSPost2010PropOp41
 70
     1
102
RTVSPost2010Prop42
 90
       50
102
RTVSPost2010PropOp42
 70
     1
102
RTVSPost2010Prop43
 90
        3
102
RTVSPost2010PropOp43
 70
     1
102
RTVSPost2010Prop44ColorIndex
 90
        5
102
RTVSPost2010Prop44ColorRGB
 90
      255
102
RTVSPost2010PropOp44
 70
     1
102
RTVSPost2010Prop45
280
     0
102
RTVSPost2010PropOp45
 70
     1
102
RTVSPost2010Prop46
 90
       50
102
RTVSPost2010PropOp46
 70
     1
102
RTVSPost2010Prop47
 90
       50
102
RTVSPost2010PropOp47
 70
     1
102
RTVSPost2010Prop48
 90
       50
102
RTVSPost2010PropOp48
 70
     1
102
RTVSPost2010Prop49
280
     0
102
RTVSPost2010PropOp49
 70
     1
102
RTVSPost2010Prop50
 90
       50
102
RTVSPost2010PropOp50
 70
     1
102
RTVSPost2010Prop51ColorIndex
 90
      256
102
RTVSPost2010Prop51ColorRGB
 90
-16777216
102
RTVSPost2010PropOp51
 70
     0
102
RTVSPost2010Prop52
140
1.0
102
RTVSPost2010PropOp52
 70
     0
102
RTVSPost2010Prop53
 90
        2
102
RTVSPost2010PropOp53
 70
     1
102
RTVSPost2010Prop54
  1
strokes_ogs.tif
102
RTVSPost2010PropOp54
 70
     1
102
RTVSPost2010Prop55
280
     0
102
RTVSPost2010PropOp55
 70
     1
102
RTVSPost2010Prop56
140
1.0
102
RTVSPost2010PropOp56
 70
     1
102
RTVSPost2010Prop57
140
1.0
102
RTVSPost2010PropOp57
 70
     1
  0
XRECORD
  5
2E0
102
{ACAD_REACTORS
330
2DF
102
}
330
2DF
100
AcDbXrecord
280
     1
102
RTVSPropertyOp0
 70
     1
102
RTVSPropertyOp1
 70
     1
102
RTVSPropertyOp2
 70
     1
102
RTVSPropertyOp3
 70
     1
102
RTVSPropertyOp4
 70
     1
102
RTVSPropertyOp5
 70
     1
102
RTVSPropertyOp6
 70
     1
102
RTVSPropertyOp7
 70
     1
102
RTVSPropertyOp8
 70
     1
102
RTVSPropertyOp9
 70
     1
102
RTVSPropertyOp10
 70
     1
102
RTVSPropertyOp11
 70
     1
102
RTVSPropertyOp12
 70
     1
102
RTVSPropertyOp13
 70
     1
102
RTVSPropertyOp14
 70
     1
102
RTVSPropertyOp15
 70
     1
102
RTVSPropertyOp16
 70
     1
102
RTVSPropertyOp17
 70
     1
102
RTVSPropertyOp18
 70
     1
102
RTVSPropertyOp19
 70
     1
102
RTVSPropertyOp20
 70
     1
102
RTVSPropertyOp21
 70
     1
102
RTVSPropertyOp22
 70
     1
102
RTVSPropertyOp23
 70
     1
102
RTVSPropertyOp24
 70
     1
102
RTVSPropertyOp25
 70
     1
102
RTVSPropertyOp26
 70
     1
102
RTVSPropertyOp27
 70
     1
102
RTVSPropertyOp28
 70
     1
102
RTVSPropertyOp29
 70
     1
102
RTVSPropertyOp30
 70
     1
102
RTVSPropertyOp31
 70
     1
102
RTVSPropertyOp32
 70
     1
102
RTVSPropertyOp33
 70
     1
102
RTVSPropertyOp34
 70
     1
102
RTVSPropertyOp35
 70
     1
102
RTVSPropertyOp36
 70
     1
102
RTVSPropertyOp37
 70
     1
102
RTVSPropertyOp38
 70
     1
102
RTVSPropertyOp39
 70
     1
102
RTVSPropertyOp40
 70
     1
102
RTVSPropertyOp41
 70
     1
102
RTVSPropertyOp42
 70
     1
102
RTVSPropertyOp43
 70
     1
102
RTVSPropertyOp44
 70
     1
102
RTVSPropertyOp45
 70
     1
102
RTVSPropertyOp46
 70
     1
102
RTVSPropertyOp47
 70
     1
102
RTVSPropertyOp48
 70
     1
102
RTVSPropertyOp49
 70
     1
102
RTVSPropertyOp50
 70
     1
102
RTVSPropertyOp51
 70
     0
102
RTVSPropertyOp52
 70
     0
102
RTVSPropertyOp53
 70
     1
102
RTVSPropertyOp54
 70
     1
102
RTVSPropertyOp55
 70
     1
102
RTVSPropertyOp56
 70
     1
102
RTVSPropertyOp57
 70
     1
102
RTVSPost2010Prop28
280
     0
102
RTVSPost2010PropOp28
 70
     1
102
RTVSPost2010Prop29
280
     1
102
RTVSPost2010PropOp29
 70
     1
102
RTVSPost2010Prop30
280
     1
102
RTVSPost2010PropOp30
 70
     1
102
RTVSPost2010Prop31
280
     0
102
RTVSPost2010PropOp31
 70
     1
102
RTVSPost2010Prop32
280
     0
102
RTVSPost2010PropOp32
 70
     1
102
RTVSPost2010Prop33
280
     0
102
RTVSPost2010PropOp33
 70
     1
102
RTVSPost2010Prop34
280
     0
102
RTVSPost2010PropOp34
 70
     1
102
RTVSPost2010Prop35
280
     0
102
RTVSPost2010PropOp35
 70
     1
102
RTVSPost2010Prop36
280
     0
102
RTVSPost2010PropOp36
 70
     1
102
RTVSPost2010Prop37
 90
       50
102
RTVSPost2010PropOp37
 70
     1
102
RTVSPost2010Prop38
140
0.0
102
RTVSPost2010PropOp38
 70
     1
102
RTVSPost2010Prop39
140
1.0
102
RTVSPost2010PropOp39
 70
     1
102
RTVSPost2010Prop40
 90
        0
102
RTVSPost2010PropOp40
 70
     1
102
RTVSPost2010Prop41ColorIndex
 90
       18
102
RTVSPost2010Prop41ColorRGB
 90
        0
102
RTVSPost2010PropOp41
 70
     1
102
RTVSPost2010Prop42
 90
       50
102
RTVSPost2010PropOp42
 70
     1
102
RTVSPost2010Prop43
 90
        3
102
RTVSPost2010PropOp43
 70
     1
102
RTVSPost2010Prop44ColorIndex
 90
        5
102
RTVSPost2010Prop44ColorRGB
 90
      255
102
RTVSPost2010PropOp44
 70
     1
102
RTVSPost2010Prop45
280
     0
102
RTVSPost2010PropOp45
 70
     1
102
RTVSPost2010Prop46
 90
       50
102
RTVSPost2010PropOp46
 70
     1
102
RTVSPost2010Prop47
 90
       50
102
RTVSPost2010PropOp47
 70
     1
102
RTVSPost2010Prop48
 90
       50
102
RTVSPost2010PropOp48
 70
     1
102
RTVSPost2010Prop49
280
     0
102
RTVSPost2010PropOp49
 70
     1
102
RTVSPost2010Prop50
 90
       50
102
RTVSPost2010PropOp50
 70
     1
102
RTVSPost2010Prop51ColorIndex
 90
      256
102
RTVSPost2010Prop51ColorRGB
 90
-16777216
102
RTVSPost2010PropOp51
 70
     0
102
RTVSPost2010Prop52
140
1.0
102
RTVSPost2010PropOp52
 70
     0
102
RTVSPost2010Prop53
 90
        2
102
RTVSPost2010PropOp53
 70
     1
102
RTVSPost2010Prop54
  1
strokes_ogs.tif
102
RTVSPost2010PropOp54
 70
     1
102
RTVSPost2010Prop55
280
     0
102
RTVSPost2010PropOp55
 70
     1
102
RTVSPost2010Prop56
140
1.0
102
RTVSPost2010PropOp56
 70
     1
102
RTVSPost2010Prop57
140
1.0
102
RTVSPost2010PropOp57
 70
     1
  0
XRECORD
  5
2E2
102
{ACAD_REACTORS
330
2E1
102
}
330
2E1
100
AcDbXrecord
280
     1
102
RTVSPropertyOp0
 70
     1
102
RTVSPropertyOp1
 70
     1
102
RTVSPropertyOp2
 70
     1
102
RTVSPropertyOp3
 70
     1
102
RTVSPropertyOp4
 70
     1
102
RTVSPropertyOp5
 70
     1
102
RTVSPropertyOp6
 70
     1
102
RTVSPropertyOp7
 70
     1
102
RTVSPropertyOp8
 70
     1
102
RTVSPropertyOp9
 70
     1
102
RTVSPropertyOp10
 70
     1
102
RTVSPropertyOp11
 70
     1
102
RTVSPropertyOp12
 70
     1
102
RTVSPropertyOp13
 70
     1
102
RTVSPropertyOp14
 70
     1
102
RTVSPropertyOp15
 70
     1
102
RTVSPropertyOp16
 70
     1
102
RTVSPropertyOp17
 70
     1
102
RTVSPropertyOp18
 70
     1
102
RTVSPropertyOp19
 70
     1
102
RTVSPropertyOp20
 70
     1
102
RTVSPropertyOp21
 70
     1
102
RTVSPropertyOp22
 70
     1
102
RTVSPropertyOp23
 70
     1
102
RTVSPropertyOp24
 70
     1
102
RTVSPropertyOp25
 70
     1
102
RTVSPropertyOp26
 70
     1
102
RTVSPropertyOp27
 70
     1
102
RTVSPropertyOp28
 70
     1
102
RTVSPropertyOp29
 70
     1
102
RTVSPropertyOp30
 70
     1
102
RTVSPropertyOp31
 70
     1
102
RTVSPropertyOp32
 70
     1
102
RTVSPropertyOp33
 70
     1
102
RTVSPropertyOp34
 70
     1
102
RTVSPropertyOp35
 70
     1
102
RTVSPropertyOp36
 70
     1
102
RTVSPropertyOp37
 70
     1
102
RTVSPropertyOp38
 70
     1
102
RTVSPropertyOp39
 70
     1
102
RTVSPropertyOp40
 70
     1
102
RTVSPropertyOp41
 70
     1
102
RTVSPropertyOp42
 70
     1
102
RTVSPropertyOp43
 70
     1
102
RTVSPropertyOp44
 70
     1
102
RTVSPropertyOp45
 70
     1
102
RTVSPropertyOp46
 70
     1
102
RTVSPropertyOp47
 70
     1
102
RTVSPropertyOp48
 70
     1
102
RTVSPropertyOp49
 70
     1
102
RTVSPropertyOp50
 70
     1
102
RTVSPropertyOp51
 70
     0
102
RTVSPropertyOp52
 70
     0
102
RTVSPropertyOp53
 70
     1
102
RTVSPropertyOp54
 70
     1
102
RTVSPropertyOp55
 70
     1
102
RTVSPropertyOp56
 70
     1
102
RTVSPropertyOp57
 70
     1
102
RTVSPost2010Prop28
280
     0
102
RTVSPost2010PropOp28
 70
     1
102
RTVSPost2010Prop29
280
     1
102
RTVSPost2010PropOp29
 70
     1
102
RTVSPost2010Prop30
280
     1
102
RTVSPost2010PropOp30
 70
     1
102
RTVSPost2010Prop31
280
     0
102
RTVSPost2010PropOp31
 70
     1
102
RTVSPost2010Prop32
280
     0
102
RTVSPost2010PropOp32
 70
     1
102
RTVSPost2010Prop33
280
     0
102
RTVSPost2010PropOp33
 70
     1
102
RTVSPost2010Prop34
280
     0
102
RTVSPost2010PropOp34
 70
     1
102
RTVSPost2010Prop35
280
     0
102
RTVSPost2010PropOp35
 70
     1
102
RTVSPost2010Prop36
280
     0
102
RTVSPost2010PropOp36
 70
     1
102
RTVSPost2010Prop37
 90
       50
102
RTVSPost2010PropOp37
 70
     1
102
RTVSPost2010Prop38
140
0.0
102
RTVSPost2010PropOp38
 70
     1
102
RTVSPost2010Prop39
140
1.0
102
RTVSPost2010PropOp39
 70
     1
102
RTVSPost2010Prop40
 90
        0
102
RTVSPost2010PropOp40
 70
     1
102
RTVSPost2010Prop41ColorIndex
 90
       18
102
RTVSPost2010Prop41ColorRGB
 90
        0
102
RTVSPost2010PropOp41
 70
     1
102
RTVSPost2010Prop42
 90
       50
102
RTVSPost2010PropOp42
 70
     1
102
RTVSPost2010Prop43
 90
        3
102
RTVSPost2010PropOp43
 70
     1
102
RTVSPost2010Prop44ColorIndex
 90
        5
102
RTVSPost2010Prop44ColorRGB
 90
      255
102
RTVSPost2010PropOp44
 70
     1
102
RTVSPost2010Prop45
280
     0
102
RTVSPost2010PropOp45
 70
     1
102
RTVSPost2010Prop46
 90
       50
102
RTVSPost2010PropOp46
 70
     1
102
RTVSPost2010Prop47
 90
       50
102
RTVSPost2010PropOp47
 70
     1
102
RTVSPost2010Prop48
 90
       50
102
RTVSPost2010PropOp48
 70
     1
102
RTVSPost2010Prop49
280
     0
102
RTVSPost2010PropOp49
 70
     1
102
RTVSPost2010Prop50
 90
       50
102
RTVSPost2010PropOp50
 70
     1
102
RTVSPost2010Prop51ColorIndex
 90
      256
102
RTVSPost2010Prop51ColorRGB
 90
-16777216
102
RTVSPost2010PropOp51
 70
     0
102
RTVSPost2010Prop52
140
1.0
102
RTVSPost2010PropOp52
 70
     0
102
RTVSPost2010Prop53
 90
        2
102
RTVSPost2010PropOp53
 70
     1
102
RTVSPost2010Prop54
  1
strokes_ogs.tif
102
RTVSPost2010PropOp54
 70
     1
102
RTVSPost2010Prop55
280
     0
102
RTVSPost2010PropOp55
 70
     1
102
RTVSPost2010Prop56
140
1.0
102
RTVSPost2010PropOp56
 70
     1
102
RTVSPost2010Prop57
140
1.0
102
RTVSPost2010PropOp57
 70
     1
  0
XRECORD
  5
2E4
102
{ACAD_REACTORS
330
2E3
102
}
330
2E3
100
AcDbXrecord
280
     1
102
RTVSPropertyOp0
 70
     1
102
RTVSPropertyOp1
 70
     1
102
RTVSPropertyOp2
 70
     1
102
RTVSPropertyOp3
 70
     1
102
RTVSPropertyOp4
 70
     1
102
RTVSPropertyOp5
 70
     1
102
RTVSPropertyOp6
 70
     1
102
RTVSPropertyOp7
 70
     1
102
RTVSPropertyOp8
 70
     1
102
RTVSPropertyOp9
 70
     1
102
RTVSPropertyOp10
 70
     1
102
RTVSPropertyOp11
 70
     1
102
RTVSPropertyOp12
 70
     1
102
RTVSPropertyOp13
 70
     1
102
RTVSPropertyOp14
 70
     1
102
RTVSPropertyOp15
 70
     1
102
RTVSPropertyOp16
 70
     1
102
RTVSPropertyOp17
 70
     1
102
RTVSPropertyOp18
 70
     1
102
RTVSPropertyOp19
 70
     1
102
RTVSPropertyOp20
 70
     1
102
RTVSPropertyOp21
 70
     1
102
RTVSPropertyOp22
 70
     1
102
RTVSPropertyOp23
 70
     1
102
RTVSPropertyOp24
 70
     1
102
RTVSPropertyOp25
 70
     1
102
RTVSPropertyOp26
 70
     1
102
RTVSPropertyOp27
 70
     1
102
RTVSPropertyOp28
 70
     1
102
RTVSPropertyOp29
 70
     1
102
RTVSPropertyOp30
 70
     1
102
RTVSPropertyOp31
 70
     1
102
RTVSPropertyOp32
 70
     1
102
RTVSPropertyOp33
 70
     1
102
RTVSPropertyOp34
 70
     1
102
RTVSPropertyOp35
 70
     1
102
RTVSPropertyOp36
 70
     1
102
RTVSPropertyOp37
 70
     1
102
RTVSPropertyOp38
 70
     1
102
RTVSPropertyOp39
 70
     1
102
RTVSPropertyOp40
 70
     1
102
RTVSPropertyOp41
 70
     1
102
RTVSPropertyOp42
 70
     1
102
RTVSPropertyOp43
 70
     1
102
RTVSPropertyOp44
 70
     1
102
RTVSPropertyOp45
 70
     1
102
RTVSPropertyOp46
 70
     1
102
RTVSPropertyOp47
 70
     1
102
RTVSPropertyOp48
 70
     1
102
RTVSPropertyOp49
 70
     1
102
RTVSPropertyOp50
 70
     1
102
RTVSPropertyOp51
 70
     0
102
RTVSPropertyOp52
 70
     0
102
RTVSPropertyOp53
 70
     1
102
RTVSPropertyOp54
 70
     1
102
RTVSPropertyOp55
 70
     1
102
RTVSPropertyOp56
 70
     1
102
RTVSPropertyOp57
 70
     1
102
RTVSPost2010Prop28
280
     0
102
RTVSPost2010PropOp28
 70
     1
102
RTVSPost2010Prop29
280
     1
102
RTVSPost2010PropOp29
 70
     1
102
RTVSPost2010Prop30
280
     1
102
RTVSPost2010PropOp30
 70
     1
102
RTVSPost2010Prop31
280
     0
102
RTVSPost2010PropOp31
 70
     1
102
RTVSPost2010Prop32
280
     0
102
RTVSPost2010PropOp32
 70
     1
102
RTVSPost2010Prop33
280
     0
102
RTVSPost2010PropOp33
 70
     1
102
RTVSPost2010Prop34
280
     0
102
RTVSPost2010PropOp34
 70
     1
102
RTVSPost2010Prop35
280
     0
102
RTVSPost2010PropOp35
 70
     1
102
RTVSPost2010Prop36
280
     0
102
RTVSPost2010PropOp36
 70
     1
102
RTVSPost2010Prop37
 90
       50
102
RTVSPost2010PropOp37
 70
     1
102
RTVSPost2010Prop38
140
0.0
102
RTVSPost2010PropOp38
 70
     1
102
RTVSPost2010Prop39
140
1.0
102
RTVSPost2010PropOp39
 70
     1
102
RTVSPost2010Prop40
 90
        0
102
RTVSPost2010PropOp40
 70
     1
102
RTVSPost2010Prop41ColorIndex
 90
       18
102
RTVSPost2010Prop41ColorRGB
 90
        0
102
RTVSPost2010PropOp41
 70
     1
102
RTVSPost2010Prop42
 90
       50
102
RTVSPost2010PropOp42
 70
     1
102
RTVSPost2010Prop43
 90
        3
102
RTVSPost2010PropOp43
 70
     1
102
RTVSPost2010Prop44ColorIndex
 90
        5
102
RTVSPost2010Prop44ColorRGB
 90
      255
102
RTVSPost2010PropOp44
 70
     1
102
RTVSPost2010Prop45
280
     0
102
RTVSPost2010PropOp45
 70
     1
102
RTVSPost2010Prop46
 90
       50
102
RTVSPost2010PropOp46
 70
     1
102
RTVSPost2010Prop47
 90
       50
102
RTVSPost2010PropOp47
 70
     1
102
RTVSPost2010Prop48
 90
       50
102
RTVSPost2010PropOp48
 70
     1
102
RTVSPost2010Prop49
280
     0
102
RTVSPost2010PropOp49
 70
     1
102
RTVSPost2010Prop50
 90
       50
102
RTVSPost2010PropOp50
 70
     1
102
RTVSPost2010Prop51ColorIndex
 90
      256
102
RTVSPost2010Prop51ColorRGB
 90
-16777216
102
RTVSPost2010PropOp51
 70
     0
102
RTVSPost2010Prop52
140
1.0
102
RTVSPost2010PropOp52
 70
     0
102
RTVSPost2010Prop53
 90
        2
102
RTVSPost2010PropOp53
 70
     1
102
RTVSPost2010Prop54
  1
strokes_ogs.tif
102
RTVSPost2010PropOp54
 70
     1
102
RTVSPost2010Prop55
280
     0
102
RTVSPost2010PropOp55
 70
     1
102
RTVSPost2010Prop56
140
1.0
102
RTVSPost2010PropOp56
 70
     1
102
RTVSPost2010Prop57
140
1.0
102
RTVSPost2010PropOp57
 70
     1
  0
XRECORD
  5
2EA
102
{ACAD_REACTORS
330
2E9
102
}
330
2E9
100
AcDbXrecord
280
     1
102
RTVSPropertyOp0
 70
     1
102
RTVSPropertyOp1
 70
     1
102
RTVSPropertyOp2
 70
     1
102
RTVSPropertyOp3
 70
     1
102
RTVSPropertyOp4
 70
     1
102
RTVSPropertyOp5
 70
     1
102
RTVSPropertyOp6
 70
     1
102
RTVSPropertyOp7
 70
     1
102
RTVSPropertyOp8
 70
     1
102
RTVSPropertyOp9
 70
     1
102
RTVSPropertyOp10
 70
     1
102
RTVSPropertyOp11
 70
     1
102
RTVSPropertyOp12
 70
     1
102
RTVSPropertyOp13
 70
     1
102
RTVSPropertyOp14
 70
     1
102
RTVSPropertyOp15
 70
     1
102
RTVSPropertyOp16
 70
     1
102
RTVSPropertyOp17
 70
     1
102
RTVSPropertyOp18
 70
     1
102
RTVSPropertyOp19
 70
     1
102
RTVSPropertyOp20
 70
     1
102
RTVSPropertyOp21
 70
     1
102
RTVSPropertyOp22
 70
     1
102
RTVSPropertyOp23
 70
     1
102
RTVSPropertyOp24
 70
     1
102
RTVSPropertyOp25
 70
     1
102
RTVSPropertyOp26
 70
     1
102
RTVSPropertyOp27
 70
     1
102
RTVSPropertyOp28
 70
     1
102
RTVSPropertyOp29
 70
     1
102
RTVSPropertyOp30
 70
     1
102
RTVSPropertyOp31
 70
     1
102
RTVSPropertyOp32
 70
     1
102
RTVSPropertyOp33
 70
     1
102
RTVSPropertyOp34
 70
     1
102
RTVSPropertyOp35
 70
     1
102
RTVSPropertyOp36
 70
     1
102
RTVSPropertyOp37
 70
     1
102
RTVSPropertyOp38
 70
     1
102
RTVSPropertyOp39
 70
     1
102
RTVSPropertyOp40
 70
     1
102
RTVSPropertyOp41
 70
     1
102
RTVSPropertyOp42
 70
     1
102
RTVSPropertyOp43
 70
     1
102
RTVSPropertyOp44
 70
     1
102
RTVSPropertyOp45
 70
     1
102
RTVSPropertyOp46
 70
     1
102
RTVSPropertyOp47
 70
     1
102
RTVSPropertyOp48
 70
     1
102
RTVSPropertyOp49
 70
     1
102
RTVSPropertyOp50
 70
     1
102
RTVSPropertyOp51
 70
     0
102
RTVSPropertyOp52
 70
     0
102
RTVSPropertyOp53
 70
     1
102
RTVSPropertyOp54
 70
     1
102
RTVSPropertyOp55
 70
     1
102
RTVSPropertyOp56
 70
     1
102
RTVSPropertyOp57
 70
     1
102
RTVSPost2010Prop28
280
     0
102
RTVSPost2010PropOp28
 70
     1
102
RTVSPost2010Prop29
280
     1
102
RTVSPost2010PropOp29
 70
     1
102
RTVSPost2010Prop30
280
     1
102
RTVSPost2010PropOp30
 70
     1
102
RTVSPost2010Prop31
280
     0
102
RTVSPost2010PropOp31
 70
     1
102
RTVSPost2010Prop32
280
     0
102
RTVSPost2010PropOp32
 70
     1
102
RTVSPost2010Prop33
280
     0
102
RTVSPost2010PropOp33
 70
     1
102
RTVSPost2010Prop34
280
     0
102
RTVSPost2010PropOp34
 70
     1
102
RTVSPost2010Prop35
280
     0
102
RTVSPost2010PropOp35
 70
     1
102
RTVSPost2010Prop36
280
     0
102
RTVSPost2010PropOp36
 70
     1
102
RTVSPost2010Prop37
 90
       50
102
RTVSPost2010PropOp37
 70
     1
102
RTVSPost2010Prop38
140
0.0
102
RTVSPost2010PropOp38
 70
     1
102
RTVSPost2010Prop39
140
1.0
102
RTVSPost2010PropOp39
 70
     1
102
RTVSPost2010Prop40
 90
        0
102
RTVSPost2010PropOp40
 70
     1
102
RTVSPost2010Prop41ColorIndex
 90
       18
102
RTVSPost2010Prop41ColorRGB
 90
        0
102
RTVSPost2010PropOp41
 70
     1
102
RTVSPost2010Prop42
 90
       50
102
RTVSPost2010PropOp42
 70
     1
102
RTVSPost2010Prop43
 90
        3
102
RTVSPost2010PropOp43
 70
     1
102
RTVSPost2010Prop44ColorIndex
 90
        5
102
RTVSPost2010Prop44ColorRGB
 90
      255
102
RTVSPost2010PropOp44
 70
     1
102
RTVSPost2010Prop45
280
     0
102
RTVSPost2010PropOp45
 70
     1
102
RTVSPost2010Prop46
 90
       50
102
RTVSPost2010PropOp46
 70
     1
102
RTVSPost2010Prop47
 90
       50
102
RTVSPost2010PropOp47
 70
     1
102
RTVSPost2010Prop48
 90
       50
102
RTVSPost2010PropOp48
 70
     1
102
RTVSPost2010Prop49
280
     0
102
RTVSPost2010PropOp49
 70
     1
102
RTVSPost2010Prop50
 90
       50
102
RTVSPost2010PropOp50
 70
     1
102
RTVSPost2010Prop51ColorIndex
 90
      256
102
RTVSPost2010Prop51ColorRGB
 90
-16777216
102
RTVSPost2010PropOp51
 70
     0
102
RTVSPost2010Prop52
140
1.0
102
RTVSPost2010PropOp52
 70
     0
102
RTVSPost2010Prop53
 90
        2
102
RTVSPost2010PropOp53
 70
     1
102
RTVSPost2010Prop54
  1
strokes_ogs.tif
102
RTVSPost2010PropOp54
 70
     1
102
RTVSPost2010Prop55
280
     0
102
RTVSPost2010PropOp55
 70
     1
102
RTVSPost2010Prop56
140
1.0
102
RTVSPost2010PropOp56
 70
     1
102
RTVSPost2010Prop57
140
1.0
102
RTVSPost2010PropOp57
 70
     1
  0
XRECORD
  5
2FE
102
{ACAD_REACTORS
330
2FD
102
}
330
2FD
100
AcDbXrecord
280
     1
102
RTVSPropertyOp0
 70
     0
102
RTVSPropertyOp1
 70
     0
102
RTVSPropertyOp2
 70
     0
102
RTVSPropertyOp3
 70
     0
102
RTVSPropertyOp4
 70
     0
102
RTVSPropertyOp5
 70
     0
102
RTVSPropertyOp6
 70
     0
102
RTVSPropertyOp7
 70
     0
102
RTVSPropertyOp8
 70
     0
102
RTVSPropertyOp9
 70
     0
102
RTVSPropertyOp10
 70
     0
102
RTVSPropertyOp11
 70
     0
102
RTVSPropertyOp12
 70
     0
102
RTVSPropertyOp13
 70
     0
102
RTVSPropertyOp14
 70
     2
102
RTVSPropertyOp15
 70
     0
102
RTVSPropertyOp16
 70
     0
102
RTVSPropertyOp17
 70
     0
102
RTVSPropertyOp18
 70
     0
102
RTVSPropertyOp19
 70
     0
102
RTVSPropertyOp20
 70
     0
102
RTVSPropertyOp21
 70
     0
102
RTVSPropertyOp22
 70
     0
102
RTVSPropertyOp23
 70
     0
102
RTVSPropertyOp24
 70
     0
102
RTVSPropertyOp25
 70
     0
102
RTVSPropertyOp26
 70
     0
102
RTVSPropertyOp27
 70
     0
102
RTVSPropertyOp28
 70
     0
102
RTVSPropertyOp29
 70
     0
102
RTVSPropertyOp30
 70
     0
102
RTVSPropertyOp31
 70
     0
102
RTVSPropertyOp32
 70
     0
102
RTVSPropertyOp33
 70
     0
102
RTVSPropertyOp34
 70
     0
102
RTVSPropertyOp35
 70
     0
102
RTVSPropertyOp36
 70
     0
102
RTVSPropertyOp37
 70
     0
102
RTVSPropertyOp38
 70
     0
102
RTVSPropertyOp39
 70
     0
102
RTVSPropertyOp40
 70
     0
102
RTVSPropertyOp41
 70
     0
102
RTVSPropertyOp42
 70
     0
102
RTVSPropertyOp43
 70
     0
102
RTVSPropertyOp44
 70
     0
102
RTVSPropertyOp45
 70
     0
102
RTVSPropertyOp46
 70
     0
102
RTVSPropertyOp47
 70
     0
102
RTVSPropertyOp48
 70
     0
102
RTVSPropertyOp49
 70
     0
102
RTVSPropertyOp50
 70
     0
102
RTVSPropertyOp51
 70
     0
102
RTVSPropertyOp52
 70
     0
102
RTVSPropertyOp53
 70
     0
102
RTVSPropertyOp54
 70
     0
102
RTVSPropertyOp55
 70
     0
102
RTVSPropertyOp56
 70
     0
102
RTVSPropertyOp57
 70
     0
102
RTVSPost2010Prop28
280
     0
102
RTVSPost2010PropOp28
 70
     0
102
RTVSPost2010Prop29
280
     1
102
RTVSPost2010PropOp29
 70
     0
102
RTVSPost2010Prop30
280
     1
102
RTVSPost2010PropOp30
 70
     0
102
RTVSPost2010Prop31
280
     0
102
RTVSPost2010PropOp31
 70
     0
102
RTVSPost2010Prop32
280
     0
102
RTVSPost2010PropOp32
 70
     0
102
RTVSPost2010Prop33
280
     0
102
RTVSPost2010PropOp33
 70
     0
102
RTVSPost2010Prop34
280
     0
102
RTVSPost2010PropOp34
 70
     0
102
RTVSPost2010Prop35
280
     0
102
RTVSPost2010PropOp35
 70
     0
102
RTVSPost2010Prop36
280
     0
102
RTVSPost2010PropOp36
 70
     0
102
RTVSPost2010Prop37
 90
       50
102
RTVSPost2010PropOp37
 70
     0
102
RTVSPost2010Prop38
140
0.0
102
RTVSPost2010PropOp38
 70
     0
102
RTVSPost2010Prop39
140
1.0
102
RTVSPost2010PropOp39
 70
     0
102
RTVSPost2010Prop40
 90
        0
102
RTVSPost2010PropOp40
 70
     0
102
RTVSPost2010Prop41ColorIndex
 90
       18
102
RTVSPost2010Prop41ColorRGB
 90
        0
102
RTVSPost2010PropOp41
 70
     0
102
RTVSPost2010Prop42
 90
       50
102
RTVSPost2010PropOp42
 70
     0
102
RTVSPost2010Prop43
 90
        3
102
RTVSPost2010PropOp43
 70
     0
102
RTVSPost2010Prop44ColorIndex
 90
        5
102
RTVSPost2010Prop44ColorRGB
 90
      255
102
RTVSPost2010PropOp44
 70
     0
102
RTVSPost2010Prop45
280
     0
102
RTVSPost2010PropOp45
 70
     0
102
RTVSPost2010Prop46
 90
       50
102
RTVSPost2010PropOp46
 70
     0
102
RTVSPost2010Prop47
 90
       50
102
RTVSPost2010PropOp47
 70
     0
102
RTVSPost2010Prop48
 90
       50
102
RTVSPost2010PropOp48
 70
     0
102
RTVSPost2010Prop49
280
     0
102
RTVSPost2010PropOp49
 70
     0
102
RTVSPost2010Prop50
 90
       50
102
RTVSPost2010PropOp50
 70
     0
102
RTVSPost2010Prop51ColorIndex
 90
      256
102
RTVSPost2010Prop51ColorRGB
 90
-16777216
102
RTVSPost2010PropOp51
 70
     0
102
RTVSPost2010Prop52
140
1.0
102
RTVSPost2010PropOp52
 70
     0
102
RTVSPost2010Prop53
 90
        2
102
RTVSPost2010PropOp53
 70
     0
102
RTVSPost2010Prop54
  1
strokes_ogs.tif
102
RTVSPost2010PropOp54
 70
     0
102
RTVSPost2010Prop55
280
     0
102
RTVSPost2010PropOp55
 70
     0
102
RTVSPost2010Prop56
140
1.0
102
RTVSPost2010PropOp56
 70
     0
102
RTVSPost2010Prop57
140
1.0
102
RTVSPost2010PropOp57
 70
     0
  0
XRECORD
  5
2F8
102
{ACAD_REACTORS
330
2F7
102
}
330
2F7
100
AcDbXrecord
280
     1
102
RTVSPropertyOp0
 70
     1
102
RTVSPropertyOp1
 70
     1
102
RTVSPropertyOp2
 70
     1
102
RTVSPropertyOp3
 70
     1
102
RTVSPropertyOp4
 70
     1
102
RTVSPropertyOp5
 70
     1
102
RTVSPropertyOp6
 70
     1
102
RTVSPropertyOp7
 70
     1
102
RTVSPropertyOp8
 70
     1
102
RTVSPropertyOp9
 70
     1
102
RTVSPropertyOp10
 70
     1
102
RTVSPropertyOp11
 70
     1
102
RTVSPropertyOp12
 70
     1
102
RTVSPropertyOp13
 70
     1
102
RTVSPropertyOp14
 70
     1
102
RTVSPropertyOp15
 70
     1
102
RTVSPropertyOp16
 70
     1
102
RTVSPropertyOp17
 70
     1
102
RTVSPropertyOp18
 70
     1
102
RTVSPropertyOp19
 70
     1
102
RTVSPropertyOp20
 70
     1
102
RTVSPropertyOp21
 70
     1
102
RTVSPropertyOp22
 70
     1
102
RTVSPropertyOp23
 70
     1
102
RTVSPropertyOp24
 70
     1
102
RTVSPropertyOp25
 70
     1
102
RTVSPropertyOp26
 70
     1
102
RTVSPropertyOp27
 70
     1
102
RTVSPropertyOp28
 70
     1
102
RTVSPropertyOp29
 70
     1
102
RTVSPropertyOp30
 70
     1
102
RTVSPropertyOp31
 70
     1
102
RTVSPropertyOp32
 70
     1
102
RTVSPropertyOp33
 70
     1
102
RTVSPropertyOp34
 70
     1
102
RTVSPropertyOp35
 70
     1
102
RTVSPropertyOp36
 70
     1
102
RTVSPropertyOp37
 70
     1
102
RTVSPropertyOp38
 70
     1
102
RTVSPropertyOp39
 70
     1
102
RTVSPropertyOp40
 70
     1
102
RTVSPropertyOp41
 70
     1
102
RTVSPropertyOp42
 70
     1
102
RTVSPropertyOp43
 70
     1
102
RTVSPropertyOp44
 70
     1
102
RTVSPropertyOp45
 70
     1
102
RTVSPropertyOp46
 70
     1
102
RTVSPropertyOp47
 70
     1
102
RTVSPropertyOp48
 70
     1
102
RTVSPropertyOp49
 70
     1
102
RTVSPropertyOp50
 70
     1
102
RTVSPropertyOp51
 70
     0
102
RTVSPropertyOp52
 70
     0
102
RTVSPropertyOp53
 70
     1
102
RTVSPropertyOp54
 70
     1
102
RTVSPropertyOp55
 70
     1
102
RTVSPropertyOp56
 70
     1
102
RTVSPropertyOp57
 70
     1
102
RTVSPost2010Prop28
280
     0
102
RTVSPost2010PropOp28
 70
     1
102
RTVSPost2010Prop29
280
     1
102
RTVSPost2010PropOp29
 70
     1
102
RTVSPost2010Prop30
280
     1
102
RTVSPost2010PropOp30
 70
     1
102
RTVSPost2010Prop31
280
     0
102
RTVSPost2010PropOp31
 70
     1
102
RTVSPost2010Prop32
280
     0
102
RTVSPost2010PropOp32
 70
     1
102
RTVSPost2010Prop33
280
     0
102
RTVSPost2010PropOp33
 70
     1
102
RTVSPost2010Prop34
280
     0
102
RTVSPost2010PropOp34
 70
     1
102
RTVSPost2010Prop35
280
     0
102
RTVSPost2010PropOp35
 70
     1
102
RTVSPost2010Prop36
280
     0
102
RTVSPost2010PropOp36
 70
     1
102
RTVSPost2010Prop37
 90
       50
102
RTVSPost2010PropOp37
 70
     1
102
RTVSPost2010Prop38
140
0.0
102
RTVSPost2010PropOp38
 70
     1
102
RTVSPost2010Prop39
140
1.0
102
RTVSPost2010PropOp39
 70
     1
102
RTVSPost2010Prop40
 90
        0
102
RTVSPost2010PropOp40
 70
     1
102
RTVSPost2010Prop41ColorIndex
 90
       18
102
RTVSPost2010Prop41ColorRGB
 90
        0
102
RTVSPost2010PropOp41
 70
     1
102
RTVSPost2010Prop42
 90
       50
102
RTVSPost2010PropOp42
 70
     1
102
RTVSPost2010Prop43
 90
        3
102
RTVSPost2010PropOp43
 70
     1
102
RTVSPost2010Prop44ColorIndex
 90
        5
102
RTVSPost2010Prop44ColorRGB
 90
      255
102
RTVSPost2010PropOp44
 70
     1
102
RTVSPost2010Prop45
280
     0
102
RTVSPost2010PropOp45
 70
     1
102
RTVSPost2010Prop46
 90
       50
102
RTVSPost2010PropOp46
 70
     1
102
RTVSPost2010Prop47
 90
       50
102
RTVSPost2010PropOp47
 70
     1
102
RTVSPost2010Prop48
 90
       50
102
RTVSPost2010PropOp48
 70
     1
102
RTVSPost2010Prop49
280
     0
102
RTVSPost2010PropOp49
 70
     1
102
RTVSPost2010Prop50
 90
       50
102
RTVSPost2010PropOp50
 70
     1
102
RTVSPost2010Prop51ColorIndex
 90
      256
102
RTVSPost2010Prop51ColorRGB
 90
-16777216
102
RTVSPost2010PropOp51
 70
     0
102
RTVSPost2010Prop52
140
1.0
102
RTVSPost2010PropOp52
 70
     0
102
RTVSPost2010Prop53
 90
        2
102
RTVSPost2010PropOp53
 70
     1
102
RTVSPost2010Prop54
  1
strokes_ogs.tif
102
RTVSPost2010PropOp54
 70
     1
102
RTVSPost2010Prop55
280
     0
102
RTVSPost2010PropOp55
 70
     1
102
RTVSPost2010Prop56
140
1.0
102
RTVSPost2010PropOp56
 70
     1
102
RTVSPost2010Prop57
140
1.0
102
RTVSPost2010PropOp57
 70
     1
  0
XRECORD
  5
300
102
{ACAD_REACTORS
330
2FF
102
}
330
2FF
100
AcDbXrecord
280
     1
102
RTVSPropertyOp0
 70
     0
102
RTVSPropertyOp1
 70
     0
102
RTVSPropertyOp2
 70
     0
102
RTVSPropertyOp3
 70
     0
102
RTVSPropertyOp4
 70
     0
102
RTVSPropertyOp5
 70
     0
102
RTVSPropertyOp6
 70
     0
102
RTVSPropertyOp7
 70
     0
102
RTVSPropertyOp8
 70
     0
102
RTVSPropertyOp9
 70
     0
102
RTVSPropertyOp10
 70
     0
102
RTVSPropertyOp11
 70
     0
102
RTVSPropertyOp12
 70
     0
102
RTVSPropertyOp13
 70
     0
102
RTVSPropertyOp14
 70
     2
102
RTVSPropertyOp15
 70
     0
102
RTVSPropertyOp16
 70
     0
102
RTVSPropertyOp17
 70
     0
102
RTVSPropertyOp18
 70
     0
102
RTVSPropertyOp19
 70
     0
102
RTVSPropertyOp20
 70
     0
102
RTVSPropertyOp21
 70
     0
102
RTVSPropertyOp22
 70
     0
102
RTVSPropertyOp23
 70
     0
102
RTVSPropertyOp24
 70
     0
102
RTVSPropertyOp25
 70
     0
102
RTVSPropertyOp26
 70
     0
102
RTVSPropertyOp27
 70
     0
102
RTVSPropertyOp28
 70
     0
102
RTVSPropertyOp29
 70
     0
102
RTVSPropertyOp30
 70
     0
102
RTVSPropertyOp31
 70
     0
102
RTVSPropertyOp32
 70
     0
102
RTVSPropertyOp33
 70
     0
102
RTVSPropertyOp34
 70
     0
102
RTVSPropertyOp35
 70
     0
102
RTVSPropertyOp36
 70
     0
102
RTVSPropertyOp37
 70
     0
102
RTVSPropertyOp38
 70
     0
102
RTVSPropertyOp39
 70
     0
102
RTVSPropertyOp40
 70
     0
102
RTVSPropertyOp41
 70
     0
102
RTVSPropertyOp42
 70
     0
102
RTVSPropertyOp43
 70
     0
102
RTVSPropertyOp44
 70
     0
102
RTVSPropertyOp45
 70
     0
102
RTVSPropertyOp46
 70
     0
102
RTVSPropertyOp47
 70
     0
102
RTVSPropertyOp48
 70
     0
102
RTVSPropertyOp49
 70
     0
102
RTVSPropertyOp50
 70
     0
102
RTVSPropertyOp51
 70
     0
102
RTVSPropertyOp52
 70
     0
102
RTVSPropertyOp53
 70
     0
102
RTVSPropertyOp54
 70
     0
102
RTVSPropertyOp55
 70
     0
102
RTVSPropertyOp56
 70
     0
102
RTVSPropertyOp57
 70
     0
102
RTVSPost2010Prop28
280
     0
102
RTVSPost2010PropOp28
 70
     0
102
RTVSPost2010Prop29
280
     1
102
RTVSPost2010PropOp29
 70
     0
102
RTVSPost2010Prop30
280
     1
102
RTVSPost2010PropOp30
 70
     0
102
RTVSPost2010Prop31
280
     0
102
RTVSPost2010PropOp31
 70
     0
102
RTVSPost2010Prop32
280
     0
102
RTVSPost2010PropOp32
 70
     0
102
RTVSPost2010Prop33
280
     0
102
RTVSPost2010PropOp33
 70
     0
102
RTVSPost2010Prop34
280
     0
102
RTVSPost2010PropOp34
 70
     0
102
RTVSPost2010Prop35
280
     0
102
RTVSPost2010PropOp35
 70
     0
102
RTVSPost2010Prop36
280
     0
102
RTVSPost2010PropOp36
 70
     0
102
RTVSPost2010Prop37
 90
       50
102
RTVSPost2010PropOp37
 70
     0
102
RTVSPost2010Prop38
140
0.0
102
RTVSPost2010PropOp38
 70
     0
102
RTVSPost2010Prop39
140
1.0
102
RTVSPost2010PropOp39
 70
     0
102
RTVSPost2010Prop40
 90
        0
102
RTVSPost2010PropOp40
 70
     0
102
RTVSPost2010Prop41ColorIndex
 90
       18
102
RTVSPost2010Prop41ColorRGB
 90
        0
102
RTVSPost2010PropOp41
 70
     0
102
RTVSPost2010Prop42
 90
       50
102
RTVSPost2010PropOp42
 70
     0
102
RTVSPost2010Prop43
 90
        3
102
RTVSPost2010PropOp43
 70
     0
102
RTVSPost2010Prop44ColorIndex
 90
        5
102
RTVSPost2010Prop44ColorRGB
 90
      255
102
RTVSPost2010PropOp44
 70
     0
102
RTVSPost2010Prop45
280
     0
102
RTVSPost2010PropOp45
 70
     0
102
RTVSPost2010Prop46
 90
       50
102
RTVSPost2010PropOp46
 70
     0
102
RTVSPost2010Prop47
 90
       50
102
RTVSPost2010PropOp47
 70
     0
102
RTVSPost2010Prop48
 90
       50
102
RTVSPost2010PropOp48
 70
     0
102
RTVSPost2010Prop49
280
     0
102
RTVSPost2010PropOp49
 70
     0
102
RTVSPost2010Prop50
 90
       50
102
RTVSPost2010PropOp50
 70
     0
102
RTVSPost2010Prop51ColorIndex
 90
      256
102
RTVSPost2010Prop51ColorRGB
 90
-16777216
102
RTVSPost2010PropOp51
 70
     0
102
RTVSPost2010Prop52
140
1.0
102
RTVSPost2010PropOp52
 70
     0
102
RTVSPost2010Prop53
 90
        2
102
RTVSPost2010PropOp53
 70
     0
102
RTVSPost2010Prop54
  1
strokes_ogs.tif
102
RTVSPost2010PropOp54
 70
     0
102
RTVSPost2010Prop55
280
     0
102
RTVSPost2010PropOp55
 70
     0
102
RTVSPost2010Prop56
140
1.0
102
RTVSPost2010PropOp56
 70
     0
102
RTVSPost2010Prop57
140
1.0
102
RTVSPost2010PropOp57
 70
     0
  0
XRECORD
  5
2EE
102
{ACAD_REACTORS
330
2ED
102
}
330
2ED
100
AcDbXrecord
280
     1
102
RTVSPropertyOp0
 70
     1
102
RTVSPropertyOp1
 70
     1
102
RTVSPropertyOp2
 70
     1
102
RTVSPropertyOp3
 70
     1
102
RTVSPropertyOp4
 70
     1
102
RTVSPropertyOp5
 70
     1
102
RTVSPropertyOp6
 70
     1
102
RTVSPropertyOp7
 70
     1
102
RTVSPropertyOp8
 70
     1
102
RTVSPropertyOp9
 70
     1
102
RTVSPropertyOp10
 70
     1
102
RTVSPropertyOp11
 70
     1
102
RTVSPropertyOp12
 70
     1
102
RTVSPropertyOp13
 70
     1
102
RTVSPropertyOp14
 70
     1
102
RTVSPropertyOp15
 70
     1
102
RTVSPropertyOp16
 70
     1
102
RTVSPropertyOp17
 70
     1
102
RTVSPropertyOp18
 70
     1
102
RTVSPropertyOp19
 70
     1
102
RTVSPropertyOp20
 70
     1
102
RTVSPropertyOp21
 70
     1
102
RTVSPropertyOp22
 70
     1
102
RTVSPropertyOp23
 70
     1
102
RTVSPropertyOp24
 70
     1
102
RTVSPropertyOp25
 70
     1
102
RTVSPropertyOp26
 70
     1
102
RTVSPropertyOp27
 70
     1
102
RTVSPropertyOp28
 70
     1
102
RTVSPropertyOp29
 70
     1
102
RTVSPropertyOp30
 70
     1
102
RTVSPropertyOp31
 70
     1
102
RTVSPropertyOp32
 70
     1
102
RTVSPropertyOp33
 70
     1
102
RTVSPropertyOp34
 70
     1
102
RTVSPropertyOp35
 70
     1
102
RTVSPropertyOp36
 70
     1
102
RTVSPropertyOp37
 70
     1
102
RTVSPropertyOp38
 70
     1
102
RTVSPropertyOp39
 70
     1
102
RTVSPropertyOp40
 70
     1
102
RTVSPropertyOp41
 70
     1
102
RTVSPropertyOp42
 70
     1
102
RTVSPropertyOp43
 70
     1
102
RTVSPropertyOp44
 70
     1
102
RTVSPropertyOp45
 70
     1
102
RTVSPropertyOp46
 70
     1
102
RTVSPropertyOp47
 70
     1
102
RTVSPropertyOp48
 70
     1
102
RTVSPropertyOp49
 70
     1
102
RTVSPropertyOp50
 70
     1
102
RTVSPropertyOp51
 70
     0
102
RTVSPropertyOp52
 70
     0
102
RTVSPropertyOp53
 70
     1
102
RTVSPropertyOp54
 70
     1
102
RTVSPropertyOp55
 70
     1
102
RTVSPropertyOp56
 70
     1
102
RTVSPropertyOp57
 70
     1
102
RTVSPost2010Prop28
280
     0
102
RTVSPost2010PropOp28
 70
     1
102
RTVSPost2010Prop29
280
     1
102
RTVSPost2010PropOp29
 70
     1
102
RTVSPost2010Prop30
280
     1
102
RTVSPost2010PropOp30
 70
     1
102
RTVSPost2010Prop31
280
     0
102
RTVSPost2010PropOp31
 70
     1
102
RTVSPost2010Prop32
280
     0
102
RTVSPost2010PropOp32
 70
     1
102
RTVSPost2010Prop33
280
     0
102
RTVSPost2010PropOp33
 70
     1
102
RTVSPost2010Prop34
280
     0
102
RTVSPost2010PropOp34
 70
     1
102
RTVSPost2010Prop35
280
     0
102
RTVSPost2010PropOp35
 70
     1
102
RTVSPost2010Prop36
280
     0
102
RTVSPost2010PropOp36
 70
     1
102
RTVSPost2010Prop37
 90
       50
102
RTVSPost2010PropOp37
 70
     1
102
RTVSPost2010Prop38
140
0.0
102
RTVSPost2010PropOp38
 70
     1
102
RTVSPost2010Prop39
140
1.0
102
RTVSPost2010PropOp39
 70
     1
102
RTVSPost2010Prop40
 90
        0
102
RTVSPost2010PropOp40
 70
     1
102
RTVSPost2010Prop41ColorIndex
 90
       18
102
RTVSPost2010Prop41ColorRGB
 90
        0
102
RTVSPost2010PropOp41
 70
     1
102
RTVSPost2010Prop42
 90
       50
102
RTVSPost2010PropOp42
 70
     1
102
RTVSPost2010Prop43
 90
        3
102
RTVSPost2010PropOp43
 70
     1
102
RTVSPost2010Prop44ColorIndex
 90
        5
102
RTVSPost2010Prop44ColorRGB
 90
      255
102
RTVSPost2010PropOp44
 70
     1
102
RTVSPost2010Prop45
280
     0
102
RTVSPost2010PropOp45
 70
     1
102
RTVSPost2010Prop46
 90
       50
102
RTVSPost2010PropOp46
 70
     1
102
RTVSPost2010Prop47
 90
       50
102
RTVSPost2010PropOp47
 70
     1
102
RTVSPost2010Prop48
 90
       50
102
RTVSPost2010PropOp48
 70
     1
102
RTVSPost2010Prop49
280
     0
102
RTVSPost2010PropOp49
 70
     1
102
RTVSPost2010Prop50
 90
       50
102
RTVSPost2010PropOp50
 70
     1
102
RTVSPost2010Prop51ColorIndex
 90
      256
102
RTVSPost2010Prop51ColorRGB
 90
-16777216
102
RTVSPost2010PropOp51
 70
     0
102
RTVSPost2010Prop52
140
1.0
102
RTVSPost2010PropOp52
 70
     0
102
RTVSPost2010Prop53
 90
        2
102
RTVSPost2010PropOp53
 70
     1
102
RTVSPost2010Prop54
  1
strokes_ogs.tif
102
RTVSPost2010PropOp54
 70
     1
102
RTVSPost2010Prop55
280
     0
102
RTVSPost2010PropOp55
 70
     1
102
RTVSPost2010Prop56
140
1.0
102
RTVSPost2010PropOp56
 70
     1
102
RTVSPost2010Prop57
140
1.0
102
RTVSPost2010PropOp57
 70
     1
  0
XRECORD
  5
30C
102
{ACAD_REACTORS
330
30B
102
}
330
30B
100
AcDbXrecord
280
     1
102
RTVSPropertyOp0
 70
     1
102
RTVSPropertyOp1
 70
     1
102
RTVSPropertyOp2
 70
     1
102
RTVSPropertyOp3
 70
     1
102
RTVSPropertyOp4
 70
     1
102
RTVSPropertyOp5
 70
     1
102
RTVSPropertyOp6
 70
     1
102
RTVSPropertyOp7
 70
     1
102
RTVSPropertyOp8
 70
     1
102
RTVSPropertyOp9
 70
     1
102
RTVSPropertyOp10
 70
     1
102
RTVSPropertyOp11
 70
     1
102
RTVSPropertyOp12
 70
     1
102
RTVSPropertyOp13
 70
     1
102
RTVSPropertyOp14
 70
     1
102
RTVSPropertyOp15
 70
     1
102
RTVSPropertyOp16
 70
     1
102
RTVSPropertyOp17
 70
     1
102
RTVSPropertyOp18
 70
     1
102
RTVSPropertyOp19
 70
     1
102
RTVSPropertyOp20
 70
     1
102
RTVSPropertyOp21
 70
     1
102
RTVSPropertyOp22
 70
     1
102
RTVSPropertyOp23
 70
     1
102
RTVSPropertyOp24
 70
     1
102
RTVSPropertyOp25
 70
     1
102
RTVSPropertyOp26
 70
     1
102
RTVSPropertyOp27
 70
     1
102
RTVSPropertyOp28
 70
     1
102
RTVSPropertyOp29
 70
     1
102
RTVSPropertyOp30
 70
     1
102
RTVSPropertyOp31
 70
     1
102
RTVSPropertyOp32
 70
     1
102
RTVSPropertyOp33
 70
     1
102
RTVSPropertyOp34
 70
     1
102
RTVSPropertyOp35
 70
     1
102
RTVSPropertyOp36
 70
     1
102
RTVSPropertyOp37
 70
     1
102
RTVSPropertyOp38
 70
     1
102
RTVSPropertyOp39
 70
     1
102
RTVSPropertyOp40
 70
     1
102
RTVSPropertyOp41
 70
     1
102
RTVSPropertyOp42
 70
     1
102
RTVSPropertyOp43
 70
     1
102
RTVSPropertyOp44
 70
     1
102
RTVSPropertyOp45
 70
     1
102
RTVSPropertyOp46
 70
     1
102
RTVSPropertyOp47
 70
     1
102
RTVSPropertyOp48
 70
     1
102
RTVSPropertyOp49
 70
     1
102
RTVSPropertyOp50
 70
     1
102
RTVSPropertyOp51
 70
     0
102
RTVSPropertyOp52
 70
     0
102
RTVSPropertyOp53
 70
     1
102
RTVSPropertyOp54
 70
     1
102
RTVSPropertyOp55
 70
     1
102
RTVSPropertyOp56
 70
     1
102
RTVSPropertyOp57
 70
     1
102
RTVSPost2010Prop28
280
     0
102
RTVSPost2010PropOp28
 70
     1
102
RTVSPost2010Prop29
280
     1
102
RTVSPost2010PropOp29
 70
     1
102
RTVSPost2010Prop30
280
     1
102
RTVSPost2010PropOp30
 70
     1
102
RTVSPost2010Prop31
280
     0
102
RTVSPost2010PropOp31
 70
     1
102
RTVSPost2010Prop32
280
     0
102
RTVSPost2010PropOp32
 70
     1
102
RTVSPost2010Prop33
280
     0
102
RTVSPost2010PropOp33
 70
     1
102
RTVSPost2010Prop34
280
     0
102
RTVSPost2010PropOp34
 70
     1
102
RTVSPost2010Prop35
280
     0
102
RTVSPost2010PropOp35
 70
     1
102
RTVSPost2010Prop36
280
     0
102
RTVSPost2010PropOp36
 70
     1
102
RTVSPost2010Prop37
 90
       50
102
RTVSPost2010PropOp37
 70
     1
102
RTVSPost2010Prop38
140
0.0
102
RTVSPost2010PropOp38
 70
     1
102
RTVSPost2010Prop39
140
1.0
102
RTVSPost2010PropOp39
 70
     1
102
RTVSPost2010Prop40
 90
        0
102
RTVSPost2010PropOp40
 70
     1
102
RTVSPost2010Prop41ColorIndex
 90
       18
102
RTVSPost2010Prop41ColorRGB
 90
        0
102
RTVSPost2010PropOp41
 70
     1
102
RTVSPost2010Prop42
 90
       50
102
RTVSPost2010PropOp42
 70
     1
102
RTVSPost2010Prop43
 90
        3
102
RTVSPost2010PropOp43
 70
     1
102
RTVSPost2010Prop44ColorIndex
 90
        5
102
RTVSPost2010Prop44ColorRGB
 90
      255
102
RTVSPost2010PropOp44
 70
     1
102
RTVSPost2010Prop45
280
     0
102
RTVSPost2010PropOp45
 70
     1
102
RTVSPost2010Prop46
 90
       50
102
RTVSPost2010PropOp46
 70
     1
102
RTVSPost2010Prop47
 90
       50
102
RTVSPost2010PropOp47
 70
     1
102
RTVSPost2010Prop48
 90
       50
102
RTVSPost2010PropOp48
 70
     1
102
RTVSPost2010Prop49
280
     0
102
RTVSPost2010PropOp49
 70
     1
102
RTVSPost2010Prop50
 90
       50
102
RTVSPost2010PropOp50
 70
     1
102
RTVSPost2010Prop51ColorIndex
 90
      256
102
RTVSPost2010Prop51ColorRGB
 90
-16777216
102
RTVSPost2010PropOp51
 70
     0
102
RTVSPost2010Prop52
140
1.0
102
RTVSPost2010PropOp52
 70
     0
102
RTVSPost2010Prop53
 90
        2
102
RTVSPost2010PropOp53
 70
     1
102
RTVSPost2010Prop54
  1
strokes_ogs.tif
102
RTVSPost2010PropOp54
 70
     1
102
RTVSPost2010Prop55
280
     0
102
RTVSPost2010PropOp55
 70
     1
102
RTVSPost2010Prop56
140
1.0
102
RTVSPost2010PropOp56
 70
     1
102
RTVSPost2010Prop57
140
1.0
102
RTVSPost2010PropOp57
 70
     1
  0
XRECORD
  5
30A
102
{ACAD_REACTORS
330
309
102
}
330
309
100
AcDbXrecord
280
     1
102
RTVSPropertyOp0
 70
     1
102
RTVSPropertyOp1
 70
     1
102
RTVSPropertyOp2
 70
     1
102
RTVSPropertyOp3
 70
     1
102
RTVSPropertyOp4
 70
     1
102
RTVSPropertyOp5
 70
     1
102
RTVSPropertyOp6
 70
     1
102
RTVSPropertyOp7
 70
     1
102
RTVSPropertyOp8
 70
     1
102
RTVSPropertyOp9
 70
     1
102
RTVSPropertyOp10
 70
     1
102
RTVSPropertyOp11
 70
     1
102
RTVSPropertyOp12
 70
     1
102
RTVSPropertyOp13
 70
     1
102
RTVSPropertyOp14
 70
     1
102
RTVSPropertyOp15
 70
     1
102
RTVSPropertyOp16
 70
     1
102
RTVSPropertyOp17
 70
     1
102
RTVSPropertyOp18
 70
     1
102
RTVSPropertyOp19
 70
     1
102
RTVSPropertyOp20
 70
     1
102
RTVSPropertyOp21
 70
     1
102
RTVSPropertyOp22
 70
     1
102
RTVSPropertyOp23
 70
     1
102
RTVSPropertyOp24
 70
     1
102
RTVSPropertyOp25
 70
     1
102
RTVSPropertyOp26
 70
     1
102
RTVSPropertyOp27
 70
     1
102
RTVSPropertyOp28
 70
     1
102
RTVSPropertyOp29
 70
     1
102
RTVSPropertyOp30
 70
     1
102
RTVSPropertyOp31
 70
     1
102
RTVSPropertyOp32
 70
     1
102
RTVSPropertyOp33
 70
     1
102
RTVSPropertyOp34
 70
     1
102
RTVSPropertyOp35
 70
     1
102
RTVSPropertyOp36
 70
     1
102
RTVSPropertyOp37
 70
     1
102
RTVSPropertyOp38
 70
     1
102
RTVSPropertyOp39
 70
     1
102
RTVSPropertyOp40
 70
     1
102
RTVSPropertyOp41
 70
     1
102
RTVSPropertyOp42
 70
     1
102
RTVSPropertyOp43
 70
     1
102
RTVSPropertyOp44
 70
     1
102
RTVSPropertyOp45
 70
     1
102
RTVSPropertyOp46
 70
     1
102
RTVSPropertyOp47
 70
     1
102
RTVSPropertyOp48
 70
     1
102
RTVSPropertyOp49
 70
     1
102
RTVSPropertyOp50
 70
     1
102
RTVSPropertyOp51
 70
     0
102
RTVSPropertyOp52
 70
     0
102
RTVSPropertyOp53
 70
     1
102
RTVSPropertyOp54
 70
     1
102
RTVSPropertyOp55
 70
     1
102
RTVSPropertyOp56
 70
     1
102
RTVSPropertyOp57
 70
     1
102
RTVSPost2010Prop28
280
     0
102
RTVSPost2010PropOp28
 70
     1
102
RTVSPost2010Prop29
280
     1
102
RTVSPost2010PropOp29
 70
     1
102
RTVSPost2010Prop30
280
     1
102
RTVSPost2010PropOp30
 70
     1
102
RTVSPost2010Prop31
280
     0
102
RTVSPost2010PropOp31
 70
     1
102
RTVSPost2010Prop32
280
     0
102
RTVSPost2010PropOp32
 70
     1
102
RTVSPost2010Prop33
280
     0
102
RTVSPost2010PropOp33
 70
     1
102
RTVSPost2010Prop34
280
     0
102
RTVSPost2010PropOp34
 70
     1
102
RTVSPost2010Prop35
280
     0
102
RTVSPost2010PropOp35
 70
     1
102
RTVSPost2010Prop36
280
     0
102
RTVSPost2010PropOp36
 70
     1
102
RTVSPost2010Prop37
 90
       50
102
RTVSPost2010PropOp37
 70
     1
102
RTVSPost2010Prop38
140
0.0
102
RTVSPost2010PropOp38
 70
     1
102
RTVSPost2010Prop39
140
1.0
102
RTVSPost2010PropOp39
 70
     1
102
RTVSPost2010Prop40
 90
        0
102
RTVSPost2010PropOp40
 70
     1
102
RTVSPost2010Prop41ColorIndex
 90
       18
102
RTVSPost2010Prop41ColorRGB
 90
        0
102
RTVSPost2010PropOp41
 70
     1
102
RTVSPost2010Prop42
 90
       50
102
RTVSPost2010PropOp42
 70
     1
102
RTVSPost2010Prop43
 90
        3
102
RTVSPost2010PropOp43
 70
     1
102
RTVSPost2010Prop44ColorIndex
 90
        5
102
RTVSPost2010Prop44ColorRGB
 90
      255
102
RTVSPost2010PropOp44
 70
     1
102
RTVSPost2010Prop45
280
     0
102
RTVSPost2010PropOp45
 70
     1
102
RTVSPost2010Prop46
 90
       50
102
RTVSPost2010PropOp46
 70
     1
102
RTVSPost2010Prop47
 90
       50
102
RTVSPost2010PropOp47
 70
     1
102
RTVSPost2010Prop48
 90
       50
102
RTVSPost2010PropOp48
 70
     1
102
RTVSPost2010Prop49
280
     0
102
RTVSPost2010PropOp49
 70
     1
102
RTVSPost2010Prop50
 90
       50
102
RTVSPost2010PropOp50
 70
     1
102
RTVSPost2010Prop51ColorIndex
 90
      256
102
RTVSPost2010Prop51ColorRGB
 90
-16777216
102
RTVSPost2010PropOp51
 70
     0
102
RTVSPost2010Prop52
140
1.0
102
RTVSPost2010PropOp52
 70
     0
102
RTVSPost2010Prop53
 90
        2
102
RTVSPost2010PropOp53
 70
     1
102
RTVSPost2010Prop54
  1
strokes_ogs.tif
102
RTVSPost2010PropOp54
 70
     1
102
RTVSPost2010Prop55
280
     0
102
RTVSPost2010PropOp55
 70
     1
102
RTVSPost2010Prop56
140
1.0
102
RTVSPost2010PropOp56
 70
     1
102
RTVSPost2010Prop57
140
1.0
102
RTVSPost2010PropOp57
 70
     1
  0
XRECORD
  5
304
102
{ACAD_REACTORS
330
303
102
}
330
303
100
AcDbXrecord
280
     1
102
RTVSPropertyOp0
 70
     1
102
RTVSPropertyOp1
 70
     1
102
RTVSPropertyOp2
 70
     1
102
RTVSPropertyOp3
 70
     1
102
RTVSPropertyOp4
 70
     1
102
RTVSPropertyOp5
 70
     1
102
RTVSPropertyOp6
 70
     1
102
RTVSPropertyOp7
 70
     1
102
RTVSPropertyOp8
 70
     1
102
RTVSPropertyOp9
 70
     1
102
RTVSPropertyOp10
 70
     1
102
RTVSPropertyOp11
 70
     1
102
RTVSPropertyOp12
 70
     1
102
RTVSPropertyOp13
 70
     1
102
RTVSPropertyOp14
 70
     1
102
RTVSPropertyOp15
 70
     1
102
RTVSPropertyOp16
 70
     1
102
RTVSPropertyOp17
 70
     1
102
RTVSPropertyOp18
 70
     1
102
RTVSPropertyOp19
 70
     1
102
RTVSPropertyOp20
 70
     1
102
RTVSPropertyOp21
 70
     1
102
RTVSPropertyOp22
 70
     1
102
RTVSPropertyOp23
 70
     1
102
RTVSPropertyOp24
 70
     1
102
RTVSPropertyOp25
 70
     1
102
RTVSPropertyOp26
 70
     1
102
RTVSPropertyOp27
 70
     1
102
RTVSPropertyOp28
 70
     1
102
RTVSPropertyOp29
 70
     1
102
RTVSPropertyOp30
 70
     1
102
RTVSPropertyOp31
 70
     1
102
RTVSPropertyOp32
 70
     1
102
RTVSPropertyOp33
 70
     1
102
RTVSPropertyOp34
 70
     1
102
RTVSPropertyOp35
 70
     1
102
RTVSPropertyOp36
 70
     1
102
RTVSPropertyOp37
 70
     1
102
RTVSPropertyOp38
 70
     1
102
RTVSPropertyOp39
 70
     1
102
RTVSPropertyOp40
 70
     1
102
RTVSPropertyOp41
 70
     1
102
RTVSPropertyOp42
 70
     1
102
RTVSPropertyOp43
 70
     1
102
RTVSPropertyOp44
 70
     1
102
RTVSPropertyOp45
 70
     1
102
RTVSPropertyOp46
 70
     1
102
RTVSPropertyOp47
 70
     1
102
RTVSPropertyOp48
 70
     1
102
RTVSPropertyOp49
 70
     1
102
RTVSPropertyOp50
 70
     1
102
RTVSPropertyOp51
 70
     0
102
RTVSPropertyOp52
 70
     0
102
RTVSPropertyOp53
 70
     1
102
RTVSPropertyOp54
 70
     1
102
RTVSPropertyOp55
 70
     1
102
RTVSPropertyOp56
 70
     1
102
RTVSPropertyOp57
 70
     1
102
RTVSPost2010Prop28
280
     0
102
RTVSPost2010PropOp28
 70
     1
102
RTVSPost2010Prop29
280
     1
102
RTVSPost2010PropOp29
 70
     1
102
RTVSPost2010Prop30
280
     1
102
RTVSPost2010PropOp30
 70
     1
102
RTVSPost2010Prop31
280
     0
102
RTVSPost2010PropOp31
 70
     1
102
RTVSPost2010Prop32
280
     0
102
RTVSPost2010PropOp32
 70
     1
102
RTVSPost2010Prop33
280
     0
102
RTVSPost2010PropOp33
 70
     1
102
RTVSPost2010Prop34
280
     0
102
RTVSPost2010PropOp34
 70
     1
102
RTVSPost2010Prop35
280
     0
102
RTVSPost2010PropOp35
 70
     1
102
RTVSPost2010Prop36
280
     0
102
RTVSPost2010PropOp36
 70
     1
102
RTVSPost2010Prop37
 90
       50
102
RTVSPost2010PropOp37
 70
     1
102
RTVSPost2010Prop38
140
0.0
102
RTVSPost2010PropOp38
 70
     1
102
RTVSPost2010Prop39
140
1.0
102
RTVSPost2010PropOp39
 70
     1
102
RTVSPost2010Prop40
 90
        0
102
RTVSPost2010PropOp40
 70
     1
102
RTVSPost2010Prop41ColorIndex
 90
       18
102
RTVSPost2010Prop41ColorRGB
 90
        0
102
RTVSPost2010PropOp41
 70
     1
102
RTVSPost2010Prop42
 90
       50
102
RTVSPost2010PropOp42
 70
     1
102
RTVSPost2010Prop43
 90
        3
102
RTVSPost2010PropOp43
 70
     1
102
RTVSPost2010Prop44ColorIndex
 90
        5
102
RTVSPost2010Prop44ColorRGB
 90
      255
102
RTVSPost2010PropOp44
 70
     1
102
RTVSPost2010Prop45
280
     0
102
RTVSPost2010PropOp45
 70
     1
102
RTVSPost2010Prop46
 90
       50
102
RTVSPost2010PropOp46
 70
     1
102
RTVSPost2010Prop47
 90
       50
102
RTVSPost2010PropOp47
 70
     1
102
RTVSPost2010Prop48
 90
       50
102
RTVSPost2010PropOp48
 70
     1
102
RTVSPost2010Prop49
280
     0
102
RTVSPost2010PropOp49
 70
     1
102
RTVSPost2010Prop50
 90
       50
102
RTVSPost2010PropOp50
 70
     1
102
RTVSPost2010Prop51ColorIndex
 90
      256
102
RTVSPost2010Prop51ColorRGB
 90
-16777216
102
RTVSPost2010PropOp51
 70
     0
102
RTVSPost2010Prop52
140
1.0
102
RTVSPost2010PropOp52
 70
     0
102
RTVSPost2010Prop53
 90
        2
102
RTVSPost2010PropOp53
 70
     1
102
RTVSPost2010Prop54
  1
strokes_ogs.tif
102
RTVSPost2010PropOp54
 70
     1
102
RTVSPost2010Prop55
280
     0
102
RTVSPost2010PropOp55
 70
     1
102
RTVSPost2010Prop56
140
1.0
102
RTVSPost2010PropOp56
 70
     1
102
RTVSPost2010Prop57
140
1.0
102
RTVSPost2010PropOp57
 70
     1
  0
XRECORD
  5
306
102
{ACAD_REACTORS
330
305
102
}
330
305
100
AcDbXrecord
280
     1
102
RTVSPropertyOp0
 70
     1
102
RTVSPropertyOp1
 70
     1
102
RTVSPropertyOp2
 70
     1
102
RTVSPropertyOp3
 70
     1
102
RTVSPropertyOp4
 70
     1
102
RTVSPropertyOp5
 70
     1
102
RTVSPropertyOp6
 70
     1
102
RTVSPropertyOp7
 70
     1
102
RTVSPropertyOp8
 70
     1
102
RTVSPropertyOp9
 70
     1
102
RTVSPropertyOp10
 70
     1
102
RTVSPropertyOp11
 70
     1
102
RTVSPropertyOp12
 70
     1
102
RTVSPropertyOp13
 70
     1
102
RTVSPropertyOp14
 70
     1
102
RTVSPropertyOp15
 70
     1
102
RTVSPropertyOp16
 70
     1
102
RTVSPropertyOp17
 70
     1
102
RTVSPropertyOp18
 70
     1
102
RTVSPropertyOp19
 70
     1
102
RTVSPropertyOp20
 70
     1
102
RTVSPropertyOp21
 70
     1
102
RTVSPropertyOp22
 70
     1
102
RTVSPropertyOp23
 70
     1
102
RTVSPropertyOp24
 70
     1
102
RTVSPropertyOp25
 70
     1
102
RTVSPropertyOp26
 70
     1
102
RTVSPropertyOp27
 70
     1
102
RTVSPropertyOp28
 70
     1
102
RTVSPropertyOp29
 70
     1
102
RTVSPropertyOp30
 70
     1
102
RTVSPropertyOp31
 70
     1
102
RTVSPropertyOp32
 70
     1
102
RTVSPropertyOp33
 70
     1
102
RTVSPropertyOp34
 70
     1
102
RTVSPropertyOp35
 70
     1
102
RTVSPropertyOp36
 70
     1
102
RTVSPropertyOp37
 70
     1
102
RTVSPropertyOp38
 70
     1
102
RTVSPropertyOp39
 70
     1
102
RTVSPropertyOp40
 70
     1
102
RTVSPropertyOp41
 70
     1
102
RTVSPropertyOp42
 70
     1
102
RTVSPropertyOp43
 70
     1
102
RTVSPropertyOp44
 70
     1
102
RTVSPropertyOp45
 70
     1
102
RTVSPropertyOp46
 70
     1
102
RTVSPropertyOp47
 70
     1
102
RTVSPropertyOp48
 70
     1
102
RTVSPropertyOp49
 70
     1
102
RTVSPropertyOp50
 70
     1
102
RTVSPropertyOp51
 70
     0
102
RTVSPropertyOp52
 70
     0
102
RTVSPropertyOp53
 70
     1
102
RTVSPropertyOp54
 70
     1
102
RTVSPropertyOp55
 70
     1
102
RTVSPropertyOp56
 70
     1
102
RTVSPropertyOp57
 70
     1
102
RTVSPost2010Prop28
280
     0
102
RTVSPost2010PropOp28
 70
     1
102
RTVSPost2010Prop29
280
     1
102
RTVSPost2010PropOp29
 70
     1
102
RTVSPost2010Prop30
280
     1
102
RTVSPost2010PropOp30
 70
     1
102
RTVSPost2010Prop31
280
     0
102
RTVSPost2010PropOp31
 70
     1
102
RTVSPost2010Prop32
280
     0
102
RTVSPost2010PropOp32
 70
     1
102
RTVSPost2010Prop33
280
     0
102
RTVSPost2010PropOp33
 70
     1
102
RTVSPost2010Prop34
280
     0
102
RTVSPost2010PropOp34
 70
     1
102
RTVSPost2010Prop35
280
     0
102
RTVSPost2010PropOp35
 70
     1
102
RTVSPost2010Prop36
280
     0
102
RTVSPost2010PropOp36
 70
     1
102
RTVSPost2010Prop37
 90
       50
102
RTVSPost2010PropOp37
 70
     1
102
RTVSPost2010Prop38
140
0.0
102
RTVSPost2010PropOp38
 70
     1
102
RTVSPost2010Prop39
140
1.0
102
RTVSPost2010PropOp39
 70
     1
102
RTVSPost2010Prop40
 90
        0
102
RTVSPost2010PropOp40
 70
     1
102
RTVSPost2010Prop41ColorIndex
 90
       18
102
RTVSPost2010Prop41ColorRGB
 90
        0
102
RTVSPost2010PropOp41
 70
     1
102
RTVSPost2010Prop42
 90
       50
102
RTVSPost2010PropOp42
 70
     1
102
RTVSPost2010Prop43
 90
        3
102
RTVSPost2010PropOp43
 70
     1
102
RTVSPost2010Prop44ColorIndex
 90
        5
102
RTVSPost2010Prop44ColorRGB
 90
      255
102
RTVSPost2010PropOp44
 70
     1
102
RTVSPost2010Prop45
280
     0
102
RTVSPost2010PropOp45
 70
     1
102
RTVSPost2010Prop46
 90
       50
102
RTVSPost2010PropOp46
 70
     1
102
RTVSPost2010Prop47
 90
       50
102
RTVSPost2010PropOp47
 70
     1
102
RTVSPost2010Prop48
 90
       50
102
RTVSPost2010PropOp48
 70
     1
102
RTVSPost2010Prop49
280
     0
102
RTVSPost2010PropOp49
 70
     1
102
RTVSPost2010Prop50
 90
       50
102
RTVSPost2010PropOp50
 70
     1
102
RTVSPost2010Prop51ColorIndex
 90
      256
102
RTVSPost2010Prop51ColorRGB
 90
-16777216
102
RTVSPost2010PropOp51
 70
     0
102
RTVSPost2010Prop52
140
1.0
102
RTVSPost2010PropOp52
 70
     0
102
RTVSPost2010Prop53
 90
        2
102
RTVSPost2010PropOp53
 70
     1
102
RTVSPost2010Prop54
  1
strokes_ogs.tif
102
RTVSPost2010PropOp54
 70
     1
102
RTVSPost2010Prop55
280
     0
102
RTVSPost2010PropOp55
 70
     1
102
RTVSPost2010Prop56
140
1.0
102
RTVSPost2010PropOp56
 70
     1
102
RTVSPost2010Prop57
140
1.0
102
RTVSPost2010PropOp57
 70
     1
  0
XRECORD
  5
2F6
102
{ACAD_REACTORS
330
2F5
102
}
330
2F5
100
AcDbXrecord
280
     1
102
RTVSPropertyOp0
 70
     1
102
RTVSPropertyOp1
 70
     1
102
RTVSPropertyOp2
 70
     1
102
RTVSPropertyOp3
 70
     1
102
RTVSPropertyOp4
 70
     1
102
RTVSPropertyOp5
 70
     1
102
RTVSPropertyOp6
 70
     1
102
RTVSPropertyOp7
 70
     1
102
RTVSPropertyOp8
 70
     1
102
RTVSPropertyOp9
 70
     1
102
RTVSPropertyOp10
 70
     1
102
RTVSPropertyOp11
 70
     1
102
RTVSPropertyOp12
 70
     1
102
RTVSPropertyOp13
 70
     1
102
RTVSPropertyOp14
 70
     1
102
RTVSPropertyOp15
 70
     1
102
RTVSPropertyOp16
 70
     1
102
RTVSPropertyOp17
 70
     1
102
RTVSPropertyOp18
 70
     1
102
RTVSPropertyOp19
 70
     1
102
RTVSPropertyOp20
 70
     1
102
RTVSPropertyOp21
 70
     1
102
RTVSPropertyOp22
 70
     1
102
RTVSPropertyOp23
 70
     1
102
RTVSPropertyOp24
 70
     1
102
RTVSPropertyOp25
 70
     1
102
RTVSPropertyOp26
 70
     1
102
RTVSPropertyOp27
 70
     1
102
RTVSPropertyOp28
 70
     1
102
RTVSPropertyOp29
 70
     1
102
RTVSPropertyOp30
 70
     1
102
RTVSPropertyOp31
 70
     1
102
RTVSPropertyOp32
 70
     1
102
RTVSPropertyOp33
 70
     1
102
RTVSPropertyOp34
 70
     1
102
RTVSPropertyOp35
 70
     1
102
RTVSPropertyOp36
 70
     1
102
RTVSPropertyOp37
 70
     1
102
RTVSPropertyOp38
 70
     1
102
RTVSPropertyOp39
 70
     1
102
RTVSPropertyOp40
 70
     1
102
RTVSPropertyOp41
 70
     1
102
RTVSPropertyOp42
 70
     1
102
RTVSPropertyOp43
 70
     1
102
RTVSPropertyOp44
 70
     1
102
RTVSPropertyOp45
 70
     1
102
RTVSPropertyOp46
 70
     1
102
RTVSPropertyOp47
 70
     1
102
RTVSPropertyOp48
 70
     1
102
RTVSPropertyOp49
 70
     1
102
RTVSPropertyOp50
 70
     1
102
RTVSPropertyOp51
 70
     0
102
RTVSPropertyOp52
 70
     0
102
RTVSPropertyOp53
 70
     1
102
RTVSPropertyOp54
 70
     1
102
RTVSPropertyOp55
 70
     1
102
RTVSPropertyOp56
 70
     1
102
RTVSPropertyOp57
 70
     1
102
RTVSPost2010Prop28
280
     0
102
RTVSPost2010PropOp28
 70
     1
102
RTVSPost2010Prop29
280
     1
102
RTVSPost2010PropOp29
 70
     1
102
RTVSPost2010Prop30
280
     1
102
RTVSPost2010PropOp30
 70
     1
102
RTVSPost2010Prop31
280
     0
102
RTVSPost2010PropOp31
 70
     1
102
RTVSPost2010Prop32
280
     0
102
RTVSPost2010PropOp32
 70
     1
102
RTVSPost2010Prop33
280
     0
102
RTVSPost2010PropOp33
 70
     1
102
RTVSPost2010Prop34
280
     0
102
RTVSPost2010PropOp34
 70
     1
102
RTVSPost2010Prop35
280
     0
102
RTVSPost2010PropOp35
 70
     1
102
RTVSPost2010Prop36
280
     0
102
RTVSPost2010PropOp36
 70
     1
102
RTVSPost2010Prop37
 90
       50
102
RTVSPost2010PropOp37
 70
     1
102
RTVSPost2010Prop38
140
0.0
102
RTVSPost2010PropOp38
 70
     1
102
RTVSPost2010Prop39
140
1.0
102
RTVSPost2010PropOp39
 70
     1
102
RTVSPost2010Prop40
 90
        0
102
RTVSPost2010PropOp40
 70
     1
102
RTVSPost2010Prop41ColorIndex
 90
       18
102
RTVSPost2010Prop41ColorRGB
 90
        0
102
RTVSPost2010PropOp41
 70
     1
102
RTVSPost2010Prop42
 90
       50
102
RTVSPost2010PropOp42
 70
     1
102
RTVSPost2010Prop43
 90
        3
102
RTVSPost2010PropOp43
 70
     1
102
RTVSPost2010Prop44ColorIndex
 90
        5
102
RTVSPost2010Prop44ColorRGB
 90
      255
102
RTVSPost2010PropOp44
 70
     1
102
RTVSPost2010Prop45
280
     0
102
RTVSPost2010PropOp45
 70
     1
102
RTVSPost2010Prop46
 90
       50
102
RTVSPost2010PropOp46
 70
     1
102
RTVSPost2010Prop47
 90
       50
102
RTVSPost2010PropOp47
 70
     1
102
RTVSPost2010Prop48
 90
       50
102
RTVSPost2010PropOp48
 70
     1
102
RTVSPost2010Prop49
280
     0
102
RTVSPost2010PropOp49
 70
     1
102
RTVSPost2010Prop50
 90
       50
102
RTVSPost2010PropOp50
 70
     1
102
RTVSPost2010Prop51ColorIndex
 90
      256
102
RTVSPost2010Prop51ColorRGB
 90
-16777216
102
RTVSPost2010PropOp51
 70
     0
102
RTVSPost2010Prop52
140
1.0
102
RTVSPost2010PropOp52
 70
     0
102
RTVSPost2010Prop53
 90
        2
102
RTVSPost2010PropOp53
 70
     1
102
RTVSPost2010Prop54
  1
strokes_ogs.tif
102
RTVSPost2010PropOp54
 70
     1
102
RTVSPost2010Prop55
280
     0
102
RTVSPost2010PropOp55
 70
     1
102
RTVSPost2010Prop56
140
1.0
102
RTVSPost2010PropOp56
 70
     1
102
RTVSPost2010Prop57
140
1.0
102
RTVSPost2010PropOp57
 70
     1
  0
XRECORD
  5
2E8
102
{ACAD_REACTORS
330
2E7
102
}
330
2E7
100
AcDbXrecord
280
     1
102
RTVSPropertyOp0
 70
     1
102
RTVSPropertyOp1
 70
     1
102
RTVSPropertyOp2
 70
     1
102
RTVSPropertyOp3
 70
     1
102
RTVSPropertyOp4
 70
     1
102
RTVSPropertyOp5
 70
     1
102
RTVSPropertyOp6
 70
     1
102
RTVSPropertyOp7
 70
     1
102
RTVSPropertyOp8
 70
     1
102
RTVSPropertyOp9
 70
     1
102
RTVSPropertyOp10
 70
     1
102
RTVSPropertyOp11
 70
     1
102
RTVSPropertyOp12
 70
     1
102
RTVSPropertyOp13
 70
     1
102
RTVSPropertyOp14
 70
     1
102
RTVSPropertyOp15
 70
     1
102
RTVSPropertyOp16
 70
     1
102
RTVSPropertyOp17
 70
     1
102
RTVSPropertyOp18
 70
     1
102
RTVSPropertyOp19
 70
     1
102
RTVSPropertyOp20
 70
     1
102
RTVSPropertyOp21
 70
     1
102
RTVSPropertyOp22
 70
     1
102
RTVSPropertyOp23
 70
     1
102
RTVSPropertyOp24
 70
     1
102
RTVSPropertyOp25
 70
     1
102
RTVSPropertyOp26
 70
     1
102
RTVSPropertyOp27
 70
     1
102
RTVSPropertyOp28
 70
     1
102
RTVSPropertyOp29
 70
     1
102
RTVSPropertyOp30
 70
     1
102
RTVSPropertyOp31
 70
     1
102
RTVSPropertyOp32
 70
     1
102
RTVSPropertyOp33
 70
     1
102
RTVSPropertyOp34
 70
     1
102
RTVSPropertyOp35
 70
     1
102
RTVSPropertyOp36
 70
     1
102
RTVSPropertyOp37
 70
     1
102
RTVSPropertyOp38
 70
     1
102
RTVSPropertyOp39
 70
     1
102
RTVSPropertyOp40
 70
     1
102
RTVSPropertyOp41
 70
     1
102
RTVSPropertyOp42
 70
     1
102
RTVSPropertyOp43
 70
     1
102
RTVSPropertyOp44
 70
     1
102
RTVSPropertyOp45
 70
     1
102
RTVSPropertyOp46
 70
     1
102
RTVSPropertyOp47
 70
     1
102
RTVSPropertyOp48
 70
     1
102
RTVSPropertyOp49
 70
     1
102
RTVSPropertyOp50
 70
     1
102
RTVSPropertyOp51
 70
     0
102
RTVSPropertyOp52
 70
     0
102
RTVSPropertyOp53
 70
     1
102
RTVSPropertyOp54
 70
     1
102
RTVSPropertyOp55
 70
     1
102
RTVSPropertyOp56
 70
     1
102
RTVSPropertyOp57
 70
     1
102
RTVSPost2010Prop28
280
     0
102
RTVSPost2010PropOp28
 70
     1
102
RTVSPost2010Prop29
280
     1
102
RTVSPost2010PropOp29
 70
     1
102
RTVSPost2010Prop30
280
     1
102
RTVSPost2010PropOp30
 70
     1
102
RTVSPost2010Prop31
280
     0
102
RTVSPost2010PropOp31
 70
     1
102
RTVSPost2010Prop32
280
     0
102
RTVSPost2010PropOp32
 70
     1
102
RTVSPost2010Prop33
280
     0
102
RTVSPost2010PropOp33
 70
     1
102
RTVSPost2010Prop34
280
     0
102
RTVSPost2010PropOp34
 70
     1
102
RTVSPost2010Prop35
280
     0
102
RTVSPost2010PropOp35
 70
     1
102
RTVSPost2010Prop36
280
     0
102
RTVSPost2010PropOp36
 70
     1
102
RTVSPost2010Prop37
 90
       50
102
RTVSPost2010PropOp37
 70
     1
102
RTVSPost2010Prop38
140
0.0
102
RTVSPost2010PropOp38
 70
     1
102
RTVSPost2010Prop39
140
1.0
102
RTVSPost2010PropOp39
 70
     1
102
RTVSPost2010Prop40
 90
        0
102
RTVSPost2010PropOp40
 70
     1
102
RTVSPost2010Prop41ColorIndex
 90
       18
102
RTVSPost2010Prop41ColorRGB
 90
        0
102
RTVSPost2010PropOp41
 70
     1
102
RTVSPost2010Prop42
 90
       50
102
RTVSPost2010PropOp42
 70
     1
102
RTVSPost2010Prop43
 90
        3
102
RTVSPost2010PropOp43
 70
     1
102
RTVSPost2010Prop44ColorIndex
 90
        5
102
RTVSPost2010Prop44ColorRGB
 90
      255
102
RTVSPost2010PropOp44
 70
     1
102
RTVSPost2010Prop45
280
     0
102
RTVSPost2010PropOp45
 70
     1
102
RTVSPost2010Prop46
 90
       50
102
RTVSPost2010PropOp46
 70
     1
102
RTVSPost2010Prop47
 90
       50
102
RTVSPost2010PropOp47
 70
     1
102
RTVSPost2010Prop48
 90
       50
102
RTVSPost2010PropOp48
 70
     1
102
RTVSPost2010Prop49
280
     0
102
RTVSPost2010PropOp49
 70
     1
102
RTVSPost2010Prop50
 90
       50
102
RTVSPost2010PropOp50
 70
     1
102
RTVSPost2010Prop51ColorIndex
 90
      256
102
RTVSPost2010Prop51ColorRGB
 90
-16777216
102
RTVSPost2010PropOp51
 70
     0
102
RTVSPost2010Prop52
140
1.0
102
RTVSPost2010PropOp52
 70
     0
102
RTVSPost2010Prop53
 90
        2
102
RTVSPost2010PropOp53
 70
     1
102
RTVSPost2010Prop54
  1
strokes_ogs.tif
102
RTVSPost2010PropOp54
 70
     1
102
RTVSPost2010Prop55
280
     0
102
RTVSPost2010PropOp55
 70
     1
102
RTVSPost2010Prop56
140
1.0
102
RTVSPost2010PropOp56
 70
     1
102
RTVSPost2010Prop57
140
1.0
102
RTVSPost2010PropOp57
 70
     1
  0
XRECORD
  5
308
102
{ACAD_REACTORS
330
307
102
}
330
307
100
AcDbXrecord
280
     1
102
RTVSPropertyOp0
 70
     1
102
RTVSPropertyOp1
 70
     1
102
RTVSPropertyOp2
 70
     1
102
RTVSPropertyOp3
 70
     1
102
RTVSPropertyOp4
 70
     1
102
RTVSPropertyOp5
 70
     1
102
RTVSPropertyOp6
 70
     1
102
RTVSPropertyOp7
 70
     1
102
RTVSPropertyOp8
 70
     1
102
RTVSPropertyOp9
 70
     1
102
RTVSPropertyOp10
 70
     1
102
RTVSPropertyOp11
 70
     1
102
RTVSPropertyOp12
 70
     1
102
RTVSPropertyOp13
 70
     1
102
RTVSPropertyOp14
 70
     1
102
RTVSPropertyOp15
 70
     1
102
RTVSPropertyOp16
 70
     1
102
RTVSPropertyOp17
 70
     1
102
RTVSPropertyOp18
 70
     1
102
RTVSPropertyOp19
 70
     1
102
RTVSPropertyOp20
 70
     1
102
RTVSPropertyOp21
 70
     1
102
RTVSPropertyOp22
 70
     1
102
RTVSPropertyOp23
 70
     1
102
RTVSPropertyOp24
 70
     1
102
RTVSPropertyOp25
 70
     1
102
RTVSPropertyOp26
 70
     1
102
RTVSPropertyOp27
 70
     1
102
RTVSPropertyOp28
 70
     1
102
RTVSPropertyOp29
 70
     1
102
RTVSPropertyOp30
 70
     1
102
RTVSPropertyOp31
 70
     1
102
RTVSPropertyOp32
 70
     1
102
RTVSPropertyOp33
 70
     1
102
RTVSPropertyOp34
 70
     1
102
RTVSPropertyOp35
 70
     1
102
RTVSPropertyOp36
 70
     1
102
RTVSPropertyOp37
 70
     1
102
RTVSPropertyOp38
 70
     1
102
RTVSPropertyOp39
 70
     1
102
RTVSPropertyOp40
 70
     1
102
RTVSPropertyOp41
 70
     1
102
RTVSPropertyOp42
 70
     1
102
RTVSPropertyOp43
 70
     1
102
RTVSPropertyOp44
 70
     1
102
RTVSPropertyOp45
 70
     1
102
RTVSPropertyOp46
 70
     1
102
RTVSPropertyOp47
 70
     1
102
RTVSPropertyOp48
 70
     1
102
RTVSPropertyOp49
 70
     1
102
RTVSPropertyOp50
 70
     1
102
RTVSPropertyOp51
 70
     0
102
RTVSPropertyOp52
 70
     0
102
RTVSPropertyOp53
 70
     1
102
RTVSPropertyOp54
 70
     1
102
RTVSPropertyOp55
 70
     1
102
RTVSPropertyOp56
 70
     1
102
RTVSPropertyOp57
 70
     1
102
RTVSPost2010Prop28
280
     0
102
RTVSPost2010PropOp28
 70
     1
102
RTVSPost2010Prop29
280
     1
102
RTVSPost2010PropOp29
 70
     1
102
RTVSPost2010Prop30
280
     1
102
RTVSPost2010PropOp30
 70
     1
102
RTVSPost2010Prop31
280
     0
102
RTVSPost2010PropOp31
 70
     1
102
RTVSPost2010Prop32
280
     0
102
RTVSPost2010PropOp32
 70
     1
102
RTVSPost2010Prop33
280
     0
102
RTVSPost2010PropOp33
 70
     1
102
RTVSPost2010Prop34
280
     0
102
RTVSPost2010PropOp34
 70
     1
102
RTVSPost2010Prop35
280
     0
102
RTVSPost2010PropOp35
 70
     1
102
RTVSPost2010Prop36
280
     0
102
RTVSPost2010PropOp36
 70
     1
102
RTVSPost2010Prop37
 90
       50
102
RTVSPost2010PropOp37
 70
     1
102
RTVSPost2010Prop38
140
0.0
102
RTVSPost2010PropOp38
 70
     1
102
RTVSPost2010Prop39
140
1.0
102
RTVSPost2010PropOp39
 70
     1
102
RTVSPost2010Prop40
 90
        0
102
RTVSPost2010PropOp40
 70
     1
102
RTVSPost2010Prop41ColorIndex
 90
       18
102
RTVSPost2010Prop41ColorRGB
 90
        0
102
RTVSPost2010PropOp41
 70
     1
102
RTVSPost2010Prop42
 90
       50
102
RTVSPost2010PropOp42
 70
     1
102
RTVSPost2010Prop43
 90
        3
102
RTVSPost2010PropOp43
 70
     1
102
RTVSPost2010Prop44ColorIndex
 90
        5
102
RTVSPost2010Prop44ColorRGB
 90
      255
102
RTVSPost2010PropOp44
 70
     1
102
RTVSPost2010Prop45
280
     0
102
RTVSPost2010PropOp45
 70
     1
102
RTVSPost2010Prop46
 90
       50
102
RTVSPost2010PropOp46
 70
     1
102
RTVSPost2010Prop47
 90
       50
102
RTVSPost2010PropOp47
 70
     1
102
RTVSPost2010Prop48
 90
       50
102
RTVSPost2010PropOp48
 70
     1
102
RTVSPost2010Prop49
280
     0
102
RTVSPost2010PropOp49
 70
     1
102
RTVSPost2010Prop50
 90
       50
102
RTVSPost2010PropOp50
 70
     1
102
RTVSPost2010Prop51ColorIndex
 90
      256
102
RTVSPost2010Prop51ColorRGB
 90
-16777216
102
RTVSPost2010PropOp51
 70
     0
102
RTVSPost2010Prop52
140
1.0
102
RTVSPost2010PropOp52
 70
     0
102
RTVSPost2010Prop53
 90
        2
102
RTVSPost2010PropOp53
 70
     1
102
RTVSPost2010Prop54
  1
strokes_ogs.tif
102
RTVSPost2010PropOp54
 70
     1
102
RTVSPost2010Prop55
280
     0
102
RTVSPost2010PropOp55
 70
     1
102
RTVSPost2010Prop56
140
1.0
102
RTVSPost2010PropOp56
 70
     1
102
RTVSPost2010Prop57
140
1.0
102
RTVSPost2010PropOp57
 70
     1
  0
ENDSEC
  0
EOF
