  0
SECTION
  2
BLOCKS
  0
ENDSEC
  0
SECTION
  2
ENTITIES
  0
LINE
  8
0
 10
6.54346
 20
-12.8428
 11
15
 21
-6.69872
  0
LINE
  8
0
 10
15
 20
-6.69872
 11
23
 21
-3.1369
  0
LINE
  8
0
 10
23
 20
-3.1369
 11
23
 21
17
  0
LINE
  8
0
 10
23
 20
17
 11
-22
 21
17
  0
LINE
  8
0
 10
-22
 20
17
 11
-22
 21
-3.58212
  0
LINE
  8
0
 10
-22
 20
-3.58212
 11
-15
 21
-6.69872
  0
LINE
  8
0
 10
-15
 20
-6.69872
 11
-6.54346
 21
-12.8428
  0
LINE
  8
0
 10
-6.54346
 20
-12.8428
 11
-4.60107
 21
-15
  0
LINE
  8
0
 10
-4.60107
 20
-15
 11
4.60107
 21
-15
  0
LINE
  8
0
 10
4.60107
 20
-15
 11
6.54346
 21
-12.8428
  0
LINE
  8
0
 10
16.2322
 20
10.2322
 11
15.5
 21
12
  0
LINE
  8
0
 10
15.5
 20
12
 11
16.2322
 21
13.7678
  0
LINE
  8
0
 10
16.2322
 20
13.7678
 11
18
 21
14.5
  0
LINE
  8
0
 10
18
 20
14.5
 11
19.7678
 21
13.7678
  0
LINE
  8
0
 10
19.7678
 20
13.7678
 11
20.5
 21
12
  0
LINE
  8
0
 10
20.5
 20
12
 11
19.7678
 21
10.2322
  0
LINE
  8
0
 10
19.7678
 20
10.2322
 11
18
 21
9.5
  0
LINE
  8
0
 10
18
 20
9.5
 11
16.2322
 21
10.2322
  0
LINE
  8
0
 10
-1.04527
 20
-9.94521
 11
-3.09016
 21
-9.51056
  0
LINE
  8
0
 10
-3.09016
 20
-9.51056
 11
-5
 21
-8.66025
  0
LINE
  8
0
 10
-5
 20
-8.66025
 11
-6.6913
 21
-7.43144
  0
LINE
  8
0
 10
-6.6913
 20
-7.43144
 11
-8.09016
 21
-5.87784
  0
LINE
  8
0
 10
-8.09016
 20
-5.87784
 11
-9.13545
 21
-4.06735
  0
LINE
  8
0
 10
-9.13545
 20
-4.06735
 11
-9.78146
 21
-2.07912
  0
LINE
  8
0
 10
-9.78146
 20
-2.07912
 11
-10
 21
0
  0
LINE
  8
0
 10
-10
 20
0
 11
-9.78146
 21
2.07912
  0
LINE
  8
0
 10
-9.78146
 20
2.07912
 11
-9.13545
 21
4.06735
  0
LINE
  8
0
 10
-9.13545
 20
4.06735
 11
-8.09016
 21
5.87784
  0
LINE
  8
0
 10
-8.09016
 20
5.87784
 11
-6.6913
 21
7.43144
  0
LINE
  8
0
 10
-6.6913
 20
7.43144
 11
-4.99998
 21
8.66025
  0
LINE
  8
0
 10
-4.99998
 20
8.66025
 11
-3.09016
 21
9.51056
  0
LINE
  8
0
 10
-3.09016
 20
9.51056
 11
-1.04527
 21
9.94521
  0
LINE
  8
0
 10
-1.04527
 20
9.94521
 11
1.04527
 21
9.94521
  0
LINE
  8
0
 10
1.04527
 20
9.94521
 11
3.09016
 21
9.51056
  0
LINE
  8
0
 10
3.09016
 20
9.51056
 11
5
 21
8.66025
  0
LINE
  8
0
 10
5
 20
8.66025
 11
6.6913
 21
7.43144
  0
LINE
  8
0
 10
6.6913
 20
7.43144
 11
8.09016
 21
5.87784
  0
LINE
  8
0
 10
8.09016
 20
5.87784
 11
9.13545
 21
4.06735
  0
LINE
  8
0
 10
9.13545
 20
4.06735
 11
9.78146
 21
2.07912
  0
LINE
  8
0
 10
9.78146
 20
2.07912
 11
10
 21
0
  0
LINE
  8
0
 10
10
 20
0
 11
9.78146
 21
-2.07912
  0
LINE
  8
0
 10
9.78146
 20
-2.07912
 11
9.13545
 21
-4.06735
  0
LINE
  8
0
 10
9.13545
 20
-4.06735
 11
8.09016
 21
-5.87784
  0
LINE
  8
0
 10
8.09016
 20
-5.87784
 11
6.6913
 21
-7.43144
  0
LINE
  8
0
 10
6.6913
 20
-7.43144
 11
5
 21
-8.66025
  0
LINE
  8
0
 10
5
 20
-8.66025
 11
3.09016
 21
-9.51056
  0
LINE
  8
0
 10
3.09016
 20
-9.51056
 11
1.04527
 21
-9.94521
  0
LINE
  8
0
 10
1.04527
 20
-9.94521
 11
-1.04527
 21
-9.94521
  0
ENDSEC
  0
SECTION
  2
OBJECTS
  0
DICTIONARY
  0
ENDSEC
  0
EOF
