0
SECTION
2
HEADER
9
$ACADVER
1
AC1009
0
ENDSEC
0
SECTION
2
TABLES
0
TABLE
2
VPORT
70
1
0
VPORT
2
ACTIVE
70
0
10
0.0
20
0.0
11
0.0
21
0.0
12
0.0
22
0.0
13
0.0
23
0.0
14
0.0
24
0.0
15
0.0
25
0.0
16
0.0
26
0.0
36
0.0
17
0.0
27
0.0
37
0.0
40
0.0
41
0.0
42
0.0
43
0.0
44
0.0
50
0.0
51
0.0
71
0
72
1000
73
1
74
3
75
0
76
0
77
0
78
0
0
ENDTAB
0
ENDSEC
0
SECTION
2
ENTITIES
0
LINE
8
boundary
62
5
39
2
10
4.877443
20
320.459092
11
4.429175
21
316.841574
0
LINE
8
boundary
62
5
39
2
10
4.429175
20
316.841574
11
4.303781
21
315.757472
0
LINE
8
boundary
62
5
39
2
10
4.303781
20
315.757472
11
3.901785
21
312.281968
0
LINE
8
boundary
62
5
39
2
10
3.901785
20
312.281968
11
3.690832
21
310.192945
0
LINE
8
boundary
62
5
39
2
10
3.690832
20
310.192945
11
3.014545
21
303.495780
0
LINE
8
boundary
62
5
39
2
10
3.014545
20
303.495780
11
2.855502
21
301.513247
0
LINE
8
boundary
62
5
39
2
10
2.855502
20
301.513247
11
2.345630
21
295.157481
0
LINE
8
boundary
62
5
39
2
10
2.345630
20
295.157481
11
2.237034
21
293.282536
0
LINE
8
boundary
62
5
39
2
10
2.237034
20
293.282536
11
1.888887
21
287.271685
0
LINE
8
boundary
62
5
39
2
10
1.888887
20
287.271685
11
1.829289
21
285.505423
0
LINE
8
boundary
62
5
39
2
10
1.829289
20
285.505423
11
1.638224
21
279.842997
0
LINE
8
boundary
62
5
39
2
10
1.638224
20
279.842997
11
1.626164
21
278.186520
0
LINE
8
boundary
62
5
39
2
10
1.626164
20
278.186520
11
1.587500
21
272.876052
0
LINE
8
boundary
62
5
39
2
10
1.587500
20
272.876052
11
1.621498
21
271.330525
0
LINE
8
boundary
62
5
39
2
10
1.621498
20
271.330525
11
1.730491
21
266.375746
0
LINE
8
boundary
62
5
39
2
10
1.730491
20
266.375746
11
1.807744
21
264.943323
0
LINE
8
boundary
62
5
39
2
10
1.807744
20
264.943323
11
2.055410
21
260.351145
0
LINE
8
boundary
62
5
39
2
10
2.055410
20
260.351145
11
2.171664
21
259.034663
0
LINE
8
boundary
62
5
39
2
10
2.171664
20
259.034663
11
2.544358
21
254.814177
0
LINE
8
boundary
62
5
39
2
10
2.544358
20
254.814177
11
2.695303
21
253.616489
0
LINE
8
boundary
62
5
39
2
10
2.695303
20
253.616489
11
3.179215
21
249.776845
0
LINE
8
boundary
62
5
39
2
10
3.179215
20
249.776845
11
3.360515
21
248.700803
0
LINE
8
boundary
62
5
39
2
10
3.360515
20
248.700803
11
3.941741
21
245.251140
0
LINE
8
boundary
62
5
39
2
10
3.941741
20
245.251140
11
4.149056
21
244.299776
0
LINE
8
boundary
62
5
39
2
10
4.149056
20
244.299776
11
4.813684
21
241.249816
0
LINE
8
boundary
62
5
39
2
10
4.813684
20
241.249816
11
5.039767
21
240.427257
0
LINE
8
boundary
62
5
39
2
10
5.039767
20
240.427257
11
5.764559
21
237.790234
0
LINE
8
boundary
62
5
39
2
10
5.764559
20
237.790234
11
5.998180
21
237.100077
0
LINE
8
boundary
62
5
39
2
10
5.998180
20
237.100077
11
6.747141
21
234.887516
0
LINE
8
boundary
62
5
39
2
10
6.747141
20
234.887516
11
6.976763
21
234.333203
0
LINE
8
boundary
62
5
39
2
10
6.976763
20
234.333203
11
7.712901
21
232.556142
0
LINE
8
boundary
62
5
39
2
10
7.712901
20
232.556142
11
8.606222
21
230.807478
0
LINE
8
boundary
62
5
39
2
10
8.606222
20
230.807478
11
9.740104
21
231.518396
0
LINE
8
boundary
62
5
39
2
10
9.740104
20
231.518396
11
11.051252
21
232.427934
0
LINE
8
boundary
62
5
39
2
10
11.051252
20
232.427934
11
12.518652
21
233.528684
0
LINE
8
boundary
62
5
39
2
10
12.518652
20
233.528684
11
14.121365
21
234.813217
0
LINE
8
boundary
62
5
39
2
10
14.121365
20
234.813217
11
14.529648
21
235.160398
0
LINE
8
boundary
62
5
39
2
10
14.529648
20
235.160398
11
15.838556
21
236.273417
0
LINE
8
boundary
62
5
39
2
10
15.838556
20
236.273417
11
16.270782
21
236.658807
0
LINE
8
boundary
62
5
39
2
10
16.270782
20
236.658807
11
17.656444
21
237.894322
0
LINE
8
boundary
62
5
39
2
10
17.656444
20
237.894322
11
18.587701
21
238.764291
0
LINE
8
boundary
62
5
39
2
10
18.587701
20
238.764291
11
21.573199
21
241.553309
0
LINE
8
boundary
62
5
39
2
10
21.573199
20
241.553309
11
22.585675
21
242.530275
0
LINE
8
boundary
62
5
39
2
10
22.585675
20
242.530275
11
25.831551
21
245.662312
0
LINE
8
boundary
62
5
39
2
10
25.831551
20
245.662312
11
26.916370
21
246.715954
0
LINE
8
boundary
62
5
39
2
10
26.916370
20
246.715954
11
30.394172
21
250.093807
0
LINE
8
boundary
62
5
39
2
10
30.394172
20
250.093807
11
31.551343
21
251.193635
0
LINE
8
boundary
62
5
39
2
10
31.551343
20
251.193635
11
35.261099
21
254.719554
0
LINE
8
boundary
62
5
39
2
10
35.261099
20
254.719554
11
36.497992
21
255.835179
0
LINE
8
boundary
62
5
39
2
10
36.497992
20
255.835179
11
40.463325
21
259.411740
0
LINE
8
boundary
62
5
39
2
10
40.463325
20
259.411740
11
41.787522
21
260.512807
0
LINE
8
boundary
62
5
39
2
10
41.787522
20
260.512807
11
46.032740
21
264.042701
0
LINE
8
boundary
62
5
39
2
10
46.032740
20
264.042701
11
47.453064
21
265.098968
0
LINE
8
boundary
62
5
39
2
10
47.453064
20
265.098968
11
52.006455
21
268.485235
0
LINE
8
boundary
62
5
39
2
10
52.006455
20
268.485235
11
53.535862
21
269.462330
0
LINE
8
boundary
62
5
39
2
10
53.535862
20
269.462330
11
58.438960
21
272.594784
0
LINE
8
boundary
62
5
39
2
10
58.438960
20
272.594784
11
59.247293
21
273.040964
0
LINE
8
boundary
62
5
39
2
10
59.247293
20
273.040964
11
61.838716
21
274.471365
0
LINE
8
boundary
62
5
39
2
10
61.838716
20
274.471365
11
62.677482
21
274.882481
0
LINE
8
boundary
62
5
39
2
10
62.677482
20
274.882481
11
65.366468
21
276.200474
0
LINE
8
boundary
62
5
39
2
10
65.366468
20
276.200474
11
66.236684
21
276.571359
0
LINE
8
boundary
62
5
39
2
10
66.236684
20
276.571359
11
69.026492
21
277.760371
0
LINE
8
boundary
62
5
39
2
10
69.026492
20
277.760371
11
69.928427
21
278.084605
0
LINE
8
boundary
62
5
39
2
10
69.928427
20
278.084605
11
72.819925
21
279.124060
0
LINE
8
boundary
62
5
39
2
10
72.819925
20
279.124060
11
73.750606
21
279.395627
0
LINE
8
boundary
62
5
39
2
10
73.750606
20
279.395627
11
76.734258
21
280.266238
0
LINE
8
boundary
62
5
39
2
10
76.734258
20
280.266238
11
77.690087
21
280.479636
0
LINE
8
boundary
62
5
39
2
10
77.690087
20
280.479636
11
80.754361
21
281.163761
0
LINE
8
boundary
62
5
39
2
10
80.754361
20
281.163761
11
81.731707
21
281.313491
0
LINE
8
boundary
62
5
39
2
10
81.731707
20
281.313491
11
84.864963
21
281.793507
0
LINE
8
boundary
62
5
39
2
10
84.864963
20
281.793507
11
85.860068
21
281.874015
0
LINE
8
boundary
62
5
39
2
10
85.860068
20
281.874015
11
89.050258
21
282.132113
0
LINE
8
boundary
62
5
39
2
10
89.050258
20
282.132113
11
90.056464
21
282.139036
0
LINE
8
boundary
62
5
39
2
10
90.056464
20
282.139036
11
93.282242
21
282.161229
0
LINE
8
boundary
62
5
39
2
10
93.282242
20
282.161229
11
94.292740
21
282.094130
0
LINE
8
boundary
62
5
39
2
10
94.292740
20
282.094130
11
97.532274
21
281.879015
0
LINE
8
boundary
62
5
39
2
10
97.532274
20
281.879015
11
98.540681
21
281.738043
0
LINE
8
boundary
62
5
39
2
10
98.540681
20
281.738043
11
101.773518
21
281.286101
0
LINE
8
boundary
62
5
39
2
10
101.773518
20
281.286101
11
102.773465
21
281.071400
0
LINE
8
boundary
62
5
39
2
10
102.773465
20
281.071400
11
105.979178
21
280.383092
0
LINE
8
boundary
62
5
39
2
10
105.979178
20
280.383092
11
106.964249
21
280.095036
0
LINE
8
boundary
62
5
39
2
10
106.964249
20
280.095036
11
110.122269
21
279.171562
0
LINE
8
boundary
62
5
39
2
10
110.122269
20
279.171562
11
111.087127
21
278.813429
0
LINE
8
boundary
62
5
39
2
10
111.087127
20
278.813429
11
114.180349
21
277.665295
0
LINE
8
boundary
62
5
39
2
10
114.180349
20
277.665295
11
115.122600
21
277.240698
0
LINE
8
boundary
62
5
39
2
10
115.122600
20
277.240698
11
118.143346
21
275.879490
0
LINE
8
boundary
62
5
39
2
10
118.143346
20
275.879490
11
119.060953
21
275.391759
0
LINE
8
boundary
62
5
39
2
10
119.060953
20
275.391759
11
122.002691
21
273.828150
0
LINE
8
boundary
62
5
39
2
10
122.002691
20
273.828150
11
122.893590
21
273.280605
0
LINE
8
boundary
62
5
39
2
10
122.893590
20
273.280605
11
125.749707
21
271.525239
0
LINE
8
boundary
62
5
39
2
10
125.749707
20
271.525239
11
126.611864
21
270.921214
0
LINE
8
boundary
62
5
39
2
10
126.611864
20
270.921214
11
129.375837
21
268.984781
0
LINE
8
boundary
62
5
39
2
10
129.375837
20
268.984781
11
130.207630
21
268.327651
0
LINE
8
boundary
62
5
39
2
10
130.207630
20
268.327651
11
132.874260
21
266.220972
0
LINE
8
boundary
62
5
39
2
10
132.874260
20
266.220972
11
133.676078
21
265.513727
0
LINE
8
boundary
62
5
39
2
10
133.676078
20
265.513727
11
136.246614
21
263.246384
0
LINE
8
boundary
62
5
39
2
10
136.246614
20
263.246384
11
137.018237
21
262.491076
0
LINE
8
boundary
62
5
39
2
10
137.018237
20
262.491076
11
139.491970
21
260.069651
0
LINE
8
boundary
62
5
39
2
10
139.491970
20
260.069651
11
140.233061
21
259.268283
0
LINE
8
boundary
62
5
39
2
10
140.233061
20
259.268283
11
142.608913
21
256.699187
0
LINE
8
boundary
62
5
39
2
10
142.608913
20
256.699187
11
143.319151
21
255.853753
0
LINE
8
boundary
62
5
39
2
10
143.319151
20
255.853753
11
145.596091
21
253.143391
0
LINE
8
boundary
62
5
39
2
10
145.596091
20
253.143391
11
146.275129
21
252.255893
0
LINE
8
boundary
62
5
39
2
10
146.275129
20
252.255893
11
148.452043
21
249.410679
0
LINE
8
boundary
62
5
39
2
10
148.452043
20
249.410679
11
149.099546
21
248.483107
0
LINE
8
boundary
62
5
39
2
10
149.099546
20
248.483107
11
151.175366
21
245.509421
0
LINE
8
boundary
62
5
39
2
10
151.175366
20
245.509421
11
151.790990
21
244.543781
0
LINE
8
boundary
62
5
39
2
10
151.790990
20
244.543781
11
153.764609
21
241.448053
0
LINE
8
boundary
62
5
39
2
10
153.764609
20
241.448053
11
154.348042
21
240.446337
0
LINE
8
boundary
62
5
39
2
10
154.348042
20
240.446337
11
156.218457
21
237.234950
0
LINE
8
boundary
62
5
39
2
10
156.218457
20
237.234950
11
156.769329
21
236.199158
0
LINE
8
boundary
62
5
39
2
10
156.769329
20
236.199158
11
158.535361
21
232.878530
0
LINE
8
boundary
62
5
39
2
10
158.535361
20
232.878530
11
159.052982
21
231.810175
0
LINE
8
boundary
62
5
39
2
10
159.052982
20
231.810175
11
160.712417
21
228.385152
0
LINE
8
boundary
62
5
39
2
10
160.712417
20
228.385152
11
161.195863
21
227.285970
0
LINE
8
boundary
62
5
39
2
10
161.195863
20
227.285970
11
162.745732
21
223.762123
0
LINE
8
boundary
62
5
39
2
10
162.745732
20
223.762123
11
163.194277
21
222.634325
0
LINE
8
boundary
62
5
39
2
10
163.194277
20
222.634325
11
164.632260
21
219.018736
0
LINE
8
boundary
62
5
39
2
10
164.632260
20
219.018736
11
165.045203
21
217.864531
0
LINE
8
boundary
62
5
39
2
10
165.045203
20
217.864531
11
166.369048
21
214.164290
0
LINE
8
boundary
62
5
39
2
10
166.369048
20
214.164290
11
166.745674
21
212.985888
0
LINE
8
boundary
62
5
39
2
10
166.745674
20
212.985888
11
167.953093
21
209.208072
0
LINE
8
boundary
62
5
39
2
10
167.953093
20
209.208072
11
168.292668
21
208.007690
0
LINE
8
boundary
62
5
39
2
10
168.292668
20
208.007690
11
169.381304
21
204.159404
0
LINE
8
boundary
62
5
39
2
10
169.381304
20
204.159404
11
169.683125
21
202.939245
0
LINE
8
boundary
62
5
39
2
10
169.683125
20
202.939245
11
170.650728
21
199.027556
0
LINE
8
boundary
62
5
39
2
10
170.650728
20
199.027556
11
170.914081
21
197.789832
0
LINE
8
boundary
62
5
39
2
10
170.914081
20
197.789832
11
171.758360
21
193.821833
0
LINE
8
boundary
62
5
39
2
10
171.758360
20
193.821833
11
171.982533
21
192.568754
0
LINE
8
boundary
62
5
39
2
10
171.982533
20
192.568754
11
172.701202
21
188.551530
0
LINE
8
boundary
62
5
39
2
10
172.701202
20
188.551530
11
172.885469
21
187.285310
0
LINE
8
boundary
62
5
39
2
10
172.885469
20
187.285310
11
173.476207
21
183.225956
0
LINE
8
boundary
62
5
39
2
10
173.476207
20
183.225956
11
173.619778
21
181.948992
0
LINE
8
boundary
62
5
39
2
10
173.619778
20
181.948992
11
174.080046
21
177.855198
0
LINE
8
boundary
62
5
39
2
10
174.080046
20
177.855198
11
174.182430
21
176.570350
0
LINE
8
boundary
62
5
39
2
10
174.182430
20
176.570350
11
174.510657
21
172.451281
0
LINE
8
boundary
62
5
39
2
10
174.510657
20
172.451281
11
174.571931
21
171.161176
0
LINE
8
boundary
62
5
39
2
10
174.571931
20
171.161176
11
174.768366
21
167.025249
0
LINE
8
boundary
62
5
39
2
10
174.768366
20
167.025249
11
174.788587
21
165.732513
0
LINE
8
boundary
62
5
39
2
10
174.788587
20
165.732513
11
174.853411
21
161.588153
0
LINE
8
boundary
62
5
39
2
10
174.853411
20
161.588153
11
174.832689
21
160.295397
0
LINE
8
boundary
62
5
39
2
10
174.832689
20
160.295397
11
174.766257
21
156.150975
0
LINE
8
boundary
62
5
39
2
10
174.766257
20
156.150975
11
174.704660
21
154.860827
0
LINE
8
boundary
62
5
39
2
10
174.704660
20
154.860827
11
174.507187
21
150.724766
0
LINE
8
boundary
62
5
39
2
10
174.507187
20
150.724766
11
174.404793
21
149.439847
0
LINE
8
boundary
62
5
39
2
10
174.404793
20
149.439847
11
174.076530
21
145.320546
0
LINE
8
boundary
62
5
39
2
10
174.076530
20
145.320546
11
173.933428
21
144.043466
0
LINE
8
boundary
62
5
39
2
10
173.933428
20
144.043466
11
173.474660
21
139.949296
0
LINE
8
boundary
62
5
39
2
10
173.474660
20
139.949296
11
173.290928
21
138.682688
0
LINE
8
boundary
62
5
39
2
10
173.290928
20
138.682688
11
172.701905
21
134.622091
0
LINE
8
boundary
62
5
39
2
10
172.701905
20
134.622091
11
172.477933
21
133.368673
0
LINE
8
boundary
62
5
39
2
10
172.477933
20
133.368673
11
171.759907
21
129.350359
0
LINE
8
boundary
62
5
39
2
10
171.759907
20
129.350359
11
171.496676
21
128.112612
0
LINE
8
boundary
62
5
39
2
10
171.496676
20
128.112612
11
170.652789
21
124.144542
0
LINE
8
boundary
62
5
39
2
10
170.652789
20
124.144542
11
170.351002
21
122.924603
0
LINE
8
boundary
62
5
39
2
10
170.351002
20
122.924603
11
169.383508
21
119.013620
0
LINE
8
boundary
62
5
39
2
10
169.383508
20
119.013620
11
169.043912
21
117.813584
0
LINE
8
boundary
62
5
39
2
10
169.043912
20
117.813584
11
167.955204
21
113.966405
0
LINE
8
boundary
62
5
39
2
10
167.955204
20
113.966405
11
167.578533
21
112.788406
0
LINE
8
boundary
62
5
39
2
10
167.578533
20
112.788406
11
166.370971
21
109.011878
0
LINE
8
boundary
62
5
39
2
10
166.370971
20
109.011878
11
165.957939
21
107.858033
0
LINE
8
boundary
62
5
39
2
10
165.957939
20
107.858033
11
164.633807
21
104.158940
0
LINE
8
boundary
62
5
39
2
10
164.633807
20
104.158940
11
164.185161
21
103.031363
0
LINE
8
boundary
62
5
39
2
10
164.185161
20
103.031363
11
162.746856
21
99.416485
0
LINE
8
boundary
62
5
39
2
10
162.746856
20
99.416485
11
162.263321
21
98.317298
0
LINE
8
boundary
62
5
39
2
10
162.263321
20
98.317298
11
160.713164
21
94.793433
0
LINE
8
boundary
62
5
39
2
10
160.713164
20
94.793433
11
160.195454
21
93.724743
0
LINE
8
boundary
62
5
39
2
10
160.195454
20
93.724743
11
158.535736
21
90.298649
0
LINE
8
boundary
62
5
39
2
10
158.535736
20
90.298649
11
157.984606
21
89.262586
0
LINE
8
boundary
62
5
39
2
10
157.984606
20
89.262586
11
156.217751
21
85.941090
0
LINE
8
boundary
62
5
39
2
10
156.217751
20
85.941090
11
155.633929
21
84.939700
0
LINE
8
boundary
62
5
39
2
10
155.633929
20
84.939700
11
153.762265
21
81.729362
0
LINE
8
boundary
62
5
39
2
10
153.762265
20
81.729362
11
153.146407
21
80.764048
0
LINE
8
boundary
62
5
39
2
10
153.146407
20
80.764048
11
151.172038
21
77.669363
0
LINE
8
boundary
62
5
39
2
10
151.172038
20
77.669363
11
150.524478
21
76.741987
0
LINE
8
boundary
62
5
39
2
10
150.524478
20
76.741987
11
148.448479
21
73.768929
0
LINE
8
boundary
62
5
39
2
10
148.448479
20
73.768929
11
147.769520
21
72.881491
0
LINE
8
boundary
62
5
39
2
10
147.769520
20
72.881491
11
145.592857
21
70.036471
0
LINE
8
boundary
62
5
39
2
10
145.592857
20
70.036471
11
144.882786
21
69.190968
0
LINE
8
boundary
62
5
39
2
10
144.882786
20
69.190968
11
142.606382
21
66.480384
0
LINE
8
boundary
62
5
39
2
10
142.606382
20
66.480384
11
141.865502
21
65.678826
0
LINE
8
boundary
62
5
39
2
10
141.865502
20
65.678826
11
139.490329
21
63.109127
0
LINE
8
boundary
62
5
39
2
10
139.490329
20
63.109127
11
138.718907
21
62.353504
0
LINE
8
boundary
62
5
39
2
10
138.718907
20
62.353504
11
136.245820
21
59.931068
0
LINE
8
boundary
62
5
39
2
10
136.245820
20
59.931068
11
135.444156
21
59.223389
0
LINE
8
boundary
62
5
39
2
10
135.444156
20
59.223389
11
132.874115
21
56.954651
0
LINE
8
boundary
62
5
39
2
10
132.874115
20
56.954651
11
132.041933
21
56.297205
0
LINE
8
boundary
62
5
39
2
10
132.041933
20
56.297205
11
129.374056
21
54.189510
0
LINE
8
boundary
62
5
39
2
10
129.374056
20
54.189510
11
128.512066
21
53.585413
0
LINE
8
boundary
62
5
39
2
10
128.512066
20
53.585413
11
125.748629
21
51.648750
0
LINE
8
boundary
62
5
39
2
10
125.748629
20
51.648750
11
124.858371
21
51.101253
0
LINE
8
boundary
62
5
39
2
10
124.858371
20
51.101253
11
122.004309
21
49.346044
0
LINE
8
boundary
62
5
39
2
10
122.004309
20
49.346044
11
121.087300
21
48.858407
0
LINE
8
boundary
62
5
39
2
10
121.087300
20
48.858407
11
118.147476
21
47.295103
0
LINE
8
boundary
62
5
39
2
10
118.147476
20
47.295103
11
117.205256
21
46.870589
0
LINE
8
boundary
62
5
39
2
10
117.205256
20
46.870589
11
114.184613
21
45.509650
0
LINE
8
boundary
62
5
39
2
10
114.184613
20
45.509650
11
113.218791
21
45.151683
0
LINE
8
boundary
62
5
39
2
10
113.218791
20
45.151683
11
110.122481
21
44.004085
0
LINE
8
boundary
62
5
39
2
10
110.122481
20
44.004085
11
109.136714
21
43.716726
0
LINE
8
boundary
62
5
39
2
10
109.136714
20
43.716726
11
105.976460
21
42.795486
0
LINE
8
boundary
62
5
39
2
10
105.976460
20
42.795486
11
104.976601
21
42.580304
0
LINE
8
boundary
62
5
39
2
10
104.976601
20
42.580304
11
101.771175
21
41.890454
0
LINE
8
boundary
62
5
39
2
10
101.771175
20
41.890454
11
100.763162
21
41.748563
0
LINE
8
boundary
62
5
39
2
10
100.763162
20
41.748563
11
97.531596
21
41.293676
0
LINE
8
boundary
62
5
39
2
10
97.531596
20
41.293676
11
96.521404
21
41.226165
0
LINE
8
boundary
62
5
39
2
10
96.521404
20
41.226165
11
93.282848
21
41.009731
0
LINE
8
boundary
62
5
39
2
10
93.282848
20
41.009731
11
92.276665
21
41.017595
0
LINE
8
boundary
62
5
39
2
10
92.276665
20
41.017595
11
89.050960
21
41.042808
0
LINE
8
boundary
62
5
39
2
10
89.050960
20
41.042808
11
88.056385
21
41.123969
0
LINE
8
boundary
62
5
39
2
10
88.056385
20
41.123969
11
84.867894
21
41.384163
0
LINE
8
boundary
62
5
39
2
10
84.867894
20
41.384163
11
83.890050
21
41.533696
0
LINE
8
boundary
62
5
39
2
10
83.890050
20
41.533696
11
80.755197
21
42.013085
0
LINE
8
boundary
62
5
39
2
10
80.755197
20
42.013085
11
79.798579
21
42.226009
0
LINE
8
boundary
62
5
39
2
10
79.798579
20
42.226009
11
76.731775
21
42.908621
0
LINE
8
boundary
62
5
39
2
10
76.731775
20
42.908621
11
75.800864
21
43.179944
0
LINE
8
boundary
62
5
39
2
10
75.800864
20
43.179944
11
72.816474
21
44.049770
0
LINE
8
boundary
62
5
39
2
10
72.816474
20
44.049770
11
71.915549
21
44.374142
0
LINE
8
boundary
62
5
39
2
10
71.915549
20
44.374142
11
69.027291
21
45.414040
0
LINE
8
boundary
62
5
39
2
10
69.027291
20
45.414040
11
68.157703
21
45.784657
0
LINE
8
boundary
62
5
39
2
10
68.157703
20
45.784657
11
65.369908
21
46.972811
0
LINE
8
boundary
62
5
39
2
10
65.369908
20
46.972811
11
64.531038
21
47.384098
0
LINE
8
boundary
62
5
39
2
10
64.531038
20
47.384098
11
61.841719
21
48.702635
0
LINE
8
boundary
62
5
39
2
10
61.841719
20
48.702635
11
61.032917
21
49.149187
0
LINE
8
boundary
62
5
39
2
10
61.032917
20
49.149187
11
58.439990
21
50.580779
0
LINE
8
boundary
62
5
39
2
10
58.439990
20
50.580779
11
56.909987
21
51.558154
0
LINE
8
boundary
62
5
39
2
10
56.909987
20
51.558154
11
52.004977
21
54.691502
0
LINE
8
boundary
62
5
39
2
10
52.004977
20
54.691502
11
50.584607
21
55.747092
0
LINE
8
boundary
62
5
39
2
10
50.584607
20
55.747092
11
46.031069
21
59.131190
0
LINE
8
boundary
62
5
39
2
10
46.031069
20
59.131190
11
44.707382
21
60.232262
0
LINE
8
boundary
62
5
39
2
10
44.707382
20
60.232262
11
40.463798
21
63.762169
0
LINE
8
boundary
62
5
39
2
10
40.463798
20
63.762169
11
39.227639
21
64.878014
0
LINE
8
boundary
62
5
39
2
10
39.227639
20
64.878014
11
35.264660
21
68.455282
0
LINE
8
boundary
62
5
39
2
10
35.264660
20
68.455282
11
34.107042
21
69.555172
0
LINE
8
boundary
62
5
39
2
10
34.107042
20
69.555172
11
30.395856
21
73.081289
0
LINE
8
boundary
62
5
39
2
10
30.395856
20
73.081289
11
29.309963
21
74.134936
0
LINE
8
boundary
62
5
39
2
10
29.309963
20
74.134936
11
25.828717
21
77.512802
0
LINE
8
boundary
62
5
39
2
10
25.828717
20
77.512802
11
24.817537
21
78.489914
0
LINE
8
boundary
62
5
39
2
10
24.817537
20
78.489914
11
21.575815
21
81.622423
0
LINE
8
boundary
62
5
39
2
10
21.575815
20
81.622423
11
20.644985
21
82.492377
0
LINE
8
boundary
62
5
39
2
10
20.644985
20
82.492377
11
17.660853
21
85.281350
0
LINE
8
boundary
62
5
39
2
10
17.660853
20
85.281350
11
17.227456
21
85.666403
0
LINE
8
boundary
62
5
39
2
10
17.227456
20
85.666403
11
15.838035
21
86.900837
0
LINE
8
boundary
62
5
39
2
10
15.838035
20
86.900837
11
15.428995
21
87.247601
0
LINE
8
boundary
62
5
39
2
10
15.428995
20
87.247601
11
14.117658
21
88.359287
0
LINE
8
boundary
62
5
39
2
10
14.117658
20
88.359287
11
12.516775
21
89.645630
0
LINE
8
boundary
62
5
39
2
10
12.516775
20
89.645630
11
11.052559
21
90.749094
0
LINE
8
boundary
62
5
39
2
10
11.052559
20
90.749094
11
9.742138
21
91.658838
0
LINE
8
boundary
62
5
39
2
10
9.742138
20
91.658838
11
8.606222
21
92.367503
0
LINE
8
boundary
62
5
39
2
10
8.606222
20
92.367503
11
7.716911
21
90.616344
0
LINE
8
boundary
62
5
39
2
10
7.716911
20
90.616344
11
7.486791
21
90.062140
0
LINE
8
boundary
62
5
39
2
10
7.486791
20
90.062140
11
6.749055
21
88.285424
0
LINE
8
boundary
62
5
39
2
10
6.749055
20
88.285424
11
6.514274
21
87.595803
0
LINE
8
boundary
62
5
39
2
10
6.514274
20
87.595803
11
5.761591
21
85.384959
0
LINE
8
boundary
62
5
39
2
10
5.761591
20
85.384959
11
5.536054
21
84.562440
0
LINE
8
boundary
62
5
39
2
10
5.536054
20
84.562440
11
4.813006
21
81.925541
0
LINE
8
boundary
62
5
39
2
10
4.813006
20
81.925541
11
4.606846
21
80.974405
0
LINE
8
boundary
62
5
39
2
10
4.606846
20
80.974405
11
3.945920
21
77.925174
0
LINE
8
boundary
62
5
39
2
10
3.945920
20
77.925174
11
3.764467
21
76.849044
0
LINE
8
boundary
62
5
39
2
10
3.764467
20
76.849044
11
3.182751
21
73.399099
0
LINE
8
boundary
62
5
39
2
10
3.182751
20
73.399099
11
3.031067
21
72.201114
0
LINE
8
boundary
62
5
39
2
10
3.031067
20
72.201114
11
2.544782
21
68.360513
0
LINE
8
boundary
62
5
39
2
10
2.544782
20
68.360513
11
2.427924
21
67.043820
0
LINE
8
boundary
62
5
39
2
10
2.427924
20
67.043820
11
2.053291
21
62.822656
0
LINE
8
boundary
62
5
39
2
10
2.053291
20
62.822656
11
1.976314
21
61.390410
0
LINE
8
boundary
62
5
39
2
10
1.976314
20
61.390410
11
1.729534
21
56.798798
0
LINE
8
boundary
62
5
39
2
10
1.729534
20
56.798798
11
1.696244
21
55.253717
0
LINE
8
boundary
62
5
39
2
10
1.696244
20
55.253717
11
1.589523
21
50.300370
0
LINE
8
boundary
62
5
39
2
10
1.589523
20
50.300370
11
1.601698
21
48.643974
0
LINE
8
boundary
62
5
39
2
10
1.601698
20
48.643974
11
1.640731
21
43.333765
0
LINE
8
boundary
62
5
39
2
10
1.640731
20
43.333765
11
1.700079
21
41.567321
0
LINE
8
boundary
62
5
39
2
10
1.700079
20
41.567321
11
1.890340
21
35.904313
0
LINE
8
boundary
62
5
39
2
10
1.890340
20
35.904313
11
1.998551
21
34.029095
0
LINE
8
boundary
62
5
39
2
10
1.998551
20
34.029095
11
2.345460
21
28.017367
0
LINE
8
boundary
62
5
39
2
10
2.345460
20
28.017367
11
2.504236
21
26.034638
0
LINE
8
boundary
62
5
39
2
10
2.504236
20
26.034638
11
3.013249
21
19.678244
0
LINE
8
boundary
62
5
39
2
10
3.013249
20
19.678244
11
3.224291
21
17.589289
0
LINE
8
boundary
62
5
39
2
10
3.224291
20
17.589289
11
3.900865
21
10.892347
0
LINE
8
boundary
62
5
39
2
10
3.900865
20
10.892347
11
4.026451
21
9.808380
0
LINE
8
boundary
62
5
39
2
10
4.026451
20
9.808380
11
4.429066
21
6.333310
0
LINE
8
boundary
62
5
39
2
10
4.429066
20
6.333310
11
4.568918
21
5.204936
0
LINE
8
boundary
62
5
39
2
10
4.568918
20
5.204936
11
5.017269
21
1.587500
0
LINE
8
boundary
62
5
39
2
10
5.017269
20
1.587500
11
90.907539
21
1.587500
0
LINE
8
boundary
62
5
39
2
10
90.907539
20
1.587500
11
366.261619
21
1.587500
0
LINE
8
boundary
62
5
39
2
10
366.261619
20
1.587500
11
366.261619
21
13.475610
0
LINE
8
boundary
62
5
39
2
10
366.261619
20
13.475610
11
366.261619
21
51.587488
0
LINE
8
boundary
62
5
39
2
10
366.261619
20
51.587488
11
373.061617
21
48.021053
0
LINE
8
boundary
62
5
39
2
10
373.061617
20
48.021053
11
394.861606
21
36.587484
0
LINE
8
boundary
62
5
39
2
10
394.861606
20
36.587484
11
394.861606
21
53.230843
0
LINE
8
boundary
62
5
39
2
10
394.861606
20
53.230843
11
394.861606
21
106.587493
0
LINE
8
boundary
62
5
39
2
10
394.861606
20
106.587493
11
388.061609
21
103.021056
0
LINE
8
boundary
62
5
39
2
10
388.061609
20
103.021056
11
366.261619
21
91.587481
0
LINE
8
boundary
62
5
39
2
10
366.261619
20
91.587481
11
366.261619
21
103.475597
0
LINE
8
boundary
62
5
39
2
10
366.261619
20
103.475597
11
366.261620
21
141.587491
0
LINE
8
boundary
62
5
39
2
10
366.261620
20
141.587491
11
373.061617
21
138.021057
0
LINE
8
boundary
62
5
39
2
10
373.061617
20
138.021057
11
394.861606
21
126.587489
0
LINE
8
boundary
62
5
39
2
10
394.861606
20
126.587489
11
394.861606
21
143.230847
0
LINE
8
boundary
62
5
39
2
10
394.861606
20
143.230847
11
394.861605
21
196.587492
0
LINE
8
boundary
62
5
39
2
10
394.861605
20
196.587492
11
388.061609
21
193.021058
0
LINE
8
boundary
62
5
39
2
10
388.061609
20
193.021058
11
366.261619
21
181.587490
0
LINE
8
boundary
62
5
39
2
10
366.261619
20
181.587490
11
366.261620
21
193.475603
0
LINE
8
boundary
62
5
39
2
10
366.261620
20
193.475603
11
366.261620
21
231.587494
0
LINE
8
boundary
62
5
39
2
10
366.261620
20
231.587494
11
373.061616
21
228.021062
0
LINE
8
boundary
62
5
39
2
10
373.061616
20
228.021062
11
394.861606
21
216.587501
0
LINE
8
boundary
62
5
39
2
10
394.861606
20
216.587501
11
394.861606
21
233.230855
0
LINE
8
boundary
62
5
39
2
10
394.861606
20
233.230855
11
394.861606
21
286.587486
0
LINE
8
boundary
62
5
39
2
10
394.861606
20
286.587486
11
388.061608
21
283.021056
0
LINE
8
boundary
62
5
39
2
10
388.061608
20
283.021056
11
366.261619
21
271.587505
0
LINE
8
boundary
62
5
39
2
10
366.261619
20
271.587505
11
366.261619
21
283.475614
0
LINE
8
boundary
62
5
39
2
10
366.261619
20
283.475614
11
366.261620
21
321.587493
0
LINE
8
boundary
62
5
39
2
10
366.261620
20
321.587493
11
280.371349
21
321.587493
0
LINE
8
boundary
62
5
39
2
10
280.371349
20
321.587493
11
5.017269
21
321.587493
0
LINE
8
boundary
62
5
39
2
10
5.017269
20
321.587493
11
4.877443
21
320.459092
0
LINE
8
annotation
62
1
39
211
10
286.268620
20
69.552153
11
286.268620
21
253.622840
0
LINE
8
annotation
62
1
39
211
10
286.268620
20
253.622840
11
245.347349
21
212.690026
0
LINE
8
frame
62
5
39
2
10
0.000000
20
0.000000
11
500.000000
21
0.000000
0
LINE
8
frame
62
5
39
2
10
500.000000
20
0.000000
11
500.000000
21
400.000000
0
LINE
8
frame
62
5
39
2
10
500.000000
20
400.000000
11
0.000000
21
400.000000
0
LINE
8
frame
62
5
39
2
10
0.000000
20
400.000000
11
0.000000
21
0.000000
0
ENDSEC
0
EOF
