0
SECTION
2
HEADER
9
$ACADVER
1
AC1009
0
ENDSEC
0
SECTION
2
TABLES
0
TABLE
2
VPORT
70
1
0
VPORT
2
ACTIVE
70
0
10
0.0
20
0.0
11
0.0
21
0.0
12
0.0
22
0.0
13
0.0
23
0.0
14
0.0
24
0.0
15
0.0
25
0.0
16
0.0
26
0.0
36
0.0
17
0.0
27
0.0
37
0.0
40
0.0
41
0.0
42
0.0
43
0.0
44
0.0
50
0.0
51
0.0
71
0
72
1000
73
1
74
3
75
0
76
0
77
0
78
0
0
ENDTAB
0
ENDSEC
0
SECTION
2
ENTITIES
0
LINE
8
boundary
62
5
39
2
10
30.187511
20
309.699383
11
30.187511
21
271.587504
0
LINE
8
boundary
62
5
39
2
10
30.187511
20
271.587504
11
23.387508
21
275.153937
0
LINE
8
boundary
62
5
39
2
10
23.387508
20
275.153937
11
1.587501
21
286.587498
0
LINE
8
boundary
62
5
39
2
10
1.587501
20
286.587498
11
1.587500
21
269.944140
0
LINE
8
boundary
62
5
39
2
10
1.587500
20
269.944140
11
1.587500
21
216.587501
0
LINE
8
boundary
62
5
39
2
10
1.587500
20
216.587501
11
8.387504
21
220.153933
0
LINE
8
boundary
62
5
39
2
10
8.387504
20
220.153933
11
30.187511
21
231.587494
0
LINE
8
boundary
62
5
39
2
10
30.187511
20
231.587494
11
30.187511
21
219.699382
0
LINE
8
boundary
62
5
39
2
10
30.187511
20
219.699382
11
30.187511
21
181.587498
0
LINE
8
boundary
62
5
39
2
10
30.187511
20
181.587498
11
23.387508
21
185.153930
0
LINE
8
boundary
62
5
39
2
10
23.387508
20
185.153930
11
1.587500
21
196.587492
0
LINE
8
boundary
62
5
39
2
10
1.587500
20
196.587492
11
1.587501
21
179.944137
0
LINE
8
boundary
62
5
39
2
10
1.587501
20
179.944137
11
1.587501
21
126.587501
0
LINE
8
boundary
62
5
39
2
10
1.587501
20
126.587501
11
8.387504
21
130.153933
0
LINE
8
boundary
62
5
39
2
10
8.387504
20
130.153933
11
30.187511
21
141.587494
0
LINE
8
boundary
62
5
39
2
10
30.187511
20
141.587494
11
30.187511
21
129.699381
0
LINE
8
boundary
62
5
39
2
10
30.187511
20
129.699381
11
30.187511
21
91.587494
0
LINE
8
boundary
62
5
39
2
10
30.187511
20
91.587494
11
23.387508
21
95.153929
0
LINE
8
boundary
62
5
39
2
10
23.387508
20
95.153929
11
1.587501
21
106.587499
0
LINE
8
boundary
62
5
39
2
10
1.587501
20
106.587499
11
1.587500
21
89.944141
0
LINE
8
boundary
62
5
39
2
10
1.587500
20
89.944141
11
1.587500
21
36.587495
0
LINE
8
boundary
62
5
39
2
10
1.587500
20
36.587495
11
8.387503
21
40.153933
0
LINE
8
boundary
62
5
39
2
10
8.387503
20
40.153933
11
30.187511
21
51.587513
0
LINE
8
boundary
62
5
39
2
10
30.187511
20
51.587513
11
30.187511
21
39.699397
0
LINE
8
boundary
62
5
39
2
10
30.187511
20
39.699397
11
30.187511
21
1.587501
0
LINE
8
boundary
62
5
39
2
10
30.187511
20
1.587501
11
87.620325
21
1.587500
0
LINE
8
boundary
62
5
39
2
10
87.620325
20
1.587500
11
271.743158
21
1.587500
0
LINE
8
boundary
62
5
39
2
10
271.743158
20
1.587500
11
271.603335
21
2.715909
0
LINE
8
boundary
62
5
39
2
10
271.603335
20
2.715909
11
271.155076
21
6.333455
0
LINE
8
boundary
62
5
39
2
10
271.155076
20
6.333455
11
271.029681
21
7.417557
0
LINE
8
boundary
62
5
39
2
10
271.029681
20
7.417557
11
270.627680
21
10.893061
0
LINE
8
boundary
62
5
39
2
10
270.627680
20
10.893061
11
270.416729
21
12.982073
0
LINE
8
boundary
62
5
39
2
10
270.416729
20
12.982073
11
269.740443
21
19.679201
0
LINE
8
boundary
62
5
39
2
10
269.740443
20
19.679201
11
269.581402
21
21.661737
0
LINE
8
boundary
62
5
39
2
10
269.581402
20
21.661737
11
269.071534
21
28.017513
0
LINE
8
boundary
62
5
39
2
10
269.071534
20
28.017513
11
268.962931
21
29.892454
0
LINE
8
boundary
62
5
39
2
10
268.962931
20
29.892454
11
268.614764
21
35.903296
0
LINE
8
boundary
62
5
39
2
10
268.614764
20
35.903296
11
268.555172
21
37.669560
0
LINE
8
boundary
62
5
39
2
10
268.555172
20
37.669560
11
268.364128
21
43.331997
0
LINE
8
boundary
62
5
39
2
10
268.364128
20
43.331997
11
268.352068
21
44.988476
0
LINE
8
boundary
62
5
39
2
10
268.352068
20
44.988476
11
268.313407
21
50.298953
0
LINE
8
boundary
62
5
39
2
10
268.313407
20
50.298953
11
268.347403
21
51.844483
0
LINE
8
boundary
62
5
39
2
10
268.347403
20
51.844483
11
268.456388
21
56.799271
0
LINE
8
boundary
62
5
39
2
10
268.456388
20
56.799271
11
268.533640
21
58.231689
0
LINE
8
boundary
62
5
39
2
10
268.533640
20
58.231689
11
268.781296
21
62.823854
0
LINE
8
boundary
62
5
39
2
10
268.781296
20
62.823854
11
268.897556
21
64.140338
0
LINE
8
boundary
62
5
39
2
10
268.897556
20
64.140338
11
269.270271
21
68.360829
0
LINE
8
boundary
62
5
39
2
10
269.270271
20
68.360829
11
269.421213
21
69.558514
0
LINE
8
boundary
62
5
39
2
10
269.421213
20
69.558514
11
269.905113
21
73.398154
0
LINE
8
boundary
62
5
39
2
10
269.905113
20
73.398154
11
270.086415
21
74.474193
0
LINE
8
boundary
62
5
39
2
10
270.086415
20
74.474193
11
270.667648
21
77.923847
0
LINE
8
boundary
62
5
39
2
10
270.667648
20
77.923847
11
270.874958
21
78.875214
0
LINE
8
boundary
62
5
39
2
10
270.874958
20
78.875214
11
271.539570
21
81.925183
0
LINE
8
boundary
62
5
39
2
10
271.539570
20
81.925183
11
271.765661
21
82.747738
0
LINE
8
boundary
62
5
39
2
10
271.765661
20
82.747738
11
272.490484
21
85.384753
0
LINE
8
boundary
62
5
39
2
10
272.490484
20
85.384753
11
272.724100
21
86.074912
0
LINE
8
boundary
62
5
39
2
10
272.724100
20
86.074912
11
273.473049
21
88.287477
0
LINE
8
boundary
62
5
39
2
10
273.473049
20
88.287477
11
273.702669
21
88.841789
0
LINE
8
boundary
62
5
39
2
10
273.702669
20
88.841789
11
274.438803
21
90.618852
0
LINE
8
boundary
62
5
39
2
10
274.438803
20
90.618852
11
275.332129
21
92.367515
0
LINE
8
boundary
62
5
39
2
10
275.332129
20
92.367515
11
276.465986
21
91.656621
0
LINE
8
boundary
62
5
39
2
10
276.465986
20
91.656621
11
277.777159
21
90.747065
0
LINE
8
boundary
62
5
39
2
10
277.777159
20
90.747065
11
279.244559
21
89.646303
0
LINE
8
boundary
62
5
39
2
10
279.244559
20
89.646303
11
280.847253
21
88.361776
0
LINE
8
boundary
62
5
39
2
10
280.847253
20
88.361776
11
281.255539
21
88.014593
0
LINE
8
boundary
62
5
39
2
10
281.255539
20
88.014593
11
282.564451
21
86.901563
0
LINE
8
boundary
62
5
39
2
10
282.564451
20
86.901563
11
282.996680
21
86.516181
0
LINE
8
boundary
62
5
39
2
10
282.996680
20
86.516181
11
284.382357
21
85.280690
0
LINE
8
boundary
62
5
39
2
10
284.382357
20
85.280690
11
285.313609
21
84.410720
0
LINE
8
boundary
62
5
39
2
10
285.313609
20
84.410720
11
288.299094
21
81.621701
0
LINE
8
boundary
62
5
39
2
10
288.299094
20
81.621701
11
289.311574
21
80.644731
0
LINE
8
boundary
62
5
39
2
10
289.311574
20
80.644731
11
292.557464
21
77.512680
0
LINE
8
boundary
62
5
39
2
10
292.557464
20
77.512680
11
293.642283
21
76.459040
0
LINE
8
boundary
62
5
39
2
10
293.642283
20
76.459040
11
297.120085
21
73.081192
0
LINE
8
boundary
62
5
39
2
10
297.120085
20
73.081192
11
298.277252
21
71.981366
0
LINE
8
boundary
62
5
39
2
10
298.277252
20
71.981366
11
301.986994
21
68.455451
0
LINE
8
boundary
62
5
39
2
10
301.986994
20
68.455451
11
303.223890
21
67.339824
0
LINE
8
boundary
62
5
39
2
10
303.223890
20
67.339824
11
307.189232
21
63.763253
0
LINE
8
boundary
62
5
39
2
10
307.189232
20
63.763253
11
308.513429
21
62.662186
0
LINE
8
boundary
62
5
39
2
10
308.513429
20
62.662186
11
312.758647
21
59.132292
0
LINE
8
boundary
62
5
39
2
10
312.758647
20
59.132292
11
314.178970
21
58.076025
0
LINE
8
boundary
62
5
39
2
10
314.178970
20
58.076025
11
318.732356
21
54.689758
0
LINE
8
boundary
62
5
39
2
10
318.732356
20
54.689758
11
320.261762
21
53.712666
0
LINE
8
boundary
62
5
39
2
10
320.261762
20
53.712666
11
325.164855
21
50.580222
0
LINE
8
boundary
62
5
39
2
10
325.164855
20
50.580222
11
325.973194
21
50.134036
0
LINE
8
boundary
62
5
39
2
10
325.973194
20
50.134036
11
328.564635
21
48.703616
0
LINE
8
boundary
62
5
39
2
10
328.564635
20
48.703616
11
329.403401
21
48.292502
0
LINE
8
boundary
62
5
39
2
10
329.403401
20
48.292502
11
332.092387
21
46.974519
0
LINE
8
boundary
62
5
39
2
10
332.092387
20
46.974519
11
332.962600
21
46.603634
0
LINE
8
boundary
62
5
39
2
10
332.962600
20
46.603634
11
335.752399
21
45.414621
0
LINE
8
boundary
62
5
39
2
10
335.752399
20
45.414621
11
336.654337
21
45.090391
0
LINE
8
boundary
62
5
39
2
10
336.654337
20
45.090391
11
339.545844
21
44.050945
0
LINE
8
boundary
62
5
39
2
10
339.545844
20
44.050945
11
340.476525
21
43.779378
0
LINE
8
boundary
62
5
39
2
10
340.476525
20
43.779378
11
343.460177
21
42.908767
0
LINE
8
boundary
62
5
39
2
10
343.460177
20
42.908767
11
344.416000
21
42.695366
0
LINE
8
boundary
62
5
39
2
10
344.416000
20
42.695366
11
347.480256
21
42.011232
0
LINE
8
boundary
62
5
39
2
10
347.480256
20
42.011232
11
348.457608
21
41.861505
0
LINE
8
boundary
62
5
39
2
10
348.457608
20
41.861505
11
351.590882
21
41.381498
0
LINE
8
boundary
62
5
39
2
10
351.590882
20
41.381498
11
352.585984
21
41.300984
0
LINE
8
boundary
62
5
39
2
10
352.585984
20
41.300984
11
355.776164
21
41.042868
0
LINE
8
boundary
62
5
39
2
10
355.776164
20
41.042868
11
356.782374
21
41.035948
0
LINE
8
boundary
62
5
39
2
10
356.782374
20
41.035948
11
360.008161
21
41.013763
0
LINE
8
boundary
62
5
39
2
10
360.008161
20
41.013763
11
361.018659
21
41.080864
0
LINE
8
boundary
62
5
39
2
10
361.018659
20
41.080864
11
364.258193
21
41.295977
0
LINE
8
boundary
62
5
39
2
10
364.258193
20
41.295977
11
365.266596
21
41.436947
0
LINE
8
boundary
62
5
39
2
10
365.266596
20
41.436947
11
368.499419
21
41.888880
0
LINE
8
boundary
62
5
39
2
10
368.499419
20
41.888880
11
369.499365
21
42.103587
0
LINE
8
boundary
62
5
39
2
10
369.499365
20
42.103587
11
372.705073
21
42.791913
0
LINE
8
boundary
62
5
39
2
10
372.705073
20
42.791913
11
373.690151
21
43.079963
0
LINE
8
boundary
62
5
39
2
10
373.690151
20
43.079963
11
376.848195
21
44.003419
0
LINE
8
boundary
62
5
39
2
10
376.848195
20
44.003419
11
377.813048
21
44.361559
0
LINE
8
boundary
62
5
39
2
10
377.813048
20
44.361559
11
380.906256
21
45.509711
0
LINE
8
boundary
62
5
39
2
10
380.906256
20
45.509711
11
381.848513
21
45.934307
0
LINE
8
boundary
62
5
39
2
10
381.848513
20
45.934307
11
384.869277
21
47.295514
0
LINE
8
boundary
62
5
39
2
10
384.869277
20
47.295514
11
385.786881
21
47.783240
0
LINE
8
boundary
62
5
39
2
10
385.786881
20
47.783240
11
388.728611
21
49.346831
0
LINE
8
boundary
62
5
39
2
10
388.728611
20
49.346831
11
389.619511
21
49.894376
0
LINE
8
boundary
62
5
39
2
10
389.619511
20
49.894376
11
392.475632
21
51.649743
0
LINE
8
boundary
62
5
39
2
10
392.475632
20
51.649743
11
393.337790
21
52.253770
0
LINE
8
boundary
62
5
39
2
10
393.337790
20
52.253770
11
396.101767
21
54.190212
0
LINE
8
boundary
62
5
39
2
10
396.101767
20
54.190212
11
396.933562
21
54.847348
0
LINE
8
boundary
62
5
39
2
10
396.933562
20
54.847348
11
399.600197
21
56.954046
0
LINE
8
boundary
62
5
39
2
10
399.600197
20
56.954046
11
400.402009
21
57.661291
0
LINE
8
boundary
62
5
39
2
10
400.402009
20
57.661291
11
402.972521
21
59.928634
0
LINE
8
boundary
62
5
39
2
10
402.972521
20
59.928634
11
403.744144
21
60.683939
0
LINE
8
boundary
62
5
39
2
10
403.744144
20
60.683939
11
406.217877
21
63.105360
0
LINE
8
boundary
62
5
39
2
10
406.217877
20
63.105360
11
406.958973
21
63.906726
0
LINE
8
boundary
62
5
39
2
10
406.958973
20
63.906726
11
409.334838
21
66.475812
0
LINE
8
boundary
62
5
39
2
10
409.334838
20
66.475812
11
410.045075
21
67.321246
0
LINE
8
boundary
62
5
39
2
10
410.045075
20
67.321246
11
412.322010
21
70.031608
0
LINE
8
boundary
62
5
39
2
10
412.322010
20
70.031608
11
413.001043
21
70.919105
0
LINE
8
boundary
62
5
39
2
10
413.001043
20
70.919105
11
415.177941
21
73.764315
0
LINE
8
boundary
62
5
39
2
10
415.177941
20
73.764315
11
415.825449
21
74.691888
0
LINE
8
boundary
62
5
39
2
10
415.825449
20
74.691888
11
417.901285
21
77.665578
0
LINE
8
boundary
62
5
39
2
10
417.901285
20
77.665578
11
418.516918
21
78.631218
0
LINE
8
boundary
62
5
39
2
10
418.516918
20
78.631218
11
420.490565
21
81.726946
0
LINE
8
boundary
62
5
39
2
10
420.490565
20
81.726946
11
421.073991
21
82.728657
0
LINE
8
boundary
62
5
39
2
10
421.073991
20
82.728657
11
422.944388
21
85.940024
0
LINE
8
boundary
62
5
39
2
10
422.944388
20
85.940024
11
423.495262
21
86.975820
0
LINE
8
boundary
62
5
39
2
10
423.495262
20
86.975820
11
425.261300
21
90.296457
0
LINE
8
boundary
62
5
39
2
10
425.261300
20
90.296457
11
425.778920
21
91.364815
0
LINE
8
boundary
62
5
39
2
10
425.778920
20
91.364815
11
427.438348
21
94.789842
0
LINE
8
boundary
62
5
39
2
10
427.438348
20
94.789842
11
427.921792
21
95.889026
0
LINE
8
boundary
62
5
39
2
10
427.921792
20
95.889026
11
429.471654
21
99.412882
0
LINE
8
boundary
62
5
39
2
10
429.471654
20
99.412882
11
429.920201
21
100.540678
0
LINE
8
boundary
62
5
39
2
10
429.920201
20
100.540678
11
431.358191
21
104.156258
0
LINE
8
boundary
62
5
39
2
10
431.358191
20
104.156258
11
431.771134
21
105.310460
0
LINE
8
boundary
62
5
39
2
10
431.771134
20
105.310460
11
433.094980
21
109.010697
0
LINE
8
boundary
62
5
39
2
10
433.094980
20
109.010697
11
433.471604
21
110.189098
0
LINE
8
boundary
62
5
39
2
10
433.471604
20
110.189098
11
434.679015
21
113.966911
0
LINE
8
boundary
62
5
39
2
10
434.679015
20
113.966911
11
435.018589
21
115.167297
0
LINE
8
boundary
62
5
39
2
10
435.018589
20
115.167297
11
436.107223
21
119.015592
0
LINE
8
boundary
62
5
39
2
10
436.107223
20
119.015592
11
436.409044
21
120.235750
0
LINE
8
boundary
62
5
39
2
10
436.409044
20
120.235750
11
437.376646
21
124.147434
0
LINE
8
boundary
62
5
39
2
10
437.376646
20
124.147434
11
437.640001
21
125.385162
0
LINE
8
boundary
62
5
39
2
10
437.640001
20
125.385162
11
438.484282
21
129.353169
0
LINE
8
boundary
62
5
39
2
10
438.484282
20
129.353169
11
438.708461
21
130.606247
0
LINE
8
boundary
62
5
39
2
10
438.708461
20
130.606247
11
439.427151
21
134.623469
0
LINE
8
boundary
62
5
39
2
10
439.427151
20
134.623469
11
439.611411
21
135.889689
0
LINE
8
boundary
62
5
39
2
10
439.611411
20
135.889689
11
440.202128
21
139.949040
0
LINE
8
boundary
62
5
39
2
10
440.202128
20
139.949040
11
440.345704
21
141.226003
0
LINE
8
boundary
62
5
39
2
10
440.345704
20
141.226003
11
440.805992
21
145.319797
0
LINE
8
boundary
62
5
39
2
10
440.805992
20
145.319797
11
440.908371
21
146.604645
0
LINE
8
boundary
62
5
39
2
10
440.908371
20
146.604645
11
441.236585
21
150.723717
0
LINE
8
boundary
62
5
39
2
10
441.236585
20
150.723717
11
441.297854
21
152.013822
0
LINE
8
boundary
62
5
39
2
10
441.297854
20
152.013822
11
441.494273
21
156.149745
0
LINE
8
boundary
62
5
39
2
10
441.494273
20
156.149745
11
441.514500
21
157.442481
0
LINE
8
boundary
62
5
39
2
10
441.514500
20
157.442481
11
441.579345
21
161.586840
0
LINE
8
boundary
62
5
39
2
10
441.579345
20
161.586840
11
441.497032
21
164.169742
0
LINE
8
boundary
62
5
39
2
10
441.497032
20
164.169742
11
441.233145
21
172.450226
0
LINE
8
boundary
62
5
39
2
10
441.233145
20
172.450226
11
441.130743
21
173.735145
0
LINE
8
boundary
62
5
39
2
10
441.130743
20
173.735145
11
440.802455
21
177.854446
0
LINE
8
boundary
62
5
39
2
10
440.802455
20
177.854446
11
440.659363
21
179.131528
0
LINE
8
boundary
62
5
39
2
10
440.659363
20
179.131528
11
440.200626
21
183.225703
0
LINE
8
boundary
62
5
39
2
10
440.200626
20
183.225703
11
440.016885
21
184.492313
0
LINE
8
boundary
62
5
39
2
10
440.016885
20
184.492313
11
439.427829
21
188.552914
0
LINE
8
boundary
62
5
39
2
10
439.427829
20
188.552914
11
439.203864
21
189.806332
0
LINE
8
boundary
62
5
39
2
10
439.203864
20
189.806332
11
438.485857
21
193.824643
0
LINE
8
boundary
62
5
39
2
10
438.485857
20
193.824643
11
438.222613
21
195.062385
0
LINE
8
boundary
62
5
39
2
10
438.222613
20
195.062385
11
437.378681
21
199.030442
0
LINE
8
boundary
62
5
39
2
10
437.378681
20
199.030442
11
437.076906
21
200.250388
0
LINE
8
boundary
62
5
39
2
10
437.076906
20
200.250388
11
436.109451
21
204.161393
0
LINE
8
boundary
62
5
39
2
10
436.109451
20
204.161393
11
435.769849
21
205.361424
0
LINE
8
boundary
62
5
39
2
10
435.769849
20
205.361424
11
434.681123
21
209.208578
0
LINE
8
boundary
62
5
39
2
10
434.681123
20
209.208578
11
434.304447
21
210.386576
0
LINE
8
boundary
62
5
39
2
10
434.304447
20
210.386576
11
433.096869
21
214.163097
0
LINE
8
boundary
62
5
39
2
10
433.096869
20
214.163097
11
432.683840
21
215.316943
0
LINE
8
boundary
62
5
39
2
10
432.683840
20
215.316943
11
431.359717
21
219.016041
0
LINE
8
boundary
62
5
39
2
10
431.359717
20
219.016041
11
430.911072
21
220.143619
0
LINE
8
boundary
62
5
39
2
10
430.911072
20
220.143619
11
429.472769
21
223.758502
0
LINE
8
boundary
62
5
39
2
10
429.472769
20
223.758502
11
428.989233
21
224.857693
0
LINE
8
boundary
62
5
39
2
10
428.989233
20
224.857693
11
427.439075
21
228.381573
0
LINE
8
boundary
62
5
39
2
10
427.439075
20
228.381573
11
426.921368
21
229.450258
0
LINE
8
boundary
62
5
39
2
10
426.921368
20
229.450258
11
425.261664
21
232.876338
0
LINE
8
boundary
62
5
39
2
10
425.261664
20
232.876338
11
424.710533
21
233.912399
0
LINE
8
boundary
62
5
39
2
10
424.710533
20
233.912399
11
422.943673
21
237.233891
0
LINE
8
boundary
62
5
39
2
10
422.943673
20
237.233891
11
422.359849
21
238.235285
0
LINE
8
boundary
62
5
39
2
10
422.359849
20
238.235285
11
420.488179
21
241.445637
0
LINE
8
boundary
62
5
39
2
10
420.488179
20
241.445637
11
419.872321
21
242.410947
0
LINE
8
boundary
62
5
39
2
10
419.872321
20
242.410947
11
417.897954
21
245.505618
0
LINE
8
boundary
62
5
39
2
10
417.897954
20
245.505618
11
417.250396
21
246.432994
0
LINE
8
boundary
62
5
39
2
10
417.250396
20
246.432994
11
415.174405
21
249.406052
0
LINE
8
boundary
62
5
39
2
10
415.174405
20
249.406052
11
414.495444
21
250.293491
0
LINE
8
boundary
62
5
39
2
10
414.495444
20
250.293491
11
412.318776
21
253.138516
0
LINE
8
boundary
62
5
39
2
10
412.318776
20
253.138516
11
411.608710
21
253.984018
0
LINE
8
boundary
62
5
39
2
10
411.608710
20
253.984018
11
409.332319
21
256.694598
0
LINE
8
boundary
62
5
39
2
10
409.332319
20
256.694598
11
408.591431
21
257.496161
0
LINE
8
boundary
62
5
39
2
10
408.591431
20
257.496161
11
406.216230
21
260.065879
0
LINE
8
boundary
62
5
39
2
10
406.216230
20
260.065879
11
405.444805
21
260.821498
0
LINE
8
boundary
62
5
39
2
10
405.444805
20
260.821498
11
402.971709
21
263.243925
0
LINE
8
boundary
62
5
39
2
10
402.971709
20
263.243925
11
402.170053
21
263.951601
0
LINE
8
boundary
62
5
39
2
10
402.170053
20
263.951601
11
399.600040
21
266.220330
0
LINE
8
boundary
62
5
39
2
10
399.600040
20
266.220330
11
398.767856
21
266.877776
0
LINE
8
boundary
62
5
39
2
10
398.767856
20
266.877776
11
396.099975
21
268.985471
0
LINE
8
boundary
62
5
39
2
10
396.099975
20
268.985471
11
395.237987
21
269.589568
0
LINE
8
boundary
62
5
39
2
10
395.237987
20
269.589568
11
392.474554
21
271.526232
0
LINE
8
boundary
62
5
39
2
10
392.474554
20
271.526232
11
391.584296
21
272.073728
0
LINE
8
boundary
62
5
39
2
10
391.584296
20
272.073728
11
388.730233
21
273.828938
0
LINE
8
boundary
62
5
39
2
10
388.730233
20
273.828938
11
387.813223
21
274.316574
0
LINE
8
boundary
62
5
39
2
10
387.813223
20
274.316574
11
384.873395
21
275.879878
0
LINE
8
boundary
62
5
39
2
10
384.873395
20
275.879878
11
383.931176
21
276.304398
0
LINE
8
boundary
62
5
39
2
10
383.931176
20
276.304398
11
380.910532
21
277.665355
0
LINE
8
boundary
62
5
39
2
10
380.910532
20
277.665355
11
379.944710
21
278.023316
0
LINE
8
boundary
62
5
39
2
10
379.944710
20
278.023316
11
376.848400
21
279.170896
0
LINE
8
boundary
62
5
39
2
10
376.848400
20
279.170896
11
375.862631
21
279.458249
0
LINE
8
boundary
62
5
39
2
10
375.862631
20
279.458249
11
372.702372
21
280.379470
0
LINE
8
boundary
62
5
39
2
10
372.702372
20
280.379470
11
371.702513
21
280.594653
0
LINE
8
boundary
62
5
39
2
10
371.702513
20
280.594653
11
368.497082
21
281.284502
0
LINE
8
boundary
62
5
39
2
10
368.497082
20
281.284502
11
367.489073
21
281.426402
0
LINE
8
boundary
62
5
39
2
10
367.489073
20
281.426402
11
364.257514
21
281.881317
0
LINE
8
boundary
62
5
39
2
10
364.257514
20
281.881317
11
363.247320
21
281.948826
0
LINE
8
boundary
62
5
39
2
10
363.247320
20
281.948826
11
360.008755
21
282.165251
0
LINE
8
boundary
62
5
39
2
10
360.008755
20
282.165251
11
359.002566
21
282.157386
0
LINE
8
boundary
62
5
39
2
10
359.002566
20
282.157386
11
355.776843
21
282.132174
0
LINE
8
boundary
62
5
39
2
10
355.776843
20
282.132174
11
354.782276
21
282.051018
0
LINE
8
boundary
62
5
39
2
10
354.782276
20
282.051018
11
351.593813
21
281.790843
0
LINE
8
boundary
62
5
39
2
10
351.593813
20
281.790843
11
350.615966
21
281.641306
0
LINE
8
boundary
62
5
39
2
10
350.615966
20
281.641306
11
347.481104
21
281.161909
0
LINE
8
boundary
62
5
39
2
10
347.481104
20
281.161909
11
346.524486
21
280.948981
0
LINE
8
boundary
62
5
39
2
10
346.524486
20
280.948981
11
343.457682
21
280.266360
0
LINE
8
boundary
62
5
39
2
10
343.457682
20
280.266360
11
342.526774
21
279.995040
0
LINE
8
boundary
62
5
39
2
10
342.526774
20
279.995040
11
339.542393
21
279.125222
0
LINE
8
boundary
62
5
39
2
10
339.542393
20
279.125222
11
338.641469
21
278.800854
0
LINE
8
boundary
62
5
39
2
10
338.641469
20
278.800854
11
335.753210
21
277.760965
0
LINE
8
boundary
62
5
39
2
10
335.753210
20
277.760965
11
334.883623
21
277.390346
0
LINE
8
boundary
62
5
39
2
10
334.883623
20
277.390346
11
332.095827
21
276.202182
0
LINE
8
boundary
62
5
39
2
10
332.095827
20
276.202182
11
331.256954
21
275.790898
0
LINE
8
boundary
62
5
39
2
10
331.256954
20
275.790898
11
328.567626
21
274.472370
0
LINE
8
boundary
62
5
39
2
10
328.567626
20
274.472370
11
327.758827
21
274.025812
0
LINE
8
boundary
62
5
39
2
10
327.758827
20
274.025812
11
325.165909
21
272.594202
0
LINE
8
boundary
62
5
39
2
10
325.165909
20
272.594202
11
323.635903
21
271.616830
0
LINE
8
boundary
62
5
39
2
10
323.635903
20
271.616830
11
318.730885
21
268.483491
0
LINE
8
boundary
62
5
39
2
10
318.730885
20
268.483491
11
317.310519
21
267.427898
0
LINE
8
boundary
62
5
39
2
10
317.310519
20
267.427898
11
312.756994
21
264.043791
0
LINE
8
boundary
62
5
39
2
10
312.756994
20
264.043791
11
311.433302
21
262.942719
0
LINE
8
boundary
62
5
39
2
10
311.433302
20
262.942719
11
307.189698
21
259.412811
0
LINE
8
boundary
62
5
39
2
10
307.189698
20
259.412811
11
305.953540
21
258.296969
0
LINE
8
boundary
62
5
39
2
10
305.953540
20
258.296969
11
301.990561
21
254.719706
0
LINE
8
boundary
62
5
39
2
10
301.990561
20
254.719706
11
300.832945
21
253.619816
0
LINE
8
boundary
62
5
39
2
10
300.832945
20
253.619816
11
297.121763
21
250.093698
0
LINE
8
boundary
62
5
39
2
10
297.121763
20
250.093698
11
296.035872
21
249.040051
0
LINE
8
boundary
62
5
39
2
10
296.035872
20
249.040051
11
292.554636
21
245.662186
0
LINE
8
boundary
62
5
39
2
10
292.554636
20
245.662186
11
291.543452
21
244.685072
0
LINE
8
boundary
62
5
39
2
10
291.543452
20
244.685072
11
288.301716
21
241.552558
0
LINE
8
boundary
62
5
39
2
10
288.301716
20
241.552558
11
287.370881
21
240.682605
0
LINE
8
boundary
62
5
39
2
10
287.370881
20
240.682605
11
284.386736
21
237.893637
0
LINE
8
boundary
62
5
39
2
10
284.386736
20
237.893637
11
283.953342
21
237.508580
0
LINE
8
boundary
62
5
39
2
10
283.953342
20
237.508580
11
282.563930
21
236.274132
0
LINE
8
boundary
62
5
39
2
10
282.563930
20
236.274132
11
282.154891
21
235.927373
0
LINE
8
boundary
62
5
39
2
10
282.154891
20
235.927373
11
280.843559
21
234.815706
0
LINE
8
boundary
62
5
39
2
10
280.843559
20
234.815706
11
279.242670
21
233.529356
0
LINE
8
boundary
62
5
39
2
10
279.242670
20
233.529356
11
277.778473
21
232.425911
0
LINE
8
boundary
62
5
39
2
10
277.778473
20
232.425911
11
276.468033
21
231.516162
0
LINE
8
boundary
62
5
39
2
10
276.468033
20
231.516162
11
275.332128
21
230.807478
0
LINE
8
boundary
62
5
39
2
10
275.332128
20
230.807478
11
274.442818
21
232.558655
0
LINE
8
boundary
62
5
39
2
10
274.442818
20
232.558655
11
274.212698
21
233.112857
0
LINE
8
boundary
62
5
39
2
10
274.212698
20
233.112857
11
273.474962
21
234.889563
0
LINE
8
boundary
62
5
39
2
10
273.474962
20
234.889563
11
273.240179
21
235.579189
0
LINE
8
boundary
62
5
39
2
10
273.240179
20
235.579189
11
272.487492
21
237.790046
0
LINE
8
boundary
62
5
39
2
10
272.487492
20
237.790046
11
272.261956
21
238.612562
0
LINE
8
boundary
62
5
39
2
10
272.261956
20
238.612562
11
271.538913
21
241.249452
0
LINE
8
boundary
62
5
39
2
10
271.538913
20
241.249452
11
271.332751
21
242.200584
0
LINE
8
boundary
62
5
39
2
10
271.332751
20
242.200584
11
270.671818
21
245.249801
0
LINE
8
boundary
62
5
39
2
10
270.671818
20
245.249801
11
270.490367
21
246.325932
0
LINE
8
boundary
62
5
39
2
10
270.490367
20
246.325932
11
269.908656
21
249.775882
0
LINE
8
boundary
62
5
39
2
10
269.908656
20
249.775882
11
269.756972
21
250.973867
0
LINE
8
boundary
62
5
39
2
10
269.756972
20
250.973867
11
269.270692
21
254.814467
0
LINE
8
boundary
62
5
39
2
10
269.270692
20
254.814467
11
269.153833
21
256.131159
0
LINE
8
boundary
62
5
39
2
10
269.153833
20
256.131159
11
268.779197
21
260.352319
0
LINE
8
boundary
62
5
39
2
10
268.779197
20
260.352319
11
268.702221
21
261.784573
0
LINE
8
boundary
62
5
39
2
10
268.702221
20
261.784573
11
268.455444
21
266.376207
0
LINE
8
boundary
62
5
39
2
10
268.455444
20
266.376207
11
268.422153
21
267.921280
0
LINE
8
boundary
62
5
39
2
10
268.422153
20
267.921280
11
268.315427
21
272.874599
0
LINE
8
boundary
62
5
39
2
10
268.315427
20
272.874599
11
268.327604
21
274.530997
0
LINE
8
boundary
62
5
39
2
10
268.327604
20
274.530997
11
268.366644
21
279.841216
0
LINE
8
boundary
62
5
39
2
10
268.366644
20
279.841216
11
268.425987
21
281.607659
0
LINE
8
boundary
62
5
39
2
10
268.425987
20
281.607659
11
268.616232
21
287.270668
0
LINE
8
boundary
62
5
39
2
10
268.616232
20
287.270668
11
268.724449
21
289.145889
0
LINE
8
boundary
62
5
39
2
10
268.724449
20
289.145889
11
269.071377
21
295.157626
0
LINE
8
boundary
62
5
39
2
10
269.071377
20
295.157626
11
269.230150
21
297.140352
0
LINE
8
boundary
62
5
39
2
10
269.230150
20
297.140352
11
269.739159
21
303.496737
0
LINE
8
boundary
62
5
39
2
10
269.739159
20
303.496737
11
269.950198
21
305.585695
0
LINE
8
boundary
62
5
39
2
10
269.950198
20
305.585695
11
270.626762
21
312.282647
0
LINE
8
boundary
62
5
39
2
10
270.626762
20
312.282647
11
270.752351
21
313.366610
0
LINE
8
boundary
62
5
39
2
10
270.752351
20
313.366610
11
271.154973
21
316.841671
0
LINE
8
boundary
62
5
39
2
10
271.154973
20
316.841671
11
271.294821
21
317.970048
0
LINE
8
boundary
62
5
39
2
10
271.294821
20
317.970048
11
271.743158
21
321.587493
0
LINE
8
boundary
62
5
39
2
10
271.743158
20
321.587493
11
214.310343
21
321.587493
0
LINE
8
boundary
62
5
39
2
10
214.310343
20
321.587493
11
30.187511
21
321.587493
0
LINE
8
boundary
62
5
39
2
10
30.187511
20
321.587493
11
30.187511
21
309.699383
0
LINE
8
annotation
62
1
39
211
10
165.305340
20
81.335960
11
165.305340
21
255.590154
0
LINE
8
annotation
62
1
39
211
10
165.305340
20
255.590154
11
126.566401
21
216.840287
0
LINE
8
frame
62
5
39
2
10
0.000000
20
0.000000
11
500.000000
21
0.000000
0
LINE
8
frame
62
5
39
2
10
500.000000
20
0.000000
11
500.000000
21
400.000000
0
LINE
8
frame
62
5
39
2
10
500.000000
20
400.000000
11
0.000000
21
400.000000
0
LINE
8
frame
62
5
39
2
10
0.000000
20
400.000000
11
0.000000
21
0.000000
0
ENDSEC
0
EOF
