0
SECTION
2
HEADER
9
$ACADVER
1
AC1009
0
ENDSEC
0
SECTION
2
TABLES
0
TABLE
2
VPORT
70
1
0
VPORT
2
ACTIVE
70
0
10
0.0
20
0.0
11
0.0
21
0.0
12
0.0
22
0.0
13
0.0
23
0.0
14
0.0
24
0.0
15
0.0
25
0.0
16
0.0
26
0.0
36
0.0
17
0.0
27
0.0
37
0.0
40
0.0
41
0.0
42
0.0
43
0.0
44
0.0
50
0.0
51
0.0
71
0
72
1000
73
1
74
3
75
0
76
0
77
0
78
0
0
ENDTAB
0
ENDSEC
0
SECTION
2
ENTITIES
0
LINE
8
boundary
62
5
39
2
10
295.584676
20
321.587517
11
4.867217
21
321.587517
0
LINE
8
boundary
62
5
39
2
10
4.867217
20
321.587517
11
4.704250
21
320.223863
0
LINE
8
boundary
62
5
39
2
10
4.704250
20
320.223863
11
4.181794
21
315.852148
0
LINE
8
boundary
62
5
39
2
10
4.181794
20
315.852148
11
4.038167
21
314.523617
0
LINE
8
boundary
62
5
39
2
10
4.038167
20
314.523617
11
3.577713
21
310.264504
0
LINE
8
boundary
62
5
39
2
10
3.577713
20
310.264504
11
3.453367
21
308.971129
0
LINE
8
boundary
62
5
39
2
10
3.453367
20
308.971129
11
3.054731
21
304.824720
0
LINE
8
boundary
62
5
39
2
10
3.054731
20
304.824720
11
2.949582
21
303.566555
0
LINE
8
boundary
62
5
39
2
10
2.949582
20
303.566555
11
2.612486
21
299.533026
0
LINE
8
boundary
62
5
39
2
10
2.612486
20
299.533026
11
2.526395
21
298.310131
0
LINE
8
boundary
62
5
39
2
10
2.526395
20
298.310131
11
2.250395
21
294.389674
0
LINE
8
boundary
62
5
39
2
10
2.250395
20
294.389674
11
2.183184
21
293.202131
0
LINE
8
boundary
62
5
39
2
10
2.183184
20
293.202131
11
1.967709
21
289.395005
0
LINE
8
boundary
62
5
39
2
10
1.967709
20
289.395005
11
1.919203
21
288.242908
0
LINE
8
boundary
62
5
39
2
10
1.919203
20
288.242908
11
1.763700
21
284.549419
0
LINE
8
boundary
62
5
39
2
10
1.763700
20
284.549419
11
1.733647
21
283.432869
0
LINE
8
boundary
62
5
39
2
10
1.733647
20
283.432869
11
1.637303
21
279.853339
0
LINE
8
boundary
62
5
39
2
10
1.637303
20
279.853339
11
1.625462
21
278.772446
0
LINE
8
boundary
62
5
39
2
10
1.625462
20
278.772446
11
1.587500
21
275.307227
0
LINE
8
boundary
62
5
39
2
10
1.587500
20
275.307227
11
1.593588
21
274.262101
0
LINE
8
boundary
62
5
39
2
10
1.593588
20
274.262101
11
1.613104
21
270.911553
0
LINE
8
boundary
62
5
39
2
10
1.613104
20
270.911553
11
1.636786
21
269.902320
0
LINE
8
boundary
62
5
39
2
10
1.636786
20
269.902320
11
1.712710
21
266.666838
0
LINE
8
boundary
62
5
39
2
10
1.712710
20
266.666838
11
1.753683
21
265.693621
0
LINE
8
boundary
62
5
39
2
10
1.753683
20
265.693621
11
1.885035
21
262.573599
0
LINE
8
boundary
62
5
39
2
10
1.885035
20
262.573599
11
1.942929
21
261.636510
0
LINE
8
boundary
62
5
39
2
10
1.942929
20
261.636510
11
2.128528
21
258.632312
0
LINE
8
boundary
62
5
39
2
10
2.128528
20
258.632312
11
2.202962
21
257.731469
0
LINE
8
boundary
62
5
39
2
10
2.202962
20
257.731469
11
2.441590
21
254.843474
0
LINE
8
boundary
62
5
39
2
10
2.441590
20
254.843474
11
2.532179
21
253.978992
0
LINE
8
boundary
62
5
39
2
10
2.532179
20
253.978992
11
2.822599
21
251.207566
0
LINE
8
boundary
62
5
39
2
10
2.822599
20
251.207566
11
2.928917
21
250.379547
0
LINE
8
boundary
62
5
39
2
10
2.928917
20
250.379547
11
3.269761
21
247.725020
0
LINE
8
boundary
62
5
39
2
10
3.269761
20
247.725020
11
3.391394
21
246.933564
0
LINE
8
boundary
62
5
39
2
10
3.391394
20
246.933564
11
3.781334
21
244.396251
0
LINE
8
boundary
62
5
39
2
10
3.781334
20
244.396251
11
3.917826
21
243.641439
0
LINE
8
boundary
62
5
39
2
10
3.917826
20
243.641439
11
4.355403
21
241.221601
0
LINE
8
boundary
62
5
39
2
10
4.355403
20
241.221601
11
4.671167
21
239.822187
0
LINE
8
boundary
62
5
39
2
10
4.671167
20
239.822187
11
5.683471
21
235.335829
0
LINE
8
boundary
62
5
39
2
10
5.683471
20
235.335829
11
6.053102
21
234.083644
0
LINE
8
boundary
62
5
39
2
10
6.053102
20
234.083644
11
7.238100
21
230.069284
0
LINE
8
boundary
62
5
39
2
10
7.238100
20
230.069284
11
7.657752
21
228.964381
0
LINE
8
boundary
62
5
39
2
10
7.657752
20
228.964381
11
9.003108
21
225.422190
0
LINE
8
boundary
62
5
39
2
10
9.003108
20
225.422190
11
9.468830
21
224.464239
0
LINE
8
boundary
62
5
39
2
10
9.468830
20
224.464239
11
10.961879
21
221.393160
0
LINE
8
boundary
62
5
39
2
10
10.961879
20
221.393160
11
11.469742
21
220.581368
0
LINE
8
boundary
62
5
39
2
10
11.469742
20
220.581368
11
13.097892
21
217.978858
0
LINE
8
boundary
62
5
39
2
10
13.097892
20
217.978858
11
13.644012
21
217.311902
0
LINE
8
boundary
62
5
39
2
10
13.644012
20
217.311902
11
15.394809
21
215.173719
0
LINE
8
boundary
62
5
39
2
10
15.394809
20
215.173719
11
15.975367
21
214.649681
0
LINE
8
boundary
62
5
39
2
10
15.975367
20
214.649681
11
17.836568
21
212.969680
0
LINE
8
boundary
62
5
39
2
10
17.836568
20
212.969680
11
18.447940
21
212.585995
0
LINE
8
boundary
62
5
39
2
10
18.447940
20
212.585995
11
20.407923
21
211.355949
0
LINE
8
boundary
62
5
39
2
10
20.407923
20
211.355949
11
21.046634
21
211.109318
0
LINE
8
boundary
62
5
39
2
10
21.046634
20
211.109318
11
23.094266
21
210.318649
0
LINE
8
boundary
62
5
39
2
10
23.094266
20
210.318649
11
23.757115
21
210.205002
0
LINE
8
boundary
62
5
39
2
10
23.757115
20
210.205002
11
25.882129
21
209.840662
0
LINE
8
boundary
62
5
39
2
10
25.882129
20
209.840662
11
26.566221
21
209.855041
0
LINE
8
boundary
62
5
39
2
10
26.566221
20
209.855041
11
28.759339
21
209.901139
0
LINE
8
boundary
62
5
39
2
10
28.759339
20
209.901139
11
29.462123
21
210.037647
0
LINE
8
boundary
62
5
39
2
10
29.462123
20
210.037647
11
31.715167
21
210.475280
0
LINE
8
boundary
62
5
39
2
10
31.715167
20
210.475280
11
32.434558
21
210.726968
0
LINE
8
boundary
62
5
39
2
10
32.434558
20
210.726968
11
34.740842
21
211.533852
0
LINE
8
boundary
62
5
39
2
10
34.740842
20
211.533852
11
35.475214
21
211.892656
0
LINE
8
boundary
62
5
39
2
10
35.475214
20
211.892656
11
37.829522
21
213.042943
0
LINE
8
boundary
62
5
39
2
10
37.829522
20
213.042943
11
38.577734
21
213.499717
0
LINE
8
boundary
62
5
39
2
10
38.577734
20
213.499717
11
40.976411
21
214.964077
0
LINE
8
boundary
62
5
39
2
10
40.976411
20
214.964077
11
41.737759
21
215.508689
0
LINE
8
boundary
62
5
39
2
10
41.737759
20
215.508689
11
44.178553
21
217.254647
0
LINE
8
boundary
62
5
39
2
10
44.178553
20
217.254647
11
44.952745
21
217.876095
0
LINE
8
boundary
62
5
39
2
10
44.952745
20
217.876095
11
47.434714
21
219.868381
0
LINE
8
boundary
62
5
39
2
10
47.434714
20
219.868381
11
48.221763
21
220.554886
0
LINE
8
boundary
62
5
39
2
10
48.221763
20
220.554886
11
50.744953
21
222.755741
0
LINE
8
boundary
62
5
39
2
10
50.744953
20
222.755741
11
51.545202
21
223.494887
0
LINE
8
boundary
62
5
39
2
10
51.545202
20
223.494887
11
54.110711
21
225.864502
0
LINE
8
boundary
62
5
39
2
10
54.110711
20
225.864502
11
55.753117
21
227.448706
0
LINE
8
boundary
62
5
39
2
10
55.753117
20
227.448706
11
61.018477
21
232.527474
0
LINE
8
boundary
62
5
39
2
10
61.018477
20
232.527474
11
62.721748
21
234.163549
0
LINE
8
boundary
62
5
39
2
10
62.721748
20
234.163549
11
68.182236
21
239.408613
0
LINE
8
boundary
62
5
39
2
10
68.182236
20
239.408613
11
69.952457
21
240.988784
0
LINE
8
boundary
62
5
39
2
10
69.952457
20
240.988784
11
75.627578
21
246.054627
0
LINE
8
boundary
62
5
39
2
10
75.627578
20
246.054627
11
76.539334
21
246.790786
0
LINE
8
boundary
62
5
39
2
10
76.539334
20
246.790786
11
79.462313
21
249.150823
0
LINE
8
boundary
62
5
39
2
10
79.462313
20
249.150823
11
80.392282
21
249.834174
0
LINE
8
boundary
62
5
39
2
10
80.392282
20
249.834174
11
83.373654
21
252.024915
0
LINE
8
boundary
62
5
39
2
10
83.373654
20
252.024915
11
84.321865
21
252.643514
0
LINE
8
boundary
62
5
39
2
10
84.321865
20
252.643514
11
87.361722
21
254.626670
0
LINE
8
boundary
62
5
39
2
10
87.361722
20
254.626670
11
88.327840
21
255.169320
0
LINE
8
boundary
62
5
39
2
10
88.327840
20
255.169320
11
91.425100
21
256.908991
0
LINE
8
boundary
62
5
39
2
10
91.425100
20
256.908991
11
92.408346
21
257.365396
0
LINE
8
boundary
62
5
39
2
10
92.408346
20
257.365396
11
95.560518
21
258.828575
0
LINE
8
boundary
62
5
39
2
10
95.560518
20
258.828575
11
96.559635
21
259.189478
0
LINE
8
boundary
62
5
39
2
10
96.559635
20
259.189478
11
99.762685
21
260.346488
0
LINE
8
boundary
62
5
39
2
10
99.762685
20
260.346488
11
100.775840
21
260.603793
0
LINE
8
boundary
62
5
39
2
10
100.775840
20
260.603793
11
104.023895
21
261.428684
0
LINE
8
boundary
62
5
39
2
10
104.023895
20
261.428684
11
105.048715
21
261.575532
0
LINE
8
boundary
62
5
39
2
10
105.048715
20
261.575532
11
108.334170
21
262.046311
0
LINE
8
boundary
62
5
39
2
10
108.334170
20
262.046311
11
109.367670
21
262.077143
0
LINE
8
boundary
62
5
39
2
10
109.367670
20
262.077143
11
112.680948
21
262.175985
0
LINE
8
boundary
62
5
39
2
10
112.680948
20
262.175985
11
113.719563
21
262.086606
0
LINE
8
boundary
62
5
39
2
10
113.719563
20
262.086606
11
117.049238
21
261.800070
0
LINE
8
boundary
62
5
39
2
10
117.049238
20
261.800070
11
118.088790
21
261.587670
0
LINE
8
boundary
62
5
39
2
10
118.088790
20
261.587670
11
121.421470
21
260.906743
0
LINE
8
boundary
62
5
39
2
10
121.421470
20
260.906743
11
122.457296
21
260.569803
0
LINE
8
boundary
62
5
39
2
10
122.457296
20
260.569803
11
125.778029
21
259.489612
0
LINE
8
boundary
62
5
39
2
10
125.778029
20
259.489612
11
126.805036
21
259.027829
0
LINE
8
boundary
62
5
39
2
10
126.805036
20
259.027829
11
130.097497
21
257.547410
0
LINE
8
boundary
62
5
39
2
10
130.097497
20
257.547410
11
131.110258
21
256.961606
0
LINE
8
boundary
62
5
39
2
10
131.110258
20
256.961606
11
134.357048
21
255.083589
0
LINE
8
boundary
62
5
39
2
10
134.357048
20
255.083589
11
135.349892
21
254.375614
0
LINE
8
boundary
62
5
39
2
10
135.349892
20
254.375614
11
138.532829
21
252.105930
0
LINE
8
boundary
62
5
39
2
10
138.532829
20
252.105930
11
139.499883
21
251.278624
0
LINE
8
boundary
62
5
39
2
10
139.499883
20
251.278624
11
142.600143
21
248.626376
0
LINE
8
boundary
62
5
39
2
10
142.600143
20
248.626376
11
143.535419
21
247.683491
0
LINE
8
boundary
62
5
39
2
10
143.535419
20
247.683491
11
146.533800
21
244.660714
0
LINE
8
boundary
62
5
39
2
10
146.533800
20
244.660714
11
147.431258
21
243.606882
0
LINE
8
boundary
62
5
39
2
10
147.431258
20
243.606882
11
150.308400
21
240.228421
0
LINE
8
boundary
62
5
39
2
10
150.308400
20
240.228421
11
151.161996
21
239.069082
0
LINE
8
boundary
62
5
39
2
10
151.161996
20
239.069082
11
153.898521
21
235.352380
0
LINE
8
boundary
62
5
39
2
10
153.898521
20
235.352380
11
154.702285
21
234.093734
0
LINE
8
boundary
62
5
39
2
10
154.702285
20
234.093734
11
157.279056
21
230.058662
0
LINE
8
boundary
62
5
39
2
10
157.279056
20
230.058662
11
158.027175
21
228.707580
0
LINE
8
boundary
62
5
39
2
10
158.027175
20
228.707580
11
160.425554
21
224.376166
0
LINE
8
boundary
62
5
39
2
10
160.425554
20
224.376166
11
161.112421
21
222.940147
0
LINE
8
boundary
62
5
39
2
10
161.112421
20
222.940147
11
163.314435
21
218.336437
0
LINE
8
boundary
62
5
39
2
10
163.314435
20
218.336437
11
163.934744
21
216.823529
0
LINE
8
boundary
62
5
39
2
10
163.934744
20
216.823529
11
165.923381
21
211.973323
0
LINE
8
boundary
62
5
39
2
10
165.923381
20
211.973323
11
166.472189
21
210.392063
0
LINE
8
boundary
62
5
39
2
10
166.472189
20
210.392063
11
168.231603
21
205.322726
0
LINE
8
boundary
62
5
39
2
10
168.231603
20
205.322726
11
168.704396
21
203.682077
0
LINE
8
boundary
62
5
39
2
10
168.704396
20
203.682077
11
170.220112
21
198.422349
0
LINE
8
boundary
62
5
39
2
10
170.220112
20
198.422349
11
170.612898
21
196.731642
0
LINE
8
boundary
62
5
39
2
10
170.612898
20
196.731642
11
171.872124
21
191.311440
0
LINE
8
boundary
62
5
39
2
10
171.872124
20
191.311440
11
172.181438
21
189.580321
0
LINE
8
boundary
62
5
39
2
10
172.181438
20
189.580321
11
173.173062
21
184.030559
0
LINE
8
boundary
62
5
39
2
10
173.173062
20
184.030559
11
173.396116
21
182.268913
0
LINE
8
boundary
62
5
39
2
10
173.396116
20
182.268913
11
174.111199
21
176.621279
0
LINE
8
boundary
62
5
39
2
10
174.111199
20
176.621279
11
174.245896
21
174.839177
0
LINE
8
boundary
62
5
39
2
10
174.245896
20
174.839177
11
174.677719
21
169.125966
0
LINE
8
boundary
62
5
39
2
10
174.677719
20
169.125966
11
174.722770
21
167.333606
0
LINE
8
boundary
62
5
39
2
10
174.722770
20
167.333606
11
174.867200
21
161.587509
0
LINE
8
boundary
62
5
39
2
10
174.867200
20
161.587509
11
174.822148
21
159.795151
0
LINE
8
boundary
62
5
39
2
10
174.822148
20
159.795151
11
174.677719
21
154.049063
0
LINE
8
boundary
62
5
39
2
10
174.677719
20
154.049063
11
174.543022
21
152.266960
0
LINE
8
boundary
62
5
39
2
10
174.543022
20
152.266960
11
174.111199
21
146.553750
0
LINE
8
boundary
62
5
39
2
10
174.111199
20
146.553750
11
173.888145
21
144.792103
0
LINE
8
boundary
62
5
39
2
10
173.888145
20
144.792103
11
173.173062
21
139.144470
0
LINE
8
boundary
62
5
39
2
10
173.173062
20
139.144470
11
172.863748
21
137.413351
0
LINE
8
boundary
62
5
39
2
10
172.863748
20
137.413351
11
171.872124
21
131.863590
0
LINE
8
boundary
62
5
39
2
10
171.872124
20
131.863590
11
171.479338
21
130.172888
0
LINE
8
boundary
62
5
39
2
10
171.479338
20
130.172888
11
170.220112
21
124.752693
0
LINE
8
boundary
62
5
39
2
10
170.220112
20
124.752693
11
169.747319
21
123.112041
0
LINE
8
boundary
62
5
39
2
10
169.747319
20
123.112041
11
168.231604
21
117.852303
0
LINE
8
boundary
62
5
39
2
10
168.231604
20
117.852303
11
167.682796
21
116.271042
0
LINE
8
boundary
62
5
39
2
10
167.682796
20
116.271042
11
165.923381
21
111.201706
0
LINE
8
boundary
62
5
39
2
10
165.923381
20
111.201706
11
165.303072
21
109.688795
0
LINE
8
boundary
62
5
39
2
10
165.303072
20
109.688795
11
163.314435
21
104.838581
0
LINE
8
boundary
62
5
39
2
10
163.314435
20
104.838581
11
162.627568
21
103.402565
0
LINE
8
boundary
62
5
39
2
10
162.627568
20
103.402565
11
160.425554
21
98.798869
0
LINE
8
boundary
62
5
39
2
10
160.425554
20
98.798869
11
159.677436
21
97.447783
0
LINE
8
boundary
62
5
39
2
10
159.677436
20
97.447783
11
157.279057
21
93.116361
0
LINE
8
boundary
62
5
39
2
10
157.279057
20
93.116361
11
156.475293
21
91.857716
0
LINE
8
boundary
62
5
39
2
10
156.475293
20
91.857716
11
153.898521
21
87.822649
0
LINE
8
boundary
62
5
39
2
10
153.898521
20
87.822649
11
153.044926
21
86.663313
0
LINE
8
boundary
62
5
39
2
10
153.044926
20
86.663313
11
150.308400
21
82.946615
0
LINE
8
boundary
62
5
39
2
10
150.308400
20
82.946615
11
149.410942
21
81.892784
0
LINE
8
boundary
62
5
39
2
10
149.410942
20
81.892784
11
146.533801
21
78.514328
0
LINE
8
boundary
62
5
39
2
10
146.533801
20
78.514328
11
145.598526
21
77.571444
0
LINE
8
boundary
62
5
39
2
10
145.598526
20
77.571444
11
142.600144
21
74.548672
0
LINE
8
boundary
62
5
39
2
10
142.600144
20
74.548672
11
141.633089
21
73.721364
0
LINE
8
boundary
62
5
39
2
10
141.633089
20
73.721364
11
138.532829
21
71.069112
0
LINE
8
boundary
62
5
39
2
10
138.532829
20
71.069112
11
137.539986
21
70.361129
0
LINE
8
boundary
62
5
39
2
10
137.539986
20
70.361129
11
134.357049
21
68.091423
0
LINE
8
boundary
62
5
39
2
10
134.357049
20
68.091423
11
133.344287
21
67.505624
0
LINE
8
boundary
62
5
39
2
10
133.344287
20
67.505624
11
130.097497
21
65.627620
0
LINE
8
boundary
62
5
39
2
10
130.097497
20
65.627620
11
129.070491
21
65.165839
0
LINE
8
boundary
62
5
39
2
10
129.070491
20
65.165839
11
125.778030
21
63.685424
0
LINE
8
boundary
62
5
39
2
10
125.778030
20
63.685424
11
124.742205
21
63.348487
0
LINE
8
boundary
62
5
39
2
10
124.742205
20
63.348487
11
121.421470
21
62.268311
0
LINE
8
boundary
62
5
39
2
10
121.421470
20
62.268311
11
120.381919
21
62.055906
0
LINE
8
boundary
62
5
39
2
10
120.381919
20
62.055906
11
117.049238
21
61.374961
0
LINE
8
boundary
62
5
39
2
10
117.049238
20
61.374961
11
116.010624
21
61.285583
0
LINE
8
boundary
62
5
39
2
10
116.010624
20
61.285583
11
112.680949
21
60.999051
0
LINE
8
boundary
62
5
39
2
10
112.680949
20
60.999051
11
111.647449
21
61.029882
0
LINE
8
boundary
62
5
39
2
10
111.647449
20
61.029882
11
108.334170
21
61.128724
0
LINE
8
boundary
62
5
39
2
10
108.334170
20
61.128724
11
107.309349
21
61.275574
0
LINE
8
boundary
62
5
39
2
10
107.309349
20
61.275574
11
104.023895
21
61.746358
0
LINE
8
boundary
62
5
39
2
10
104.023895
20
61.746358
11
103.010740
21
62.003662
0
LINE
8
boundary
62
5
39
2
10
103.010740
20
62.003662
11
99.762685
21
62.828548
0
LINE
8
boundary
62
5
39
2
10
99.762685
20
62.828548
11
98.763568
21
63.189450
0
LINE
8
boundary
62
5
39
2
10
98.763568
20
63.189450
11
95.560519
21
64.346460
0
LINE
8
boundary
62
5
39
2
10
95.560519
20
64.346460
11
94.577272
21
64.802859
0
LINE
8
boundary
62
5
39
2
10
94.577272
20
64.802859
11
91.425100
21
66.266020
0
LINE
8
boundary
62
5
39
2
10
91.425100
20
66.266020
11
90.458982
21
66.808671
0
LINE
8
boundary
62
5
39
2
10
90.458982
20
66.808671
11
87.361722
21
68.548348
0
LINE
8
boundary
62
5
39
2
10
87.361722
20
68.548348
11
86.413509
21
69.166952
0
LINE
8
boundary
62
5
39
2
10
86.413509
20
69.166952
11
83.373653
21
71.150127
0
LINE
8
boundary
62
5
39
2
10
83.373653
20
71.150127
11
82.443684
21
71.833475
0
LINE
8
boundary
62
5
39
2
10
82.443684
20
71.833475
11
79.462313
21
74.024206
0
LINE
8
boundary
62
5
39
2
10
79.462313
20
74.024206
11
78.550558
21
74.760365
0
LINE
8
boundary
62
5
39
2
10
78.550558
20
74.760365
11
75.627578
21
77.120402
0
LINE
8
boundary
62
5
39
2
10
75.627578
20
77.120402
11
73.857357
21
78.700573
0
LINE
8
boundary
62
5
39
2
10
73.857357
20
78.700573
11
68.182236
21
83.766417
0
LINE
8
boundary
62
5
39
2
10
68.182236
20
83.766417
11
66.478964
21
85.402492
0
LINE
8
boundary
62
5
39
2
10
66.478964
20
85.402492
11
61.018477
21
90.647556
0
LINE
8
boundary
62
5
39
2
10
61.018477
20
90.647556
11
59.376072
21
92.231757
0
LINE
8
boundary
62
5
39
2
10
59.376072
20
92.231757
11
54.110711
21
97.310521
0
LINE
8
boundary
62
5
39
2
10
54.110711
20
97.310521
11
53.310461
21
98.049666
0
LINE
8
boundary
62
5
39
2
10
53.310461
20
98.049666
11
50.744952
21
100.419277
0
LINE
8
boundary
62
5
39
2
10
50.744952
20
100.419277
11
49.957902
21
101.105786
0
LINE
8
boundary
62
5
39
2
10
49.957902
20
101.105786
11
47.434713
21
103.306655
0
LINE
8
boundary
62
5
39
2
10
47.434713
20
103.306655
11
46.660521
21
103.928100
0
LINE
8
boundary
62
5
39
2
10
46.660521
20
103.928100
11
44.178553
21
105.920382
0
LINE
8
boundary
62
5
39
2
10
44.178553
20
105.920382
11
43.417204
21
106.464996
0
LINE
8
boundary
62
5
39
2
10
43.417204
20
106.464996
11
40.976411
21
108.210964
0
LINE
8
boundary
62
5
39
2
10
40.976411
20
108.210964
11
40.228199
21
108.667737
0
LINE
8
boundary
62
5
39
2
10
40.228199
20
108.667737
11
37.829522
21
110.132098
0
LINE
8
boundary
62
5
39
2
10
37.829522
20
110.132098
11
37.095150
21
110.490903
0
LINE
8
boundary
62
5
39
2
10
37.095150
20
110.490903
11
34.740842
21
111.641190
0
LINE
8
boundary
62
5
39
2
10
34.740842
20
111.641190
11
34.021450
21
111.892873
0
LINE
8
boundary
62
5
39
2
10
34.021450
20
111.892873
11
31.715166
21
112.699737
0
LINE
8
boundary
62
5
39
2
10
31.715166
20
112.699737
11
31.012383
21
112.836250
0
LINE
8
boundary
62
5
39
2
10
31.012383
20
112.836250
11
28.759339
21
113.273891
0
LINE
8
boundary
62
5
39
2
10
28.759339
20
113.273891
11
28.075247
21
113.288270
0
LINE
8
boundary
62
5
39
2
10
28.075247
20
113.288270
11
25.882129
21
113.334368
0
LINE
8
boundary
62
5
39
2
10
25.882129
20
113.334368
11
25.219281
21
113.220720
0
LINE
8
boundary
62
5
39
2
10
25.219281
20
113.220720
11
23.094266
21
112.856381
0
LINE
8
boundary
62
5
39
2
10
23.094266
20
112.856381
11
22.455555
21
112.609753
0
LINE
8
boundary
62
5
39
2
10
22.455555
20
112.609753
11
20.407923
21
111.819092
0
LINE
8
boundary
62
5
39
2
10
20.407923
20
111.819092
11
19.796552
21
111.435402
0
LINE
8
boundary
62
5
39
2
10
19.796552
20
111.435402
11
17.836569
21
110.205337
0
LINE
8
boundary
62
5
39
2
10
17.836569
20
110.205337
11
17.256010
21
109.681303
0
LINE
8
boundary
62
5
39
2
10
17.256010
20
109.681303
11
15.394809
21
108.001312
0
LINE
8
boundary
62
5
39
2
10
15.394809
20
108.001312
11
14.848689
21
107.334357
0
LINE
8
boundary
62
5
39
2
10
14.848689
20
107.334357
11
13.097892
21
105.196184
0
LINE
8
boundary
62
5
39
2
10
13.097892
20
105.196184
11
12.590029
21
104.384390
0
LINE
8
boundary
62
5
39
2
10
12.590029
20
104.384390
11
10.961879
21
101.781875
0
LINE
8
boundary
62
5
39
2
10
10.961879
20
101.781875
11
10.496157
21
100.823921
0
LINE
8
boundary
62
5
39
2
10
10.496157
20
100.823921
11
9.003108
21
97.752833
0
LINE
8
boundary
62
5
39
2
10
9.003108
20
97.752833
11
8.583456
21
96.647931
0
LINE
8
boundary
62
5
39
2
10
8.583456
20
96.647931
11
7.238099
21
93.105746
0
LINE
8
boundary
62
5
39
2
10
7.238099
20
93.105746
11
6.868467
21
91.853559
0
LINE
8
boundary
62
5
39
2
10
6.868467
20
91.853559
11
5.683471
21
87.839200
0
LINE
8
boundary
62
5
39
2
10
5.683471
20
87.839200
11
5.367706
21
86.439790
0
LINE
8
boundary
62
5
39
2
10
5.367706
20
86.439790
11
4.355403
21
81.953446
0
LINE
8
boundary
62
5
39
2
10
4.355403
20
81.953446
11
4.218911
21
81.198633
0
LINE
8
boundary
62
5
39
2
10
4.218911
20
81.198633
11
3.781334
21
78.778791
0
LINE
8
boundary
62
5
39
2
10
3.781334
20
78.778791
11
3.659701
21
77.987333
0
LINE
8
boundary
62
5
39
2
10
3.659701
20
77.987333
11
3.269761
21
75.450010
0
LINE
8
boundary
62
5
39
2
10
3.269761
20
75.450010
11
3.163443
21
74.621992
0
LINE
8
boundary
62
5
39
2
10
3.163443
20
74.621992
11
2.822599
21
71.967464
0
LINE
8
boundary
62
5
39
2
10
2.822599
20
71.967464
11
2.732009
21
71.102986
0
LINE
8
boundary
62
5
39
2
10
2.732009
20
71.102986
11
2.441590
21
68.331573
0
LINE
8
boundary
62
5
39
2
10
2.441590
20
68.331573
11
2.367155
21
67.430725
0
LINE
8
boundary
62
5
39
2
10
2.367155
20
67.430725
11
2.128528
21
64.542711
0
LINE
8
boundary
62
5
39
2
10
2.128528
20
64.542711
11
2.070634
21
63.605621
0
LINE
8
boundary
62
5
39
2
10
2.070634
20
63.605621
11
1.885035
21
60.601418
0
LINE
8
boundary
62
5
39
2
10
1.885035
20
60.601418
11
1.844062
21
59.628204
0
LINE
8
boundary
62
5
39
2
10
1.844062
20
59.628204
11
1.712710
21
56.508191
0
LINE
8
boundary
62
5
39
2
10
1.712710
20
56.508191
11
1.689028
21
55.498961
0
LINE
8
boundary
62
5
39
2
10
1.689028
20
55.498961
11
1.613103
21
52.263489
0
LINE
8
boundary
62
5
39
2
10
1.613103
20
52.263489
11
1.607016
21
51.218367
0
LINE
8
boundary
62
5
39
2
10
1.607016
20
51.218367
11
1.587500
21
47.867827
0
LINE
8
boundary
62
5
39
2
10
1.587500
20
47.867827
11
1.599341
21
46.786933
0
LINE
8
boundary
62
5
39
2
10
1.599341
20
46.786933
11
1.637303
21
43.321714
0
LINE
8
boundary
62
5
39
2
10
1.637303
20
43.321714
11
1.667355
21
42.205155
0
LINE
8
boundary
62
5
39
2
10
1.667355
20
42.205155
11
1.763700
21
38.625598
0
LINE
8
boundary
62
5
39
2
10
1.763700
20
38.625598
11
1.812206
21
37.473503
0
LINE
8
boundary
62
5
39
2
10
1.812206
20
37.473503
11
1.967709
21
33.780024
0
LINE
8
boundary
62
5
39
2
10
1.967709
20
33.780024
11
2.034921
21
32.592480
0
LINE
8
boundary
62
5
39
2
10
2.034921
20
32.592480
11
2.250395
21
28.785356
0
LINE
8
boundary
62
5
39
2
10
2.250395
20
28.785356
11
2.336487
21
27.562460
0
LINE
8
boundary
62
5
39
2
10
2.336487
20
27.562460
11
2.612486
21
23.642004
0
LINE
8
boundary
62
5
39
2
10
2.612486
20
23.642004
11
2.717635
21
22.383836
0
LINE
8
boundary
62
5
39
2
10
2.717635
20
22.383836
11
3.054731
21
18.350297
0
LINE
8
boundary
62
5
39
2
10
3.054731
20
18.350297
11
3.179077
21
17.056922
0
LINE
8
boundary
62
5
39
2
10
3.179077
20
17.056922
11
3.577713
21
12.910513
0
LINE
8
boundary
62
5
39
2
10
3.577713
20
12.910513
11
3.721340
21
11.581988
0
LINE
8
boundary
62
5
39
2
10
3.721340
20
11.581988
11
4.181794
21
7.322893
0
LINE
8
boundary
62
5
39
2
10
4.181794
20
7.322893
11
4.344761
21
5.959234
0
LINE
8
boundary
62
5
39
2
10
4.344761
20
5.959234
11
4.867217
21
1.587500
0
LINE
8
boundary
62
5
39
2
10
4.867217
20
1.587500
11
95.549734
21
1.587500
0
LINE
8
boundary
62
5
39
2
10
95.549734
20
1.587500
11
386.267193
21
1.587500
0
LINE
8
boundary
62
5
39
2
10
386.267193
20
1.587500
11
386.267193
21
13.475619
0
LINE
8
boundary
62
5
39
2
10
386.267193
20
13.475619
11
386.267193
21
51.587525
0
LINE
8
boundary
62
5
39
2
10
386.267193
20
51.587525
11
393.067193
21
48.021087
0
LINE
8
boundary
62
5
39
2
10
393.067193
20
48.021087
11
414.867191
21
36.587508
0
LINE
8
boundary
62
5
39
2
10
414.867191
20
36.587508
11
414.867192
21
53.230865
0
LINE
8
boundary
62
5
39
2
10
414.867192
20
53.230865
11
414.867192
21
106.587505
0
LINE
8
boundary
62
5
39
2
10
414.867192
20
106.587505
11
408.067191
21
103.021074
0
LINE
8
boundary
62
5
39
2
10
408.067191
20
103.021074
11
386.267193
21
91.587518
0
LINE
8
boundary
62
5
39
2
10
386.267193
20
91.587518
11
386.267193
21
103.475629
0
LINE
8
boundary
62
5
39
2
10
386.267193
20
103.475629
11
386.267193
21
141.587511
0
LINE
8
boundary
62
5
39
2
10
386.267193
20
141.587511
11
393.067192
21
138.021078
0
LINE
8
boundary
62
5
39
2
10
393.067192
20
138.021078
11
414.867191
21
126.587513
0
LINE
8
boundary
62
5
39
2
10
414.867191
20
126.587513
11
414.867191
21
143.230872
0
LINE
8
boundary
62
5
39
2
10
414.867191
20
143.230872
11
414.867192
21
196.587516
0
LINE
8
boundary
62
5
39
2
10
414.867192
20
196.587516
11
408.067191
21
193.021083
0
LINE
8
boundary
62
5
39
2
10
408.067191
20
193.021083
11
386.267193
21
181.587519
0
LINE
8
boundary
62
5
39
2
10
386.267193
20
181.587519
11
386.267193
21
193.475630
0
LINE
8
boundary
62
5
39
2
10
386.267193
20
193.475630
11
386.267192
21
231.587512
0
LINE
8
boundary
62
5
39
2
10
386.267192
20
231.587512
11
393.067193
21
228.021078
0
LINE
8
boundary
62
5
39
2
10
393.067193
20
228.021078
11
414.867191
21
216.587513
0
LINE
8
boundary
62
5
39
2
10
414.867191
20
216.587513
11
414.867191
21
233.230873
0
LINE
8
boundary
62
5
39
2
10
414.867191
20
233.230873
11
414.867191
21
286.587522
0
LINE
8
boundary
62
5
39
2
10
414.867191
20
286.587522
11
408.067191
21
283.021084
0
LINE
8
boundary
62
5
39
2
10
408.067191
20
283.021084
11
386.267193
21
271.587504
0
LINE
8
boundary
62
5
39
2
10
386.267193
20
271.587504
11
386.267193
21
283.475620
0
LINE
8
boundary
62
5
39
2
10
386.267193
20
283.475620
11
386.267193
21
321.587517
0
LINE
8
boundary
62
5
39
2
10
386.267193
20
321.587517
11
295.584676
21
321.587517
0
LINE
8
annotation
62
1
39
211
10
299.097596
20
72.310168
11
299.097596
21
250.864849
0
LINE
8
annotation
62
1
39
211
10
299.097596
20
250.864849
11
259.402604
21
211.158659
0
LINE
8
frame
62
5
39
2
10
0.000000
20
0.000000
11
500.000000
21
0.000000
0
LINE
8
frame
62
5
39
2
10
500.000000
20
0.000000
11
500.000000
21
400.000000
0
LINE
8
frame
62
5
39
2
10
500.000000
20
400.000000
11
0.000000
21
400.000000
0
LINE
8
frame
62
5
39
2
10
0.000000
20
400.000000
11
0.000000
21
0.000000
0
ENDSEC
0
EOF
